  0
SECTION
  2
HEADER
  9
$ACADVER
  1
AC1015
  9
$ACADMAINTVER
 70
     6
  9
$DWGCODEPAGE
  3
ANSI_1252
  9
$INSBASE
 10
0.0
 20
0.0
 30
0.0
  9
$EXTMIN
 10
-4.245141253347623
 20
-0.0512623138499748
 30
0.0
  9
$EXTMAX
 10
5.028474963290712
 20
36.81440040663446
 30
0.0
  9
$LIMMIN
 10
0.0
 20
0.0
  9
$LIMMAX
 10
40.0
 20
52.5
  9
$ORTHOMODE
 70
     1
  9
$REGENMODE
 70
     1
  9
$FILLMODE
 70
     1
  9
$QTEXTMODE
 70
     0
  9
$MIRRTEXT
 70
     0
  9
$LTSCALE
 40
0.5
  9
$ATTMODE
 70
     1
  9
$TEXTSIZE
 40
0.45
  9
$TRACEWID
 40
0.05
  9
$TEXTSTYLE
  7
STANDARD
  9
$CLAYER
  8
0
  9
$CELTYPE
  6
ByLayer
  9
$CECOLOR
 62
   256
  9
$CELTSCALE
 40
1.0
  9
$DISPSILH
 70
     0
  9
$DIMSCALE
 40
5.0
  9
$DIMASZ
 40
0.125
  9
$DIMEXO
 40
0.062
  9
$DIMDLI
 40
0.375
  9
$DIMRND
 40
0.0
  9
$DIMDLE
 40
0.0
  9
$DIMEXE
 40
0.08
  9
$DIMTP
 40
0.0
  9
$DIMTM
 40
0.0
  9
$DIMTXT
 40
0.09
  9
$DIMCEN
 40
-0.06
  9
$DIMTSZ
 40
0.0
  9
$DIMTOL
 70
     0
  9
$DIMLIM
 70
     0
  9
$DIMTIH
 70
     1
  9
$DIMTOH
 70
     1
  9
$DIMSE1
 70
     0
  9
$DIMSE2
 70
     0
  9
$DIMTAD
 70
     0
  9
$DIMZIN
 70
     0
  9
$DIMBLK
  1

  9
$DIMASO
 70
     0
  9
$DIMSHO
 70
     0
  9
$DIMPOST
  1

  9
$DIMAPOST
  1

  9
$DIMALT
 70
     0
  9
$DIMALTD
 70
     2
  9
$DIMALTF
 40
25.4
  9
$DIMLFAC
 40
1.0
  9
$DIMTOFL
 70
     0
  9
$DIMTVP
 40
0.0
  9
$DIMTIX
 70
     0
  9
$DIMSOXD
 70
     0
  9
$DIMSAH
 70
     0
  9
$DIMBLK1
  1

  9
$DIMBLK2
  1

  9
$DIMSTYLE
  2
Standard
  9
$DIMCLRD
 70
     0
  9
$DIMCLRE
 70
     0
  9
$DIMCLRT
 70
     0
  9
$DIMTFAC
 40
1.0
  9
$DIMGAP
 40
0.09
  9
$DIMJUST
 70
     0
  9
$DIMSD1
 70
     0
  9
$DIMSD2
 70
     0
  9
$DIMTOLJ
 70
     1
  9
$DIMTZIN
 70
     0
  9
$DIMALTZ
 70
     0
  9
$DIMALTTZ
 70
     0
  9
$DIMUPT
 70
     0
  9
$DIMDEC
 70
     4
  9
$DIMTDEC
 70
     4
  9
$DIMALTU
 70
     2
  9
$DIMALTTD
 70
     2
  9
$DIMTXSTY
  7
STANDARD
  9
$DIMAUNIT
 70
     0
  9
$DIMADEC
 70
     0
  9
$DIMALTRND
 40
0.0
  9
$DIMAZIN
 70
     0
  9
$DIMDSEP
 70
    46
  9
$DIMATFIT
 70
     3
  9
$DIMFRAC
 70
     0
  9
$DIMLDRBLK
  1

  9
$DIMLUNIT
 70
     2
  9
$DIMLWD
 70
    -2
  9
$DIMLWE
 70
    -2
  9
$DIMTMOVE
 70
     2
  9
$LUNITS
 70
     2
  9
$LUPREC
 70
     4
  9
$SKETCHINC
 40
0.1
  9
$FILLETRAD
 40
0.0
  9
$AUNITS
 70
     0
  9
$AUPREC
 70
     0
  9
$MENU
  1
simpson
  9
$ELEVATION
 40
0.0
  9
$PELEVATION
 40
0.0
  9
$THICKNESS
 40
0.0
  9
$LIMCHECK
 70
     0
  9
$CHAMFERA
 40
0.0
  9
$CHAMFERB
 40
0.0
  9
$CHAMFERC
 40
0.0
  9
$CHAMFERD
 40
0.0
  9
$SKPOLY
 70
     0
  9
$TDCREATE
 40
2450765.888183565
  9
$TDUCREATE
 40
2450766.221516898
  9
$TDUPDATE
 40
2454160.686617211
  9
$TDUUPDATE
 40
2454161.019950544
  9
$TDINDWG
 40
0.0280870139
  9
$TDUSRTIMER
 40
0.0280870139
  9
$USRTIMER
 70
     1
  9
$ANGBASE
 50
0.0
  9
$ANGDIR
 70
     0
  9
$PDMODE
 70
     0
  9
$PDSIZE
 40
0.0
  9
$PLINEWID
 40
0.0
  9
$SPLFRAME
 70
     0
  9
$SPLINETYPE
 70
     6
  9
$SPLINESEGS
 70
     8
  9
$HANDSEED
  5
11F
  9
$SURFTAB1
 70
     6
  9
$SURFTAB2
 70
     6
  9
$SURFTYPE
 70
     6
  9
$SURFU
 70
     6
  9
$SURFV
 70
     6
  9
$UCSBASE
  2

  9
$UCSNAME
  2

  9
$UCSORG
 10
0.0
 20
0.0
 30
0.0
  9
$UCSXDIR
 10
1.0
 20
0.0
 30
0.0
  9
$UCSYDIR
 10
0.0
 20
1.0
 30
0.0
  9
$UCSORTHOREF
  2

  9
$UCSORTHOVIEW
 70
     0
  9
$UCSORGTOP
 10
0.0
 20
0.0
 30
0.0
  9
$UCSORGBOTTOM
 10
0.0
 20
0.0
 30
0.0
  9
$UCSORGLEFT
 10
0.0
 20
0.0
 30
0.0
  9
$UCSORGRIGHT
 10
0.0
 20
0.0
 30
0.0
  9
$UCSORGFRONT
 10
0.0
 20
0.0
 30
0.0
  9
$UCSORGBACK
 10
0.0
 20
0.0
 30
0.0
  9
$PUCSBASE
  2

  9
$PUCSNAME
  2

  9
$PUCSORG
 10
0.0
 20
0.0
 30
0.0
  9
$PUCSXDIR
 10
1.0
 20
0.0
 30
0.0
  9
$PUCSYDIR
 10
0.0
 20
1.0
 30
0.0
  9
$PUCSORTHOREF
  2

  9
$PUCSORTHOVIEW
 70
     0
  9
$PUCSORGTOP
 10
0.0
 20
0.0
 30
0.0
  9
$PUCSORGBOTTOM
 10
0.0
 20
0.0
 30
0.0
  9
$PUCSORGLEFT
 10
0.0
 20
0.0
 30
0.0
  9
$PUCSORGRIGHT
 10
0.0
 20
0.0
 30
0.0
  9
$PUCSORGFRONT
 10
0.0
 20
0.0
 30
0.0
  9
$PUCSORGBACK
 10
0.0
 20
0.0
 30
0.0
  9
$USERI1
 70
     0
  9
$USERI2
 70
     0
  9
$USERI3
 70
     0
  9
$USERI4
 70
     0
  9
$USERI5
 70
     0
  9
$USERR1
 40
0.0
  9
$USERR2
 40
0.0
  9
$USERR3
 40
0.0
  9
$USERR4
 40
0.0
  9
$USERR5
 40
0.0
  9
$WORLDVIEW
 70
     1
  9
$SHADEDGE
 70
     3
  9
$SHADEDIF
 70
    70
  9
$TILEMODE
 70
     1
  9
$MAXACTVP
 70
    16
  9
$PINSBASE
 10
0.0
 20
0.0
 30
0.0
  9
$PLIMCHECK
 70
     0
  9
$PEXTMIN
 10
1.000000000000000E+20
 20
1.000000000000000E+20
 30
1.000000000000000E+20
  9
$PEXTMAX
 10
-1.000000000000000E+20
 20
-1.000000000000000E+20
 30
-1.000000000000000E+20
  9
$PLIMMIN
 10
0.0
 20
0.0
  9
$PLIMMAX
 10
12.0
 20
9.0
  9
$UNITMODE
 70
     0
  9
$VISRETAIN
 70
     0
  9
$PLINEGEN
 70
     0
  9
$PSLTSCALE
 70
     0
  9
$TREEDEPTH
 70
  3020
  9
$CMLSTYLE
  2
Standard
  9
$CMLJUST
 70
     0
  9
$CMLSCALE
 40
1.0
  9
$PROXYGRAPHICS
 70
     1
  9
$MEASUREMENT
 70
     0
  9
$CELWEIGHT
370
    -1
  9
$ENDCAPS
280
     0
  9
$JOINSTYLE
280
     0
  9
$LWDISPLAY
290
     0
  9
$INSUNITS
 70
     0
  9
$HYPERLINKBASE
  1

  9
$STYLESHEET
  1

  9
$XEDIT
290
     1
  9
$CEPSNTYPE
380
     0
  9
$PSTYLEMODE
290
     1
  9
$FINGERPRINTGUID
  2
{55566965-70E1-4338-BD17-50C4FFA11D44}
  9
$VERSIONGUID
  2
{476C9211-117F-476F-B483-0AB2F2DB1A32}
  9
$EXTNAMES
290
     1
  9
$PSVPSCALE
 40
0.0
  9
$OLESTARTUP
290
     0
  0
ENDSEC
  0
SECTION
  2
CLASSES
  0
CLASS
  1
ACDBDICTIONARYWDFLT
  2
AcDbDictionaryWithDefault
  3
AutoCAD 2000
 90
        0
280
     0
281
     0
  0
CLASS
  1
ACDBPLACEHOLDER
  2
AcDbPlaceHolder
  3
ObjectDBX Classes
 90
        0
280
     0
281
     0
  0
CLASS
  1
LAYOUT
  2
AcDbLayout
  3
ObjectDBX Classes
 90
        0
280
     0
281
     0
  0
CLASS
  1
DICTIONARYVAR
  2
AcDbDictionaryVar
  3
AutoCAD 2000
 90
        0
280
     0
281
     0
  0
CLASS
  1
LONG_TRANSACTION
  2
AcDbLongTransaction
  3
ObjectDBX Classes
 90
   -65536
280
     1
281
     0
  0
CLASS
  1
LWPOLYLINE
  2
AcDbPolyline
  3
AutoCAD 2000
 90
        0
280
     0
281
     1
  0
CLASS
  1
HATCH
  2
AcDbHatch
  3
AutoCAD 2000
 90
        0
280
     0
281
     1
  0
CLASS
  1
XRECORD
  2
AcDbXrecord
  3
AutoCAD 2000
 90
        0
280
     0
281
     0
  0
CLASS
  1
TABLESTYLE
  2
AcDbTableStyle
  3
ObjectDBX Classes
 90
     2047
280
     1
281
     0
  0
ENDSEC
  0
SECTION
  2
TABLES
  0
TABLE
  2
VPORT
  5
1D
330
0
100
AcDbSymbolTable
 70
     2
  0
VPORT
  5
110
330
1D
100
AcDbSymbolTableRecord
100
AcDbViewportTableRecord
  2
*Active
 70
     0
 10
0.0
 20
0.0
 11
1.0
 21
1.0
 12
17.87689213393827
 22
24.9099178621164
 13
0.0
 23
0.0
 14
0.063
 24
0.063
 15
0.25
 25
0.25
 16
0.0
 26
0.0
 36
1.0
 17
0.0
 27
0.0
 37
0.0
 40
56.66139373253543
 41
1.814583333333333
 42
50.0
 43
0.0
 44
0.0
 50
0.0
 51
0.0
 71
     0
 72
   100
 73
     1
 74
     0
 75
     0
 76
     0
 77
     0
 78
     0
281
     0
 65
     1
110
0.0
120
0.0
130
0.0
111
1.0
121
0.0
131
0.0
112
0.0
122
1.0
132
0.0
 79
     0
146
0.0
  0
ENDTAB
  0
TABLE
  2
LTYPE
  5
18
330
0
100
AcDbSymbolTable
 70
     1
  0
LTYPE
  5
19
330
18
100
AcDbSymbolTableRecord
100
AcDbLinetypeTableRecord
  2
ByBlock
 70
     0
  3

 72
    65
 73
     0
 40
0.0
  0
LTYPE
  5
1A
330
18
100
AcDbSymbolTableRecord
100
AcDbLinetypeTableRecord
  2
ByLayer
 70
     0
  3

 72
    65
 73
     0
 40
0.0
  0
LTYPE
  5
A
330
18
100
AcDbSymbolTableRecord
100
AcDbLinetypeTableRecord
  2
CONTINUOUS
 70
     0
  3
Solid line
 72
    65
 73
     0
 40
0.0
  0
ENDTAB
  0
TABLE
  2
LAYER
  5
14
330
0
100
AcDbSymbolTable
 70
     2
  0
LAYER
  5
6
330
14
100
AcDbSymbolTableRecord
100
AcDbLayerTableRecord
  2
0
 70
     0
 62
     7
  6
CONTINUOUS
370
    -3
390
7
  0
ENDTAB
  0
TABLE
  2
STYLE
  5
15
330
0
100
AcDbSymbolTable
 70
     1
  0
STYLE
  5
16
330
15
100
AcDbSymbolTableRecord
100
AcDbTextStyleTableRecord
  2
STANDARD
 70
     0
 40
0.0
 41
1.0
 50
0.0
 71
     0
 42
0.45
  3
TXT
  4

  0
ENDTAB
  0
TABLE
  2
VIEW
  5
1B
330
0
100
AcDbSymbolTable
 70
     0
  0
ENDTAB
  0
TABLE
  2
UCS
  5
1C
330
0
100
AcDbSymbolTable
 70
     0
  0
ENDTAB
  0
TABLE
  2
APPID
  5
1F
330
0
100
AcDbSymbolTable
 70
     1
  0
APPID
  5
20
330
1F
100
AcDbSymbolTableRecord
100
AcDbRegAppTableRecord
  2
ACAD
 70
     0
  0
ENDTAB
  0
TABLE
  2
DIMSTYLE
  5
21
330
0
100
AcDbSymbolTable
 70
     1
100
AcDbDimStyleTable
  0
DIMSTYLE
105
28
330
21
100
AcDbSymbolTableRecord
100
AcDbDimStyleTableRecord
  2
Standard
 70
     0
  3

  4

340
16
  0
ENDTAB
  0
TABLE
  2
BLOCK_RECORD
  5
1
330
0
100
AcDbSymbolTable
 70
     0
  0
BLOCK_RECORD
  5
2
330
1
100
AcDbSymbolTableRecord
100
AcDbBlockTableRecord
  2
*Model_Space
340
C
  0
BLOCK_RECORD
  5
E
330
1
100
AcDbSymbolTableRecord
100
AcDbBlockTableRecord
  2
*Paper_Space
340
13
  0
ENDTAB
  0
ENDSEC
  0
SECTION
  2
BLOCKS
  0
BLOCK
  5
5
330
2
100
AcDbEntity
  8
0
100
AcDbBlockBegin
  2
*Model_Space
 70
     0
 10
0.0
 20
0.0
 30
0.0
  3
*Model_Space
  1

  4

  0
ENDBLK
  5
B
330
2
100
AcDbEntity
  8
0
100
AcDbBlockEnd
  0
BLOCK
  5
11
330
E
100
AcDbEntity
 67
     1
  8
0
100
AcDbBlockBegin
  2
*Paper_Space
 70
     0
 10
0.0
 20
0.0
 30
0.0
  3
*Paper_Space
  1

  4

  0
ENDBLK
  5
12
330
E
100
AcDbEntity
 67
     1
  8
0
100
AcDbBlockEnd
  0
ENDSEC
  0
SECTION
  2
ENTITIES
  0
LINE
  5
29
330
2
100
AcDbEntity
  8
0
100
AcDbLine
 10
0.158441606002242
 20
25.30806921901498
 30
0.0
 11
2.157120042743781
 21
8.738197949174236
 31
0.0
  0
LINE
  5
2A
330
2
100
AcDbEntity
  8
0
100
AcDbLine
 10
-0.7222194101093358
 20
25.29681518889652
 30
0.0
 11
1.265767007281184
 21
8.752414566498267
 31
0.0
  0
ARC
  5
2B
330
2
100
AcDbEntity
  8
0
100
AcDbCircle
 10
2.840974963290712
 20
2.136237686150025
 30
0.0
 40
2.1875
100
AcDbArc
 50
95.9999975509087
 51
276.0
  0
LINE
  5
2C
330
2
100
AcDbEntity
  8
0
100
AcDbLine
 10
3.376169299854325
 20
0.8564470863716274
 30
0.0
 11
3.499999999999993
 21
0.0000000000000036
 31
0.0
  0
LINE
  5
2D
330
2
100
AcDbEntity
  8
0
100
AcDbLine
 10
3.0696309766887
 20
-0.0392789599680725
 30
0.0
 11
3.5
 21
0.0
 31
0.0
  0
ARC
  5
2E
330
2
100
AcDbEntity
  8
0
100
AcDbCircle
 10
2.840974963290712
 20
2.136237686150025
 30
0.0
 40
1.3125
100
AcDbArc
 50
95.99999591818119
 51
276.0
  0
ARC
  5
2F
330
2
100
AcDbEntity
  8
0
100
AcDbCircle
 10
3.441283653399282
 20
8.981070579896258
 30
0.0
 40
2.1875
100
AcDbArc
 50
186.0
 51
253.9756871629578
  0
ARC
  5
30
330
2
100
AcDbEntity
  8
0
100
AcDbCircle
 10
3.336074425236021
 20
8.880404889941364
 30
0.0
 40
1.1875
100
AcDbArc
 50
186.8778600358282
 51
255.2207248616733
  0
ARC
  5
31
330
2
100
AcDbEntity
  8
0
100
AcDbCircle
 10
2.475125341853925
 20
5.617064319938976
 30
0.0
 40
2.1875
100
AcDbArc
 50
275.999997172033
 51
75.22072486167329
  0
ARC
  5
32
330
2
100
AcDbEntity
  8
0
100
AcDbCircle
 10
2.475125341853925
 20
5.617064319938976
 30
0.0
 40
1.3125
100
AcDbArc
 50
276.0
 51
73.97568716295783
  0
LINE
  5
33
330
2
100
AcDbEntity
  8
0
100
AcDbLine
 10
2.978168571329505
 20
0.8309276984791651
 30
0.0
 11
3.376169299854325
 21
0.8564470863716274
 31
0.0
  0
LINE
  5
34
330
2
100
AcDbEntity
  8
0
100
AcDbLine
 10
0.158441606002242
 20
32.395817436656
 30
0.0
 11
0.158441606002242
 21
36.79681518889651
 31
0.0
  0
LINE
  5
35
330
2
100
AcDbEntity
  8
0
100
AcDbLine
 10
-0.7222194101093322
 20
32.15515104531651
 30
0.0
 11
-0.7222194101093322
 21
36.79681518889651
 31
0.0
  0
ARC
  5
36
330
2
100
AcDbEntity
  8
0
100
AcDbCircle
 10
0.033441606002242
 20
33.01927668273994
 30
0.0
 40
0.125
100
AcDbArc
 50
278.5972491996499
 51
0.0
  0
LINE
  5
37
330
2
100
AcDbEntity
  8
0
100
AcDbLine
 10
-0.6159053941793644
 20
32.91968355372611
 30
0.0
 11
0.0521275900722742
 21
33.02068123784274
 31
0.0
  0
ARC
  5
38
330
2
100
AcDbEntity
  8
0
100
AcDbCircle
 10
-0.5972194101093322
 20
32.79608810882892
 30
0.0
 40
0.125
100
AcDbArc
 50
98.59724919965019
 51
180.0
  0
ARC
  5
39
330
2
100
AcDbEntity
  8
0
100
AcDbCircle
 10
-0.5972194101093322
 20
32.92108810882892
 30
0.0
 40
0.125
100
AcDbArc
 50
98.59724919965019
 51
180.0
  0
ARC
  5
3A
330
2
100
AcDbEntity
  8
0
100
AcDbCircle
 10
0.158441606002242
 20
28.8042598059937
 30
0.0
 40
0.03125
100
AcDbArc
 50
89.99999999999999
 51
180.0
  0
ARC
  5
3B
330
2
100
AcDbEntity
  8
0
100
AcDbCircle
 10
-0.7222194101093322
 20
28.8042598059937
 30
0.0
 40
0.03125
100
AcDbArc
 50
0.0
 51
90.0
  0
LINE
  5
3C
330
2
100
AcDbEntity
  8
0
100
AcDbLine
 10
-0.7191017166866374
 20
28.7730098059937
 30
0.0
 11
0.1613157721985772
 21
28.7730098059937
 31
0.0
  0
LINE
  5
3D
330
2
100
AcDbEntity
  8
0
100
AcDbLine
 10
-0.7222194101093322
 20
25.29681518889651
 30
0.0
 11
-0.7222194101093322
 21
28.77281234013579
 31
0.0
  0
LINE
  5
3E
330
2
100
AcDbEntity
  8
0
100
AcDbLine
 10
-0.7187112765978085
 20
28.7730098059937
 30
0.0
 11
-0.6909694101093322
 21
28.7730098059937
 31
0.0
  0
ARC
  5
3F
330
2
100
AcDbEntity
  8
0
100
AcDbCircle
 10
-0.722218786218825
 20
28.80406234012956
 30
0.0
 40
0.03125
100
AcDbArc
 50
269.9988561186258
 51
0.3620491490063159
  0
LINE
  5
40
330
2
100
AcDbEntity
  8
0
100
AcDbLine
 10
0.158441606002242
 20
25.30806921901498
 30
0.0
 11
0.158441606002242
 21
28.77282266978292
 31
0.0
  0
ARC
  5
41
330
2
100
AcDbEntity
  8
0
100
AcDbCircle
 10
0.1578860241451316
 20
28.80352095212843
 30
0.0
 40
0.0307033094334272
100
AcDbArc
 50
178.6210836616931
 51
276.4136761785993
  0
LINE
  5
42
330
2
100
AcDbEntity
  8
0
100
AcDbLine
 10
-0.6909694101093322
 20
28.8355098059937
 30
0.0
 11
0.158441606002242
 21
28.8355098059937
 31
0.0
  0
ARC
  5
43
330
2
100
AcDbEntity
  8
0
100
AcDbCircle
 10
-0.5972194101093322
 20
32.29608810882892
 30
0.0
 40
0.125
100
AcDbArc
 50
98.59724919965019
 51
180.0
  0
LINE
  5
44
330
2
100
AcDbEntity
  8
0
100
AcDbLine
 10
0.158441606002242
 20
30.29683783305695
 30
0.0
 11
-0.7222194101093322
 21
30.29683783305695
 31
0.0
  0
ARC
  5
45
330
2
100
AcDbEntity
  8
0
100
AcDbCircle
 10
-0.5972194101093322
 20
32.04762886274498
 30
0.0
 40
0.125
100
AcDbArc
 50
98.59724919965019
 51
180.0
  0
ARC
  5
46
330
2
100
AcDbEntity
  8
0
100
AcDbCircle
 10
-0.5972194101093322
 20
31.92262886274498
 30
0.0
 40
0.125
100
AcDbArc
 50
98.59724919965019
 51
180.0
  0
ARC
  5
47
330
2
100
AcDbEntity
  8
0
100
AcDbCircle
 10
-0.5972194101093322
 20
31.79762886274498
 30
0.0
 40
0.125
100
AcDbArc
 50
98.59724919965019
 51
180.0
  0
ARC
  5
48
330
2
100
AcDbEntity
  8
0
100
AcDbCircle
 10
-0.5972194101093322
 20
31.67262886274498
 30
0.0
 40
0.125
100
AcDbArc
 50
98.59724919965019
 51
180.0
  0
ARC
  5
49
330
2
100
AcDbEntity
  8
0
100
AcDbCircle
 10
-0.5972194101093322
 20
31.54762886274498
 30
0.0
 40
0.125
100
AcDbArc
 50
98.59724919965019
 51
180.0
  0
ARC
  5
4A
330
2
100
AcDbEntity
  8
0
100
AcDbCircle
 10
-0.5972194101093322
 20
31.42262886274498
 30
0.0
 40
0.125
100
AcDbArc
 50
98.59724919965019
 51
180.0
  0
ARC
  5
4B
330
2
100
AcDbEntity
  8
0
100
AcDbCircle
 10
-0.5972194101093322
 20
31.29762886274498
 30
0.0
 40
0.125
100
AcDbArc
 50
98.59724919965019
 51
180.0
  0
ARC
  5
4C
330
2
100
AcDbEntity
  8
0
100
AcDbCircle
 10
-0.5972194101093322
 20
31.17262886274498
 30
0.0
 40
0.125
100
AcDbArc
 50
98.59724919965019
 51
180.0
  0
ARC
  5
4D
330
2
100
AcDbEntity
  8
0
100
AcDbCircle
 10
-0.5972194101093322
 20
31.04762886274498
 30
0.0
 40
0.125
100
AcDbArc
 50
98.59724919965019
 51
180.0
  0
ARC
  5
4E
330
2
100
AcDbEntity
  8
0
100
AcDbCircle
 10
-0.5972194101093322
 20
30.92262886274498
 30
0.0
 40
0.125
100
AcDbArc
 50
98.59724919965019
 51
180.0
  0
ARC
  5
4F
330
2
100
AcDbEntity
  8
0
100
AcDbCircle
 10
-0.5972194101093322
 20
30.79762886274498
 30
0.0
 40
0.125
100
AcDbArc
 50
98.59724919965019
 51
180.0
  0
ARC
  5
50
330
2
100
AcDbEntity
  8
0
100
AcDbCircle
 10
-0.5972194101093322
 20
30.67262886274498
 30
0.0
 40
0.125
100
AcDbArc
 50
98.59724919965019
 51
180.0
  0
ARC
  5
51
330
2
100
AcDbEntity
  8
0
100
AcDbCircle
 10
-0.5972194101093322
 20
30.54762886274498
 30
0.0
 40
0.125
100
AcDbArc
 50
98.59724919965019
 51
180.0
  0
ARC
  5
52
330
2
100
AcDbEntity
  8
0
100
AcDbCircle
 10
-0.5972194101093322
 20
30.42262886274498
 30
0.0
 40
0.125
100
AcDbArc
 50
98.59724919965019
 51
180.0
  0
ARC
  5
53
330
2
100
AcDbEntity
  8
0
100
AcDbCircle
 10
-0.5972194101093322
 20
30.29762886274498
 30
0.0
 40
0.125
100
AcDbArc
 50
98.59724919965019
 51
180.0
  0
ARC
  5
54
330
2
100
AcDbEntity
  8
0
100
AcDbCircle
 10
-0.5972194101093322
 20
32.17262886274498
 30
0.0
 40
0.125
100
AcDbArc
 50
98.59724919965019
 51
180.0
  0
ARC
  5
55
330
2
100
AcDbEntity
  8
0
100
AcDbCircle
 10
-0.5972194101093322
 20
32.42108810882892
 30
0.0
 40
0.125
100
AcDbArc
 50
98.59724919965019
 51
180.0
  0
ARC
  5
56
330
2
100
AcDbEntity
  8
0
100
AcDbCircle
 10
-0.5972194101093322
 20
32.54608810882892
 30
0.0
 40
0.125
100
AcDbArc
 50
98.59724919965019
 51
180.0
  0
ARC
  5
57
330
2
100
AcDbEntity
  8
0
100
AcDbCircle
 10
-0.5972194101093322
 20
32.67108810882892
 30
0.0
 40
0.125
100
AcDbArc
 50
98.59724919965019
 51
180.0
  0
LINE
  5
58
330
2
100
AcDbEntity
  8
0
100
AcDbLine
 10
-0.7222194101093322
 20
28.8355098059937
 30
0.0
 11
-0.7222194101093322
 21
32.04762886274498
 31
0.0
  0
LINE
  5
59
330
2
100
AcDbEntity
  8
0
100
AcDbLine
 10
-0.7222194101093322
 20
30.79762886274498
 30
0.0
 11
-0.7222194101093322
 21
30.90515104531651
 31
0.0
  0
LINE
  5
5A
330
2
100
AcDbEntity
  8
0
100
AcDbLine
 10
-0.7222194101093322
 20
28.8355098059937
 30
0.0
 11
-0.6909694101093322
 21
28.8355098059937
 31
0.0
  0
LINE
  5
5B
330
2
100
AcDbEntity
  8
0
100
AcDbLine
 10
-0.7222194101093322
 20
30.67262886274498
 30
0.0
 11
-0.7222194101093322
 21
30.78015104531651
 31
0.0
  0
LINE
  5
5C
330
2
100
AcDbEntity
  8
0
100
AcDbLine
 10
-0.7222194101093322
 20
30.54762886274498
 30
0.0
 11
-0.7222194101093322
 21
30.65515104531651
 31
0.0
  0
LINE
  5
5D
330
2
100
AcDbEntity
  8
0
100
AcDbLine
 10
-0.7222194101093322
 20
30.42262886274498
 30
0.0
 11
-0.7222194101093322
 21
30.53015104531652
 31
0.0
  0
LINE
  5
5E
330
2
100
AcDbEntity
  8
0
100
AcDbLine
 10
-0.7222194101093322
 20
30.29762886274498
 30
0.0
 11
-0.7222194101093322
 21
30.40515104531652
 31
0.0
  0
LINE
  5
5F
330
2
100
AcDbEntity
  8
0
100
AcDbLine
 10
-0.7222194101093322
 20
30.17262886274498
 30
0.0
 11
-0.7222194101093322
 21
30.28015104531652
 31
0.0
  0
LINE
  5
60
330
2
100
AcDbEntity
  8
0
100
AcDbLine
 10
-0.7222194101093322
 20
31.79762886274498
 30
0.0
 11
-0.7222194101093322
 21
31.90515104531651
 31
0.0
  0
LINE
  5
61
330
2
100
AcDbEntity
  8
0
100
AcDbLine
 10
-0.7222194101093322
 20
31.67262886274498
 30
0.0
 11
-0.7222194101093322
 21
31.78015104531651
 31
0.0
  0
LINE
  5
62
330
2
100
AcDbEntity
  8
0
100
AcDbLine
 10
-0.7222194101093322
 20
31.54762886274498
 30
0.0
 11
-0.7222194101093322
 21
31.65515104531651
 31
0.0
  0
LINE
  5
63
330
2
100
AcDbEntity
  8
0
100
AcDbLine
 10
-0.7222194101093322
 20
31.42262886274498
 30
0.0
 11
-0.7222194101093322
 21
31.53015104531651
 31
0.0
  0
LINE
  5
64
330
2
100
AcDbEntity
  8
0
100
AcDbLine
 10
-0.7222194101093322
 20
31.29762886274498
 30
0.0
 11
-0.7222194101093322
 21
31.40515104531651
 31
0.0
  0
LINE
  5
65
330
2
100
AcDbEntity
  8
0
100
AcDbLine
 10
-0.7222194101093322
 20
31.17262886274498
 30
0.0
 11
-0.7222194101093322
 21
31.28015104531651
 31
0.0
  0
LINE
  5
66
330
2
100
AcDbEntity
  8
0
100
AcDbLine
 10
-0.7222194101093322
 20
31.04762886274498
 30
0.0
 11
-0.7222194101093322
 21
31.15515104531651
 31
0.0
  0
LINE
  5
67
330
2
100
AcDbEntity
  8
0
100
AcDbLine
 10
-0.7222194101093322
 20
30.92262886274498
 30
0.0
 11
-0.7222194101093322
 21
31.03015104531651
 31
0.0
  0
LINE
  5
68
330
2
100
AcDbEntity
  8
0
100
AcDbLine
 10
-0.7222194101093322
 20
32.04762886274498
 30
0.0
 11
-0.7222194101093322
 21
32.15515104531651
 31
0.0
  0
LINE
  5
69
330
2
100
AcDbEntity
  8
0
100
AcDbLine
 10
-0.7222194101093322
 20
31.92262886274498
 30
0.0
 11
-0.7222194101093322
 21
32.03015104531651
 31
0.0
  0
LINE
  5
6A
330
2
100
AcDbEntity
  8
0
100
AcDbLine
 10
0.158441606002242
 20
28.8355098059937
 30
0.0
 11
0.158441606002242
 21
32.28829525408445
 31
0.0
  0
ARC
  5
6B
330
2
100
AcDbEntity
  8
0
100
AcDbCircle
 10
0.033441606002242
 20
31.020817436656
 30
0.0
 40
0.125
100
AcDbArc
 50
278.5972491996499
 51
0.0
  0
LINE
  5
6C
330
2
100
AcDbEntity
  8
0
100
AcDbLine
 10
-0.6159053941793644
 20
30.79622430764217
 30
0.0
 11
0.0521275900722742
 21
30.89722199175881
 31
0.0
  0
LINE
  5
6D
330
2
100
AcDbEntity
  8
0
100
AcDbLine
 10
0.158441606002242
 20
30.78829525408445
 30
0.0
 11
0.158441606002242
 21
30.895817436656
 31
0.0
  0
ARC
  5
6E
330
2
100
AcDbEntity
  8
0
100
AcDbCircle
 10
0.033441606002242
 20
30.895817436656
 30
0.0
 40
0.125
100
AcDbArc
 50
278.5972491996499
 51
0.0
  0
LINE
  5
6F
330
2
100
AcDbEntity
  8
0
100
AcDbLine
 10
-0.6159053941793644
 20
30.67122430764217
 30
0.0
 11
0.0521275900722742
 21
30.77222199175881
 31
0.0
  0
LINE
  5
70
330
2
100
AcDbEntity
  8
0
100
AcDbLine
 10
-0.6159053941793644
 20
30.54622430764217
 30
0.0
 11
0.0521275900722742
 21
30.64722199175881
 31
0.0
  0
LINE
  5
71
330
2
100
AcDbEntity
  8
0
100
AcDbLine
 10
-0.6159053941793644
 20
30.42122430764217
 30
0.0
 11
0.0521275900722742
 21
30.52222199175881
 31
0.0
  0
LINE
  5
72
330
2
100
AcDbEntity
  8
0
100
AcDbLine
 10
-0.6159053941793644
 20
30.29622430764217
 30
0.0
 11
0.0521275900722742
 21
30.39722199175881
 31
0.0
  0
LINE
  5
73
330
2
100
AcDbEntity
  8
0
100
AcDbLine
 10
0.158441606002242
 20
30.66329525408445
 30
0.0
 11
0.158441606002242
 21
30.770817436656
 31
0.0
  0
ARC
  5
74
330
2
100
AcDbEntity
  8
0
100
AcDbCircle
 10
0.033441606002242
 20
30.770817436656
 30
0.0
 40
0.125
100
AcDbArc
 50
278.5972491996499
 51
0.0
  0
LINE
  5
75
330
2
100
AcDbEntity
  8
0
100
AcDbLine
 10
0.158441606002242
 20
30.53829525408445
 30
0.0
 11
0.158441606002242
 21
30.645817436656
 31
0.0
  0
ARC
  5
76
330
2
100
AcDbEntity
  8
0
100
AcDbCircle
 10
0.033441606002242
 20
30.645817436656
 30
0.0
 40
0.125
100
AcDbArc
 50
278.5972491996499
 51
0.0
  0
LINE
  5
77
330
2
100
AcDbEntity
  8
0
100
AcDbLine
 10
0.158441606002242
 20
30.41329525408445
 30
0.0
 11
0.158441606002242
 21
30.520817436656
 31
0.0
  0
ARC
  5
78
330
2
100
AcDbEntity
  8
0
100
AcDbCircle
 10
0.033441606002242
 20
30.520817436656
 30
0.0
 40
0.125
100
AcDbArc
 50
278.5972491996499
 51
0.0
  0
LINE
  5
79
330
2
100
AcDbEntity
  8
0
100
AcDbLine
 10
0.158441606002242
 20
30.28829525408445
 30
0.0
 11
0.158441606002242
 21
30.395817436656
 31
0.0
  0
LINE
  5
7A
330
2
100
AcDbEntity
  8
0
100
AcDbLine
 10
0.158441606002242
 20
30.16329525408445
 30
0.0
 11
0.158441606002242
 21
30.270817436656
 31
0.0
  0
ARC
  5
7B
330
2
100
AcDbEntity
  8
0
100
AcDbCircle
 10
0.033441606002242
 20
32.020817436656
 30
0.0
 40
0.125
100
AcDbArc
 50
278.5972491996499
 51
0.0
  0
LINE
  5
7C
330
2
100
AcDbEntity
  8
0
100
AcDbLine
 10
-0.6159053941793644
 20
31.79622430764217
 30
0.0
 11
0.0521275900722742
 21
31.89722199175881
 31
0.0
  0
LINE
  5
7D
330
2
100
AcDbEntity
  8
0
100
AcDbLine
 10
-0.6159053941793644
 20
31.67122430764217
 30
0.0
 11
0.0521275900722742
 21
31.77222199175881
 31
0.0
  0
LINE
  5
7E
330
2
100
AcDbEntity
  8
0
100
AcDbLine
 10
-0.6159053941793644
 20
31.54622430764217
 30
0.0
 11
0.0521275900722742
 21
31.64722199175881
 31
0.0
  0
LINE
  5
7F
330
2
100
AcDbEntity
  8
0
100
AcDbLine
 10
-0.6159053941793644
 20
31.42122430764217
 30
0.0
 11
0.0521275900722742
 21
31.52222199175881
 31
0.0
  0
LINE
  5
80
330
2
100
AcDbEntity
  8
0
100
AcDbLine
 10
-0.6159053941793644
 20
31.29622430764217
 30
0.0
 11
0.0521275900722742
 21
31.39722199175881
 31
0.0
  0
LINE
  5
81
330
2
100
AcDbEntity
  8
0
100
AcDbLine
 10
-0.6159053941793644
 20
31.17122430764217
 30
0.0
 11
0.0521275900722742
 21
31.27222199175881
 31
0.0
  0
LINE
  5
82
330
2
100
AcDbEntity
  8
0
100
AcDbLine
 10
-0.6159053941793644
 20
31.04622430764217
 30
0.0
 11
0.0521275900722742
 21
31.14722199175881
 31
0.0
  0
LINE
  5
83
330
2
100
AcDbEntity
  8
0
100
AcDbLine
 10
-0.6159053941793644
 20
30.92122430764217
 30
0.0
 11
0.0521275900722742
 21
31.02222199175881
 31
0.0
  0
LINE
  5
84
330
2
100
AcDbEntity
  8
0
100
AcDbLine
 10
0.158441606002242
 20
31.78829525408445
 30
0.0
 11
0.158441606002242
 21
31.895817436656
 31
0.0
  0
ARC
  5
85
330
2
100
AcDbEntity
  8
0
100
AcDbCircle
 10
0.033441606002242
 20
31.895817436656
 30
0.0
 40
0.125
100
AcDbArc
 50
278.5972491996499
 51
0.0
  0
LINE
  5
86
330
2
100
AcDbEntity
  8
0
100
AcDbLine
 10
0.158441606002242
 20
31.66329525408445
 30
0.0
 11
0.158441606002242
 21
31.770817436656
 31
0.0
  0
ARC
  5
87
330
2
100
AcDbEntity
  8
0
100
AcDbCircle
 10
0.033441606002242
 20
31.770817436656
 30
0.0
 40
0.125
100
AcDbArc
 50
278.5972491996499
 51
0.0
  0
LINE
  5
88
330
2
100
AcDbEntity
  8
0
100
AcDbLine
 10
0.158441606002242
 20
31.53829525408445
 30
0.0
 11
0.158441606002242
 21
31.645817436656
 31
0.0
  0
ARC
  5
89
330
2
100
AcDbEntity
  8
0
100
AcDbCircle
 10
0.033441606002242
 20
31.645817436656
 30
0.0
 40
0.125
100
AcDbArc
 50
278.5972491996499
 51
0.0
  0
LINE
  5
8A
330
2
100
AcDbEntity
  8
0
100
AcDbLine
 10
0.158441606002242
 20
31.41329525408445
 30
0.0
 11
0.158441606002242
 21
31.520817436656
 31
0.0
  0
ARC
  5
8B
330
2
100
AcDbEntity
  8
0
100
AcDbCircle
 10
0.033441606002242
 20
31.520817436656
 30
0.0
 40
0.125
100
AcDbArc
 50
278.5972491996499
 51
0.0
  0
LINE
  5
8C
330
2
100
AcDbEntity
  8
0
100
AcDbLine
 10
0.158441606002242
 20
31.28829525408445
 30
0.0
 11
0.158441606002242
 21
31.395817436656
 31
0.0
  0
ARC
  5
8D
330
2
100
AcDbEntity
  8
0
100
AcDbCircle
 10
0.033441606002242
 20
31.395817436656
 30
0.0
 40
0.125
100
AcDbArc
 50
278.5972491996499
 51
0.0
  0
LINE
  5
8E
330
2
100
AcDbEntity
  8
0
100
AcDbLine
 10
0.158441606002242
 20
31.16329525408445
 30
0.0
 11
0.158441606002242
 21
31.270817436656
 31
0.0
  0
ARC
  5
8F
330
2
100
AcDbEntity
  8
0
100
AcDbCircle
 10
0.033441606002242
 20
31.270817436656
 30
0.0
 40
0.125
100
AcDbArc
 50
278.5972491996499
 51
0.0
  0
LINE
  5
90
330
2
100
AcDbEntity
  8
0
100
AcDbLine
 10
0.158441606002242
 20
31.03829525408445
 30
0.0
 11
0.158441606002242
 21
31.145817436656
 31
0.0
  0
ARC
  5
91
330
2
100
AcDbEntity
  8
0
100
AcDbCircle
 10
0.033441606002242
 20
31.145817436656
 30
0.0
 40
0.125
100
AcDbArc
 50
278.5972491996499
 51
0.0
  0
LINE
  5
92
330
2
100
AcDbEntity
  8
0
100
AcDbLine
 10
0.158441606002242
 20
30.91329525408445
 30
0.0
 11
0.158441606002242
 21
31.020817436656
 31
0.0
  0
LINE
  5
93
330
2
100
AcDbEntity
  8
0
100
AcDbLine
 10
-0.6159053941793644
 20
32.41968355372611
 30
0.0
 11
0.0521275900722742
 21
32.52068123784274
 31
0.0
  0
LINE
  5
94
330
2
100
AcDbEntity
  8
0
100
AcDbLine
 10
-0.6159053941793644
 20
32.17122430764217
 30
0.0
 11
0.0521275900722742
 21
32.27222199175881
 31
0.0
  0
LINE
  5
95
330
2
100
AcDbEntity
  8
0
100
AcDbLine
 10
-0.6159053941793644
 20
32.04622430764217
 30
0.0
 11
0.0521275900722742
 21
32.14722199175881
 31
0.0
  0
LINE
  5
96
330
2
100
AcDbEntity
  8
0
100
AcDbLine
 10
-0.6159053941793644
 20
31.92122430764217
 30
0.0
 11
0.0521275900722742
 21
32.02222199175881
 31
0.0
  0
LINE
  5
97
330
2
100
AcDbEntity
  8
0
100
AcDbLine
 10
-0.6159053941793644
 20
32.29622430764217
 30
0.0
 11
0.0521275900722742
 21
32.39722199175881
 31
0.0
  0
LINE
  5
98
330
2
100
AcDbEntity
  8
0
100
AcDbLine
 10
-0.6159053941793644
 20
32.54468355372611
 30
0.0
 11
0.0521275900722742
 21
32.64568123784274
 31
0.0
  0
LINE
  5
99
330
2
100
AcDbEntity
  8
0
100
AcDbLine
 10
-0.6159053941793644
 20
32.66968355372611
 30
0.0
 11
0.0521275900722742
 21
32.77068123784274
 31
0.0
  0
LINE
  5
9A
330
2
100
AcDbEntity
  8
0
100
AcDbLine
 10
-0.6159053941793644
 20
32.79468355372611
 30
0.0
 11
0.0521275900722742
 21
32.89568123784274
 31
0.0
  0
ARC
  5
9B
330
2
100
AcDbEntity
  8
0
100
AcDbCircle
 10
0.033441606002242
 20
32.64427668273994
 30
0.0
 40
0.125
100
AcDbArc
 50
278.5972491996499
 51
0.0
  0
ARC
  5
9C
330
2
100
AcDbEntity
  8
0
100
AcDbCircle
 10
0.033441606002242
 20
32.395817436656
 30
0.0
 40
0.125
100
AcDbArc
 50
278.5972491996499
 51
0.0
  0
LINE
  5
9D
330
2
100
AcDbEntity
  8
0
100
AcDbLine
 10
0.158441606002242
 20
32.28829525408445
 30
0.0
 11
0.158441606002242
 21
32.395817436656
 31
0.0
  0
LINE
  5
9E
330
2
100
AcDbEntity
  8
0
100
AcDbLine
 10
0.158441606002242
 20
32.16329525408445
 30
0.0
 11
0.158441606002242
 21
32.270817436656
 31
0.0
  0
ARC
  5
9F
330
2
100
AcDbEntity
  8
0
100
AcDbCircle
 10
0.033441606002242
 20
32.270817436656
 30
0.0
 40
0.125
100
AcDbArc
 50
278.5972491996499
 51
0.0
  0
LINE
  5
A0
330
2
100
AcDbEntity
  8
0
100
AcDbLine
 10
0.158441606002242
 20
32.03829525408445
 30
0.0
 11
0.158441606002242
 21
32.145817436656
 31
0.0
  0
ARC
  5
A1
330
2
100
AcDbEntity
  8
0
100
AcDbCircle
 10
0.033441606002242
 20
32.145817436656
 30
0.0
 40
0.125
100
AcDbArc
 50
278.5972491996499
 51
0.0
  0
LINE
  5
A2
330
2
100
AcDbEntity
  8
0
100
AcDbLine
 10
0.158441606002242
 20
31.91329525408445
 30
0.0
 11
0.158441606002242
 21
32.020817436656
 31
0.0
  0
ARC
  5
A3
330
2
100
AcDbEntity
  8
0
100
AcDbCircle
 10
0.033441606002242
 20
32.520817436656
 30
0.0
 40
0.125
100
AcDbArc
 50
278.5972491996499
 51
0.0
  0
ARC
  5
A4
330
2
100
AcDbEntity
  8
0
100
AcDbCircle
 10
0.033441606002242
 20
32.76927668273994
 30
0.0
 40
0.125
100
AcDbArc
 50
278.5972491996499
 51
0.0
  0
ARC
  5
A5
330
2
100
AcDbEntity
  8
0
100
AcDbCircle
 10
0.033441606002242
 20
32.89427668273994
 30
0.0
 40
0.125
100
AcDbArc
 50
278.5972491996499
 51
0.0
  0
ARC
  5
A6
330
2
100
AcDbEntity
  8
0
100
AcDbCircle
 10
-0.5972194101093322
 20
36.67108810882892
 30
0.0
 40
0.125
100
AcDbArc
 50
98.59724919965019
 51
180.0
  0
ARC
  5
A7
330
2
100
AcDbEntity
  8
0
100
AcDbCircle
 10
-0.5972194101093322
 20
36.54608810882892
 30
0.0
 40
0.125
100
AcDbArc
 50
98.59724919965019
 51
180.0
  0
ARC
  5
A8
330
2
100
AcDbEntity
  8
0
100
AcDbCircle
 10
-0.5972194101093322
 20
36.42108810882892
 30
0.0
 40
0.125
100
AcDbArc
 50
98.59724919965019
 51
180.0
  0
ARC
  5
A9
330
2
100
AcDbEntity
  8
0
100
AcDbCircle
 10
-0.5972194101093322
 20
36.29608810882892
 30
0.0
 40
0.125
100
AcDbArc
 50
98.59724919965019
 51
180.0
  0
ARC
  5
AA
330
2
100
AcDbEntity
  8
0
100
AcDbCircle
 10
-0.5972194101093322
 20
36.17108810882892
 30
0.0
 40
0.125
100
AcDbArc
 50
98.59724919965019
 51
180.0
  0
ARC
  5
AB
330
2
100
AcDbEntity
  8
0
100
AcDbCircle
 10
-0.5972194101093322
 20
36.04608810882892
 30
0.0
 40
0.125
100
AcDbArc
 50
98.59724919965019
 51
180.0
  0
ARC
  5
AC
330
2
100
AcDbEntity
  8
0
100
AcDbCircle
 10
-0.5972194101093322
 20
35.92108810882892
 30
0.0
 40
0.125
100
AcDbArc
 50
98.59724919965019
 51
180.0
  0
ARC
  5
AD
330
2
100
AcDbEntity
  8
0
100
AcDbCircle
 10
-0.5972194101093322
 20
35.79608810882892
 30
0.0
 40
0.125
100
AcDbArc
 50
98.59724919965019
 51
180.0
  0
ARC
  5
AE
330
2
100
AcDbEntity
  8
0
100
AcDbCircle
 10
-0.5972194101093322
 20
35.67108810882892
 30
0.0
 40
0.125
100
AcDbArc
 50
98.59724919965019
 51
180.0
  0
ARC
  5
AF
330
2
100
AcDbEntity
  8
0
100
AcDbCircle
 10
-0.5972194101093322
 20
35.54608810882892
 30
0.0
 40
0.125
100
AcDbArc
 50
98.59724919965019
 51
180.0
  0
ARC
  5
B0
330
2
100
AcDbEntity
  8
0
100
AcDbCircle
 10
-0.5972194101093322
 20
35.42108810882892
 30
0.0
 40
0.125
100
AcDbArc
 50
98.59724919965019
 51
180.0
  0
ARC
  5
B1
330
2
100
AcDbEntity
  8
0
100
AcDbCircle
 10
-0.5972194101093322
 20
35.29608810882892
 30
0.0
 40
0.125
100
AcDbArc
 50
98.59724919965019
 51
180.0
  0
ARC
  5
B2
330
2
100
AcDbEntity
  8
0
100
AcDbCircle
 10
-0.5972194101093322
 20
35.17108810882892
 30
0.0
 40
0.125
100
AcDbArc
 50
98.59724919965019
 51
180.0
  0
ARC
  5
B3
330
2
100
AcDbEntity
  8
0
100
AcDbCircle
 10
-0.5972194101093322
 20
35.04608810882892
 30
0.0
 40
0.125
100
AcDbArc
 50
98.59724919965019
 51
180.0
  0
ARC
  5
B4
330
2
100
AcDbEntity
  8
0
100
AcDbCircle
 10
-0.5972194101093322
 20
34.92108810882892
 30
0.0
 40
0.125
100
AcDbArc
 50
98.59724919965019
 51
180.0
  0
ARC
  5
B5
330
2
100
AcDbEntity
  8
0
100
AcDbCircle
 10
-0.5972194101093322
 20
34.79608810882892
 30
0.0
 40
0.125
100
AcDbArc
 50
98.59724919965019
 51
180.0
  0
ARC
  5
B6
330
2
100
AcDbEntity
  8
0
100
AcDbCircle
 10
-0.5972194101093322
 20
34.67108810882892
 30
0.0
 40
0.125
100
AcDbArc
 50
98.59724919965019
 51
180.0
  0
ARC
  5
B7
330
2
100
AcDbEntity
  8
0
100
AcDbCircle
 10
-0.5972194101093322
 20
34.54608810882892
 30
0.0
 40
0.125
100
AcDbArc
 50
98.59724919965019
 51
180.0
  0
LINE
  5
B8
330
2
100
AcDbEntity
  8
0
100
AcDbLine
 10
-0.7222194101093322
 20
36.79681518889651
 30
0.0
 11
0.158441606002242
 21
36.79681518889651
 31
0.0
  0
ARC
  5
B9
330
2
100
AcDbEntity
  8
0
100
AcDbCircle
 10
-0.5972194101093322
 20
33.04608810882892
 30
0.0
 40
0.125
100
AcDbArc
 50
98.59724919965019
 51
180.0
  0
ARC
  5
BA
330
2
100
AcDbEntity
  8
0
100
AcDbCircle
 10
-0.5972194101093322
 20
33.17108810882892
 30
0.0
 40
0.125
100
AcDbArc
 50
98.59724919965019
 51
180.0
  0
ARC
  5
BB
330
2
100
AcDbEntity
  8
0
100
AcDbCircle
 10
-0.5972194101093322
 20
33.29608810882892
 30
0.0
 40
0.125
100
AcDbArc
 50
98.59724919965019
 51
180.0
  0
ARC
  5
BC
330
2
100
AcDbEntity
  8
0
100
AcDbCircle
 10
-0.5972194101093322
 20
33.42108810882892
 30
0.0
 40
0.125
100
AcDbArc
 50
98.59724919965019
 51
180.0
  0
ARC
  5
BD
330
2
100
AcDbEntity
  8
0
100
AcDbCircle
 10
-0.5972194101093322
 20
33.54608810882892
 30
0.0
 40
0.125
100
AcDbArc
 50
98.59724919965019
 51
180.0
  0
ARC
  5
BE
330
2
100
AcDbEntity
  8
0
100
AcDbCircle
 10
-0.5972194101093322
 20
33.67108810882892
 30
0.0
 40
0.125
100
AcDbArc
 50
98.59724919965019
 51
180.0
  0
ARC
  5
BF
330
2
100
AcDbEntity
  8
0
100
AcDbCircle
 10
-0.5972194101093322
 20
33.79608810882892
 30
0.0
 40
0.125
100
AcDbArc
 50
98.59724919965019
 51
180.0
  0
ARC
  5
C0
330
2
100
AcDbEntity
  8
0
100
AcDbCircle
 10
-0.5972194101093322
 20
33.92108810882892
 30
0.0
 40
0.125
100
AcDbArc
 50
98.59724919965019
 51
180.0
  0
ARC
  5
C1
330
2
100
AcDbEntity
  8
0
100
AcDbCircle
 10
-0.5972194101093322
 20
34.04608810882892
 30
0.0
 40
0.125
100
AcDbArc
 50
98.59724919965019
 51
180.0
  0
ARC
  5
C2
330
2
100
AcDbEntity
  8
0
100
AcDbCircle
 10
-0.5972194101093322
 20
34.17108810882892
 30
0.0
 40
0.125
100
AcDbArc
 50
98.59724919965019
 51
180.0
  0
ARC
  5
C3
330
2
100
AcDbEntity
  8
0
100
AcDbCircle
 10
-0.5972194101093322
 20
34.29608810882892
 30
0.0
 40
0.125
100
AcDbArc
 50
98.59724919965019
 51
180.0
  0
ARC
  5
C4
330
2
100
AcDbEntity
  8
0
100
AcDbCircle
 10
-0.5972194101093322
 20
34.42108810882892
 30
0.0
 40
0.125
100
AcDbArc
 50
98.59724919965019
 51
180.0
  0
LINE
  5
C5
330
2
100
AcDbEntity
  8
0
100
AcDbLine
 10
-0.6159053941793644
 20
34.91968355372611
 30
0.0
 11
0.0521275900722742
 21
35.02068123784274
 31
0.0
  0
ARC
  5
C6
330
2
100
AcDbEntity
  8
0
100
AcDbCircle
 10
0.033441606002242
 20
35.01927668273994
 30
0.0
 40
0.125
100
AcDbArc
 50
278.5972491996499
 51
0.0
  0
ARC
  5
C7
330
2
100
AcDbEntity
  8
0
100
AcDbCircle
 10
0.033441606002242
 20
34.01927668273994
 30
0.0
 40
0.125
100
AcDbArc
 50
278.5972491996499
 51
0.0
  0
LINE
  5
C8
330
2
100
AcDbEntity
  8
0
100
AcDbLine
 10
-0.6159053941793644
 20
33.91968355372611
 30
0.0
 11
0.0521275900722742
 21
34.02068123784274
 31
0.0
  0
LINE
  5
C9
330
2
100
AcDbEntity
  8
0
100
AcDbLine
 10
-0.6159053941793644
 20
33.04468355372611
 30
0.0
 11
0.0521275900722742
 21
33.14568123784274
 31
0.0
  0
LINE
  5
CA
330
2
100
AcDbEntity
  8
0
100
AcDbLine
 10
-0.6159053941793644
 20
33.16968355372611
 30
0.0
 11
0.0521275900722742
 21
33.27068123784274
 31
0.0
  0
LINE
  5
CB
330
2
100
AcDbEntity
  8
0
100
AcDbLine
 10
-0.6159053941793644
 20
33.29468355372611
 30
0.0
 11
0.0521275900722742
 21
33.39568123784274
 31
0.0
  0
LINE
  5
CC
330
2
100
AcDbEntity
  8
0
100
AcDbLine
 10
-0.6159053941793644
 20
33.41968355372611
 30
0.0
 11
0.0521275900722742
 21
33.52068123784274
 31
0.0
  0
LINE
  5
CD
330
2
100
AcDbEntity
  8
0
100
AcDbLine
 10
-0.6159053941793644
 20
33.54468355372611
 30
0.0
 11
0.0521275900722742
 21
33.64568123784274
 31
0.0
  0
LINE
  5
CE
330
2
100
AcDbEntity
  8
0
100
AcDbLine
 10
-0.6159053941793644
 20
33.66968355372611
 30
0.0
 11
0.0521275900722742
 21
33.77068123784274
 31
0.0
  0
LINE
  5
CF
330
2
100
AcDbEntity
  8
0
100
AcDbLine
 10
-0.6159053941793644
 20
33.79468355372611
 30
0.0
 11
0.0521275900722742
 21
33.89568123784274
 31
0.0
  0
ARC
  5
D0
330
2
100
AcDbEntity
  8
0
100
AcDbCircle
 10
0.033441606002242
 20
33.14427668273994
 30
0.0
 40
0.125
100
AcDbArc
 50
278.5972491996499
 51
0.0
  0
ARC
  5
D1
330
2
100
AcDbEntity
  8
0
100
AcDbCircle
 10
0.033441606002242
 20
33.26927668273994
 30
0.0
 40
0.125
100
AcDbArc
 50
278.5972491996499
 51
0.0
  0
ARC
  5
D2
330
2
100
AcDbEntity
  8
0
100
AcDbCircle
 10
0.033441606002242
 20
33.39427668273994
 30
0.0
 40
0.125
100
AcDbArc
 50
278.5972491996499
 51
0.0
  0
ARC
  5
D3
330
2
100
AcDbEntity
  8
0
100
AcDbCircle
 10
0.033441606002242
 20
33.51927668273994
 30
0.0
 40
0.125
100
AcDbArc
 50
278.5972491996499
 51
0.0
  0
ARC
  5
D4
330
2
100
AcDbEntity
  8
0
100
AcDbCircle
 10
0.033441606002242
 20
33.64427668273994
 30
0.0
 40
0.125
100
AcDbArc
 50
278.5972491996499
 51
0.0
  0
ARC
  5
D5
330
2
100
AcDbEntity
  8
0
100
AcDbCircle
 10
0.033441606002242
 20
33.76927668273994
 30
0.0
 40
0.125
100
AcDbArc
 50
278.5972491996499
 51
0.0
  0
ARC
  5
D6
330
2
100
AcDbEntity
  8
0
100
AcDbCircle
 10
0.033441606002242
 20
33.89427668273994
 30
0.0
 40
0.125
100
AcDbArc
 50
278.5972491996499
 51
0.0
  0
LINE
  5
D7
330
2
100
AcDbEntity
  8
0
100
AcDbLine
 10
-0.6159053941793644
 20
34.79468355372611
 30
0.0
 11
0.0521275900722742
 21
34.89568123784274
 31
0.0
  0
LINE
  5
D8
330
2
100
AcDbEntity
  8
0
100
AcDbLine
 10
-0.6159053941793644
 20
34.66968355372611
 30
0.0
 11
0.0521275900722742
 21
34.77068123784274
 31
0.0
  0
LINE
  5
D9
330
2
100
AcDbEntity
  8
0
100
AcDbLine
 10
-0.6159053941793644
 20
34.04468355372611
 30
0.0
 11
0.0521275900722742
 21
34.14568123784274
 31
0.0
  0
LINE
  5
DA
330
2
100
AcDbEntity
  8
0
100
AcDbLine
 10
-0.6159053941793644
 20
34.16968355372611
 30
0.0
 11
0.0521275900722742
 21
34.27068123784274
 31
0.0
  0
LINE
  5
DB
330
2
100
AcDbEntity
  8
0
100
AcDbLine
 10
-0.6159053941793644
 20
34.29468355372611
 30
0.0
 11
0.0521275900722742
 21
34.39568123784274
 31
0.0
  0
LINE
  5
DC
330
2
100
AcDbEntity
  8
0
100
AcDbLine
 10
-0.6159053941793644
 20
34.41968355372611
 30
0.0
 11
0.0521275900722742
 21
34.52068123784274
 31
0.0
  0
LINE
  5
DD
330
2
100
AcDbEntity
  8
0
100
AcDbLine
 10
-0.6159053941793644
 20
34.54468355372611
 30
0.0
 11
0.0521275900722742
 21
34.64568123784274
 31
0.0
  0
ARC
  5
DE
330
2
100
AcDbEntity
  8
0
100
AcDbCircle
 10
0.033441606002242
 20
34.89427668273994
 30
0.0
 40
0.125
100
AcDbArc
 50
278.5972491996499
 51
0.0
  0
ARC
  5
DF
330
2
100
AcDbEntity
  8
0
100
AcDbCircle
 10
0.033441606002242
 20
34.14427668273994
 30
0.0
 40
0.125
100
AcDbArc
 50
278.5972491996499
 51
0.0
  0
ARC
  5
E0
330
2
100
AcDbEntity
  8
0
100
AcDbCircle
 10
0.033441606002242
 20
34.26927668273994
 30
0.0
 40
0.125
100
AcDbArc
 50
278.5972491996499
 51
0.0
  0
ARC
  5
E1
330
2
100
AcDbEntity
  8
0
100
AcDbCircle
 10
0.033441606002242
 20
34.39427668273994
 30
0.0
 40
0.125
100
AcDbArc
 50
278.5972491996499
 51
0.0
  0
ARC
  5
E2
330
2
100
AcDbEntity
  8
0
100
AcDbCircle
 10
0.033441606002242
 20
34.51927668273994
 30
0.0
 40
0.125
100
AcDbArc
 50
278.5972491996499
 51
0.0
  0
ARC
  5
E3
330
2
100
AcDbEntity
  8
0
100
AcDbCircle
 10
0.033441606002242
 20
34.64427668273994
 30
0.0
 40
0.125
100
AcDbArc
 50
278.5972491996499
 51
0.0
  0
ARC
  5
E4
330
2
100
AcDbEntity
  8
0
100
AcDbCircle
 10
0.033441606002242
 20
34.76927668273994
 30
0.0
 40
0.125
100
AcDbArc
 50
278.5972491996499
 51
0.0
  0
ARC
  5
E5
330
2
100
AcDbEntity
  8
0
100
AcDbCircle
 10
0.033441606002242
 20
36.14427668273994
 30
0.0
 40
0.125
100
AcDbArc
 50
278.5972491996499
 51
0.0
  0
LINE
  5
E6
330
2
100
AcDbEntity
  8
0
100
AcDbLine
 10
-0.6159053941793644
 20
35.91968355372611
 30
0.0
 11
0.0521275900722742
 21
36.02068123784274
 31
0.0
  0
ARC
  5
E7
330
2
100
AcDbEntity
  8
0
100
AcDbCircle
 10
0.033441606002242
 20
36.01927668273994
 30
0.0
 40
0.125
100
AcDbArc
 50
278.5972491996499
 51
0.0
  0
LINE
  5
E8
330
2
100
AcDbEntity
  8
0
100
AcDbLine
 10
-0.6159053941793644
 20
35.79468355372611
 30
0.0
 11
0.0521275900722742
 21
35.89568123784274
 31
0.0
  0
LINE
  5
E9
330
2
100
AcDbEntity
  8
0
100
AcDbLine
 10
-0.6159053941793644
 20
35.66968355372611
 30
0.0
 11
0.0521275900722742
 21
35.77068123784274
 31
0.0
  0
LINE
  5
EA
330
2
100
AcDbEntity
  8
0
100
AcDbLine
 10
-0.6159053941793644
 20
35.54468355372611
 30
0.0
 11
0.0521275900722742
 21
35.64568123784274
 31
0.0
  0
LINE
  5
EB
330
2
100
AcDbEntity
  8
0
100
AcDbLine
 10
-0.6159053941793644
 20
35.41968355372611
 30
0.0
 11
0.0521275900722742
 21
35.52068123784274
 31
0.0
  0
LINE
  5
EC
330
2
100
AcDbEntity
  8
0
100
AcDbLine
 10
-0.6159053941793644
 20
35.29468355372611
 30
0.0
 11
0.0521275900722742
 21
35.39568123784274
 31
0.0
  0
LINE
  5
ED
330
2
100
AcDbEntity
  8
0
100
AcDbLine
 10
-0.6159053941793644
 20
35.16968355372611
 30
0.0
 11
0.0521275900722742
 21
35.27068123784274
 31
0.0
  0
LINE
  5
EE
330
2
100
AcDbEntity
  8
0
100
AcDbLine
 10
-0.6159053941793644
 20
35.04468355372611
 30
0.0
 11
0.0521275900722742
 21
35.14568123784274
 31
0.0
  0
ARC
  5
EF
330
2
100
AcDbEntity
  8
0
100
AcDbCircle
 10
0.033441606002242
 20
35.89427668273994
 30
0.0
 40
0.125
100
AcDbArc
 50
278.5972491996499
 51
0.0
  0
ARC
  5
F0
330
2
100
AcDbEntity
  8
0
100
AcDbCircle
 10
0.033441606002242
 20
35.76927668273994
 30
0.0
 40
0.125
100
AcDbArc
 50
278.5972491996499
 51
0.0
  0
ARC
  5
F1
330
2
100
AcDbEntity
  8
0
100
AcDbCircle
 10
0.033441606002242
 20
35.64427668273994
 30
0.0
 40
0.125
100
AcDbArc
 50
278.5972491996499
 51
0.0
  0
ARC
  5
F2
330
2
100
AcDbEntity
  8
0
100
AcDbCircle
 10
0.033441606002242
 20
35.51927668273994
 30
0.0
 40
0.125
100
AcDbArc
 50
278.5972491996499
 51
0.0
  0
ARC
  5
F3
330
2
100
AcDbEntity
  8
0
100
AcDbCircle
 10
0.033441606002242
 20
35.39427668273994
 30
0.0
 40
0.125
100
AcDbArc
 50
278.5972491996499
 51
0.0
  0
ARC
  5
F4
330
2
100
AcDbEntity
  8
0
100
AcDbCircle
 10
0.033441606002242
 20
35.26927668273994
 30
0.0
 40
0.125
100
AcDbArc
 50
278.5972491996499
 51
0.0
  0
ARC
  5
F5
330
2
100
AcDbEntity
  8
0
100
AcDbCircle
 10
0.033441606002242
 20
35.14427668273994
 30
0.0
 40
0.125
100
AcDbArc
 50
278.5972491996499
 51
0.0
  0
LINE
  5
F6
330
2
100
AcDbEntity
  8
0
100
AcDbLine
 10
-0.6159053941793644
 20
36.66968355372611
 30
0.0
 11
0.0521275900722742
 21
36.77068123784274
 31
0.0
  0
LINE
  5
F7
330
2
100
AcDbEntity
  8
0
100
AcDbLine
 10
-0.6159053941793644
 20
36.54468355372611
 30
0.0
 11
0.0521275900722742
 21
36.64568123784274
 31
0.0
  0
LINE
  5
F8
330
2
100
AcDbEntity
  8
0
100
AcDbLine
 10
-0.6159053941793644
 20
36.41968355372611
 30
0.0
 11
0.0521275900722742
 21
36.52068123784274
 31
0.0
  0
LINE
  5
F9
330
2
100
AcDbEntity
  8
0
100
AcDbLine
 10
-0.6159053941793644
 20
36.29468355372611
 30
0.0
 11
0.0521275900722742
 21
36.39568123784274
 31
0.0
  0
LINE
  5
FA
330
2
100
AcDbEntity
  8
0
100
AcDbLine
 10
-0.6159053941793644
 20
36.16968355372611
 30
0.0
 11
0.0521275900722742
 21
36.27068123784274
 31
0.0
  0
LINE
  5
FB
330
2
100
AcDbEntity
  8
0
100
AcDbLine
 10
-0.6159053941793644
 20
36.04468355372611
 30
0.0
 11
0.0521275900722742
 21
36.14568123784274
 31
0.0
  0
ARC
  5
FC
330
2
100
AcDbEntity
  8
0
100
AcDbCircle
 10
0.033441606002242
 20
36.89427668273994
 30
0.0
 40
0.125
100
AcDbArc
 50
278.5972491996499
 51
308.7676206488112
  0
ARC
  5
FD
330
2
100
AcDbEntity
  8
0
100
AcDbCircle
 10
0.033441606002242
 20
36.76927668273994
 30
0.0
 40
0.125
100
AcDbArc
 50
278.5972491996499
 51
0.0
  0
ARC
  5
FE
330
2
100
AcDbEntity
  8
0
100
AcDbCircle
 10
0.033441606002242
 20
36.64427668273994
 30
0.0
 40
0.125
100
AcDbArc
 50
278.5972491996499
 51
0.0
  0
ARC
  5
FF
330
2
100
AcDbEntity
  8
0
100
AcDbCircle
 10
0.033441606002242
 20
36.51927668273994
 30
0.0
 40
0.125
100
AcDbArc
 50
278.5972491996499
 51
0.0
  0
ARC
  5
100
330
2
100
AcDbEntity
  8
0
100
AcDbCircle
 10
0.033441606002242
 20
36.39427668273994
 30
0.0
 40
0.125
100
AcDbArc
 50
278.5972491996499
 51
0.0
  0
ARC
  5
101
330
2
100
AcDbEntity
  8
0
100
AcDbCircle
 10
0.033441606002242
 20
36.26927668273994
 30
0.0
 40
0.125
100
AcDbArc
 50
278.5972491996499
 51
0.0
  0
ENDSEC
  0
SECTION
  2
OBJECTS
  0
DICTIONARY
  5
9
330
0
100
AcDbDictionary
281
     1
  3
ACAD_COLOR
350
10B
  3
ACAD_GROUP
350
23
  3
ACAD_LAYOUT
350
D
  3
ACAD_MATERIAL
350
10A
  3
ACAD_MLINESTYLE
350
24
  3
ACAD_PLOTSETTINGS
350
25
  3
ACAD_PLOTSTYLENAME
350
8
  3
ACAD_TABLESTYLE
350
10C
  3
ACDBHEADERROUNDTRIPXREC
350
118
  3
AcDbVariableDictionary
350
102
  0
DICTIONARY
  5
10B
102
{ACAD_REACTORS
330
9
102
}
330
9
100
AcDbDictionary
281
     1
  0
DICTIONARY
  5
23
102
{ACAD_REACTORS
330
9
102
}
330
9
100
AcDbDictionary
281
     1
  0
DICTIONARY
  5
D
102
{ACAD_REACTORS
330
9
102
}
330
9
100
AcDbDictionary
281
     1
  3
Layout1
350
13
  3
Model
350
C
  0
DICTIONARY
  5
10A
102
{ACAD_REACTORS
330
9
102
}
330
9
100
AcDbDictionary
281
     1
  0
DICTIONARY
  5
24
102
{ACAD_REACTORS
330
9
102
}
330
9
100
AcDbDictionary
281
     1
  3
Standard
350
27
  0
DICTIONARY
  5
25
102
{ACAD_REACTORS
330
9
102
}
330
9
100
AcDbDictionary
281
     1
  0
ACDBDICTIONARYWDFLT
  5
8
102
{ACAD_REACTORS
330
9
102
}
330
9
100
AcDbDictionary
281
     1
  3
Normal
350
7
100
AcDbDictionaryWithDefault
340
7
  0
DICTIONARY
  5
10C
102
{ACAD_REACTORS
330
9
102
}
330
9
100
AcDbDictionary
281
     1
  3
Standard
350
10D
  0
DICTIONARY
  5
118
102
{ACAD_REACTORS
330
9
102
}
330
9
100
AcDbDictionary
281
     1
  3
COLORDICT
350
119
  3
MATERIALDICT
350
11A
  0
DICTIONARY
  5
102
102
{ACAD_REACTORS
330
9
102
}
330
9
100
AcDbDictionary
281
     1
  3
CTABLESTYLE
350
116
  3
DIMASSOC
350
104
  3
HIDETEXT
350
103
  0
LAYOUT
  5
13
102
{ACAD_REACTORS
330
D
102
}
102
{ACAD_XDICTIONARY
360
11B
102
}
330
D
100
AcDbPlotSettings
  1

  2
Client\ssd-helder#\hp psc 2100 series [UPD:PCL4]
  4

  6

 40
0.0
 41
0.0
 42
0.0
 43
0.0
 44
0.0
 45
0.0
 46
0.0
 47
0.0
 48
0.0
 49
0.0
140
0.0
141
0.0
142
1.0
143
1.0
 70
   688
 72
     0
 73
     0
 74
     5
  7

 75
    16
147
1.0
148
0.0
149
0.0
100
AcDbLayout
  1
Layout1
 70
     0
 71
     1
 10
0.0
 20
0.0
 11
12.0
 21
9.0
 12
0.0
 22
0.0
 32
0.0
 14
1.000000000000000E+20
 24
1.000000000000000E+20
 34
1.000000000000000E+20
 15
-1.000000000000000E+20
 25
-1.000000000000000E+20
 35
-1.000000000000000E+20
146
0.0
 13
0.0
 23
0.0
 33
0.0
 16
1.0
 26
0.0
 36
0.0
 17
0.0
 27
1.0
 37
0.0
 76
     0
330
E
  0
LAYOUT
  5
C
102
{ACAD_REACTORS
330
D
102
}
102
{ACAD_XDICTIONARY
360
11D
102
}
330
D
100
AcDbPlotSettings
  1

  2
HP LaserJet 2100 Series PS
  4
Letter
  6

 40
5.365749835968018
 41
5.408073902130127
 42
5.132904052734375
 43
5.090576171875
 44
215.8999938964844
 45
279.3999938964844
 46
0.0
 47
0.0
 48
0.0
 49
0.0
140
0.0
141
0.0
142
1.0
143
4.959067816635152
 70
 28336
 72
     0
 73
     0
 74
     2
  7

 75
     0
147
0.2016508015166698
148
0.0
149
0.0
100
AcDbLayout
  1
Model
 70
     1
 71
     0
 10
0.0
 20
0.0
 11
12.0
 21
9.0
 12
0.0
 22
0.0
 32
0.0
 14
0.0
 24
0.0
 34
0.0
 15
0.0
 25
0.0
 35
0.0
146
0.0
 13
0.0
 23
0.0
 33
0.0
 16
1.0
 26
0.0
 36
0.0
 17
0.0
 27
1.0
 37
0.0
 76
     0
330
2
  0
MLINESTYLE
  5
27
102
{ACAD_REACTORS
330
24
102
}
330
24
100
AcDbMlineStyle
  2
STANDARD
 70
     0
  3

 62
   256
 51
90.0
 52
90.0
 71
     2
 49
0.5
 62
   256
  6
BYLAYER
 49
-0.5
 62
   256
  6
BYLAYER
  0
ACDBPLACEHOLDER
  5
7
102
{ACAD_REACTORS
330
8
102
}
330
8
  0
ACAD_PROXY_OBJECT
  5
10D
102
{ACAD_REACTORS
330
10C
102
}
330
10C
100
AcDbProxyObject
 90
      499
 91
      508
 95
   983063
 70
     0
 93
     1841
310
4214DD185B99185C9928B81E85EB51B8AE3F2E07A17AD46E2B8FC02B5E8DC0F42B1CFD028000000C1008070000C3001FDFF8000000C1003FBFF000000182007F7FE00000030400FEFFC00000060801FDFF8000000C1003FBFF00000018200000000000000681FA0B0000001820100E000186003FBFF000000182007F7FE000
310
00030400FEFFC00000060801FDFF8000000C1003FBFF000000182007F7FE000000304000AD7A3703D0AC73F4160000003040201C00030C007F7FE00000030400FEFFC00000060801FDFF8000000C1003FBFF000000182007F7FE00000030400FEFFC000000608000
340
16
340
16
340
16
 94
        0
  0
XRECORD
  5
119
102
{ACAD_REACTORS
330
118
102
}
330
118
100
AcDbXrecord
340
10B
  0
XRECORD
  5
11A
102
{ACAD_REACTORS
330
118
102
}
330
118
100
AcDbXrecord
340
10A
  0
DICTIONARYVAR
  5
116
102
{ACAD_REACTORS
330
102
102
}
330
102
100
DictionaryVariables
280
     0
  1
STANDARD
  0
DICTIONARYVAR
  5
104
102
{ACAD_REACTORS
330
102
102
}
330
102
100
DictionaryVariables
280
     0
  1
2
  0
DICTIONARYVAR
  5
103
102
{ACAD_REACTORS
330
102
102
}
330
102
100
DictionaryVariables
280
     0
  1
1
  0
DICTIONARY
  5
11B
330
13
100
AcDbDictionary
280
     1
281
     1
  3
ACAD_XREC_ROUNDTRIP
360
11C
  0
DICTIONARY
  5
11D
330
C
100
AcDbDictionary
280
     1
281
     1
  3
ACAD_XREC_ROUNDTRIP
360
11E
  0
XRECORD
  5
11C
102
{ACAD_REACTORS
330
11B
102
}
330
11B
100
AcDbXrecord
102
SHADEPLOT
 70
     0
102
SHADEPLOTRESLEVEL
 70
     2
102
SHADEPLOTCUSTOMDPI
 70
   300
  0
XRECORD
  5
11E
102
{ACAD_REACTORS
330
11D
102
}
330
11D
100
AcDbXrecord
102
SHADEPLOT
 70
     0
102
SHADEPLOTRESLEVEL
 70
     2
102
SHADEPLOTCUSTOMDPI
 70
   300
  0
ENDSEC
  0
EOF
