  0
SECTION
  2
HEADER
  9
$ACADVER
  1
AC1015
  9
$ACADMAINTVER
 70
     6
  9
$DWGCODEPAGE
  3
ANSI_1252
  9
$INSBASE
 10
0.0
 20
0.0
 30
0.0
  9
$EXTMIN
 10
-0.0009612303704003
 20
-0.3138427179235066
 30
-0.0015258207003583
  9
$EXTMAX
 10
16.31716924511964
 20
1.813842803488768
 30
0.0000000349246037
  9
$LIMMIN
 10
0.0
 20
0.0
  9
$LIMMAX
 10
31.5
 20
24.0
  9
$ORTHOMODE
 70
     0
  9
$REGENMODE
 70
     1
  9
$FILLMODE
 70
     1
  9
$QTEXTMODE
 70
     0
  9
$MIRRTEXT
 70
     0
  9
$LTSCALE
 40
1.0
  9
$ATTMODE
 70
     1
  9
$TEXTSIZE
 40
0.27
  9
$TRACEWID
 40
0.05
  9
$TEXTSTYLE
  7
STANDARD
  9
$CLAYER
  8
OBJECT
  9
$CELTYPE
  6
ByLayer
  9
$CECOLOR
 62
   256
  9
$CELTSCALE
 40
1.0
  9
$DISPSILH
 70
     0
  9
$DIMSCALE
 40
1.0
  9
$DIMASZ
 40
0.375
  9
$DIMEXO
 40
0.0625
  9
$DIMDLI
 40
0.75
  9
$DIMRND
 40
0.0
  9
$DIMDLE
 40
0.0
  9
$DIMEXE
 40
0.18
  9
$DIMTP
 40
0.0
  9
$DIMTM
 40
0.0
  9
$DIMTXT
 40
0.27
  9
$DIMCEN
 40
-0.06
  9
$DIMTSZ
 40
0.0
  9
$DIMTOL
 70
     0
  9
$DIMLIM
 70
     0
  9
$DIMTIH
 70
     1
  9
$DIMTOH
 70
     1
  9
$DIMSE1
 70
     0
  9
$DIMSE2
 70
     0
  9
$DIMTAD
 70
     0
  9
$DIMZIN
 70
     0
  9
$DIMBLK
  1

  9
$DIMASO
 70
     0
  9
$DIMSHO
 70
     0
  9
$DIMPOST
  1

  9
$DIMAPOST
  1

  9
$DIMALT
 70
     0
  9
$DIMALTD
 70
     2
  9
$DIMALTF
 40
25.4
  9
$DIMLFAC
 40
1.0
  9
$DIMTOFL
 70
     0
  9
$DIMTVP
 40
0.0
  9
$DIMTIX
 70
     0
  9
$DIMSOXD
 70
     0
  9
$DIMSAH
 70
     0
  9
$DIMBLK1
  1

  9
$DIMBLK2
  1

  9
$DIMSTYLE
  2
Standard
  9
$DIMCLRD
 70
     0
  9
$DIMCLRE
 70
     0
  9
$DIMCLRT
 70
     0
  9
$DIMTFAC
 40
1.0
  9
$DIMGAP
 40
0.09
  9
$DIMJUST
 70
     0
  9
$DIMSD1
 70
     0
  9
$DIMSD2
 70
     0
  9
$DIMTOLJ
 70
     1
  9
$DIMTZIN
 70
     0
  9
$DIMALTZ
 70
     0
  9
$DIMALTTZ
 70
     0
  9
$DIMUPT
 70
     0
  9
$DIMDEC
 70
     4
  9
$DIMTDEC
 70
     4
  9
$DIMALTU
 70
     2
  9
$DIMALTTD
 70
     2
  9
$DIMTXSTY
  7
STANDARD
  9
$DIMAUNIT
 70
     0
  9
$DIMADEC
 70
     0
  9
$DIMALTRND
 40
0.0
  9
$DIMAZIN
 70
     0
  9
$DIMDSEP
 70
    46
  9
$DIMATFIT
 70
     3
  9
$DIMFRAC
 70
     0
  9
$DIMLDRBLK
  1

  9
$DIMLUNIT
 70
     2
  9
$DIMLWD
 70
    -2
  9
$DIMLWE
 70
    -2
  9
$DIMTMOVE
 70
     2
  9
$LUNITS
 70
     2
  9
$LUPREC
 70
     4
  9
$SKETCHINC
 40
0.1
  9
$FILLETRAD
 40
0.0
  9
$AUNITS
 70
     0
  9
$AUPREC
 70
     0
  9
$MENU
  1
ACAD
  9
$ELEVATION
 40
0.0
  9
$PELEVATION
 40
0.0
  9
$THICKNESS
 40
0.0
  9
$LIMCHECK
 70
     0
  9
$CHAMFERA
 40
0.0
  9
$CHAMFERB
 40
0.0
  9
$CHAMFERC
 40
0.0
  9
$CHAMFERD
 40
0.0
  9
$SKPOLY
 70
     0
  9
$TDCREATE
 40
2448863.773628704
  9
$TDUCREATE
 40
2448864.106962037
  9
$TDUPDATE
 40
2453794.627696887
  9
$TDUUPDATE
 40
2453794.96103022
  9
$TDINDWG
 40
0.0350937847
  9
$TDUSRTIMER
 40
0.0350937847
  9
$USRTIMER
 70
     1
  9
$ANGBASE
 50
0.0
  9
$ANGDIR
 70
     0
  9
$PDMODE
 70
     0
  9
$PDSIZE
 40
0.0
  9
$PLINEWID
 40
0.0
  9
$SPLFRAME
 70
     0
  9
$SPLINETYPE
 70
     6
  9
$SPLINESEGS
 70
     8
  9
$HANDSEED
  5
149
  9
$SURFTAB1
 70
     6
  9
$SURFTAB2
 70
     6
  9
$SURFTYPE
 70
     6
  9
$SURFU
 70
     6
  9
$SURFV
 70
     6
  9
$UCSBASE
  2

  9
$UCSNAME
  2

  9
$UCSORG
 10
0.0
 20
0.0
 30
0.0
  9
$UCSXDIR
 10
1.0
 20
0.0
 30
0.0
  9
$UCSYDIR
 10
0.0
 20
1.0
 30
0.0
  9
$UCSORTHOREF
  2

  9
$UCSORTHOVIEW
 70
     0
  9
$UCSORGTOP
 10
0.0
 20
0.0
 30
0.0
  9
$UCSORGBOTTOM
 10
0.0
 20
0.0
 30
0.0
  9
$UCSORGLEFT
 10
0.0
 20
0.0
 30
0.0
  9
$UCSORGRIGHT
 10
0.0
 20
0.0
 30
0.0
  9
$UCSORGFRONT
 10
0.0
 20
0.0
 30
0.0
  9
$UCSORGBACK
 10
0.0
 20
0.0
 30
0.0
  9
$PUCSBASE
  2

  9
$PUCSNAME
  2

  9
$PUCSORG
 10
0.0
 20
0.0
 30
0.0
  9
$PUCSXDIR
 10
1.0
 20
0.0
 30
0.0
  9
$PUCSYDIR
 10
0.0
 20
1.0
 30
0.0
  9
$PUCSORTHOREF
  2

  9
$PUCSORTHOVIEW
 70
     0
  9
$PUCSORGTOP
 10
0.0
 20
0.0
 30
0.0
  9
$PUCSORGBOTTOM
 10
0.0
 20
0.0
 30
0.0
  9
$PUCSORGLEFT
 10
0.0
 20
0.0
 30
0.0
  9
$PUCSORGRIGHT
 10
0.0
 20
0.0
 30
0.0
  9
$PUCSORGFRONT
 10
0.0
 20
0.0
 30
0.0
  9
$PUCSORGBACK
 10
0.0
 20
0.0
 30
0.0
  9
$USERI1
 70
     0
  9
$USERI2
 70
     0
  9
$USERI3
 70
     0
  9
$USERI4
 70
     0
  9
$USERI5
 70
     0
  9
$USERR1
 40
0.0
  9
$USERR2
 40
0.0
  9
$USERR3
 40
0.0
  9
$USERR4
 40
0.0
  9
$USERR5
 40
0.0
  9
$WORLDVIEW
 70
     1
  9
$SHADEDGE
 70
     3
  9
$SHADEDIF
 70
    70
  9
$TILEMODE
 70
     1
  9
$MAXACTVP
 70
    16
  9
$PINSBASE
 10
0.0
 20
0.0
 30
0.0
  9
$PLIMCHECK
 70
     0
  9
$PEXTMIN
 10
1.000000000000000E+20
 20
1.000000000000000E+20
 30
1.000000000000000E+20
  9
$PEXTMAX
 10
-1.000000000000000E+20
 20
-1.000000000000000E+20
 30
-1.000000000000000E+20
  9
$PLIMMIN
 10
0.0
 20
0.0
  9
$PLIMMAX
 10
12.0
 20
9.0
  9
$UNITMODE
 70
     0
  9
$VISRETAIN
 70
     0
  9
$PLINEGEN
 70
     0
  9
$PSLTSCALE
 70
     0
  9
$TREEDEPTH
 70
  3020
  9
$CMLSTYLE
  2
Standard
  9
$CMLJUST
 70
     0
  9
$CMLSCALE
 40
1.0
  9
$PROXYGRAPHICS
 70
     1
  9
$MEASUREMENT
 70
     0
  9
$CELWEIGHT
370
    -1
  9
$ENDCAPS
280
     0
  9
$JOINSTYLE
280
     0
  9
$LWDISPLAY
290
     0
  9
$INSUNITS
 70
     0
  9
$HYPERLINKBASE
  1

  9
$STYLESHEET
  1

  9
$XEDIT
290
     1
  9
$CEPSNTYPE
380
     0
  9
$PSTYLEMODE
290
     1
  9
$FINGERPRINTGUID
  2
{EE76A58C-2C1B-11D6-BE3F-00508B5FCD51}
  9
$VERSIONGUID
  2
{8100CC5A-BC17-4B0D-9CC5-64564990304D}
  9
$EXTNAMES
290
     1
  9
$PSVPSCALE
 40
0.0
  9
$OLESTARTUP
290
     0
  0
ENDSEC
  0
SECTION
  2
CLASSES
  0
CLASS
  1
ACDBDICTIONARYWDFLT
  2
AcDbDictionaryWithDefault
  3
AutoCAD 2000
 90
        0
280
     0
281
     0
  0
CLASS
  1
ACDBPLACEHOLDER
  2
AcDbPlaceHolder
  3
ObjectDBX Classes
 90
        0
280
     0
281
     0
  0
CLASS
  1
LAYOUT
  2
AcDbLayout
  3
ObjectDBX Classes
 90
        0
280
     0
281
     0
  0
CLASS
  1
LONG_TRANSACTION
  2
AcDbLongTransaction
  3
ObjectDBX Classes
 90
   -65536
280
     1
281
     0
  0
CLASS
  1
LWPOLYLINE
  2
AcDbPolyline
  3
AutoCAD 2000
 90
        0
280
     0
281
     1
  0
CLASS
  1
HATCH
  2
AcDbHatch
  3
AutoCAD 2000
 90
        0
280
     0
281
     1
  0
CLASS
  1
XRECORD
  2
AcDbXrecord
  3
AutoCAD 2000
 90
        0
280
     0
281
     0
  0
CLASS
  1
LONG_TRANSACTION
  2
AcDbLongTransaction
  3
ObjectDBX Classes
 90
   -65536
280
     1
281
     0
  0
CLASS
  1
LWPOLYLINE
  2
AcDbPolyline
  3
AutoCAD 2000
 90
        0
280
     0
281
     1
  0
CLASS
  1
HATCH
  2
AcDbHatch
  3
AutoCAD 2000
 90
        0
280
     0
281
     1
  0
CLASS
  1
XRECORD
  2
AcDbXrecord
  3
AutoCAD 2000
 90
        0
280
     0
281
     0
  0
CLASS
  1
DICTIONARYVAR
  2
AcDbDictionaryVar
  3
AutoCAD 2000
 90
        0
280
     0
281
     0
  0
CLASS
  1
TABLESTYLE
  2
AcDbTableStyle
  3
ObjectDBX Classes
 90
     2047
280
     1
281
     0
  0
CLASS
  1
SORTENTSTABLE
  2
AcDbSortentsTable
  3
AutoCAD 2000
 90
        0
280
     0
281
     0
  0
ENDSEC
  0
SECTION
  2
TABLES
  0
TABLE
  2
VPORT
  5
1D
330
0
100
AcDbSymbolTable
 70
     2
  0
VPORT
  5
139
330
1D
100
AcDbSymbolTableRecord
100
AcDbViewportTableRecord
  2
*Active
 70
     0
 10
0.0
 20
0.0
 11
1.0
 21
1.0
 12
15.7495193848148
 22
11.84307864103825
 13
0.0
 23
0.0
 14
0.0625
 24
0.0625
 15
0.5
 25
0.5
 16
0.0
 26
0.0
 36
1.0
 17
0.0
 27
0.0
 37
0.0
 40
24.5011123665853
 41
1.55012853470437
 42
50.0
 43
0.0
 44
0.0
 50
0.0
 51
0.0
 71
     0
 72
   100
 73
     1
 74
     0
 75
     0
 76
     0
 77
     0
 78
     0
281
     0
 65
     1
110
0.0
120
0.0
130
0.0
111
1.0
121
0.0
131
0.0
112
0.0
122
1.0
132
0.0
 79
     0
146
0.0
  0
ENDTAB
  0
TABLE
  2
LTYPE
  5
18
330
0
100
AcDbSymbolTable
 70
     1
  0
LTYPE
  5
19
330
18
100
AcDbSymbolTableRecord
100
AcDbLinetypeTableRecord
  2
ByBlock
 70
     0
  3

 72
    65
 73
     0
 40
0.0
  0
LTYPE
  5
1A
330
18
100
AcDbSymbolTableRecord
100
AcDbLinetypeTableRecord
  2
ByLayer
 70
     0
  3

 72
    65
 73
     0
 40
0.0
  0
LTYPE
  5
A
330
18
100
AcDbSymbolTableRecord
100
AcDbLinetypeTableRecord
  2
CONTINUOUS
 70
     0
  3
Solid line
 72
    65
 73
     0
 40
0.0
  0
ENDTAB
  0
TABLE
  2
LAYER
  5
14
330
0
100
AcDbSymbolTable
 70
     2
  0
LAYER
  5
6
330
14
100
AcDbSymbolTableRecord
100
AcDbLayerTableRecord
  2
0
 70
     0
 62
    -1
  6
CONTINUOUS
370
    -3
390
7
  0
LAYER
  5
26
330
14
100
AcDbSymbolTableRecord
100
AcDbLayerTableRecord
  2
OBJECT
 70
     0
 62
     7
  6
CONTINUOUS
370
    -3
390
7
  0
ENDTAB
  0
TABLE
  2
STYLE
  5
15
330
0
100
AcDbSymbolTable
 70
     1
  0
STYLE
  5
16
330
15
100
AcDbSymbolTableRecord
100
AcDbTextStyleTableRecord
  2
STANDARD
 70
     0
 40
0.0
 41
1.0
 50
0.0
 71
     0
 42
0.27
  3
TXT
  4

  0
ENDTAB
  0
TABLE
  2
VIEW
  5
1B
330
0
100
AcDbSymbolTable
 70
     1
  0
ENDTAB
  0
TABLE
  2
UCS
  5
1C
330
0
100
AcDbSymbolTable
 70
     0
  0
ENDTAB
  0
TABLE
  2
APPID
  5
1F
330
0
100
AcDbSymbolTable
 70
     1
  0
APPID
  5
20
330
1F
100
AcDbSymbolTableRecord
100
AcDbRegAppTableRecord
  2
ACAD
 70
     0
  0
ENDTAB
  0
TABLE
  2
DIMSTYLE
  5
21
330
0
100
AcDbSymbolTable
 70
     1
100
AcDbDimStyleTable
  0
DIMSTYLE
105
28
330
21
100
AcDbSymbolTableRecord
100
AcDbDimStyleTableRecord
  2
Standard
 70
     0
  3

  4

340
16
  0
ENDTAB
  0
TABLE
  2
BLOCK_RECORD
  5
1
330
0
100
AcDbSymbolTable
 70
     1
  0
BLOCK_RECORD
  5
2
102
{ACAD_XDICTIONARY
360
3
102
}
330
1
100
AcDbSymbolTableRecord
100
AcDbBlockTableRecord
  2
*Model_Space
340
C
  0
BLOCK_RECORD
  5
E
330
1
100
AcDbSymbolTableRecord
100
AcDbBlockTableRecord
  2
*Paper_Space
340
13
  0
ENDTAB
  0
ENDSEC
  0
SECTION
  2
BLOCKS
  0
BLOCK
  5
5
330
2
100
AcDbEntity
  8
0
100
AcDbBlockBegin
  2
*Model_Space
 70
     0
 10
0.0
 20
0.0
 30
0.0
  3
*Model_Space
  1

  4

  0
ENDBLK
  5
B
330
2
100
AcDbEntity
  8
0
100
AcDbBlockEnd
  0
BLOCK
  5
11
330
E
100
AcDbEntity
 67
     1
  8
0
100
AcDbBlockBegin
  2
*Paper_Space
 70
     0
 10
0.0
 20
0.0
 30
0.0
  3
*Paper_Space
  1

  4

  0
ENDBLK
  5
12
330
E
100
AcDbEntity
 67
     1
  8
0
100
AcDbBlockEnd
  0
ENDSEC
  0
SECTION
  2
ENTITIES
  0
LINE
  5
B7
330
2
100
AcDbEntity
  8
OBJECT
100
AcDbLine
 10
13.088551
 20
-0.3125
 30
0.0
 11
13.651051
 21
-0.3125
 31
0.0
  0
LINE
  5
B8
330
2
100
AcDbEntity
  8
OBJECT
100
AcDbLine
 10
13.088551
 20
-0.3125
 30
0.0
 11
13.651051
 21
-0.3125
 31
0.0
  0
LINE
  5
B9
330
2
100
AcDbEntity
  8
OBJECT
100
AcDbLine
 10
13.091765
 20
-0.3125
 30
0.0
 11
13.654265
 21
-0.3125
 31
0.0
  0
LINE
  5
BA
330
2
100
AcDbEntity
  8
OBJECT
100
AcDbLine
 10
13.128553
 20
1.5
 30
0.0
 11
13.687839
 21
1.5
 31
0.0
  0
LINE
  5
BB
330
2
100
AcDbEntity
  8
OBJECT
100
AcDbLine
 10
6.088550999999999
 20
-0.3125
 30
0.0
 11
6.651050999999999
 21
-0.3125
 31
0.0
  0
LINE
  5
BC
330
2
100
AcDbEntity
  8
OBJECT
100
AcDbLine
 10
6.088550999999999
 20
-0.3125
 30
0.0
 11
6.651050999999999
 21
-0.3125
 31
0.0
  0
LINE
  5
BD
330
2
100
AcDbEntity
  8
OBJECT
100
AcDbLine
 10
6.091765000000001
 20
-0.3125
 30
0.0
 11
6.654265000000001
 21
-0.3125
 31
0.0
  0
LINE
  5
BE
330
2
100
AcDbEntity
  8
OBJECT
100
AcDbLine
 10
6.128552999999998
 20
1.5
 30
0.0
 11
6.687839
 21
1.5
 31
0.0
  0
LINE
  5
BF
330
2
100
AcDbEntity
  8
OBJECT
100
AcDbLine
 10
3.150744999999999
 20
-0.3125
 30
0.0
 11
3.463244999999999
 21
0.0
 31
0.0
  0
LINE
  5
C0
330
2
100
AcDbEntity
  8
OBJECT
100
AcDbLine
 10
1.403959
 20
-0.3125
 30
0.0
 11
1.716459
 21
0.0
 31
0.0
  0
LINE
  5
C1
330
2
100
AcDbEntity
  8
OBJECT
100
AcDbLine
 10
0.5289590000000004
 20
0.0
 30
0.0
 11
0.8414590000000004
 21
-0.3125
 31
0.0
  0
CIRCLE
  5
C2
330
2
100
AcDbEntity
  8
OBJECT
100
AcDbCircle
 10
1.122709
 20
0.0
 30
0.0
 40
0.0855
  0
LINE
  5
C3
330
2
100
AcDbEntity
  8
OBJECT
100
AcDbLine
 10
0.8414590000000004
 20
-0.3125
 30
0.0
 11
1.403959
 21
-0.3125
 31
0.0
  0
LINE
  5
C4
330
2
100
AcDbEntity
  8
OBJECT
100
AcDbLine
 10
0.8414590000000004
 20
-0.3125
 30
0.0
 11
1.403959
 21
-0.3125
 31
0.0
  0
CIRCLE
  5
C5
330
2
100
AcDbEntity
  8
OBJECT
100
AcDbCircle
 10
1.000022999999999
 20
0.75
 30
0.0
 40
0.281
  0
LINE
  5
C6
330
2
100
AcDbEntity
  8
OBJECT
100
AcDbLine
 10
2.275744999999999
 20
0.0
 30
0.0
 11
2.588244999999999
 21
-0.3125
 31
0.0
  0
LINE
  5
C7
330
2
100
AcDbEntity
  8
OBJECT
100
AcDbLine
 10
1.716459
 20
0.0
 30
0.0
 11
2.275744999999999
 21
0.0
 31
0.0
  0
CIRCLE
  5
C8
330
2
100
AcDbEntity
  8
OBJECT
100
AcDbCircle
 10
2.872709
 20
0.0
 30
0.0
 40
0.0855
  0
LINE
  5
C9
330
2
100
AcDbEntity
  8
OBJECT
100
AcDbLine
 10
2.588244999999999
 20
-0.3125
 30
0.0
 11
3.150744999999999
 21
-0.3125
 31
0.0
  0
LINE
  5
CA
330
2
100
AcDbEntity
  8
OBJECT
100
AcDbLine
 10
2.588244999999999
 20
-0.3125
 30
0.0
 11
3.150744999999999
 21
-0.3125
 31
0.0
  0
LINE
  5
CB
330
2
100
AcDbEntity
  8
OBJECT
100
AcDbLine
 10
2.591459
 20
-0.3125
 30
0.0
 11
3.153959
 21
-0.3125
 31
0.0
  0
LINE
  5
CC
330
2
100
AcDbEntity
  8
OBJECT
100
AcDbLine
 10
4.338550999999999
 20
-0.3125
 30
0.0
 11
4.901050999999999
 21
-0.3125
 31
0.0
  0
LINE
  5
CD
330
2
100
AcDbEntity
  8
OBJECT
100
AcDbLine
 10
4.338550999999999
 20
-0.3125
 30
0.0
 11
4.901050999999999
 21
-0.3125
 31
0.0
  0
LINE
  5
CE
330
2
100
AcDbEntity
  8
OBJECT
100
AcDbLine
 10
4.026050999999999
 20
0.0
 30
0.0
 11
4.338550999999999
 21
-0.3125
 31
0.0
  0
LINE
  5
CF
330
2
100
AcDbEntity
  8
OBJECT
100
AcDbLine
 10
3.463244999999999
 20
0.0
 30
0.0
 11
4.026050999999999
 21
0.0
 31
0.0
  0
CIRCLE
  5
D0
330
2
100
AcDbEntity
  8
OBJECT
100
AcDbCircle
 10
4.619800999999999
 20
0.0
 30
0.0
 40
0.0855
  0
LINE
  5
D1
330
2
100
AcDbEntity
  8
OBJECT
100
AcDbLine
 10
5.216765000000001
 20
0.0
 30
0.0
 11
5.776050999999999
 21
0.0
 31
0.0
  0
LINE
  5
D2
330
2
100
AcDbEntity
  8
OBJECT
100
AcDbLine
 10
4.901050999999999
 20
-0.3125
 30
0.0
 11
5.213550999999999
 21
0.0
 31
0.0
  0
CIRCLE
  5
D3
330
2
100
AcDbEntity
  8
OBJECT
100
AcDbCircle
 10
6.373015000000001
 20
0.0
 30
0.0
 40
0.0855
  0
LINE
  5
D4
330
2
100
AcDbEntity
  8
OBJECT
100
AcDbLine
 10
5.776050999999999
 20
0.0
 30
0.0
 11
6.088550999999999
 21
-0.3125
 31
0.0
  0
LINE
  5
D5
330
2
100
AcDbEntity
  8
OBJECT
100
AcDbLine
 10
3.187533
 20
1.5
 30
0.0
 11
3.500033
 21
1.812499999999998
 31
0.0
  0
LINE
  5
D6
330
2
100
AcDbEntity
  8
OBJECT
100
AcDbLine
 10
1.440747
 20
1.5
 30
0.0
 11
1.753247
 21
1.812499999999998
 31
0.0
  0
LINE
  5
D7
330
2
100
AcDbEntity
  8
OBJECT
100
AcDbLine
 10
0.8785989999999995
 20
1.5
 30
0.0
 11
0.5289590000000004
 21
1.812499999999998
 31
0.0
  0
LINE
  5
D8
330
2
100
AcDbEntity
  8
OBJECT
100
AcDbLine
 10
0.8785989999999995
 20
1.5
 30
0.0
 11
1.440747
 21
1.5
 31
0.0
  0
LINE
  5
D9
330
2
100
AcDbEntity
  8
OBJECT
100
AcDbLine
 10
2.315747
 20
1.812499999999998
 30
0.0
 11
2.628247
 21
1.5
 31
0.0
  0
CIRCLE
  5
DA
330
2
100
AcDbEntity
  8
OBJECT
100
AcDbCircle
 10
2.029938
 20
1.5
 30
0.0
 40
0.0855
  0
LINE
  5
DB
330
2
100
AcDbEntity
  8
OBJECT
100
AcDbLine
 10
1.753247
 20
1.812499999999998
 30
0.0
 11
2.315747
 21
1.812499999999998
 31
0.0
  0
LINE
  5
DC
330
2
100
AcDbEntity
  8
OBJECT
100
AcDbLine
 10
1.753247
 20
1.812499999999998
 30
0.0
 11
2.315747
 21
1.812499999999998
 31
0.0
  0
LINE
  5
DD
330
2
100
AcDbEntity
  8
OBJECT
100
AcDbLine
 10
2.628247
 20
1.5
 30
0.0
 11
3.187533
 21
1.5
 31
0.0
  0
LINE
  5
DE
330
2
100
AcDbEntity
  8
OBJECT
100
AcDbLine
 10
4.375033
 20
1.5
 30
0.0
 11
4.937839
 21
1.5
 31
0.0
  0
LINE
  5
DF
330
2
100
AcDbEntity
  8
OBJECT
100
AcDbLine
 10
3.503247
 20
1.812499999999998
 30
0.0
 11
4.065747
 21
1.812499999999998
 31
0.0
  0
LINE
  5
E0
330
2
100
AcDbEntity
  8
OBJECT
100
AcDbLine
 10
4.062533
 20
1.812499999999998
 30
0.0
 11
4.375033
 21
1.5
 31
0.0
  0
CIRCLE
  5
E1
330
2
100
AcDbEntity
  8
OBJECT
100
AcDbCircle
 10
3.786543999999999
 20
1.5
 30
0.0
 40
0.0855
  0
LINE
  5
E2
330
2
100
AcDbEntity
  8
OBJECT
100
AcDbLine
 10
3.500033
 20
1.812499999999998
 30
0.0
 11
4.062533
 21
1.812499999999998
 31
0.0
  0
LINE
  5
E3
330
2
100
AcDbEntity
  8
OBJECT
100
AcDbLine
 10
3.500033
 20
1.812499999999998
 30
0.0
 11
4.062533
 21
1.812499999999998
 31
0.0
  0
LINE
  5
E4
330
2
100
AcDbEntity
  8
OBJECT
100
AcDbLine
 10
5.250339
 20
1.812499999999998
 30
0.0
 11
5.812839
 21
1.812499999999998
 31
0.0
  0
LINE
  5
E5
330
2
100
AcDbEntity
  8
OBJECT
100
AcDbLine
 10
5.250339
 20
1.812499999999998
 30
0.0
 11
5.812839
 21
1.812499999999998
 31
0.0
  0
LINE
  5
E6
330
2
100
AcDbEntity
  8
OBJECT
100
AcDbLine
 10
5.253552999999998
 20
1.812499999999998
 30
0.0
 11
5.816052999999998
 21
1.812499999999998
 31
0.0
  0
LINE
  5
E7
330
2
100
AcDbEntity
  8
OBJECT
100
AcDbLine
 10
4.937839
 20
1.5
 30
0.0
 11
5.250339
 21
1.812499999999998
 31
0.0
  0
CIRCLE
  5
E8
330
2
100
AcDbEntity
  8
OBJECT
100
AcDbCircle
 10
5.535601
 20
1.5
 30
0.0
 40
0.0855
  0
LINE
  5
E9
330
2
100
AcDbEntity
  8
OBJECT
100
AcDbLine
 10
5.812839
 20
1.812499999999998
 30
0.0
 11
6.125339
 21
1.5
 31
0.0
  0
CIRCLE
  5
EA
330
2
100
AcDbEntity
  8
OBJECT
100
AcDbCircle
 10
9.869800999999999
 20
0.0
 30
0.0
 40
0.0855
  0
LINE
  5
EB
330
2
100
AcDbEntity
  8
OBJECT
100
AcDbLine
 10
9.588550999999999
 20
-0.3125
 30
0.0
 11
10.151051
 21
-0.3125
 31
0.0
  0
LINE
  5
EC
330
2
100
AcDbEntity
  8
OBJECT
100
AcDbLine
 10
9.588550999999999
 20
-0.3125
 30
0.0
 11
10.151051
 21
-0.3125
 31
0.0
  0
LINE
  5
ED
330
2
100
AcDbEntity
  8
OBJECT
100
AcDbLine
 10
9.591765000000002
 20
-0.3125
 30
0.0
 11
10.154265
 21
-0.3125
 31
0.0
  0
LINE
  5
EE
330
2
100
AcDbEntity
  8
OBJECT
100
AcDbLine
 10
7.841765000000001
 20
-0.3125
 30
0.0
 11
8.404265000000002
 21
-0.3125
 31
0.0
  0
LINE
  5
EF
330
2
100
AcDbEntity
  8
OBJECT
100
AcDbLine
 10
7.838550999999999
 20
-0.3125
 30
0.0
 11
8.401050999999999
 21
-0.3125
 31
0.0
  0
LINE
  5
F0
330
2
100
AcDbEntity
  8
OBJECT
100
AcDbLine
 10
7.838550999999999
 20
-0.3125
 30
0.0
 11
8.401050999999999
 21
-0.3125
 31
0.0
  0
LINE
  5
F1
330
2
100
AcDbEntity
  8
OBJECT
100
AcDbLine
 10
6.966765000000001
 20
0.0
 30
0.0
 11
7.526050999999999
 21
0.0
 31
0.0
  0
LINE
  5
F2
330
2
100
AcDbEntity
  8
OBJECT
100
AcDbLine
 10
6.651050999999999
 20
-0.3125
 30
0.0
 11
6.963550999999999
 21
0.0
 31
0.0
  0
CIRCLE
  5
F3
330
2
100
AcDbEntity
  8
OBJECT
100
AcDbCircle
 10
8.123015000000002
 20
0.0
 30
0.0
 40
0.0855
  0
LINE
  5
F4
330
2
100
AcDbEntity
  8
OBJECT
100
AcDbLine
 10
7.526050999999999
 20
0.0
 30
0.0
 11
7.838550999999999
 21
-0.3125
 31
0.0
  0
LINE
  5
F5
330
2
100
AcDbEntity
  8
OBJECT
100
AcDbLine
 10
8.716765000000002
 20
0.0
 30
0.0
 11
9.276050999999999
 21
0.0
 31
0.0
  0
LINE
  5
F6
330
2
100
AcDbEntity
  8
OBJECT
100
AcDbLine
 10
8.401050999999999
 20
-0.3125
 30
0.0
 11
8.713550999999999
 21
0.0
 31
0.0
  0
LINE
  5
F7
330
2
100
AcDbEntity
  8
OBJECT
100
AcDbLine
 10
9.276050999999999
 20
0.0
 30
0.0
 11
9.588550999999999
 21
-0.3125
 31
0.0
  0
LINE
  5
F8
330
2
100
AcDbEntity
  8
OBJECT
100
AcDbLine
 10
11.341765
 20
-0.3125
 30
0.0
 11
11.904265
 21
-0.3125
 31
0.0
  0
LINE
  5
F9
330
2
100
AcDbEntity
  8
OBJECT
100
AcDbLine
 10
11.338551
 20
-0.3125
 30
0.0
 11
11.901051
 21
-0.3125
 31
0.0
  0
LINE
  5
FA
330
2
100
AcDbEntity
  8
OBJECT
100
AcDbLine
 10
11.338551
 20
-0.3125
 30
0.0
 11
11.901051
 21
-0.3125
 31
0.0
  0
LINE
  5
FB
330
2
100
AcDbEntity
  8
OBJECT
100
AcDbLine
 10
10.466765
 20
0.0
 30
0.0
 11
11.026051
 21
0.0
 31
0.0
  0
LINE
  5
FC
330
2
100
AcDbEntity
  8
OBJECT
100
AcDbLine
 10
10.151051
 20
-0.3125
 30
0.0
 11
10.463551
 21
0.0
 31
0.0
  0
LINE
  5
FD
330
2
100
AcDbEntity
  8
OBJECT
100
AcDbLine
 10
11.026051
 20
0.0
 30
0.0
 11
11.338551
 21
-0.3125
 31
0.0
  0
LINE
  5
FE
330
2
100
AcDbEntity
  8
OBJECT
100
AcDbLine
 10
12.216765
 20
0.0
 30
0.0
 11
12.776051
 21
0.0
 31
0.0
  0
CIRCLE
  5
FF
330
2
100
AcDbEntity
  8
OBJECT
100
AcDbCircle
 10
11.623015
 20
0.0
 30
0.0
 40
0.0855
  0
LINE
  5
100
330
2
100
AcDbEntity
  8
OBJECT
100
AcDbLine
 10
11.901051
 20
-0.3125
 30
0.0
 11
12.213551
 21
0.0
 31
0.0
  0
LINE
  5
101
330
2
100
AcDbEntity
  8
OBJECT
100
AcDbLine
 10
12.776051
 20
0.0
 30
0.0
 11
13.088551
 21
-0.3125
 31
0.0
  0
LINE
  5
102
330
2
100
AcDbEntity
  8
OBJECT
100
AcDbLine
 10
9.628552999999997
 20
1.5
 30
0.0
 11
10.187839
 21
1.5
 31
0.0
  0
LINE
  5
103
330
2
100
AcDbEntity
  8
OBJECT
100
AcDbLine
 10
7.878552999999998
 20
1.5
 30
0.0
 11
8.437839
 21
1.5
 31
0.0
  0
LINE
  5
104
330
2
100
AcDbEntity
  8
OBJECT
100
AcDbLine
 10
7.003552999999998
 20
1.812499999999998
 30
0.0
 11
7.566052999999998
 21
1.812499999999998
 31
0.0
  0
LINE
  5
105
330
2
100
AcDbEntity
  8
OBJECT
100
AcDbLine
 10
7.000339
 20
1.812499999999998
 30
0.0
 11
7.562839
 21
1.812499999999998
 31
0.0
  0
LINE
  5
106
330
2
100
AcDbEntity
  8
OBJECT
100
AcDbLine
 10
7.000339
 20
1.812499999999998
 30
0.0
 11
7.562839
 21
1.812499999999998
 31
0.0
  0
LINE
  5
107
330
2
100
AcDbEntity
  8
OBJECT
100
AcDbLine
 10
6.687839
 20
1.5
 30
0.0
 11
7.000339
 21
1.812499999999998
 31
0.0
  0
CIRCLE
  5
108
330
2
100
AcDbEntity
  8
OBJECT
100
AcDbCircle
 10
7.287974999999998
 20
1.5
 30
0.0
 40
0.0855
  0
LINE
  5
109
330
2
100
AcDbEntity
  8
OBJECT
100
AcDbLine
 10
7.562839
 20
1.812499999999998
 30
0.0
 11
7.875339
 21
1.5
 31
0.0
  0
CIRCLE
  5
10A
330
2
100
AcDbEntity
  8
OBJECT
100
AcDbCircle
 10
9.027649999999998
 20
1.5
 30
0.0
 40
0.0855
  0
LINE
  5
10B
330
2
100
AcDbEntity
  8
OBJECT
100
AcDbLine
 10
8.750339
 20
1.812499999999998
 30
0.0
 11
9.312839
 21
1.812499999999998
 31
0.0
  0
LINE
  5
10C
330
2
100
AcDbEntity
  8
OBJECT
100
AcDbLine
 10
8.750339
 20
1.812499999999998
 30
0.0
 11
9.312839
 21
1.812499999999998
 31
0.0
  0
LINE
  5
10D
330
2
100
AcDbEntity
  8
OBJECT
100
AcDbLine
 10
8.753552999999997
 20
1.812499999999998
 30
0.0
 11
9.316052999999997
 21
1.812499999999998
 31
0.0
  0
LINE
  5
10E
330
2
100
AcDbEntity
  8
OBJECT
100
AcDbLine
 10
8.437839
 20
1.5
 30
0.0
 11
8.750339
 21
1.812499999999998
 31
0.0
  0
LINE
  5
10F
330
2
100
AcDbEntity
  8
OBJECT
100
AcDbLine
 10
9.312839
 20
1.812499999999998
 30
0.0
 11
9.625339
 21
1.5
 31
0.0
  0
LINE
  5
110
330
2
100
AcDbEntity
  8
OBJECT
100
AcDbLine
 10
11.378553
 20
1.5
 30
0.0
 11
11.937839
 21
1.5
 31
0.0
  0
CIRCLE
  5
111
330
2
100
AcDbEntity
  8
OBJECT
100
AcDbCircle
 10
10.785441
 20
1.5
 30
0.0
 40
0.0855
  0
LINE
  5
112
330
2
100
AcDbEntity
  8
OBJECT
100
AcDbLine
 10
10.503553
 20
1.812499999999998
 30
0.0
 11
11.066053
 21
1.812499999999998
 31
0.0
  0
LINE
  5
113
330
2
100
AcDbEntity
  8
OBJECT
100
AcDbLine
 10
10.500339
 20
1.812499999999998
 30
0.0
 11
11.062839
 21
1.812499999999998
 31
0.0
  0
LINE
  5
114
330
2
100
AcDbEntity
  8
OBJECT
100
AcDbLine
 10
10.500339
 20
1.812499999999998
 30
0.0
 11
11.062839
 21
1.812499999999998
 31
0.0
  0
LINE
  5
115
330
2
100
AcDbEntity
  8
OBJECT
100
AcDbLine
 10
10.187839
 20
1.5
 30
0.0
 11
10.500339
 21
1.812499999999998
 31
0.0
  0
LINE
  5
116
330
2
100
AcDbEntity
  8
OBJECT
100
AcDbLine
 10
11.062839
 20
1.812499999999998
 30
0.0
 11
11.375339
 21
1.5
 31
0.0
  0
LINE
  5
117
330
2
100
AcDbEntity
  8
OBJECT
100
AcDbLine
 10
12.250339
 20
1.812499999999998
 30
0.0
 11
12.812839
 21
1.812499999999998
 31
0.0
  0
LINE
  5
118
330
2
100
AcDbEntity
  8
OBJECT
100
AcDbLine
 10
12.250339
 20
1.812499999999998
 30
0.0
 11
12.812839
 21
1.812499999999998
 31
0.0
  0
LINE
  5
119
330
2
100
AcDbEntity
  8
OBJECT
100
AcDbLine
 10
12.253553
 20
1.812499999999998
 30
0.0
 11
12.816053
 21
1.812499999999998
 31
0.0
  0
LINE
  5
11A
330
2
100
AcDbEntity
  8
OBJECT
100
AcDbLine
 10
11.937839
 20
1.5
 30
0.0
 11
12.250339
 21
1.812499999999998
 31
0.0
  0
LINE
  5
11B
330
2
100
AcDbEntity
  8
OBJECT
100
AcDbLine
 10
12.812839
 20
1.812499999999998
 30
0.0
 11
13.125339
 21
1.5
 31
0.0
  0
CIRCLE
  5
11C
330
2
100
AcDbEntity
  8
OBJECT
100
AcDbCircle
 10
12.534767
 20
1.5
 30
0.0
 40
0.0855
  0
LINE
  5
11D
330
2
100
AcDbEntity
  8
OBJECT
100
AcDbLine
 10
16.315098
 20
1.812499999999998
 30
0.0
 11
16.315098
 21
0.0
 31
0.0
  0
LINE
  5
11E
330
2
100
AcDbEntity
  8
OBJECT
100
AcDbLine
 10
14.525969
 20
0.0
 30
0.0
 11
14.869769
 21
-0.3125
 31
0.0
  0
LINE
  5
11F
330
2
100
AcDbEntity
  8
OBJECT
100
AcDbLine
 10
13.963551
 20
0.0
 30
0.0
 11
14.525969
 21
0.0
 31
0.0
  0
CIRCLE
  5
120
330
2
100
AcDbEntity
  8
OBJECT
100
AcDbCircle
 10
13.373015
 20
0.0
 30
0.0
 40
0.0855
  0
LINE
  5
121
330
2
100
AcDbEntity
  8
OBJECT
100
AcDbLine
 10
13.651051
 20
-0.3125
 30
0.0
 11
13.963551
 21
0.0
 31
0.0
  0
CIRCLE
  5
122
330
2
100
AcDbEntity
  8
OBJECT
100
AcDbCircle
 10
16.033845
 20
0.375
 30
0.0
 40
0.0855
  0
LINE
  5
123
330
2
100
AcDbEntity
  8
OBJECT
100
AcDbLine
 10
15.429055
 20
-0.3125
 30
0.0
 11
15.741555
 21
0.0
 31
0.0
  0
CIRCLE
  5
124
330
2
100
AcDbEntity
  8
OBJECT
100
AcDbCircle
 10
15.147805
 20
0.0
 30
0.0
 40
0.0855
  0
LINE
  5
125
330
2
100
AcDbEntity
  8
OBJECT
100
AcDbLine
 10
14.866555
 20
-0.3125
 30
0.0
 11
15.429055
 21
-0.3125
 31
0.0
  0
LINE
  5
126
330
2
100
AcDbEntity
  8
OBJECT
100
AcDbLine
 10
15.741555
 20
0.0
 30
0.0
 11
16.315098
 21
0.0
 31
0.0
  0
CIRCLE
  5
127
330
2
100
AcDbEntity
  8
OBJECT
100
AcDbCircle
 10
15.31401
 20
0.75
 30
0.0
 40
0.281
  0
LINE
  5
128
330
2
100
AcDbEntity
  8
OBJECT
100
AcDbLine
 10
14.562839
 20
1.812499999999998
 30
0.0
 11
14.875339
 21
1.5
 31
0.0
  0
LINE
  5
129
330
2
100
AcDbEntity
  8
OBJECT
100
AcDbLine
 10
14.003553
 20
1.812499999999998
 30
0.0
 11
14.190098
 21
1.812499999999998
 31
0.0
  0
LINE
  5
12A
330
2
100
AcDbEntity
  8
OBJECT
100
AcDbLine
 10
14.000339
 20
1.812499999999998
 30
0.0
 11
14.562839
 21
1.812499999999998
 31
0.0
  0
LINE
  5
12B
330
2
100
AcDbEntity
  8
OBJECT
100
AcDbLine
 10
14.000339
 20
1.812499999999998
 30
0.0
 11
14.562839
 21
1.812499999999998
 31
0.0
  0
LINE
  5
12C
330
2
100
AcDbEntity
  8
OBJECT
100
AcDbLine
 10
13.687839
 20
1.5
 30
0.0
 11
14.000339
 21
1.812499999999998
 31
0.0
  0
CIRCLE
  5
12D
330
2
100
AcDbEntity
  8
OBJECT
100
AcDbCircle
 10
14.284093
 20
1.5
 30
0.0
 40
0.0855
  0
LINE
  5
12E
330
2
100
AcDbEntity
  8
OBJECT
100
AcDbLine
 10
15.437756
 20
1.5
 30
0.0
 11
15.781556
 21
1.812499999999998
 31
0.0
  0
LINE
  5
12F
330
2
100
AcDbEntity
  8
OBJECT
100
AcDbLine
 10
14.875339
 20
1.5
 30
0.0
 11
15.437756
 21
1.5
 31
0.0
  0
CIRCLE
  5
130
330
2
100
AcDbEntity
  8
OBJECT
100
AcDbCircle
 10
16.033845
 20
1.5
 30
0.0
 40
0.0855
  0
LINE
  5
131
330
2
100
AcDbEntity
  8
OBJECT
100
AcDbLine
 10
15.781556
 20
1.812499999999998
 30
0.0
 11
16.315098
 21
1.812499999999998
 31
0.0
  0
LINE
  5
132
330
2
100
AcDbEntity
  8
OBJECT
100
AcDbLine
 10
0.0
 20
0.0
 30
0.0
 11
0.0
 21
1.812499999999998
 31
0.0
  0
CIRCLE
  5
133
330
2
100
AcDbEntity
  8
OBJECT
100
AcDbCircle
 10
0.2814420000000002
 20
0.375
 30
0.0
 40
0.0855
  0
LINE
  5
134
330
2
100
AcDbEntity
  8
OBJECT
100
AcDbLine
 10
0.0
 20
0.0
 30
0.0
 11
0.5289590000000004
 21
0.0
 31
0.0
  0
CIRCLE
  5
135
330
2
100
AcDbEntity
  8
OBJECT
100
AcDbCircle
 10
0.2814420000000002
 20
1.5
 30
0.0
 40
0.0855
  0
LINE
  5
136
330
2
100
AcDbEntity
  8
OBJECT
100
AcDbLine
 10
0.5289590000000004
 20
1.812499999999998
 30
0.0
 11
0.0
 21
1.812499999999998
 31
0.0
  0
ENDSEC
  0
SECTION
  2
OBJECTS
  0
DICTIONARY
  5
9
330
0
100
AcDbDictionary
281
     1
  3
ACAD_COLOR
350
B2
  3
ACAD_GROUP
350
23
  3
ACAD_LAYOUT
350
D
  3
ACAD_MATERIAL
350
B1
  3
ACAD_MLINESTYLE
350
24
  3
ACAD_PLOTSETTINGS
350
25
  3
ACAD_PLOTSTYLENAME
350
8
  3
ACAD_TABLESTYLE
350
B3
  3
ACDBHEADERROUNDTRIPXREC
350
142
  3
AcDbVariableDictionary
350
AD
  0
DICTIONARY
  5
3
330
2
100
AcDbDictionary
280
     1
281
     1
  3
ACAD_SORTENTS
360
137
  0
DICTIONARY
  5
B2
102
{ACAD_REACTORS
330
9
102
}
330
9
100
AcDbDictionary
281
     1
  0
DICTIONARY
  5
23
102
{ACAD_REACTORS
330
9
102
}
330
9
100
AcDbDictionary
281
     1
  0
DICTIONARY
  5
D
102
{ACAD_REACTORS
330
9
102
}
330
9
100
AcDbDictionary
281
     1
  3
Layout1
350
13
  3
Model
350
C
  0
DICTIONARY
  5
B1
102
{ACAD_REACTORS
330
9
102
}
330
9
100
AcDbDictionary
281
     1
  0
DICTIONARY
  5
24
102
{ACAD_REACTORS
330
9
102
}
330
9
100
AcDbDictionary
281
     1
  3
Standard
350
27
  0
DICTIONARY
  5
25
102
{ACAD_REACTORS
330
9
102
}
330
9
100
AcDbDictionary
281
     1
  0
ACDBDICTIONARYWDFLT
  5
8
102
{ACAD_REACTORS
330
9
102
}
330
9
100
AcDbDictionary
281
     1
  3
Normal
350
7
100
AcDbDictionaryWithDefault
340
7
  0
DICTIONARY
  5
B3
102
{ACAD_REACTORS
330
9
102
}
330
9
100
AcDbDictionary
281
     1
  3
Standard
350
B4
  0
DICTIONARY
  5
142
102
{ACAD_REACTORS
330
9
102
}
330
9
100
AcDbDictionary
281
     1
  3
COLORDICT
350
143
  3
MATERIALDICT
350
144
  0
DICTIONARY
  5
AD
102
{ACAD_REACTORS
330
9
102
}
330
9
100
AcDbDictionary
281
     1
  3
CTABLESTYLE
350
13F
  3
HIDETEXT
350
141
  0
SORTENTSTABLE
  5
137
102
{ACAD_REACTORS
330
3
102
}
330
3
100
AcDbSortentsTable
330
2
331
106
  5
106
331
105
  5
105
331
123
  5
123
331
121
  5
121
331
DC
  5
DC
331
DB
  5
DB
331
ED
  5
ED
331
12A
  5
12A
331
F5
  5
F5
331
122
  5
122
331
EE
  5
EE
331
12C
  5
12C
331
D1
  5
D1
331
11C
  5
11C
331
11B
  5
11B
331
10A
  5
10A
331
E5
  5
E5
331
E9
  5
E9
331
CA
  5
CA
331
EC
  5
EC
331
103
  5
103
331
112
  5
112
331
C2
  5
C2
331
EB
  5
EB
331
12E
  5
12E
331
F4
  5
F4
331
CB
  5
CB
331
111
  5
111
331
D7
  5
D7
331
10D
  5
10D
331
FE
  5
FE
331
C3
  5
C3
331
11E
  5
11E
331
D3
  5
D3
331
BA
  5
BA
331
C9
  5
C9
331
113
  5
113
331
107
  5
107
331
134
  5
134
331
FD
  5
FD
331
E6
  5
E6
331
108
  5
108
331
135
  5
135
331
EA
  5
EA
331
B9
  5
B9
331
118
  5
118
331
124
  5
124
331
11A
  5
11A
331
C6
  5
C6
331
E2
  5
E2
331
F1
  5
F1
331
10C
  5
10C
331
133
  5
133
331
10E
  5
10E
331
126
  5
126
331
EF
  5
EF
331
D6
  5
D6
331
CC
  5
CC
331
FB
  5
FB
331
C8
  5
C8
331
BB
  5
BB
331
109
  5
109
331
E3
  5
E3
331
F6
  5
F6
331
F3
  5
F3
331
CE
  5
CE
331
102
  5
102
331
110
  5
110
331
DF
  5
DF
331
C4
  5
C4
331
BD
  5
BD
331
B7
  5
B7
331
E1
  5
E1
331
C1
  5
C1
331
FF
  5
FF
331
C0
  5
C0
331
128
  5
128
331
D4
  5
D4
331
131
  5
131
331
E7
  5
E7
331
136
  5
136
331
C5
  5
C5
331
125
  5
125
331
F9
  5
F9
331
BC
  5
BC
331
114
  5
114
331
10F
  5
10F
331
129
  5
129
331
12B
  5
12B
331
D5
  5
D5
331
127
  5
127
331
101
  5
101
331
F0
  5
F0
331
12F
  5
12F
331
C7
  5
C7
331
E0
  5
E0
331
117
  5
117
331
DA
  5
DA
331
116
  5
116
331
10B
  5
10B
331
D8
  5
D8
331
FC
  5
FC
331
B8
  5
B8
331
F7
  5
F7
331
120
  5
120
331
F8
  5
F8
331
DD
  5
DD
331
D0
  5
D0
331
BE
  5
BE
331
115
  5
115
331
D9
  5
D9
331
11F
  5
11F
331
11D
  5
11D
331
F2
  5
F2
331
CD
  5
CD
331
D2
  5
D2
331
130
  5
130
331
E8
  5
E8
331
DE
  5
DE
331
BF
  5
BF
331
CF
  5
CF
331
119
  5
119
331
FA
  5
FA
331
E4
  5
E4
331
132
  5
132
331
104
  5
104
331
100
  5
100
331
12D
  5
12D
  0
LAYOUT
  5
13
102
{ACAD_REACTORS
330
D
102
}
102
{ACAD_XDICTIONARY
360
145
102
}
330
D
100
AcDbPlotSettings
  1

  2
HP LaserJet 2100 Series PS
  4

  6

 40
0.0
 41
0.0
 42
0.0
 43
0.0
 44
0.0
 45
0.0
 46
0.0
 47
0.0
 48
0.0
 49
0.0
140
0.0
141
0.0
142
1.0
143
1.0
 70
   688
 72
     0
 73
     0
 74
     5
  7

 75
    16
147
1.0
148
0.0
149
0.0
100
AcDbLayout
  1
Layout1
 70
     0
 71
     1
 10
0.0
 20
0.0
 11
12.0
 21
9.0
 12
0.0
 22
0.0
 32
0.0
 14
1.000000000000000E+20
 24
1.000000000000000E+20
 34
1.000000000000000E+20
 15
-1.000000000000000E+20
 25
-1.000000000000000E+20
 35
-1.000000000000000E+20
146
0.0
 13
0.0
 23
0.0
 33
0.0
 16
1.0
 26
0.0
 36
0.0
 17
0.0
 27
1.0
 37
0.0
 76
     0
330
E
  0
LAYOUT
  5
C
102
{ACAD_REACTORS
330
D
102
}
102
{ACAD_XDICTIONARY
360
147
102
}
330
D
100
AcDbPlotSettings
  1

  2
HP LaserJet 2100 Series PS
  4
Letter
  6

 40
5.365749835968018
 41
5.408084392547607
 42
5.4080810546875
 43
5.365753173828125
 44
215.8999938964844
 45
279.3999938964844
 46
0.0
 47
0.0
 48
0.0
 49
0.0
140
0.0
141
0.0
142
1.0
143
1.0
 70
 11952
 72
     0
 73
     1
 74
     0
  7

 75
     0
147
1.0
148
-230.19632761385
149
5.08893089517785
100
AcDbLayout
  1
Model
 70
     1
 71
     0
 10
0.0
 20
0.0
 11
12.0
 21
9.0
 12
0.0
 22
0.0
 32
0.0
 14
0.0
 24
0.0
 34
0.0
 15
0.0
 25
0.0
 35
0.0
146
0.0
 13
0.0
 23
0.0
 33
0.0
 16
1.0
 26
0.0
 36
0.0
 17
0.0
 27
1.0
 37
0.0
 76
     0
330
2
  0
MLINESTYLE
  5
27
102
{ACAD_REACTORS
330
24
102
}
330
24
100
AcDbMlineStyle
  2
STANDARD
 70
     0
  3

 62
   256
 51
90.0
 52
90.0
 71
     2
 49
0.5
 62
   256
  6
BYLAYER
 49
-0.5
 62
   256
  6
BYLAYER
  0
ACDBPLACEHOLDER
  5
7
102
{ACAD_REACTORS
330
8
102
}
330
8
  0
ACAD_PROXY_OBJECT
  5
B4
102
{ACAD_REACTORS
330
B3
102
}
330
B3
100
AcDbProxyObject
 90
      499
 91
      512
 95
   983063
 70
     0
 93
     1841
310
4214DD185B99185C9928B81E85EB51B8AE3F2E07A17AD46E2B8FC02B5E8DC0F42B1CFD028000000C1008070000C3001FDFF8000000C1003FBFF000000182007F7FE00000030400FEFFC00000060801FDFF8000000C1003FBFF00000018200000000000000681FA0B0000001820100E000186003FBFF000000182007F7FE000
310
00030400FEFFC00000060801FDFF8000000C1003FBFF000000182007F7FE000000304000AD7A3703D0AC73F4160000003040201C00030C007F7FE00000030400FEFFC00000060801FDFF8000000C1003FBFF000000182007F7FE00000030400FEFFC000000608000
340
16
340
16
340
16
 94
        0
  0
XRECORD
  5
143
102
{ACAD_REACTORS
330
142
102
}
330
142
100
AcDbXrecord
340
B2
  0
XRECORD
  5
144
102
{ACAD_REACTORS
330
142
102
}
330
142
100
AcDbXrecord
340
B1
  0
DICTIONARYVAR
  5
13F
102
{ACAD_REACTORS
330
AD
102
}
330
AD
100
DictionaryVariables
280
     0
  1
STANDARD
  0
DICTIONARYVAR
  5
141
102
{ACAD_REACTORS
330
AD
102
}
330
AD
100
DictionaryVariables
280
     0
  1
0
  0
DICTIONARY
  5
145
330
13
100
AcDbDictionary
280
     1
281
     1
  3
ACAD_XREC_ROUNDTRIP
360
146
  0
DICTIONARY
  5
147
330
C
100
AcDbDictionary
280
     1
281
     1
  3
ACAD_XREC_ROUNDTRIP
360
148
  0
XRECORD
  5
146
102
{ACAD_REACTORS
330
145
102
}
330
145
100
AcDbXrecord
102
SHADEPLOT
 70
     0
102
SHADEPLOTRESLEVEL
 70
     2
102
SHADEPLOTCUSTOMDPI
 70
   300
  0
XRECORD
  5
148
102
{ACAD_REACTORS
330
147
102
}
330
147
100
AcDbXrecord
102
SHADEPLOT
 70
     0
102
SHADEPLOTRESLEVEL
 70
     2
102
SHADEPLOTCUSTOMDPI
 70
   300
  0
ENDSEC
  0
EOF
