  0
SECTION
  2
HEADER
  9
$ACADVER
  1
AC1015
  9
$ACADMAINTVER
 70
     6
  9
$DWGCODEPAGE
  3
ANSI_1252
  9
$INSBASE
 10
0.0
 20
0.0
 30
0.0
  9
$EXTMIN
 10
-0.0019224900729924
 20
-0.3127296619201374
 30
-0.0000000349181948
  9
$EXTMAX
 10
23.31280718300068
 20
1.813099150959666
 30
0.0000000814935746
  9
$LIMMIN
 10
0.0
 20
0.0
  9
$LIMMAX
 10
31.5
 20
24.0
  9
$ORTHOMODE
 70
     0
  9
$REGENMODE
 70
     1
  9
$FILLMODE
 70
     1
  9
$QTEXTMODE
 70
     0
  9
$MIRRTEXT
 70
     1
  9
$LTSCALE
 40
1.0
  9
$ATTMODE
 70
     1
  9
$TEXTSIZE
 40
0.27
  9
$TRACEWID
 40
0.05
  9
$TEXTSTYLE
  7
STANDARD
  9
$CLAYER
  8
OBJECT
  9
$CELTYPE
  6
ByLayer
  9
$CECOLOR
 62
   256
  9
$CELTSCALE
 40
1.0
  9
$DISPSILH
 70
     0
  9
$DIMSCALE
 40
1.0
  9
$DIMASZ
 40
0.375
  9
$DIMEXO
 40
0.0625
  9
$DIMDLI
 40
0.75
  9
$DIMRND
 40
0.0
  9
$DIMDLE
 40
0.0
  9
$DIMEXE
 40
0.18
  9
$DIMTP
 40
0.0
  9
$DIMTM
 40
0.0
  9
$DIMTXT
 40
0.27
  9
$DIMCEN
 40
-0.06
  9
$DIMTSZ
 40
0.0
  9
$DIMTOL
 70
     0
  9
$DIMLIM
 70
     0
  9
$DIMTIH
 70
     1
  9
$DIMTOH
 70
     1
  9
$DIMSE1
 70
     0
  9
$DIMSE2
 70
     0
  9
$DIMTAD
 70
     0
  9
$DIMZIN
 70
     0
  9
$DIMBLK
  1

  9
$DIMASO
 70
     0
  9
$DIMSHO
 70
     0
  9
$DIMPOST
  1

  9
$DIMAPOST
  1

  9
$DIMALT
 70
     0
  9
$DIMALTD
 70
     2
  9
$DIMALTF
 40
25.4
  9
$DIMLFAC
 40
1.0
  9
$DIMTOFL
 70
     0
  9
$DIMTVP
 40
0.0
  9
$DIMTIX
 70
     0
  9
$DIMSOXD
 70
     0
  9
$DIMSAH
 70
     0
  9
$DIMBLK1
  1

  9
$DIMBLK2
  1

  9
$DIMSTYLE
  2
Standard
  9
$DIMCLRD
 70
     0
  9
$DIMCLRE
 70
     0
  9
$DIMCLRT
 70
     0
  9
$DIMTFAC
 40
1.0
  9
$DIMGAP
 40
0.09
  9
$DIMJUST
 70
     0
  9
$DIMSD1
 70
     0
  9
$DIMSD2
 70
     0
  9
$DIMTOLJ
 70
     1
  9
$DIMTZIN
 70
     0
  9
$DIMALTZ
 70
     0
  9
$DIMALTTZ
 70
     0
  9
$DIMUPT
 70
     0
  9
$DIMDEC
 70
     4
  9
$DIMTDEC
 70
     4
  9
$DIMALTU
 70
     2
  9
$DIMALTTD
 70
     2
  9
$DIMTXSTY
  7
STANDARD
  9
$DIMAUNIT
 70
     0
  9
$DIMADEC
 70
     0
  9
$DIMALTRND
 40
0.0
  9
$DIMAZIN
 70
     0
  9
$DIMDSEP
 70
    46
  9
$DIMATFIT
 70
     3
  9
$DIMFRAC
 70
     0
  9
$DIMLDRBLK
  1

  9
$DIMLUNIT
 70
     2
  9
$DIMLWD
 70
    -2
  9
$DIMLWE
 70
    -2
  9
$DIMTMOVE
 70
     2
  9
$LUNITS
 70
     2
  9
$LUPREC
 70
     4
  9
$SKETCHINC
 40
0.1
  9
$FILLETRAD
 40
0.0
  9
$AUNITS
 70
     0
  9
$AUPREC
 70
     0
  9
$MENU
  1
ACAD
  9
$ELEVATION
 40
0.0
  9
$PELEVATION
 40
0.0
  9
$THICKNESS
 40
0.0
  9
$LIMCHECK
 70
     0
  9
$CHAMFERA
 40
0.0
  9
$CHAMFERB
 40
0.0
  9
$CHAMFERC
 40
0.0
  9
$CHAMFERD
 40
0.0
  9
$SKPOLY
 70
     0
  9
$TDCREATE
 40
2448863.966498958
  9
$TDUCREATE
 40
2448864.299832291
  9
$TDUPDATE
 40
2453851.001335012
  9
$TDUUPDATE
 40
2453851.334668345
  9
$TDINDWG
 40
0.0438617824
  9
$TDUSRTIMER
 40
0.0438617824
  9
$USRTIMER
 70
     1
  9
$ANGBASE
 50
0.0
  9
$ANGDIR
 70
     0
  9
$PDMODE
 70
     0
  9
$PDSIZE
 40
0.0
  9
$PLINEWID
 40
0.0
  9
$SPLFRAME
 70
     0
  9
$SPLINETYPE
 70
     6
  9
$SPLINESEGS
 70
     8
  9
$HANDSEED
  5
23B
  9
$SURFTAB1
 70
     6
  9
$SURFTAB2
 70
     6
  9
$SURFTYPE
 70
     6
  9
$SURFU
 70
     6
  9
$SURFV
 70
     6
  9
$UCSBASE
  2

  9
$UCSNAME
  2

  9
$UCSORG
 10
0.0
 20
0.0
 30
0.0
  9
$UCSXDIR
 10
1.0
 20
0.0
 30
0.0
  9
$UCSYDIR
 10
0.0
 20
1.0
 30
0.0
  9
$UCSORTHOREF
  2

  9
$UCSORTHOVIEW
 70
     0
  9
$UCSORGTOP
 10
0.0
 20
0.0
 30
0.0
  9
$UCSORGBOTTOM
 10
0.0
 20
0.0
 30
0.0
  9
$UCSORGLEFT
 10
0.0
 20
0.0
 30
0.0
  9
$UCSORGRIGHT
 10
0.0
 20
0.0
 30
0.0
  9
$UCSORGFRONT
 10
0.0
 20
0.0
 30
0.0
  9
$UCSORGBACK
 10
0.0
 20
0.0
 30
0.0
  9
$PUCSBASE
  2

  9
$PUCSNAME
  2

  9
$PUCSORG
 10
0.0
 20
0.0
 30
0.0
  9
$PUCSXDIR
 10
1.0
 20
0.0
 30
0.0
  9
$PUCSYDIR
 10
0.0
 20
1.0
 30
0.0
  9
$PUCSORTHOREF
  2

  9
$PUCSORTHOVIEW
 70
     0
  9
$PUCSORGTOP
 10
0.0
 20
0.0
 30
0.0
  9
$PUCSORGBOTTOM
 10
0.0
 20
0.0
 30
0.0
  9
$PUCSORGLEFT
 10
0.0
 20
0.0
 30
0.0
  9
$PUCSORGRIGHT
 10
0.0
 20
0.0
 30
0.0
  9
$PUCSORGFRONT
 10
0.0
 20
0.0
 30
0.0
  9
$PUCSORGBACK
 10
0.0
 20
0.0
 30
0.0
  9
$USERI1
 70
     0
  9
$USERI2
 70
     0
  9
$USERI3
 70
     0
  9
$USERI4
 70
     0
  9
$USERI5
 70
     0
  9
$USERR1
 40
0.0
  9
$USERR2
 40
0.0
  9
$USERR3
 40
0.0
  9
$USERR4
 40
0.0
  9
$USERR5
 40
0.0
  9
$WORLDVIEW
 70
     1
  9
$SHADEDGE
 70
     3
  9
$SHADEDIF
 70
    70
  9
$TILEMODE
 70
     1
  9
$MAXACTVP
 70
    16
  9
$PINSBASE
 10
0.0
 20
0.0
 30
0.0
  9
$PLIMCHECK
 70
     0
  9
$PEXTMIN
 10
1.000000000000000E+20
 20
1.000000000000000E+20
 30
1.000000000000000E+20
  9
$PEXTMAX
 10
-1.000000000000000E+20
 20
-1.000000000000000E+20
 30
-1.000000000000000E+20
  9
$PLIMMIN
 10
0.0
 20
0.0
  9
$PLIMMAX
 10
12.0
 20
9.0
  9
$UNITMODE
 70
     0
  9
$VISRETAIN
 70
     0
  9
$PLINEGEN
 70
     0
  9
$PSLTSCALE
 70
     0
  9
$TREEDEPTH
 70
  3020
  9
$CMLSTYLE
  2
Standard
  9
$CMLJUST
 70
     0
  9
$CMLSCALE
 40
1.0
  9
$PROXYGRAPHICS
 70
     1
  9
$MEASUREMENT
 70
     0
  9
$CELWEIGHT
370
    -1
  9
$ENDCAPS
280
     0
  9
$JOINSTYLE
280
     0
  9
$LWDISPLAY
290
     0
  9
$INSUNITS
 70
     0
  9
$HYPERLINKBASE
  1

  9
$STYLESHEET
  1

  9
$XEDIT
290
     1
  9
$CEPSNTYPE
380
     0
  9
$PSTYLEMODE
290
     1
  9
$FINGERPRINTGUID
  2
{B13C5970-2CEA-11D6-BE3F-00508B5FCD51}
  9
$VERSIONGUID
  2
{C2ADE87C-3D73-4D68-A794-C72CB15FDD6A}
  9
$EXTNAMES
290
     1
  9
$PSVPSCALE
 40
0.0
  9
$OLESTARTUP
290
     0
  0
ENDSEC
  0
SECTION
  2
CLASSES
  0
CLASS
  1
ACDBDICTIONARYWDFLT
  2
AcDbDictionaryWithDefault
  3
AutoCAD 2000
 90
        0
280
     0
281
     0
  0
CLASS
  1
ACDBPLACEHOLDER
  2
AcDbPlaceHolder
  3
ObjectDBX Classes
 90
        0
280
     0
281
     0
  0
CLASS
  1
LAYOUT
  2
AcDbLayout
  3
ObjectDBX Classes
 90
        0
280
     0
281
     0
  0
CLASS
  1
LONG_TRANSACTION
  2
AcDbLongTransaction
  3
AutoCAD 2000
 90
   -65536
280
     1
281
     0
  0
CLASS
  1
LWPOLYLINE
  2
AcDbPolyline
  3
AutoCAD 2000
 90
        0
280
     0
281
     1
  0
CLASS
  1
HATCH
  2
AcDbHatch
  3
AutoCAD 2000
 90
        0
280
     0
281
     1
  0
CLASS
  1
XRECORD
  2
AcDbXrecord
  3
AutoCAD 2000
 90
        0
280
     0
281
     0
  0
CLASS
  1
LONG_TRANSACTION
  2
AcDbLongTransaction
  3
AutoCAD 2000
 90
   -65536
280
     1
281
     0
  0
CLASS
  1
LWPOLYLINE
  2
AcDbPolyline
  3
AutoCAD 2000
 90
        0
280
     0
281
     1
  0
CLASS
  1
HATCH
  2
AcDbHatch
  3
AutoCAD 2000
 90
        0
280
     0
281
     1
  0
CLASS
  1
XRECORD
  2
AcDbXrecord
  3
AutoCAD 2000
 90
        0
280
     0
281
     0
  0
CLASS
  1
DICTIONARYVAR
  2
AcDbDictionaryVar
  3
AutoCAD 2000
 90
        0
280
     0
281
     0
  0
CLASS
  1
TABLESTYLE
  2
AcDbTableStyle
  3
ObjectDBX Classes
 90
     2047
280
     1
281
     0
  0
CLASS
  1
SORTENTSTABLE
  2
AcDbSortentsTable
  3
AutoCAD 2000
 90
        0
280
     0
281
     0
  0
ENDSEC
  0
SECTION
  2
TABLES
  0
TABLE
  2
VPORT
  5
1D
330
0
100
AcDbSymbolTable
 70
     2
  0
VPORT
  5
232
330
1D
100
AcDbSymbolTableRecord
100
AcDbViewportTableRecord
  2
*Active
 70
     0
 10
0.0
 20
0.0
 11
1.0
 21
1.0
 12
15.7490387549635
 22
11.84363516903993
 13
0.0
 23
0.0
 14
0.0625
 24
0.0625
 15
0.5
 25
0.5
 16
0.0
 26
0.0
 36
1.0
 17
0.0
 27
0.0
 37
0.0
 40
24.58387534588207
 41
1.592178770949721
 42
50.0
 43
0.0
 44
0.0
 50
0.0
 51
0.0
 71
     0
 72
   100
 73
     1
 74
     0
 75
     0
 76
     0
 77
     0
 78
     0
281
     0
 65
     1
110
0.0
120
0.0
130
0.0
111
1.0
121
0.0
131
0.0
112
0.0
122
1.0
132
0.0
 79
     0
146
0.0
  0
ENDTAB
  0
TABLE
  2
LTYPE
  5
18
330
0
100
AcDbSymbolTable
 70
     1
  0
LTYPE
  5
19
330
18
100
AcDbSymbolTableRecord
100
AcDbLinetypeTableRecord
  2
ByBlock
 70
     0
  3

 72
    65
 73
     0
 40
0.0
  0
LTYPE
  5
1A
330
18
100
AcDbSymbolTableRecord
100
AcDbLinetypeTableRecord
  2
ByLayer
 70
     0
  3

 72
    65
 73
     0
 40
0.0
  0
LTYPE
  5
A
330
18
100
AcDbSymbolTableRecord
100
AcDbLinetypeTableRecord
  2
CONTINUOUS
 70
     0
  3
Solid line
 72
    65
 73
     0
 40
0.0
  0
ENDTAB
  0
TABLE
  2
LAYER
  5
14
330
0
100
AcDbSymbolTable
 70
     2
  0
LAYER
  5
6
330
14
100
AcDbSymbolTableRecord
100
AcDbLayerTableRecord
  2
0
 70
     0
 62
    -1
  6
CONTINUOUS
370
    -3
390
7
  0
LAYER
  5
26
330
14
100
AcDbSymbolTableRecord
100
AcDbLayerTableRecord
  2
OBJECT
 70
     0
 62
     7
  6
CONTINUOUS
370
    -3
390
7
  0
ENDTAB
  0
TABLE
  2
STYLE
  5
15
330
0
100
AcDbSymbolTable
 70
     1
  0
STYLE
  5
16
330
15
100
AcDbSymbolTableRecord
100
AcDbTextStyleTableRecord
  2
STANDARD
 70
     0
 40
0.0
 41
1.0
 50
0.0
 71
     0
 42
0.27
  3
TXT
  4

  0
ENDTAB
  0
TABLE
  2
VIEW
  5
1B
330
0
100
AcDbSymbolTable
 70
     0
  0
ENDTAB
  0
TABLE
  2
UCS
  5
1C
330
0
100
AcDbSymbolTable
 70
     0
  0
ENDTAB
  0
TABLE
  2
APPID
  5
1F
330
0
100
AcDbSymbolTable
 70
     1
  0
APPID
  5
20
330
1F
100
AcDbSymbolTableRecord
100
AcDbRegAppTableRecord
  2
ACAD
 70
     0
  0
ENDTAB
  0
TABLE
  2
DIMSTYLE
  5
21
330
0
100
AcDbSymbolTable
 70
     1
100
AcDbDimStyleTable
  0
DIMSTYLE
105
28
330
21
100
AcDbSymbolTableRecord
100
AcDbDimStyleTableRecord
  2
Standard
 70
     0
  3

  4

340
16
  0
ENDTAB
  0
TABLE
  2
BLOCK_RECORD
  5
1
330
0
100
AcDbSymbolTable
 70
     0
  0
BLOCK_RECORD
  5
2
102
{ACAD_XDICTIONARY
360
3
102
}
330
1
100
AcDbSymbolTableRecord
100
AcDbBlockTableRecord
  2
*Model_Space
340
C
  0
BLOCK_RECORD
  5
E
330
1
100
AcDbSymbolTableRecord
100
AcDbBlockTableRecord
  2
*Paper_Space
340
13
  0
ENDTAB
  0
ENDSEC
  0
SECTION
  2
BLOCKS
  0
BLOCK
  5
5
330
2
100
AcDbEntity
  8
0
100
AcDbBlockBegin
  2
*Model_Space
 70
     0
 10
0.0
 20
0.0
 30
0.0
  3
*Model_Space
  1

  4

  0
ENDBLK
  5
B
330
2
100
AcDbEntity
  8
0
100
AcDbBlockEnd
  0
BLOCK
  5
11
330
E
100
AcDbEntity
 67
     1
  8
0
100
AcDbBlockBegin
  2
*Paper_Space
 70
     0
 10
0.0
 20
0.0
 30
0.0
  3
*Paper_Space
  1

  4

  0
ENDBLK
  5
12
330
E
100
AcDbEntity
 67
     1
  8
0
100
AcDbBlockEnd
  0
ENDSEC
  0
SECTION
  2
ENTITIES
  0
LINE
  5
12E
330
2
100
AcDbEntity
  8
OBJECT
100
AcDbLine
 10
16.273454
 20
0.0
 30
0.0
 11
16.585954
 21
-0.3125
 31
0.0
  0
LINE
  5
12F
330
2
100
AcDbEntity
  8
OBJECT
100
AcDbLine
 10
16.310241
 20
1.8125
 30
0.0
 11
16.622741
 21
1.5
 31
0.0
  0
LINE
  5
130
330
2
100
AcDbEntity
  8
OBJECT
100
AcDbLine
 10
2.588245
 20
-0.3125
 30
0.0
 11
3.150745000000001
 21
-0.3125
 31
0.0
  0
LINE
  5
131
330
2
100
AcDbEntity
  8
OBJECT
100
AcDbLine
 10
2.588245
 20
-0.3125
 30
0.0
 11
3.150745000000001
 21
-0.3125
 31
0.0
  0
LINE
  5
132
330
2
100
AcDbEntity
  8
OBJECT
100
AcDbLine
 10
2.591459
 20
-0.3125
 30
0.0
 11
3.153959
 21
-0.3125
 31
0.0
  0
LINE
  5
133
330
2
100
AcDbEntity
  8
OBJECT
100
AcDbLine
 10
2.628246000000001
 20
1.5
 30
0.0
 11
3.187533
 21
1.5
 31
0.0
  0
LINE
  5
134
330
2
100
AcDbEntity
  8
OBJECT
100
AcDbLine
 10
0.0
 20
0.0
 30
0.0
 11
0.0
 21
1.8125
 31
0.0
  0
LINE
  5
135
330
2
100
AcDbEntity
  8
OBJECT
100
AcDbLine
 10
0.8414589999999995
 20
-0.3125
 30
0.0
 11
1.403959
 21
-0.3125
 31
0.0
  0
LINE
  5
136
330
2
100
AcDbEntity
  8
OBJECT
100
AcDbLine
 10
0.8414589999999995
 20
-0.3125
 30
0.0
 11
1.403959
 21
-0.3125
 31
0.0
  0
LINE
  5
137
330
2
100
AcDbEntity
  8
OBJECT
100
AcDbLine
 10
0.0
 20
0.0
 30
0.0
 11
0.5289589999999995
 21
0.0
 31
0.0
  0
LINE
  5
138
330
2
100
AcDbEntity
  8
OBJECT
100
AcDbLine
 10
0.5289589999999995
 20
0.0
 30
0.0
 11
0.8414589999999995
 21
-0.3125
 31
0.0
  0
CIRCLE
  5
13B
330
2
100
AcDbEntity
  8
OBJECT
100
AcDbCircle
 10
1.122709
 20
0.0
 30
0.0
 40
0.0855
  0
LINE
  5
13C
330
2
100
AcDbEntity
  8
OBJECT
100
AcDbLine
 10
1.716459
 20
0.0
 30
0.0
 11
2.275745
 21
0.0
 31
0.0
  0
LINE
  5
13D
330
2
100
AcDbEntity
  8
OBJECT
100
AcDbLine
 10
1.403959
 20
-0.3125
 30
0.0
 11
1.716459
 21
0.0
 31
0.0
  0
LINE
  5
13E
330
2
100
AcDbEntity
  8
OBJECT
100
AcDbLine
 10
2.275745
 20
0.0
 30
0.0
 11
2.588245
 21
-0.3125
 31
0.0
  0
CIRCLE
  5
141
330
2
100
AcDbEntity
  8
OBJECT
100
AcDbCircle
 10
2.872709
 20
0.0
 30
0.0
 40
0.0855
  0
CIRCLE
  5
143
330
2
100
AcDbEntity
  8
OBJECT
100
AcDbCircle
 10
1.000023000000001
 20
0.75
 30
0.0
 40
0.281
  0
LINE
  5
144
330
2
100
AcDbEntity
  8
OBJECT
100
AcDbLine
 10
0.8785989999999995
 20
1.5
 30
0.0
 11
1.440746000000001
 21
1.5
 31
0.0
  0
CIRCLE
  5
147
330
2
100
AcDbEntity
  8
OBJECT
100
AcDbCircle
 10
0.2814410000000001
 20
0.375
 30
0.0
 40
0.0855
  0
LINE
  5
14D
330
2
100
AcDbEntity
  8
OBJECT
100
AcDbLine
 10
0.5289589999999995
 20
1.8125
 30
0.0
 11
0.0
 21
1.8125
 31
0.0
  0
CIRCLE
  5
150
330
2
100
AcDbEntity
  8
OBJECT
100
AcDbCircle
 10
0.2814410000000001
 20
1.5
 30
0.0
 40
0.0855
  0
LINE
  5
151
330
2
100
AcDbEntity
  8
OBJECT
100
AcDbLine
 10
0.8785989999999995
 20
1.5
 30
0.0
 11
0.5289589999999995
 21
1.8125
 31
0.0
  0
LINE
  5
152
330
2
100
AcDbEntity
  8
OBJECT
100
AcDbLine
 10
1.753246000000001
 20
1.8125
 30
0.0
 11
2.315746000000001
 21
1.8125
 31
0.0
  0
LINE
  5
153
330
2
100
AcDbEntity
  8
OBJECT
100
AcDbLine
 10
1.753246000000001
 20
1.8125
 30
0.0
 11
2.315746000000001
 21
1.8125
 31
0.0
  0
LINE
  5
154
330
2
100
AcDbEntity
  8
OBJECT
100
AcDbLine
 10
1.440746000000001
 20
1.5
 30
0.0
 11
1.753246000000001
 21
1.8125
 31
0.0
  0
CIRCLE
  5
157
330
2
100
AcDbEntity
  8
OBJECT
100
AcDbCircle
 10
2.029938000000001
 20
1.5
 30
0.0
 40
0.0855
  0
LINE
  5
158
330
2
100
AcDbEntity
  8
OBJECT
100
AcDbLine
 10
2.315746000000001
 20
1.8125
 30
0.0
 11
2.628246000000001
 21
1.5
 31
0.0
  0
LINE
  5
159
330
2
100
AcDbEntity
  8
OBJECT
100
AcDbLine
 10
9.629169000000001
 20
1.5
 30
0.0
 11
10.188455
 21
1.5
 31
0.0
  0
LINE
  5
15A
330
2
100
AcDbEntity
  8
OBJECT
100
AcDbLine
 10
9.589167000000002
 20
-0.3125
 30
0.0
 11
10.151667
 21
-0.3125
 31
0.0
  0
LINE
  5
15B
330
2
100
AcDbEntity
  8
OBJECT
100
AcDbLine
 10
9.589167000000002
 20
-0.3125
 30
0.0
 11
10.151667
 21
-0.3125
 31
0.0
  0
LINE
  5
15C
330
2
100
AcDbEntity
  8
OBJECT
100
AcDbLine
 10
9.592381
 20
-0.3125
 30
0.0
 11
10.154881
 21
-0.3125
 31
0.0
  0
CIRCLE
  5
15E
330
2
100
AcDbEntity
  8
OBJECT
100
AcDbCircle
 10
6.370417
 20
0.0
 30
0.0
 40
0.0855
  0
LINE
  5
15F
330
2
100
AcDbEntity
  8
OBJECT
100
AcDbLine
 10
6.089167
 20
-0.3125
 30
0.0
 11
6.651667
 21
-0.3125
 31
0.0
  0
LINE
  5
160
330
2
100
AcDbEntity
  8
OBJECT
100
AcDbLine
 10
6.089167
 20
-0.3125
 30
0.0
 11
6.651667
 21
-0.3125
 31
0.0
  0
LINE
  5
161
330
2
100
AcDbEntity
  8
OBJECT
100
AcDbLine
 10
6.125649000000001
 20
1.5
 30
0.0
 11
6.688455000000001
 21
1.5
 31
0.0
  0
CIRCLE
  5
163
330
2
100
AcDbEntity
  8
OBJECT
100
AcDbCircle
 10
4.619800999999999
 20
0.0
 30
0.0
 40
0.0855
  0
LINE
  5
164
330
2
100
AcDbEntity
  8
OBJECT
100
AcDbLine
 10
4.338550999999999
 20
-0.3125
 30
0.0
 11
4.901050999999999
 21
-0.3125
 31
0.0
  0
LINE
  5
165
330
2
100
AcDbEntity
  8
OBJECT
100
AcDbLine
 10
4.338550999999999
 20
-0.3125
 30
0.0
 11
4.901050999999999
 21
-0.3125
 31
0.0
  0
LINE
  5
166
330
2
100
AcDbEntity
  8
OBJECT
100
AcDbLine
 10
3.463245000000001
 20
0.0
 30
0.0
 11
4.026050999999999
 21
0.0
 31
0.0
  0
LINE
  5
167
330
2
100
AcDbEntity
  8
OBJECT
100
AcDbLine
 10
3.150745000000001
 20
-0.3125
 30
0.0
 11
3.463245000000001
 21
0.0
 31
0.0
  0
LINE
  5
168
330
2
100
AcDbEntity
  8
OBJECT
100
AcDbLine
 10
4.026050999999999
 20
0.0
 30
0.0
 11
4.338550999999999
 21
-0.3125
 31
0.0
  0
LINE
  5
16A
330
2
100
AcDbEntity
  8
OBJECT
100
AcDbLine
 10
5.213861
 20
0.0
 30
0.0
 11
5.776667
 21
0.0
 31
0.0
  0
LINE
  5
16B
330
2
100
AcDbEntity
  8
OBJECT
100
AcDbLine
 10
4.901050999999999
 20
-0.3125
 30
0.0
 11
5.213550999999999
 21
0.0
 31
0.0
  0
LINE
  5
16C
330
2
100
AcDbEntity
  8
OBJECT
100
AcDbLine
 10
5.776667
 20
0.0
 30
0.0
 11
6.089167
 21
-0.3125
 31
0.0
  0
LINE
  5
16D
330
2
100
AcDbEntity
  8
OBJECT
100
AcDbLine
 10
4.375033
 20
1.5
 30
0.0
 11
4.937839
 21
1.5
 31
0.0
  0
CIRCLE
  5
16F
330
2
100
AcDbEntity
  8
OBJECT
100
AcDbCircle
 10
3.786544000000001
 20
1.5
 30
0.0
 40
0.0855
  0
LINE
  5
170
330
2
100
AcDbEntity
  8
OBJECT
100
AcDbLine
 10
3.503246000000001
 20
1.8125
 30
0.0
 11
4.065746000000001
 21
1.8125
 31
0.0
  0
LINE
  5
171
330
2
100
AcDbEntity
  8
OBJECT
100
AcDbLine
 10
3.500033
 20
1.8125
 30
0.0
 11
4.062533
 21
1.8125
 31
0.0
  0
LINE
  5
172
330
2
100
AcDbEntity
  8
OBJECT
100
AcDbLine
 10
3.500033
 20
1.8125
 30
0.0
 11
4.062533
 21
1.8125
 31
0.0
  0
LINE
  5
173
330
2
100
AcDbEntity
  8
OBJECT
100
AcDbLine
 10
3.187533
 20
1.5
 30
0.0
 11
3.500033
 21
1.8125
 31
0.0
  0
LINE
  5
175
330
2
100
AcDbEntity
  8
OBJECT
100
AcDbLine
 10
4.062533
 20
1.8125
 30
0.0
 11
4.375033
 21
1.5
 31
0.0
  0
CIRCLE
  5
177
330
2
100
AcDbEntity
  8
OBJECT
100
AcDbCircle
 10
5.529097
 20
1.5
 30
0.0
 40
0.0855
  0
LINE
  5
178
330
2
100
AcDbEntity
  8
OBJECT
100
AcDbLine
 10
5.250339
 20
1.8125
 30
0.0
 11
5.812839
 21
1.8125
 31
0.0
  0
LINE
  5
179
330
2
100
AcDbEntity
  8
OBJECT
100
AcDbLine
 10
5.250339
 20
1.8125
 30
0.0
 11
5.812839
 21
1.8125
 31
0.0
  0
LINE
  5
17A
330
2
100
AcDbEntity
  8
OBJECT
100
AcDbLine
 10
4.937839
 20
1.5
 30
0.0
 11
5.250339
 21
1.8125
 31
0.0
  0
LINE
  5
17B
330
2
100
AcDbEntity
  8
OBJECT
100
AcDbLine
 10
5.812839
 20
1.8125
 30
0.0
 11
6.125339
 21
1.5
 31
0.0
  0
CIRCLE
  5
17E
330
2
100
AcDbEntity
  8
OBJECT
100
AcDbCircle
 10
8.120555
 20
0.0
 30
0.0
 40
0.0855
  0
LINE
  5
17F
330
2
100
AcDbEntity
  8
OBJECT
100
AcDbLine
 10
7.839305
 20
-0.3125
 30
0.0
 11
8.401805
 21
-0.3125
 31
0.0
  0
LINE
  5
180
330
2
100
AcDbEntity
  8
OBJECT
100
AcDbLine
 10
6.963999000000001
 20
0.0
 30
0.0
 11
7.526805
 21
0.0
 31
0.0
  0
LINE
  5
181
330
2
100
AcDbEntity
  8
OBJECT
100
AcDbLine
 10
6.651667
 20
-0.3125
 30
0.0
 11
6.964167
 21
0.0
 31
0.0
  0
LINE
  5
183
330
2
100
AcDbEntity
  8
OBJECT
100
AcDbLine
 10
7.526805
 20
0.0
 30
0.0
 11
7.839305
 21
-0.3125
 31
0.0
  0
LINE
  5
184
330
2
100
AcDbEntity
  8
OBJECT
100
AcDbLine
 10
8.714167000000002
 20
0.0
 30
0.0
 11
9.273454000000001
 21
0.0
 31
0.0
  0
LINE
  5
185
330
2
100
AcDbEntity
  8
OBJECT
100
AcDbLine
 10
8.401805
 20
-0.3125
 30
0.0
 11
8.714305
 21
0.0
 31
0.0
  0
LINE
  5
187
330
2
100
AcDbEntity
  8
OBJECT
100
AcDbLine
 10
9.276667000000002
 20
0.0
 30
0.0
 11
9.589167000000002
 21
-0.3125
 31
0.0
  0
LINE
  5
188
330
2
100
AcDbEntity
  8
OBJECT
100
AcDbLine
 10
7.875786999999999
 20
1.5
 30
0.0
 11
8.438592999999999
 21
1.5
 31
0.0
  0
CIRCLE
  5
189
330
2
100
AcDbEntity
  8
OBJECT
100
AcDbCircle
 10
7.285703999999999
 20
1.5
 30
0.0
 40
0.0855
  0
LINE
  5
18A
330
2
100
AcDbEntity
  8
OBJECT
100
AcDbLine
 10
7.000955000000001
 20
1.8125
 30
0.0
 11
7.563455000000001
 21
1.8125
 31
0.0
  0
LINE
  5
18B
330
2
100
AcDbEntity
  8
OBJECT
100
AcDbLine
 10
7.000955000000001
 20
1.8125
 30
0.0
 11
7.563455000000001
 21
1.8125
 31
0.0
  0
LINE
  5
18C
330
2
100
AcDbEntity
  8
OBJECT
100
AcDbLine
 10
6.688455000000001
 20
1.5
 30
0.0
 11
7.000955000000001
 21
1.8125
 31
0.0
  0
LINE
  5
18D
330
2
100
AcDbEntity
  8
OBJECT
100
AcDbLine
 10
7.563455000000001
 20
1.8125
 30
0.0
 11
7.875955000000001
 21
1.5
 31
0.0
  0
LINE
  5
190
330
2
100
AcDbEntity
  8
OBJECT
100
AcDbLine
 10
8.751092999999999
 20
1.8125
 30
0.0
 11
9.313454999999999
 21
1.8125
 31
0.0
  0
LINE
  5
191
330
2
100
AcDbEntity
  8
OBJECT
100
AcDbLine
 10
8.438592999999999
 20
1.5
 30
0.0
 11
8.751092999999999
 21
1.8125
 31
0.0
  0
LINE
  5
192
330
2
100
AcDbEntity
  8
OBJECT
100
AcDbLine
 10
9.313454999999999
 20
1.8125
 30
0.0
 11
9.625954999999999
 21
1.5
 31
0.0
  0
CIRCLE
  5
195
330
2
100
AcDbEntity
  8
OBJECT
100
AcDbCircle
 10
9.028257
 20
1.5
 30
0.0
 40
0.0855
  0
LINE
  5
196
330
2
100
AcDbEntity
  8
OBJECT
100
AcDbLine
 10
13.085954
 20
-0.3125
 30
0.0
 11
13.648454
 21
-0.3125
 31
0.0
  0
LINE
  5
197
330
2
100
AcDbEntity
  8
OBJECT
100
AcDbLine
 10
13.085954
 20
-0.3125
 30
0.0
 11
13.648454
 21
-0.3125
 31
0.0
  0
LINE
  5
198
330
2
100
AcDbEntity
  8
OBJECT
100
AcDbLine
 10
13.089167
 20
-0.3125
 30
0.0
 11
13.651667
 21
-0.3125
 31
0.0
  0
LINE
  5
199
330
2
100
AcDbEntity
  8
OBJECT
100
AcDbLine
 10
13.125955
 20
1.5
 30
0.0
 11
13.685241
 21
1.5
 31
0.0
  0
LINE
  5
19A
330
2
100
AcDbEntity
  8
OBJECT
100
AcDbLine
 10
11.339167
 20
-0.3125
 30
0.0
 11
11.901667
 21
-0.3125
 31
0.0
  0
LINE
  5
19B
330
2
100
AcDbEntity
  8
OBJECT
100
AcDbLine
 10
11.335954
 20
-0.3125
 30
0.0
 11
11.898454
 21
-0.3125
 31
0.0
  0
LINE
  5
19C
330
2
100
AcDbEntity
  8
OBJECT
100
AcDbLine
 10
11.335954
 20
-0.3125
 30
0.0
 11
11.898454
 21
-0.3125
 31
0.0
  0
LINE
  5
19D
330
2
100
AcDbEntity
  8
OBJECT
100
AcDbLine
 10
10.464167
 20
0.0
 30
0.0
 11
11.023454
 21
0.0
 31
0.0
  0
LINE
  5
19E
330
2
100
AcDbEntity
  8
OBJECT
100
AcDbLine
 10
10.151667
 20
-0.3125
 30
0.0
 11
10.464167
 21
0.0
 31
0.0
  0
CIRCLE
  5
19F
330
2
100
AcDbEntity
  8
OBJECT
100
AcDbCircle
 10
9.873631
 20
0.0
 30
0.0
 40
0.0855
  0
LINE
  5
1A2
330
2
100
AcDbEntity
  8
OBJECT
100
AcDbLine
 10
11.023454
 20
0.0
 30
0.0
 11
11.335954
 21
-0.3125
 31
0.0
  0
LINE
  5
1A3
330
2
100
AcDbEntity
  8
OBJECT
100
AcDbLine
 10
12.214167
 20
0.0
 30
0.0
 11
12.773454
 21
0.0
 31
0.0
  0
LINE
  5
1A4
330
2
100
AcDbEntity
  8
OBJECT
100
AcDbLine
 10
11.898454
 20
-0.3125
 30
0.0
 11
12.210954
 21
0.0
 31
0.0
  0
CIRCLE
  5
1A7
330
2
100
AcDbEntity
  8
OBJECT
100
AcDbCircle
 10
11.620417
 20
0.0
 30
0.0
 40
0.0855
  0
LINE
  5
1A8
330
2
100
AcDbEntity
  8
OBJECT
100
AcDbLine
 10
12.773454
 20
0.0
 30
0.0
 11
13.085954
 21
-0.3125
 31
0.0
  0
LINE
  5
1A9
330
2
100
AcDbEntity
  8
OBJECT
100
AcDbLine
 10
11.375955
 20
1.5
 30
0.0
 11
11.935241
 21
1.5
 31
0.0
  0
LINE
  5
1AA
330
2
100
AcDbEntity
  8
OBJECT
100
AcDbLine
 10
10.500955
 20
1.8125
 30
0.0
 11
11.063455
 21
1.8125
 31
0.0
  0
LINE
  5
1AB
330
2
100
AcDbEntity
  8
OBJECT
100
AcDbLine
 10
10.497741
 20
1.8125
 30
0.0
 11
11.060241
 21
1.8125
 31
0.0
  0
LINE
  5
1AC
330
2
100
AcDbEntity
  8
OBJECT
100
AcDbLine
 10
10.497741
 20
1.8125
 30
0.0
 11
11.060241
 21
1.8125
 31
0.0
  0
LINE
  5
1AD
330
2
100
AcDbEntity
  8
OBJECT
100
AcDbLine
 10
10.188455
 20
1.5
 30
0.0
 11
10.500955
 21
1.8125
 31
0.0
  0
LINE
  5
1AE
330
2
100
AcDbEntity
  8
OBJECT
100
AcDbLine
 10
11.060241
 20
1.8125
 30
0.0
 11
11.372741
 21
1.5
 31
0.0
  0
CIRCLE
  5
1B1
330
2
100
AcDbEntity
  8
OBJECT
100
AcDbCircle
 10
10.78063
 20
1.5
 30
0.0
 40
0.0855
  0
LINE
  5
1B2
330
2
100
AcDbEntity
  8
OBJECT
100
AcDbLine
 10
12.247741
 20
1.8125
 30
0.0
 11
12.810241
 21
1.8125
 31
0.0
  0
LINE
  5
1B3
330
2
100
AcDbEntity
  8
OBJECT
100
AcDbLine
 10
12.247741
 20
1.8125
 30
0.0
 11
12.810241
 21
1.8125
 31
0.0
  0
LINE
  5
1B4
330
2
100
AcDbEntity
  8
OBJECT
100
AcDbLine
 10
12.250955
 20
1.8125
 30
0.0
 11
12.813455
 21
1.8125
 31
0.0
  0
LINE
  5
1B5
330
2
100
AcDbEntity
  8
OBJECT
100
AcDbLine
 10
11.935241
 20
1.5
 30
0.0
 11
12.247741
 21
1.8125
 31
0.0
  0
LINE
  5
1B6
330
2
100
AcDbEntity
  8
OBJECT
100
AcDbLine
 10
12.810241
 20
1.8125
 30
0.0
 11
13.122741
 21
1.5
 31
0.0
  0
CIRCLE
  5
1B9
330
2
100
AcDbEntity
  8
OBJECT
100
AcDbCircle
 10
12.533004
 20
1.5
 30
0.0
 40
0.0855
  0
LINE
  5
1BA
330
2
100
AcDbEntity
  8
OBJECT
100
AcDbLine
 10
14.839167
 20
-0.3125
 30
0.0
 11
15.401667
 21
-0.3125
 31
0.0
  0
LINE
  5
1BB
330
2
100
AcDbEntity
  8
OBJECT
100
AcDbLine
 10
14.835954
 20
-0.3125
 30
0.0
 11
15.398454
 21
-0.3125
 31
0.0
  0
LINE
  5
1BC
330
2
100
AcDbEntity
  8
OBJECT
100
AcDbLine
 10
14.835954
 20
-0.3125
 30
0.0
 11
15.398454
 21
-0.3125
 31
0.0
  0
LINE
  5
1BD
330
2
100
AcDbEntity
  8
OBJECT
100
AcDbLine
 10
13.964167
 20
0.0
 30
0.0
 11
14.523454
 21
0.0
 31
0.0
  0
LINE
  5
1BE
330
2
100
AcDbEntity
  8
OBJECT
100
AcDbLine
 10
13.648454
 20
-0.3125
 30
0.0
 11
13.960954
 21
0.0
 31
0.0
  0
CIRCLE
  5
1C1
330
2
100
AcDbEntity
  8
OBJECT
100
AcDbCircle
 10
13.370417
 20
0.0
 30
0.0
 40
0.0855
  0
LINE
  5
1C2
330
2
100
AcDbEntity
  8
OBJECT
100
AcDbLine
 10
14.523454
 20
0.0
 30
0.0
 11
14.835954
 21
-0.3125
 31
0.0
  0
LINE
  5
1C3
330
2
100
AcDbEntity
  8
OBJECT
100
AcDbLine
 10
15.398454
 20
-0.3125
 30
0.0
 11
15.710954
 21
0.0
 31
0.0
  0
CIRCLE
  5
1C6
330
2
100
AcDbEntity
  8
OBJECT
100
AcDbCircle
 10
15.120417
 20
0.0
 30
0.0
 40
0.0855
  0
LINE
  5
1C7
330
2
100
AcDbEntity
  8
OBJECT
100
AcDbLine
 10
15.714167
 20
0.0
 30
0.0
 11
16.273454
 21
0.0
 31
0.0
  0
LINE
  5
1C8
330
2
100
AcDbEntity
  8
OBJECT
100
AcDbLine
 10
14.560241
 20
1.8125
 30
0.0
 11
14.872741
 21
1.5
 31
0.0
  0
LINE
  5
1C9
330
2
100
AcDbEntity
  8
OBJECT
100
AcDbLine
 10
14.000955
 20
1.8125
 30
0.0
 11
14.563455
 21
1.8125
 31
0.0
  0
LINE
  5
1CA
330
2
100
AcDbEntity
  8
OBJECT
100
AcDbLine
 10
13.997741
 20
1.8125
 30
0.0
 11
14.560241
 21
1.8125
 31
0.0
  0
LINE
  5
1CB
330
2
100
AcDbEntity
  8
OBJECT
100
AcDbLine
 10
13.997741
 20
1.8125
 30
0.0
 11
14.560241
 21
1.8125
 31
0.0
  0
LINE
  5
1CC
330
2
100
AcDbEntity
  8
OBJECT
100
AcDbLine
 10
13.685241
 20
1.5
 30
0.0
 11
13.997741
 21
1.8125
 31
0.0
  0
CIRCLE
  5
1CF
330
2
100
AcDbEntity
  8
OBJECT
100
AcDbCircle
 10
14.285377
 20
1.5
 30
0.0
 40
0.0855
  0
LINE
  5
1D0
330
2
100
AcDbEntity
  8
OBJECT
100
AcDbLine
 10
15.435241
 20
1.5
 30
0.0
 11
15.747741
 21
1.8125
 31
0.0
  0
LINE
  5
1D1
330
2
100
AcDbEntity
  8
OBJECT
100
AcDbLine
 10
14.875955
 20
1.5
 30
0.0
 11
15.435241
 21
1.5
 31
0.0
  0
CIRCLE
  5
1D4
330
2
100
AcDbEntity
  8
OBJECT
100
AcDbCircle
 10
16.025052
 20
1.5
 30
0.0
 40
0.0855
  0
LINE
  5
1D5
330
2
100
AcDbEntity
  8
OBJECT
100
AcDbLine
 10
15.747741
 20
1.8125
 30
0.0
 11
16.310241
 21
1.8125
 31
0.0
  0
LINE
  5
1D6
330
2
100
AcDbEntity
  8
OBJECT
100
AcDbLine
 10
15.747741
 20
1.8125
 30
0.0
 11
16.310241
 21
1.8125
 31
0.0
  0
LINE
  5
1D7
330
2
100
AcDbEntity
  8
OBJECT
100
AcDbLine
 10
15.750955
 20
1.8125
 30
0.0
 11
16.313455
 21
1.8125
 31
0.0
  0
LINE
  5
1D8
330
2
100
AcDbEntity
  8
OBJECT
100
AcDbLine
 10
19.773454
 20
0.0
 30
0.0
 11
20.085954
 21
-0.3125
 31
0.0
  0
LINE
  5
1D9
330
2
100
AcDbEntity
  8
OBJECT
100
AcDbLine
 10
19.810241
 20
1.8125
 30
0.0
 11
20.122741
 21
1.5
 31
0.0
  0
LINE
  5
1DA
330
2
100
AcDbEntity
  8
OBJECT
100
AcDbLine
 10
18.023454
 20
0.0
 30
0.0
 11
18.335954
 21
-0.3125
 31
0.0
  0
LINE
  5
1DB
330
2
100
AcDbEntity
  8
OBJECT
100
AcDbLine
 10
17.148454
 20
-0.3125
 30
0.0
 11
17.460954
 21
0.0
 31
0.0
  0
LINE
  5
1DC
330
2
100
AcDbEntity
  8
OBJECT
100
AcDbLine
 10
16.585954
 20
-0.3125
 30
0.0
 11
17.148454
 21
-0.3125
 31
0.0
  0
LINE
  5
1DD
330
2
100
AcDbEntity
  8
OBJECT
100
AcDbLine
 10
16.585954
 20
-0.3125
 30
0.0
 11
17.148454
 21
-0.3125
 31
0.0
  0
LINE
  5
1DE
330
2
100
AcDbEntity
  8
OBJECT
100
AcDbLine
 10
16.589167
 20
-0.3125
 30
0.0
 11
17.151667
 21
-0.3125
 31
0.0
  0
CIRCLE
  5
1E1
330
2
100
AcDbEntity
  8
OBJECT
100
AcDbCircle
 10
16.867204
 20
0.0
 30
0.0
 40
0.0855
  0
LINE
  5
1E2
330
2
100
AcDbEntity
  8
OBJECT
100
AcDbLine
 10
17.464167
 20
0.0
 30
0.0
 11
18.023454
 21
0.0
 31
0.0
  0
LINE
  5
1E3
330
2
100
AcDbEntity
  8
OBJECT
100
AcDbLine
 10
18.898454
 20
-0.3125
 30
0.0
 11
19.210954
 21
0.0
 31
0.0
  0
LINE
  5
1E4
330
2
100
AcDbEntity
  8
OBJECT
100
AcDbLine
 10
18.339167
 20
-0.3125
 30
0.0
 11
18.901667
 21
-0.3125
 31
0.0
  0
LINE
  5
1E5
330
2
100
AcDbEntity
  8
OBJECT
100
AcDbLine
 10
18.335954
 20
-0.3125
 30
0.0
 11
18.898454
 21
-0.3125
 31
0.0
  0
LINE
  5
1E6
330
2
100
AcDbEntity
  8
OBJECT
100
AcDbLine
 10
18.335954
 20
-0.3125
 30
0.0
 11
18.898454
 21
-0.3125
 31
0.0
  0
CIRCLE
  5
1E7
330
2
100
AcDbEntity
  8
OBJECT
100
AcDbCircle
 10
18.620417
 20
0.0
 30
0.0
 40
0.0855
  0
LINE
  5
1EA
330
2
100
AcDbEntity
  8
OBJECT
100
AcDbLine
 10
19.214167
 20
0.0
 30
0.0
 11
19.773454
 21
0.0
 31
0.0
  0
LINE
  5
1EB
330
2
100
AcDbEntity
  8
OBJECT
100
AcDbLine
 10
18.060241
 20
1.8125
 30
0.0
 11
18.372741
 21
1.5
 31
0.0
  0
LINE
  5
1EC
330
2
100
AcDbEntity
  8
OBJECT
100
AcDbLine
 10
17.185241
 20
1.5
 30
0.0
 11
17.497741
 21
1.8125
 31
0.0
  0
LINE
  5
1ED
330
2
100
AcDbEntity
  8
OBJECT
100
AcDbLine
 10
16.625955
 20
1.5
 30
0.0
 11
17.185241
 21
1.5
 31
0.0
  0
CIRCLE
  5
1EF
330
2
100
AcDbEntity
  8
OBJECT
100
AcDbCircle
 10
17.782844
 20
1.5
 30
0.0
 40
0.0855
  0
LINE
  5
1F1
330
2
100
AcDbEntity
  8
OBJECT
100
AcDbLine
 10
17.500955
 20
1.8125
 30
0.0
 11
18.063455
 21
1.8125
 31
0.0
  0
LINE
  5
1F2
330
2
100
AcDbEntity
  8
OBJECT
100
AcDbLine
 10
17.497741
 20
1.8125
 30
0.0
 11
18.060241
 21
1.8125
 31
0.0
  0
LINE
  5
1F3
330
2
100
AcDbEntity
  8
OBJECT
100
AcDbLine
 10
17.497741
 20
1.8125
 30
0.0
 11
18.060241
 21
1.8125
 31
0.0
  0
LINE
  5
1F4
330
2
100
AcDbEntity
  8
OBJECT
100
AcDbLine
 10
18.935241
 20
1.5
 30
0.0
 11
19.247741
 21
1.8125
 31
0.0
  0
LINE
  5
1F5
330
2
100
AcDbEntity
  8
OBJECT
100
AcDbLine
 10
18.375955
 20
1.5
 30
0.0
 11
18.935241
 21
1.5
 31
0.0
  0
CIRCLE
  5
1F7
330
2
100
AcDbEntity
  8
OBJECT
100
AcDbCircle
 10
19.532169
 20
1.5
 30
0.0
 40
0.0855
  0
LINE
  5
1F9
330
2
100
AcDbEntity
  8
OBJECT
100
AcDbLine
 10
19.247741
 20
1.8125
 30
0.0
 11
19.810241
 21
1.8125
 31
0.0
  0
LINE
  5
1FA
330
2
100
AcDbEntity
  8
OBJECT
100
AcDbLine
 10
19.247741
 20
1.8125
 30
0.0
 11
19.810241
 21
1.8125
 31
0.0
  0
LINE
  5
1FB
330
2
100
AcDbEntity
  8
OBJECT
100
AcDbLine
 10
19.250955
 20
1.8125
 30
0.0
 11
19.813455
 21
1.8125
 31
0.0
  0
LINE
  5
1FC
330
2
100
AcDbEntity
  8
OBJECT
100
AcDbLine
 10
23.3125
 20
1.8125
 30
0.0
 11
23.3125
 21
0.0
 31
0.0
  0
LINE
  5
1FD
330
2
100
AcDbEntity
  8
OBJECT
100
AcDbLine
 10
21.523371
 20
0.0
 30
0.0
 11
21.867171
 21
-0.3125
 31
0.0
  0
LINE
  5
1FE
330
2
100
AcDbEntity
  8
OBJECT
100
AcDbLine
 10
20.648454
 20
-0.3125
 30
0.0
 11
20.960954
 21
0.0
 31
0.0
  0
LINE
  5
1FF
330
2
100
AcDbEntity
  8
OBJECT
100
AcDbLine
 10
20.085954
 20
-0.3125
 30
0.0
 11
20.648454
 21
-0.3125
 31
0.0
  0
LINE
  5
200
330
2
100
AcDbEntity
  8
OBJECT
100
AcDbLine
 10
20.085954
 20
-0.3125
 30
0.0
 11
20.648454
 21
-0.3125
 31
0.0
  0
LINE
  5
201
330
2
100
AcDbEntity
  8
OBJECT
100
AcDbLine
 10
20.089167
 20
-0.3125
 30
0.0
 11
20.651667
 21
-0.3125
 31
0.0
  0
CIRCLE
  5
203
330
2
100
AcDbEntity
  8
OBJECT
100
AcDbCircle
 10
20.370417
 20
0.0
 30
0.0
 40
0.0855
  0
LINE
  5
205
330
2
100
AcDbEntity
  8
OBJECT
100
AcDbLine
 10
20.960954
 20
0.0
 30
0.0
 11
21.523371
 21
0.0
 31
0.0
  0
LINE
  5
206
330
2
100
AcDbEntity
  8
OBJECT
100
AcDbLine
 10
22.426457
 20
-0.3125
 30
0.0
 11
22.738957
 21
0.0
 31
0.0
  0
LINE
  5
207
330
2
100
AcDbEntity
  8
OBJECT
100
AcDbLine
 10
21.863957
 20
-0.3125
 30
0.0
 11
22.426457
 21
-0.3125
 31
0.0
  0
CIRCLE
  5
208
330
2
100
AcDbEntity
  8
OBJECT
100
AcDbCircle
 10
22.145207
 20
0.0
 30
0.0
 40
0.0855
  0
LINE
  5
20B
330
2
100
AcDbEntity
  8
OBJECT
100
AcDbLine
 10
22.738957
 20
0.0
 30
0.0
 11
23.3125
 21
0.0
 31
0.0
  0
LINE
  5
20C
330
2
100
AcDbEntity
  8
OBJECT
100
AcDbLine
 10
21.560241
 20
1.8125
 30
0.0
 11
21.872741
 21
1.5
 31
0.0
  0
LINE
  5
20D
330
2
100
AcDbEntity
  8
OBJECT
100
AcDbLine
 10
20.685241
 20
1.5
 30
0.0
 11
20.997741
 21
1.8125
 31
0.0
  0
LINE
  5
20E
330
2
100
AcDbEntity
  8
OBJECT
100
AcDbLine
 10
20.125955
 20
1.5
 30
0.0
 11
20.685241
 21
1.5
 31
0.0
  0
CIRCLE
  5
210
330
2
100
AcDbEntity
  8
OBJECT
100
AcDbCircle
 10
21.281495
 20
1.5
 30
0.0
 40
0.0855
  0
LINE
  5
212
330
2
100
AcDbEntity
  8
OBJECT
100
AcDbLine
 10
20.997741
 20
1.8125
 30
0.0
 11
21.560241
 21
1.8125
 31
0.0
  0
LINE
  5
213
330
2
100
AcDbEntity
  8
OBJECT
100
AcDbLine
 10
20.997741
 20
1.8125
 30
0.0
 11
21.560241
 21
1.8125
 31
0.0
  0
LINE
  5
214
330
2
100
AcDbEntity
  8
OBJECT
100
AcDbLine
 10
21.000955
 20
1.8125
 30
0.0
 11
21.1875
 21
1.8125
 31
0.0
  0
CIRCLE
  5
216
330
2
100
AcDbEntity
  8
OBJECT
100
AcDbCircle
 10
22.311412
 20
0.75
 30
0.0
 40
0.281
  0
CIRCLE
  5
21E
330
2
100
AcDbEntity
  8
OBJECT
100
AcDbCircle
 10
23.031247
 20
0.375
 30
0.0
 40
0.0855
  0
LINE
  5
21F
330
2
100
AcDbEntity
  8
OBJECT
100
AcDbLine
 10
22.435159
 20
1.5
 30
0.0
 11
22.778959
 21
1.8125
 31
0.0
  0
LINE
  5
220
330
2
100
AcDbEntity
  8
OBJECT
100
AcDbLine
 10
21.872741
 20
1.5
 30
0.0
 11
22.435159
 21
1.5
 31
0.0
  0
CIRCLE
  5
223
330
2
100
AcDbEntity
  8
OBJECT
100
AcDbCircle
 10
23.031247
 20
1.5
 30
0.0
 40
0.0855
  0
LINE
  5
224
330
2
100
AcDbEntity
  8
OBJECT
100
AcDbLine
 10
22.778959
 20
1.8125
 30
0.0
 11
23.3125
 21
1.8125
 31
0.0
  0
ENDSEC
  0
SECTION
  2
OBJECTS
  0
DICTIONARY
  5
9
330
0
100
AcDbDictionary
281
     1
  3
ACAD_COLOR
350
129
  3
ACAD_GROUP
350
23
  3
ACAD_LAYOUT
350
D
  3
ACAD_MATERIAL
350
128
  3
ACAD_MLINESTYLE
350
24
  3
ACAD_PLOTSETTINGS
350
25
  3
ACAD_PLOTSTYLENAME
350
8
  3
ACAD_TABLESTYLE
350
12A
  3
ACDBHEADERROUNDTRIPXREC
350
234
  3
AcDbVariableDictionary
350
124
  0
DICTIONARY
  5
3
330
2
100
AcDbDictionary
280
     1
281
     1
  3
ACAD_SORTENTS
360
225
  0
DICTIONARY
  5
129
102
{ACAD_REACTORS
330
9
102
}
330
9
100
AcDbDictionary
281
     1
  0
DICTIONARY
  5
23
102
{ACAD_REACTORS
330
9
102
}
330
9
100
AcDbDictionary
281
     1
  0
DICTIONARY
  5
D
102
{ACAD_REACTORS
330
9
102
}
330
9
100
AcDbDictionary
281
     1
  3
Layout1
350
13
  3
Model
350
C
  0
DICTIONARY
  5
128
102
{ACAD_REACTORS
330
9
102
}
330
9
100
AcDbDictionary
281
     1
  0
DICTIONARY
  5
24
102
{ACAD_REACTORS
330
9
102
}
330
9
100
AcDbDictionary
281
     1
  3
Standard
350
27
  0
DICTIONARY
  5
25
102
{ACAD_REACTORS
330
9
102
}
330
9
100
AcDbDictionary
281
     1
  0
ACDBDICTIONARYWDFLT
  5
8
102
{ACAD_REACTORS
330
9
102
}
330
9
100
AcDbDictionary
281
     1
  3
Normal
350
7
100
AcDbDictionaryWithDefault
340
7
  0
DICTIONARY
  5
12A
102
{ACAD_REACTORS
330
9
102
}
330
9
100
AcDbDictionary
281
     1
  3
Standard
350
12B
  0
DICTIONARY
  5
234
102
{ACAD_REACTORS
330
9
102
}
330
9
100
AcDbDictionary
281
     1
  3
COLORDICT
350
235
  3
MATERIALDICT
350
236
  0
DICTIONARY
  5
124
102
{ACAD_REACTORS
330
9
102
}
330
9
100
AcDbDictionary
281
     1
  3
CTABLESTYLE
350
22D
  3
HIDETEXT
350
233
  0
SORTENTSTABLE
  5
225
102
{ACAD_REACTORS
330
3
102
}
330
3
100
AcDbSortentsTable
330
2
331
0
  5
1B8
331
1AE
  5
1AE
331
1AD
  5
1AD
331
1D7
  5
1D7
331
1D5
  5
1D5
331
178
  5
178
331
136
  5
136
331
135
  5
135
331
177
  5
177
331
18D
  5
18D
331
1DE
  5
1DE
331
201
  5
201
331
199
  5
199
331
1D6
  5
1D6
331
1FB
  5
1FB
331
190
  5
190
331
20C
  5
20C
331
1E2
  5
1E2
331
134
  5
134
331
16A
  5
16A
331
13C
  5
13C
331
1CC
  5
1CC
331
1CB
  5
1CB
331
1B4
  5
1B4
331
1F4
  5
1F4
331
184
  5
184
331
189
  5
189
331
161
  5
161
331
18C
  5
18C
331
1AB
  5
1AB
331
1BE
  5
1BE
331
220
  5
220
331
158
  5
158
331
21F
  5
21F
331
18B
  5
18B
331
1E4
  5
1E4
331
198
  5
198
331
163
  5
163
331
1BD
  5
1BD
331
214
  5
214
331
224
  5
224
331
171
  5
171
331
1B9
  5
1B9
331
1A4
  5
1A4
331
159
  5
159
331
1D0
  5
1D0
331
16C
  5
16C
331
213
  5
213
331
1EC
  5
1EC
331
147
  5
147
331
160
  5
160
331
1C1
  5
1C1
331
1B1
  5
1B1
331
1ED
  5
1ED
331
1A3
  5
1A3
331
185
  5
185
331
1B2
  5
1B2
331
1EF
  5
1EF
331
200
  5
200
331
21E
  5
21E
331
18A
  5
18A
331
144
  5
144
331
205
  5
205
331
223
  5
223
331
1C8
  5
1C8
331
1D8
  5
1D8
331
1CA
  5
1CA
331
15C
  5
15C
331
206
  5
206
331
180
  5
180
331
1FE
  5
1FE
331
195
  5
195
331
1B6
  5
1B6
331
1EB
  5
1EB
331
1BA
  5
1BA
331
1DA
  5
1DA
331
191
  5
191
331
170
  5
170
331
164
  5
164
331
19F
  5
19F
331
12F
  5
12F
331
15F
  5
15F
331
14D
  5
14D
331
1B3
  5
1B3
331
12E
  5
12E
331
181
  5
181
331
19A
  5
19A
331
197
  5
197
331
20D
  5
20D
331
166
  5
166
331
1AA
  5
1AA
331
1BC
  5
1BC
331
17B
  5
17B
331
15A
  5
15A
331
1F5
  5
1F5
331
151
  5
151
331
1FC
  5
1FC
331
141
  5
141
331
17F
  5
17F
331
157
  5
157
331
1A7
  5
1A7
331
1FA
  5
1FA
331
154
  5
154
331
1DC
  5
1DC
331
16D
  5
16D
331
1E7
  5
1E7
331
187
  5
187
331
15B
  5
15B
331
1D9
  5
1D9
331
132
  5
132
331
19D
  5
19D
331
150
  5
150
331
1C2
  5
1C2
331
1BB
  5
1BB
331
20B
  5
20B
331
1DD
  5
1DD
331
1E1
  5
1E1
331
16F
  5
16F
331
1DB
  5
1DB
331
1A9
  5
1A9
331
216
  5
216
331
192
  5
192
331
1E5
  5
1E5
331
15E
  5
15E
331
212
  5
212
331
17E
  5
17E
331
138
  5
138
331
1C7
  5
1C7
331
175
  5
175
331
1C6
  5
1C6
331
1B5
  5
1B5
331
13E
  5
13E
331
133
  5
133
331
1FF
  5
1FF
331
208
  5
208
331
203
  5
203
331
172
  5
172
331
13B
  5
13B
331
1A2
  5
1A2
331
20E
  5
20E
331
143
  5
143
331
1F2
  5
1F2
331
137
  5
137
331
1F3
  5
1F3
331
19B
  5
19B
331
1D4
  5
1D4
331
1FD
  5
1FD
331
1F9
  5
1F9
331
19C
  5
19C
331
179
  5
179
331
168
  5
168
331
152
  5
152
331
1C3
  5
1C3
331
173
  5
173
331
1D1
  5
1D1
331
1F7
  5
1F7
331
1CF
  5
1CF
331
196
  5
196
331
165
  5
165
331
210
  5
210
331
16B
  5
16B
331
1E6
  5
1E6
331
188
  5
188
331
17A
  5
17A
331
153
  5
153
331
1F1
  5
1F1
331
167
  5
167
331
13D
  5
13D
331
1C9
  5
1C9
331
207
  5
207
331
19E
  5
19E
331
183
  5
183
331
1EA
  5
1EA
331
131
  5
131
331
130
  5
130
331
1AC
  5
1AC
331
1A8
  5
1A8
331
1E3
  5
1E3
  0
LAYOUT
  5
13
102
{ACAD_REACTORS
330
D
102
}
102
{ACAD_XDICTIONARY
360
237
102
}
330
D
100
AcDbPlotSettings
  1

  2
HP LaserJet 2100 Series PS
  4

  6

 40
0.0
 41
0.0
 42
0.0
 43
0.0
 44
0.0
 45
0.0
 46
0.0
 47
0.0
 48
0.0
 49
0.0
140
0.0
141
0.0
142
1.0
143
1.0
 70
   688
 72
     0
 73
     0
 74
     5
  7

 75
    16
147
1.0
148
0.0
149
0.0
100
AcDbLayout
  1
Layout1
 70
     0
 71
     1
 10
0.0
 20
0.0
 11
12.0
 21
9.0
 12
0.0
 22
0.0
 32
0.0
 14
1.000000000000000E+20
 24
1.000000000000000E+20
 34
1.000000000000000E+20
 15
-1.000000000000000E+20
 25
-1.000000000000000E+20
 35
-1.000000000000000E+20
146
0.0
 13
0.0
 23
0.0
 33
0.0
 16
1.0
 26
0.0
 36
0.0
 17
0.0
 27
1.0
 37
0.0
 76
     0
330
E
  0
LAYOUT
  5
C
102
{ACAD_REACTORS
330
D
102
}
102
{ACAD_XDICTIONARY
360
239
102
}
330
D
100
AcDbPlotSettings
  1

  2
HP LaserJet 2100 Series PS
  4
Letter
  6

 40
5.365749835968018
 41
5.408084392547607
 42
5.4080810546875
 43
5.365753173828125
 44
215.8999938964844
 45
279.3999938964844
 46
0.0
 47
0.0
 48
0.0
 49
0.0
140
0.0
141
0.0
142
1.0
143
1.0
 70
 11952
 72
     0
 73
     1
 74
     0
  7

 75
     0
147
1.0
148
-243.5318163814941
149
4.127487239207501
100
AcDbLayout
  1
Model
 70
     1
 71
     0
 10
0.0
 20
0.0
 11
12.0
 21
9.0
 12
0.0
 22
0.0
 32
0.0
 14
0.0
 24
0.0
 34
0.0
 15
0.0
 25
0.0
 35
0.0
146
0.0
 13
0.0
 23
0.0
 33
0.0
 16
1.0
 26
0.0
 36
0.0
 17
0.0
 27
1.0
 37
0.0
 76
     0
330
2
  0
MLINESTYLE
  5
27
102
{ACAD_REACTORS
330
24
102
}
330
24
100
AcDbMlineStyle
  2
STANDARD
 70
     0
  3

 62
   256
 51
90.0
 52
90.0
 71
     2
 49
0.5
 62
   256
  6
BYLAYER
 49
-0.5
 62
   256
  6
BYLAYER
  0
ACDBPLACEHOLDER
  5
7
102
{ACAD_REACTORS
330
8
102
}
330
8
  0
ACAD_PROXY_OBJECT
  5
12B
102
{ACAD_REACTORS
330
12A
102
}
330
12A
100
AcDbProxyObject
 90
      499
 91
      512
 95
   393239
 70
     0
 93
     1841
310
4214DD185B99185C9928B81E85EB51B8AE3F2E07A17AD46E2B8FC02B5E8DC0F42B1CFD028000000C1008070000C3001FDFF8000000C1003FBFF000000182007F7FE00000030400FEFFC00000060801FDFF8000000C1003FBFF00000018200000000000000681FA0B0000001820100E000186003FBFF000000182007F7FE000
310
00030400FEFFC00000060801FDFF8000000C1003FBFF000000182007F7FE000000304000AD7A3703D0AC73F4160000003040201C00030C007F7FE00000030400FEFFC00000060801FDFF8000000C1003FBFF000000182007F7FE00000030400FEFFC000000608000
340
16
340
16
340
16
 94
        0
  0
XRECORD
  5
235
102
{ACAD_REACTORS
330
234
102
}
330
234
100
AcDbXrecord
340
129
  0
XRECORD
  5
236
102
{ACAD_REACTORS
330
234
102
}
330
234
100
AcDbXrecord
340
128
  0
DICTIONARYVAR
  5
22D
102
{ACAD_REACTORS
330
124
102
}
330
124
100
DictionaryVariables
280
     0
  1
STANDARD
  0
DICTIONARYVAR
  5
233
102
{ACAD_REACTORS
330
124
102
}
330
124
100
DictionaryVariables
280
     0
  1
0
  0
DICTIONARY
  5
237
330
13
100
AcDbDictionary
280
     1
281
     1
  3
ACAD_XREC_ROUNDTRIP
360
238
  0
DICTIONARY
  5
239
330
C
100
AcDbDictionary
280
     1
281
     1
  3
ACAD_XREC_ROUNDTRIP
360
23A
  0
XRECORD
  5
238
102
{ACAD_REACTORS
330
237
102
}
330
237
100
AcDbXrecord
102
SHADEPLOT
 70
     0
102
SHADEPLOTRESLEVEL
 70
     2
102
SHADEPLOTCUSTOMDPI
 70
   300
  0
XRECORD
  5
23A
102
{ACAD_REACTORS
330
239
102
}
330
239
100
AcDbXrecord
102
SHADEPLOT
 70
     0
102
SHADEPLOTRESLEVEL
 70
     2
102
SHADEPLOTCUSTOMDPI
 70
   300
  0
ENDSEC
  0
EOF
