  0
SECTION
  2
HEADER
  9
$ACADVER
  1
AC1015
  9
$ACADMAINTVER
 70
     6
  9
$DWGCODEPAGE
  3
ANSI_1252
  9
$INSBASE
 10
0.0
 20
0.0
 30
0.0
  9
$EXTMIN
 10
-0.0009612303704003
 20
-0.3248290460612964
 30
-0.0015258207003583
  9
$EXTMAX
 10
23.31305700961158
 20
1.824829131626558
 30
0.0000000349246037
  9
$LIMMIN
 10
0.0
 20
0.0
  9
$LIMMAX
 10
31.5
 20
24.0
  9
$ORTHOMODE
 70
     0
  9
$REGENMODE
 70
     1
  9
$FILLMODE
 70
     1
  9
$QTEXTMODE
 70
     0
  9
$MIRRTEXT
 70
     1
  9
$LTSCALE
 40
1.0
  9
$ATTMODE
 70
     1
  9
$TEXTSIZE
 40
0.18
  9
$TRACEWID
 40
0.05
  9
$TEXTSTYLE
  7
STANDARD
  9
$CLAYER
  8
OBJECT
  9
$CELTYPE
  6
ByLayer
  9
$CECOLOR
 62
   256
  9
$CELTSCALE
 40
1.0
  9
$DISPSILH
 70
     0
  9
$DIMSCALE
 40
1.0
  9
$DIMASZ
 40
0.375
  9
$DIMEXO
 40
0.0625
  9
$DIMDLI
 40
0.75
  9
$DIMRND
 40
0.0
  9
$DIMDLE
 40
0.0
  9
$DIMEXE
 40
0.18
  9
$DIMTP
 40
0.0
  9
$DIMTM
 40
0.0
  9
$DIMTXT
 40
0.27
  9
$DIMCEN
 40
-0.06
  9
$DIMTSZ
 40
0.0
  9
$DIMTOL
 70
     0
  9
$DIMLIM
 70
     0
  9
$DIMTIH
 70
     1
  9
$DIMTOH
 70
     1
  9
$DIMSE1
 70
     0
  9
$DIMSE2
 70
     0
  9
$DIMTAD
 70
     0
  9
$DIMZIN
 70
     0
  9
$DIMBLK
  1

  9
$DIMASO
 70
     0
  9
$DIMSHO
 70
     0
  9
$DIMPOST
  1

  9
$DIMAPOST
  1

  9
$DIMALT
 70
     0
  9
$DIMALTD
 70
     2
  9
$DIMALTF
 40
25.4
  9
$DIMLFAC
 40
1.0
  9
$DIMTOFL
 70
     0
  9
$DIMTVP
 40
0.0
  9
$DIMTIX
 70
     0
  9
$DIMSOXD
 70
     0
  9
$DIMSAH
 70
     0
  9
$DIMBLK1
  1

  9
$DIMBLK2
  1

  9
$DIMSTYLE
  2
Standard
  9
$DIMCLRD
 70
     0
  9
$DIMCLRE
 70
     0
  9
$DIMCLRT
 70
     0
  9
$DIMTFAC
 40
1.0
  9
$DIMGAP
 40
0.09
  9
$DIMJUST
 70
     0
  9
$DIMSD1
 70
     0
  9
$DIMSD2
 70
     0
  9
$DIMTOLJ
 70
     1
  9
$DIMTZIN
 70
     0
  9
$DIMALTZ
 70
     0
  9
$DIMALTTZ
 70
     0
  9
$DIMUPT
 70
     0
  9
$DIMDEC
 70
     4
  9
$DIMTDEC
 70
     4
  9
$DIMALTU
 70
     2
  9
$DIMALTTD
 70
     2
  9
$DIMTXSTY
  7
STANDARD
  9
$DIMAUNIT
 70
     0
  9
$DIMADEC
 70
     0
  9
$DIMALTRND
 40
0.0
  9
$DIMAZIN
 70
     0
  9
$DIMDSEP
 70
    46
  9
$DIMATFIT
 70
     3
  9
$DIMFRAC
 70
     0
  9
$DIMLDRBLK
  1

  9
$DIMLUNIT
 70
     2
  9
$DIMLWD
 70
    -2
  9
$DIMLWE
 70
    -2
  9
$DIMTMOVE
 70
     2
  9
$LUNITS
 70
     2
  9
$LUPREC
 70
     4
  9
$SKETCHINC
 40
0.05
  9
$FILLETRAD
 40
0.156
  9
$AUNITS
 70
     0
  9
$AUPREC
 70
     0
  9
$MENU
  1
ACAD
  9
$ELEVATION
 40
0.0
  9
$PELEVATION
 40
0.0
  9
$THICKNESS
 40
0.0
  9
$LIMCHECK
 70
     0
  9
$CHAMFERA
 40
0.0
  9
$CHAMFERB
 40
0.0
  9
$CHAMFERC
 40
0.0
  9
$CHAMFERD
 40
0.0
  9
$SKPOLY
 70
     0
  9
$TDCREATE
 40
2449091.849654514
  9
$TDUCREATE
 40
2449092.182987847
  9
$TDUPDATE
 40
2453794.628050787
  9
$TDUUPDATE
 40
2453794.96138412
  9
$TDINDWG
 40
0.065424375
  9
$TDUSRTIMER
 40
0.065424375
  9
$USRTIMER
 70
     1
  9
$ANGBASE
 50
0.0
  9
$ANGDIR
 70
     0
  9
$PDMODE
 70
     0
  9
$PDSIZE
 40
0.0
  9
$PLINEWID
 40
0.0
  9
$SPLFRAME
 70
     0
  9
$SPLINETYPE
 70
     6
  9
$SPLINESEGS
 70
     8
  9
$HANDSEED
  5
291
  9
$SURFTAB1
 70
     6
  9
$SURFTAB2
 70
     6
  9
$SURFTYPE
 70
     6
  9
$SURFU
 70
     6
  9
$SURFV
 70
     6
  9
$UCSBASE
  2

  9
$UCSNAME
  2

  9
$UCSORG
 10
0.0
 20
0.0
 30
0.0
  9
$UCSXDIR
 10
1.0
 20
0.0
 30
0.0
  9
$UCSYDIR
 10
0.0
 20
1.0
 30
0.0
  9
$UCSORTHOREF
  2

  9
$UCSORTHOVIEW
 70
     0
  9
$UCSORGTOP
 10
0.0
 20
0.0
 30
0.0
  9
$UCSORGBOTTOM
 10
0.0
 20
0.0
 30
0.0
  9
$UCSORGLEFT
 10
0.0
 20
0.0
 30
0.0
  9
$UCSORGRIGHT
 10
0.0
 20
0.0
 30
0.0
  9
$UCSORGFRONT
 10
0.0
 20
0.0
 30
0.0
  9
$UCSORGBACK
 10
0.0
 20
0.0
 30
0.0
  9
$PUCSBASE
  2

  9
$PUCSNAME
  2

  9
$PUCSORG
 10
0.0
 20
0.0
 30
0.0
  9
$PUCSXDIR
 10
1.0
 20
0.0
 30
0.0
  9
$PUCSYDIR
 10
0.0
 20
1.0
 30
0.0
  9
$PUCSORTHOREF
  2

  9
$PUCSORTHOVIEW
 70
     0
  9
$PUCSORGTOP
 10
0.0
 20
0.0
 30
0.0
  9
$PUCSORGBOTTOM
 10
0.0
 20
0.0
 30
0.0
  9
$PUCSORGLEFT
 10
0.0
 20
0.0
 30
0.0
  9
$PUCSORGRIGHT
 10
0.0
 20
0.0
 30
0.0
  9
$PUCSORGFRONT
 10
0.0
 20
0.0
 30
0.0
  9
$PUCSORGBACK
 10
0.0
 20
0.0
 30
0.0
  9
$USERI1
 70
     0
  9
$USERI2
 70
     0
  9
$USERI3
 70
     0
  9
$USERI4
 70
     0
  9
$USERI5
 70
     0
  9
$USERR1
 40
0.0
  9
$USERR2
 40
0.0
  9
$USERR3
 40
0.0
  9
$USERR4
 40
0.0
  9
$USERR5
 40
0.0
  9
$WORLDVIEW
 70
     1
  9
$SHADEDGE
 70
     3
  9
$SHADEDIF
 70
    70
  9
$TILEMODE
 70
     1
  9
$MAXACTVP
 70
    16
  9
$PINSBASE
 10
0.0
 20
0.0
 30
0.0
  9
$PLIMCHECK
 70
     0
  9
$PEXTMIN
 10
1.000000000000000E+20
 20
1.000000000000000E+20
 30
1.000000000000000E+20
  9
$PEXTMAX
 10
-1.000000000000000E+20
 20
-1.000000000000000E+20
 30
-1.000000000000000E+20
  9
$PLIMMIN
 10
0.0
 20
0.0
  9
$PLIMMAX
 10
12.0
 20
9.0
  9
$UNITMODE
 70
     0
  9
$VISRETAIN
 70
     0
  9
$PLINEGEN
 70
     0
  9
$PSLTSCALE
 70
     0
  9
$TREEDEPTH
 70
  3020
  9
$CMLSTYLE
  2
Standard
  9
$CMLJUST
 70
     0
  9
$CMLSCALE
 40
1.0
  9
$PROXYGRAPHICS
 70
     1
  9
$MEASUREMENT
 70
     0
  9
$CELWEIGHT
370
    -1
  9
$ENDCAPS
280
     0
  9
$JOINSTYLE
280
     0
  9
$LWDISPLAY
290
     0
  9
$INSUNITS
 70
     0
  9
$HYPERLINKBASE
  1

  9
$STYLESHEET
  1

  9
$XEDIT
290
     1
  9
$CEPSNTYPE
380
     0
  9
$PSTYLEMODE
290
     1
  9
$FINGERPRINTGUID
  2
{B13C5978-2CEA-11D6-BE3F-00508B5FCD51}
  9
$VERSIONGUID
  2
{310817B0-2000-4E0B-B6EF-DEBF64B22D60}
  9
$EXTNAMES
290
     1
  9
$PSVPSCALE
 40
0.0
  9
$OLESTARTUP
290
     0
  0
ENDSEC
  0
SECTION
  2
CLASSES
  0
CLASS
  1
ACDBDICTIONARYWDFLT
  2
AcDbDictionaryWithDefault
  3
AutoCAD 2000
 90
        0
280
     0
281
     0
  0
CLASS
  1
ACDBPLACEHOLDER
  2
AcDbPlaceHolder
  3
ObjectDBX Classes
 90
        0
280
     0
281
     0
  0
CLASS
  1
LAYOUT
  2
AcDbLayout
  3
ObjectDBX Classes
 90
        0
280
     0
281
     0
  0
CLASS
  1
LONG_TRANSACTION
  2
AcDbLongTransaction
  3
ObjectDBX Classes
 90
   -65536
280
     1
281
     0
  0
CLASS
  1
LWPOLYLINE
  2
AcDbPolyline
  3
AutoCAD 2000
 90
        0
280
     0
281
     1
  0
CLASS
  1
HATCH
  2
AcDbHatch
  3
AutoCAD 2000
 90
        0
280
     0
281
     1
  0
CLASS
  1
XRECORD
  2
AcDbXrecord
  3
AutoCAD 2000
 90
        0
280
     0
281
     0
  0
CLASS
  1
LONG_TRANSACTION
  2
AcDbLongTransaction
  3
ObjectDBX Classes
 90
   -65536
280
     1
281
     0
  0
CLASS
  1
LWPOLYLINE
  2
AcDbPolyline
  3
AutoCAD 2000
 90
        0
280
     0
281
     1
  0
CLASS
  1
HATCH
  2
AcDbHatch
  3
AutoCAD 2000
 90
        0
280
     0
281
     1
  0
CLASS
  1
XRECORD
  2
AcDbXrecord
  3
AutoCAD 2000
 90
        0
280
     0
281
     0
  0
CLASS
  1
DICTIONARYVAR
  2
AcDbDictionaryVar
  3
AutoCAD 2000
 90
        0
280
     0
281
     0
  0
CLASS
  1
TABLESTYLE
  2
AcDbTableStyle
  3
ObjectDBX Classes
 90
     2047
280
     1
281
     0
  0
CLASS
  1
SORTENTSTABLE
  2
AcDbSortentsTable
  3
AutoCAD 2000
 90
        0
280
     0
281
     0
  0
ENDSEC
  0
SECTION
  2
TABLES
  0
TABLE
  2
VPORT
  5
1D
330
0
100
AcDbSymbolTable
 70
     2
  0
VPORT
  5
281
330
1D
100
AcDbSymbolTableRecord
100
AcDbViewportTableRecord
  2
*Active
 70
     0
 10
0.0
 20
0.0
 11
1.0
 21
1.0
 12
15.7495193848148
 22
11.83758547696935
 13
0.0
 23
0.0
 14
0.0625
 24
0.0625
 15
0.5
 25
0.5
 16
0.0
 26
0.0
 36
1.0
 17
0.0
 27
0.0
 37
0.0
 40
24.51218331342506
 41
1.55012853470437
 42
50.0
 43
0.0
 44
0.0
 50
0.0
 51
0.0
 71
     0
 72
   100
 73
     1
 74
     0
 75
     0
 76
     0
 77
     0
 78
     0
281
     0
 65
     1
110
0.0
120
0.0
130
0.0
111
1.0
121
0.0
131
0.0
112
0.0
122
1.0
132
0.0
 79
     0
146
0.0
  0
ENDTAB
  0
TABLE
  2
LTYPE
  5
18
330
0
100
AcDbSymbolTable
 70
     1
  0
LTYPE
  5
19
330
18
100
AcDbSymbolTableRecord
100
AcDbLinetypeTableRecord
  2
ByBlock
 70
     0
  3

 72
    65
 73
     0
 40
0.0
  0
LTYPE
  5
1A
330
18
100
AcDbSymbolTableRecord
100
AcDbLinetypeTableRecord
  2
ByLayer
 70
     0
  3

 72
    65
 73
     0
 40
0.0
  0
LTYPE
  5
A
330
18
100
AcDbSymbolTableRecord
100
AcDbLinetypeTableRecord
  2
CONTINUOUS
 70
     0
  3
Solid line
 72
    65
 73
     0
 40
0.0
  0
ENDTAB
  0
TABLE
  2
LAYER
  5
14
330
0
100
AcDbSymbolTable
 70
     2
  0
LAYER
  5
6
330
14
100
AcDbSymbolTableRecord
100
AcDbLayerTableRecord
  2
0
 70
     0
 62
    -1
  6
CONTINUOUS
370
    -3
390
7
  0
LAYER
  5
27
330
14
100
AcDbSymbolTableRecord
100
AcDbLayerTableRecord
  2
OBJECT
 70
     0
 62
     7
  6
CONTINUOUS
370
    -3
390
7
  0
ENDTAB
  0
TABLE
  2
STYLE
  5
15
330
0
100
AcDbSymbolTable
 70
     1
  0
STYLE
  5
16
330
15
100
AcDbSymbolTableRecord
100
AcDbTextStyleTableRecord
  2
STANDARD
 70
     0
 40
0.0
 41
1.0
 50
0.0
 71
     0
 42
0.18
  3
TXT
  4

  0
ENDTAB
  0
TABLE
  2
VIEW
  5
1B
330
0
100
AcDbSymbolTable
 70
     1
  0
ENDTAB
  0
TABLE
  2
UCS
  5
1C
330
0
100
AcDbSymbolTable
 70
     0
  0
ENDTAB
  0
TABLE
  2
APPID
  5
1F
330
0
100
AcDbSymbolTable
 70
     1
  0
APPID
  5
20
330
1F
100
AcDbSymbolTableRecord
100
AcDbRegAppTableRecord
  2
ACAD
 70
     0
  0
ENDTAB
  0
TABLE
  2
DIMSTYLE
  5
21
330
0
100
AcDbSymbolTable
 70
     1
100
AcDbDimStyleTable
  0
DIMSTYLE
105
22
330
21
100
AcDbSymbolTableRecord
100
AcDbDimStyleTableRecord
  2
Standard
 70
     0
  3

  4

340
16
  0
ENDTAB
  0
TABLE
  2
BLOCK_RECORD
  5
1
330
0
100
AcDbSymbolTable
 70
     1
  0
BLOCK_RECORD
  5
2
102
{ACAD_XDICTIONARY
360
3
102
}
330
1
100
AcDbSymbolTableRecord
100
AcDbBlockTableRecord
  2
*Model_Space
340
C
  0
BLOCK_RECORD
  5
E
330
1
100
AcDbSymbolTableRecord
100
AcDbBlockTableRecord
  2
*Paper_Space
340
13
  0
ENDTAB
  0
ENDSEC
  0
SECTION
  2
BLOCKS
  0
BLOCK
  5
5
330
2
100
AcDbEntity
  8
0
100
AcDbBlockBegin
  2
*Model_Space
 70
     0
 10
0.0
 20
0.0
 30
0.0
  3
*Model_Space
  1

  4

  0
ENDBLK
  5
B
330
2
100
AcDbEntity
  8
0
100
AcDbBlockEnd
  0
BLOCK
  5
11
330
E
100
AcDbEntity
 67
     1
  8
0
100
AcDbBlockBegin
  2
*Paper_Space
 70
     0
 10
0.0
 20
0.0
 30
0.0
  3
*Paper_Space
  1

  4

  0
ENDBLK
  5
12
330
E
100
AcDbEntity
 67
     1
  8
0
100
AcDbBlockEnd
  0
ENDSEC
  0
SECTION
  2
ENTITIES
  0
ARC
  5
15B
330
2
100
AcDbEntity
  8
OBJECT
100
AcDbCircle
 10
16.6505713157302
 20
-0.1564999999999994
 30
0.0
 40
0.156
100
AcDbArc
 50
224.9999999999998
 51
270.0
  0
LINE
  5
15C
330
2
100
AcDbEntity
  8
OBJECT
100
AcDbLine
 10
16.3559323421349
 20
1.7668086578651
 30
0.0
 11
16.5770496578651
 21
1.545691342134901
 31
0.0
  0
LINE
  5
15D
330
2
100
AcDbEntity
  8
OBJECT
100
AcDbLine
 10
2.652862315730203
 20
-0.3125
 30
0.0
 11
3.086127684269798
 21
-0.3125
 31
0.0
  0
LINE
  5
15E
330
2
100
AcDbEntity
  8
OBJECT
100
AcDbLine
 10
2.692863315730205
 20
1.5
 30
0.0
 11
3.122915684269799
 21
1.500000000000002
 31
0.0
  0
LINE
  5
15F
330
2
100
AcDbEntity
  8
OBJECT
100
AcDbLine
 10
0.0
 20
0.0
 30
0.0
 11
0.0
 21
1.8125
 31
0.0
  0
CIRCLE
  5
160
330
2
100
AcDbEntity
  8
OBJECT
100
AcDbCircle
 10
1.000023000000001
 20
0.75
 30
0.0
 40
0.281
  0
LINE
  5
161
330
2
100
AcDbEntity
  8
OBJECT
100
AcDbLine
 10
0.9060763157302052
 20
-0.3124999999999982
 30
0.0
 11
1.339341684269795
 21
-0.3125000000000018
 31
0.0
  0
LINE
  5
162
330
2
100
AcDbEntity
  8
OBJECT
100
AcDbLine
 10
0.0
 20
0.0
 30
0.0
 11
0.4643416842697974
 21
0.0
 31
0.0
  0
LINE
  5
163
330
2
100
AcDbEntity
  8
OBJECT
100
AcDbLine
 10
0.5746503421348992
 20
-0.0456913421348997
 30
0.0
 11
0.7957676578651052
 21
-0.2668086578651003
 31
0.0
  0
ARC
  5
164
330
2
100
AcDbEntity
  8
OBJECT
100
AcDbCircle
 10
0.9060763157302061
 20
-0.1564999999999976
 30
0.0
 40
0.156
100
AcDbArc
 50
225.0000000000003
 51
269.9999999999998
  0
ARC
  5
165
330
2
100
AcDbEntity
  8
OBJECT
100
AcDbCircle
 10
0.4643416842697974
 20
-0.1560000000000006
 30
0.0
 40
0.156
100
AcDbArc
 50
45.0
 51
90.0
  0
CIRCLE
  5
166
330
2
100
AcDbEntity
  8
OBJECT
100
AcDbCircle
 10
1.122709
 20
0.0
 30
0.0
 40
0.0855
  0
CIRCLE
  5
167
330
2
100
AcDbEntity
  8
OBJECT
100
AcDbCircle
 10
0.2814410000000001
 20
0.375
 30
0.0
 40
0.0855
  0
LINE
  5
168
330
2
100
AcDbEntity
  8
OBJECT
100
AcDbLine
 10
1.781076315730203
 20
0.0
 30
0.0
 11
2.211127684269798
 21
0.0
 31
0.0
  0
LINE
  5
169
330
2
100
AcDbEntity
  8
OBJECT
100
AcDbLine
 10
1.449650342134897
 20
-0.2668086578651021
 30
0.0
 11
1.670767657865103
 21
-0.0456913421348997
 31
0.0
  0
ARC
  5
16A
330
2
100
AcDbEntity
  8
OBJECT
100
AcDbCircle
 10
1.339341684269795
 20
-0.1565000000000012
 30
0.0
 40
0.156
100
AcDbArc
 50
270.0
 51
315.0
  0
ARC
  5
16B
330
2
100
AcDbEntity
  8
OBJECT
100
AcDbCircle
 10
1.781076315730203
 20
-0.1560000000000006
 30
0.0
 40
0.156
100
AcDbArc
 50
90.0
 51
134.9999999999999
  0
LINE
  5
16C
330
2
100
AcDbEntity
  8
OBJECT
100
AcDbLine
 10
2.321436342134899
 20
-0.0456913421348997
 30
0.0
 11
2.542553657865101
 21
-0.2668086578651003
 31
0.0
  0
ARC
  5
16D
330
2
100
AcDbEntity
  8
OBJECT
100
AcDbCircle
 10
2.652862315730203
 20
-0.1564999999999994
 30
0.0
 40
0.156
100
AcDbArc
 50
225.0
 51
270.0
  0
ARC
  5
16E
330
2
100
AcDbEntity
  8
OBJECT
100
AcDbCircle
 10
2.211127684269798
 20
-0.1560000000000006
 30
0.0
 40
0.156
100
AcDbArc
 50
45.0
 51
90.0
  0
CIRCLE
  5
16F
330
2
100
AcDbEntity
  8
OBJECT
100
AcDbCircle
 10
2.872709
 20
0.0
 30
0.0
 40
0.0855
  0
LINE
  5
170
330
2
100
AcDbEntity
  8
OBJECT
100
AcDbLine
 10
0.9381533769010231
 20
1.499999999999998
 30
0.0
 11
1.376128684269796
 21
1.499999999999998
 31
0.0
  0
LINE
  5
171
330
2
100
AcDbEntity
  8
OBJECT
100
AcDbLine
 10
0.4694046230989768
 20
1.8125
 30
0.0
 11
0.0
 21
1.8125
 31
0.0
  0
CIRCLE
  5
172
330
2
100
AcDbEntity
  8
OBJECT
100
AcDbCircle
 10
0.2814410000000001
 20
1.5
 30
0.0
 40
0.0855
  0
LINE
  5
173
330
2
100
AcDbEntity
  8
OBJECT
100
AcDbLine
 10
0.8341954331764656
 20
1.539686862579664
 30
0.0
 11
0.5733625668235352
 21
1.772813137420334
 31
0.0
  0
ARC
  5
174
330
2
100
AcDbEntity
  8
OBJECT
100
AcDbCircle
 10
0.938153376901024
 20
1.655999999999999
 30
0.0
 40
0.156
100
AcDbArc
 50
228.2104053485504
 51
269.9999999999998
  0
ARC
  5
175
330
2
100
AcDbEntity
  8
OBJECT
100
AcDbCircle
 10
0.4694046230989768
 20
1.656499999999999
 30
0.0
 40
0.156
100
AcDbArc
 50
48.21040534855028
 51
90.0
  0
LINE
  5
176
330
2
100
AcDbEntity
  8
OBJECT
100
AcDbLine
 10
1.817863315730205
 20
1.8125
 30
0.0
 11
2.251128684269798
 21
1.8125
 31
0.0
  0
LINE
  5
177
330
2
100
AcDbEntity
  8
OBJECT
100
AcDbLine
 10
1.486437342134897
 20
1.545691342134898
 30
0.0
 11
1.707554657865103
 21
1.7668086578651
 31
0.0
  0
ARC
  5
178
330
2
100
AcDbEntity
  8
OBJECT
100
AcDbCircle
 10
1.376128684269796
 20
1.655999999999999
 30
0.0
 40
0.156
100
AcDbArc
 50
270.0
 51
314.9999999999998
  0
CIRCLE
  5
179
330
2
100
AcDbEntity
  8
OBJECT
100
AcDbCircle
 10
2.029938000000001
 20
1.5
 30
0.0
 40
0.0855
  0
ARC
  5
17A
330
2
100
AcDbEntity
  8
OBJECT
100
AcDbCircle
 10
1.817863315730205
 20
1.656499999999999
 30
0.0
 40
0.156
100
AcDbArc
 50
90.0
 51
135.0
  0
LINE
  5
17B
330
2
100
AcDbEntity
  8
OBJECT
100
AcDbLine
 10
2.361437342134899
 20
1.7668086578651
 30
0.0
 11
2.582554657865102
 21
1.5456913421349
 31
0.0
  0
ARC
  5
17C
330
2
100
AcDbEntity
  8
OBJECT
100
AcDbCircle
 10
2.692863315730204
 20
1.656000000000001
 30
0.0
 40
0.156
100
AcDbArc
 50
225.0
 51
270.0000000000002
  0
ARC
  5
17D
330
2
100
AcDbEntity
  8
OBJECT
100
AcDbCircle
 10
2.251128684269798
 20
1.656499999999999
 30
0.0
 40
0.156
100
AcDbArc
 50
45.0000000000001
 51
90.0
  0
CIRCLE
  5
17E
330
2
100
AcDbEntity
  8
OBJECT
100
AcDbCircle
 10
6.370417
 20
0.0
 30
0.0
 40
0.0855
  0
LINE
  5
17F
330
2
100
AcDbEntity
  8
OBJECT
100
AcDbLine
 10
6.153784315730203
 20
-0.3125
 30
0.0
 11
6.587049684269797
 21
-0.3125
 31
0.0
  0
LINE
  5
180
330
2
100
AcDbEntity
  8
OBJECT
100
AcDbLine
 10
6.189956315730203
 20
1.500000000000002
 30
0.0
 11
6.623837684269798
 21
1.500000000000002
 31
0.0
  0
CIRCLE
  5
181
330
2
100
AcDbEntity
  8
OBJECT
100
AcDbCircle
 10
4.619800999999999
 20
0.0
 30
0.0
 40
0.0855
  0
LINE
  5
182
330
2
100
AcDbEntity
  8
OBJECT
100
AcDbLine
 10
4.403168315730204
 20
-0.3125
 30
0.0
 11
4.836433684269796
 21
-0.3125
 31
0.0
  0
LINE
  5
183
330
2
100
AcDbEntity
  8
OBJECT
100
AcDbLine
 10
3.527862315730204
 20
0.0
 30
0.0
 11
3.961433684269796
 21
0.0
 31
0.0
  0
LINE
  5
184
330
2
100
AcDbEntity
  8
OBJECT
100
AcDbLine
 10
3.196436342134899
 20
-0.2668086578651003
 30
0.0
 11
3.417553657865103
 21
-0.0456913421348997
 31
0.0
  0
ARC
  5
185
330
2
100
AcDbEntity
  8
OBJECT
100
AcDbCircle
 10
3.086127684269798
 20
-0.1564999999999994
 30
0.0
 40
0.156
100
AcDbArc
 50
270.0
 51
315.0
  0
ARC
  5
186
330
2
100
AcDbEntity
  8
OBJECT
100
AcDbCircle
 10
3.527862315730204
 20
-0.1560000000000006
 30
0.0
 40
0.156
100
AcDbArc
 50
90.0
 51
134.9999999999998
  0
LINE
  5
187
330
2
100
AcDbEntity
  8
OBJECT
100
AcDbLine
 10
4.071742342134897
 20
-0.0456913421348997
 30
0.0
 11
4.292859657865103
 21
-0.2668086578651003
 31
0.0
  0
ARC
  5
188
330
2
100
AcDbEntity
  8
OBJECT
100
AcDbCircle
 10
4.403168315730204
 20
-0.1564999999999994
 30
0.0
 40
0.156
100
AcDbArc
 50
225.0000000000002
 51
270.0
  0
ARC
  5
189
330
2
100
AcDbEntity
  8
OBJECT
100
AcDbCircle
 10
3.961433684269796
 20
-0.1560000000000006
 30
0.0
 40
0.156
100
AcDbArc
 50
45.0
 51
90.0
  0
LINE
  5
18A
330
2
100
AcDbEntity
  8
OBJECT
100
AcDbLine
 10
5.278168315730202
 20
0.0
 30
0.0
 11
5.712049684269799
 21
0.0
 31
0.0
  0
LINE
  5
18B
330
2
100
AcDbEntity
  8
OBJECT
100
AcDbLine
 10
4.946742342134897
 20
-0.2668086578651003
 30
0.0
 11
5.167859657865101
 21
-0.0456913421348997
 31
0.0
  0
ARC
  5
18C
330
2
100
AcDbEntity
  8
OBJECT
100
AcDbCircle
 10
4.836433684269796
 20
-0.1564999999999994
 30
0.0
 40
0.156
100
AcDbArc
 50
270.0
 51
315.0
  0
ARC
  5
18D
330
2
100
AcDbEntity
  8
OBJECT
100
AcDbCircle
 10
5.278168315730202
 20
-0.1560000000000006
 30
0.0
 40
0.156
100
AcDbArc
 50
90.0
 51
134.9999999999998
  0
LINE
  5
18E
330
2
100
AcDbEntity
  8
OBJECT
100
AcDbLine
 10
5.822358342134899
 20
-0.0456913421348997
 30
0.0
 11
6.043475657865102
 21
-0.2668086578651003
 31
0.0
  0
ARC
  5
18F
330
2
100
AcDbEntity
  8
OBJECT
100
AcDbCircle
 10
6.153784315730203
 20
-0.1564999999999994
 30
0.0
 40
0.156
100
AcDbArc
 50
225.0
 51
270.0
  0
ARC
  5
190
330
2
100
AcDbEntity
  8
OBJECT
100
AcDbCircle
 10
5.712049684269799
 20
-0.1560000000000006
 30
0.0
 40
0.156
100
AcDbArc
 50
45.00000000000019
 51
90.0
  0
LINE
  5
191
330
2
100
AcDbEntity
  8
OBJECT
100
AcDbLine
 10
4.439650315730201
 20
1.5
 30
0.0
 11
4.873221684269797
 21
1.500000000000002
 31
0.0
  0
CIRCLE
  5
192
330
2
100
AcDbEntity
  8
OBJECT
100
AcDbCircle
 10
3.786544000000001
 20
1.5
 30
0.0
 40
0.0855
  0
LINE
  5
193
330
2
100
AcDbEntity
  8
OBJECT
100
AcDbLine
 10
3.564650315730203
 20
1.8125
 30
0.0
 11
3.997915684269797
 21
1.8125
 31
0.0
  0
LINE
  5
194
330
2
100
AcDbEntity
  8
OBJECT
100
AcDbLine
 10
3.2332243421349
 20
1.545691342134901
 30
0.0
 11
3.454341657865102
 21
1.7668086578651
 31
0.0
  0
ARC
  5
195
330
2
100
AcDbEntity
  8
OBJECT
100
AcDbCircle
 10
3.122915684269799
 20
1.656000000000002
 30
0.0
 40
0.156
100
AcDbArc
 50
270.0
 51
314.9999999999998
  0
ARC
  5
196
330
2
100
AcDbEntity
  8
OBJECT
100
AcDbCircle
 10
3.564650315730203
 20
1.656499999999999
 30
0.0
 40
0.156
100
AcDbArc
 50
90.0
 51
135.0
  0
LINE
  5
197
330
2
100
AcDbEntity
  8
OBJECT
100
AcDbLine
 10
4.108224342134898
 20
1.7668086578651
 30
0.0
 11
4.329341657865101
 21
1.5456913421349
 31
0.0
  0
ARC
  5
198
330
2
100
AcDbEntity
  8
OBJECT
100
AcDbCircle
 10
4.439650315730201
 20
1.656000000000001
 30
0.0
 40
0.156
100
AcDbArc
 50
225.0
 51
270.0000000000002
  0
ARC
  5
199
330
2
100
AcDbEntity
  8
OBJECT
100
AcDbCircle
 10
3.997915684269797
 20
1.656499999999999
 30
0.0
 40
0.156
100
AcDbArc
 50
45.0
 51
90.0
  0
CIRCLE
  5
19A
330
2
100
AcDbEntity
  8
OBJECT
100
AcDbCircle
 10
5.529097
 20
1.5
 30
0.0
 40
0.0855
  0
LINE
  5
19B
330
2
100
AcDbEntity
  8
OBJECT
100
AcDbLine
 10
5.314956315730203
 20
1.8125
 30
0.0
 11
5.748221684269799
 21
1.8125
 31
0.0
  0
LINE
  5
19C
330
2
100
AcDbEntity
  8
OBJECT
100
AcDbLine
 10
4.983530342134898
 20
1.545691342134901
 30
0.0
 11
5.204647657865102
 21
1.7668086578651
 31
0.0
  0
ARC
  5
19D
330
2
100
AcDbEntity
  8
OBJECT
100
AcDbCircle
 10
4.873221684269797
 20
1.656000000000002
 30
0.0
 40
0.156
100
AcDbArc
 50
270.0
 51
314.9999999999998
  0
ARC
  5
19E
330
2
100
AcDbEntity
  8
OBJECT
100
AcDbCircle
 10
5.314956315730203
 20
1.656499999999999
 30
0.0
 40
0.156
100
AcDbArc
 50
90.0
 51
135.0
  0
LINE
  5
19F
330
2
100
AcDbEntity
  8
OBJECT
100
AcDbLine
 10
5.8585303421349
 20
1.7668086578651
 30
0.0
 11
6.079647657865102
 21
1.545691342134901
 31
0.0
  0
ARC
  5
1A0
330
2
100
AcDbEntity
  8
OBJECT
100
AcDbCircle
 10
6.189956315730203
 20
1.656000000000002
 30
0.0
 40
0.156
100
AcDbArc
 50
225.0
 51
270.0
  0
ARC
  5
1A1
330
2
100
AcDbEntity
  8
OBJECT
100
AcDbCircle
 10
5.748221684269799
 20
1.656499999999999
 30
0.0
 40
0.156
100
AcDbArc
 50
45.0
 51
90.0
  0
LINE
  5
1A2
330
2
100
AcDbEntity
  8
OBJECT
100
AcDbLine
 10
9.117711999999999
 20
1.202776
 30
0.0
 11
9.093448
 21
1.150117000000002
 31
0.0
  0
CIRCLE
  5
1A3
330
2
100
AcDbEntity
  8
OBJECT
100
AcDbCircle
 10
8.120555
 20
0.0
 30
0.0
 40
0.0855
  0
LINE
  5
1A4
330
2
100
AcDbEntity
  8
OBJECT
100
AcDbLine
 10
7.903922315730204
 20
-0.3125
 30
0.0
 11
8.337187684269797
 21
-0.3125
 31
0.0
  0
LINE
  5
1A5
330
2
100
AcDbEntity
  8
OBJECT
100
AcDbLine
 10
7.028784315730203
 20
0.0
 30
0.0
 11
7.462187684269798
 21
0.0
 31
0.0
  0
LINE
  5
1A6
330
2
100
AcDbEntity
  8
OBJECT
100
AcDbLine
 10
6.697358342134898
 20
-0.2668086578651003
 30
0.0
 11
6.918475657865102
 21
-0.0456913421348997
 31
0.0
  0
ARC
  5
1A7
330
2
100
AcDbEntity
  8
OBJECT
100
AcDbCircle
 10
6.587049684269797
 20
-0.1564999999999994
 30
0.0
 40
0.156
100
AcDbArc
 50
270.0
 51
314.9999999999998
  0
ARC
  5
1A8
330
2
100
AcDbEntity
  8
OBJECT
100
AcDbCircle
 10
7.028784315730203
 20
-0.1560000000000006
 30
0.0
 40
0.156
100
AcDbArc
 50
90.0
 51
135.0
  0
LINE
  5
1A9
330
2
100
AcDbEntity
  8
OBJECT
100
AcDbLine
 10
7.572496342134899
 20
-0.0456913421348979
 30
0.0
 11
7.793613657865103
 21
-0.2668086578651003
 31
0.0
  0
ARC
  5
1AA
330
2
100
AcDbEntity
  8
OBJECT
100
AcDbCircle
 10
7.903922315730204
 20
-0.1564999999999994
 30
0.0
 40
0.156
100
AcDbArc
 50
225.0
 51
270.0
  0
ARC
  5
1AB
330
2
100
AcDbEntity
  8
OBJECT
100
AcDbCircle
 10
7.462187684269798
 20
-0.1560000000000006
 30
0.0
 40
0.156
100
AcDbArc
 50
45.00000000000041
 51
90.0
  0
LINE
  5
1AC
330
2
100
AcDbEntity
  8
OBJECT
100
AcDbLine
 10
9.033315
 20
0.2789909999999995
 30
0.0
 11
9.081842999999999
 21
0.2278359999999982
 31
0.0
  0
LINE
  5
1AD
330
2
100
AcDbEntity
  8
OBJECT
100
AcDbLine
 10
8.778922315730203
 20
0.0
 30
0.0
 11
9.033315
 21
0.0
 31
0.0
  0
LINE
  5
1AE
330
2
100
AcDbEntity
  8
OBJECT
100
AcDbLine
 10
8.447496342134897
 20
-0.2668086578651003
 30
0.0
 11
8.668613657865102
 21
-0.0456913421348997
 31
0.0
  0
ARC
  5
1AF
330
2
100
AcDbEntity
  8
OBJECT
100
AcDbCircle
 10
8.337187684269797
 20
-0.1564999999999994
 30
0.0
 40
0.156
100
AcDbArc
 50
270.0
 51
314.9999999999998
  0
ARC
  5
1B0
330
2
100
AcDbEntity
  8
OBJECT
100
AcDbCircle
 10
8.778922315730203
 20
-0.1560000000000006
 30
0.0
 40
0.156
100
AcDbArc
 50
90.0
 51
135.0
  0
LINE
  5
1B1
330
2
100
AcDbEntity
  8
OBJECT
100
AcDbLine
 10
9.081842999999999
 20
0.0217149999999986
 30
0.0
 11
9.044920000000001
 21
0.0051649999999999
 31
0.0
  0
LINE
  5
1B2
330
2
100
AcDbEntity
  8
OBJECT
100
AcDbLine
 10
9.129316000000001
 20
0.0728690000000007
 30
0.0
 11
9.081842999999999
 21
0.0217149999999986
 31
0.0
  0
LINE
  5
1B3
330
2
100
AcDbEntity
  8
OBJECT
100
AcDbLine
 10
9.140920999999999
 20
0.1240230000000011
 30
0.0
 11
9.129316000000001
 21
0.0728690000000007
 31
0.0
  0
LINE
  5
1B4
330
2
100
AcDbEntity
  8
OBJECT
100
AcDbLine
 10
9.129316000000001
 20
0.1766820000000013
 30
0.0
 11
9.140920999999999
 21
0.1240230000000011
 31
0.0
  0
LINE
  5
1B5
330
2
100
AcDbEntity
  8
OBJECT
100
AcDbLine
 10
9.081842999999999
 20
0.2278359999999982
 30
0.0
 11
9.129316000000001
 21
0.1766820000000013
 31
0.0
  0
LINE
  5
1B6
330
2
100
AcDbEntity
  8
OBJECT
100
AcDbLine
 10
9.261185999999999
 20
0.7062790000000003
 30
0.0
 11
9.249580999999999
 21
0.655125
 31
0.0
  0
LINE
  5
1B7
330
2
100
AcDbEntity
  8
OBJECT
100
AcDbLine
 10
8.985842000000002
 20
0.3301450000000017
 30
0.0
 11
9.033315
 21
0.2789909999999995
 31
0.0
  0
LINE
  5
1B8
330
2
100
AcDbEntity
  8
OBJECT
100
AcDbLine
 10
8.973182999999999
 20
0.3812989999999985
 30
0.0
 11
8.985842000000002
 21
0.3301450000000017
 31
0.0
  0
LINE
  5
1B9
330
2
100
AcDbEntity
  8
OBJECT
100
AcDbLine
 10
8.985842000000002
 20
0.4324530000000006
 30
0.0
 11
8.973182999999999
 21
0.3812989999999985
 31
0.0
  0
LINE
  5
1BA
330
2
100
AcDbEntity
  8
OBJECT
100
AcDbLine
 10
9.021710999999998
 20
0.4836079999999985
 30
0.0
 11
8.985842000000002
 21
0.4324530000000006
 31
0.0
  0
LINE
  5
1BB
330
2
100
AcDbEntity
  8
OBJECT
100
AcDbLine
 10
9.081842999999999
 20
0.5182120000000001
 30
0.0
 11
9.021710999999998
 21
0.4836079999999985
 31
0.0
  0
LINE
  5
1BC
330
2
100
AcDbEntity
  8
OBJECT
100
AcDbLine
 10
9.140920999999999
 20
0.5693660000000005
 30
0.0
 11
9.081842999999999
 21
0.5182120000000001
 31
0.0
  0
LINE
  5
1BD
330
2
100
AcDbEntity
  8
OBJECT
100
AcDbLine
 10
9.201053
 20
0.6039709999999996
 30
0.0
 11
9.140920999999999
 21
0.5693660000000005
 31
0.0
  0
LINE
  5
1BE
330
2
100
AcDbEntity
  8
OBJECT
100
AcDbLine
 10
9.249580999999999
 20
0.655125
 30
0.0
 11
9.201053
 21
0.6039709999999996
 31
0.0
  0
LINE
  5
1BF
330
2
100
AcDbEntity
  8
OBJECT
100
AcDbLine
 10
9.297054000000001
 20
0.7574329999999989
 30
0.0
 11
9.261185999999999
 21
0.7062790000000003
 31
0.0
  0
LINE
  5
1C0
330
2
100
AcDbEntity
  8
OBJECT
100
AcDbLine
 10
9.297054000000001
 20
0.8085880000000003
 30
0.0
 11
9.297054000000001
 21
0.7574329999999989
 31
0.0
  0
LINE
  5
1C1
330
2
100
AcDbEntity
  8
OBJECT
100
AcDbLine
 10
9.261185999999999
 20
0.8597420000000007
 30
0.0
 11
9.297054000000001
 21
0.8085880000000003
 31
0.0
  0
LINE
  5
1C2
330
2
100
AcDbEntity
  8
OBJECT
100
AcDbLine
 10
9.236922
 20
0.9108959999999993
 30
0.0
 11
9.261185999999999
 21
0.8597420000000007
 31
0.0
  0
LINE
  5
1C3
330
2
100
AcDbEntity
  8
OBJECT
100
AcDbLine
 10
9.201053
 20
0.9620499999999996
 30
0.0
 11
9.236922
 21
0.9108959999999993
 31
0.0
  0
LINE
  5
1C4
330
2
100
AcDbEntity
  8
OBJECT
100
AcDbLine
 10
9.140920999999999
 20
0.9966549999999987
 30
0.0
 11
9.201053
 21
0.9620499999999996
 31
0.0
  0
LINE
  5
1C5
330
2
100
AcDbEntity
  8
OBJECT
100
AcDbLine
 10
9.093448
 20
1.047808999999999
 30
0.0
 11
9.140920999999999
 21
0.9966549999999987
 31
0.0
  0
LINE
  5
1C6
330
2
100
AcDbEntity
  8
OBJECT
100
AcDbLine
 10
9.093448
 20
1.150117000000002
 30
0.0
 11
9.093448
 21
1.047808999999999
 31
0.0
  0
LINE
  5
1C7
330
2
100
AcDbEntity
  8
OBJECT
100
AcDbLine
 10
7.940572315730204
 20
1.500000000000002
 30
0.0
 11
8.373975684269796
 21
1.5
 31
0.0
  0
CIRCLE
  5
1C8
330
2
100
AcDbEntity
  8
OBJECT
100
AcDbCircle
 10
7.285703999999999
 20
1.5
 30
0.0
 40
0.0855
  0
LINE
  5
1C9
330
2
100
AcDbEntity
  8
OBJECT
100
AcDbLine
 10
7.065572315730204
 20
1.8125
 30
0.0
 11
7.498837684269796
 21
1.8125
 31
0.0
  0
LINE
  5
1CA
330
2
100
AcDbEntity
  8
OBJECT
100
AcDbLine
 10
6.734146342134899
 20
1.545691342134901
 30
0.0
 11
6.955263657865103
 21
1.7668086578651
 31
0.0
  0
ARC
  5
1CB
330
2
100
AcDbEntity
  8
OBJECT
100
AcDbCircle
 10
6.623837684269798
 20
1.656000000000002
 30
0.0
 40
0.156
100
AcDbArc
 50
269.9999999999998
 51
314.9999999999998
  0
ARC
  5
1CC
330
2
100
AcDbEntity
  8
OBJECT
100
AcDbCircle
 10
7.065572315730204
 20
1.656499999999999
 30
0.0
 40
0.156
100
AcDbArc
 50
90.0
 51
135.0
  0
LINE
  5
1CD
330
2
100
AcDbEntity
  8
OBJECT
100
AcDbLine
 10
7.609146342134897
 20
1.7668086578651
 30
0.0
 11
7.830263657865103
 21
1.5456913421349
 31
0.0
  0
ARC
  5
1CE
330
2
100
AcDbEntity
  8
OBJECT
100
AcDbCircle
 10
7.940572315730204
 20
1.656000000000002
 30
0.0
 40
0.156
100
AcDbArc
 50
225.0000000000004
 51
270.0
  0
ARC
  5
1CF
330
2
100
AcDbEntity
  8
OBJECT
100
AcDbCircle
 10
7.498837684269796
 20
1.656499999999999
 30
0.0
 40
0.156
100
AcDbArc
 50
45.0
 51
90.0
  0
LINE
  5
1D0
330
2
100
AcDbEntity
  8
OBJECT
100
AcDbLine
 10
8.815710315730204
 20
1.812500000000004
 30
0.0
 11
9.033315
 21
1.8125
 31
0.0
  0
LINE
  5
1D1
330
2
100
AcDbEntity
  8
OBJECT
100
AcDbLine
 10
8.484284342134897
 20
1.5456913421349
 30
0.0
 11
8.705401657865103
 21
1.766808657865104
 31
0.0
  0
ARC
  5
1D2
330
2
100
AcDbEntity
  8
OBJECT
100
AcDbCircle
 10
8.373975684269796
 20
1.656000000000001
 30
0.0
 40
0.156
100
AcDbArc
 50
269.9999999999998
 51
315.0
  0
ARC
  5
1D3
330
2
100
AcDbEntity
  8
OBJECT
100
AcDbCircle
 10
8.815710315730204
 20
1.656500000000003
 30
0.0
 40
0.156
100
AcDbArc
 50
90.0
 51
134.9999999999998
  0
LINE
  5
1D4
330
2
100
AcDbEntity
  8
OBJECT
100
AcDbLine
 10
9.261185999999999
 20
1.664669
 30
0.0
 11
9.285450000000001
 21
1.61201
 31
0.0
  0
LINE
  5
1D5
330
2
100
AcDbEntity
  8
OBJECT
100
AcDbLine
 10
9.165185000000001
 20
1.253929999999999
 30
0.0
 11
9.117711999999999
 21
1.202776
 31
0.0
  0
LINE
  5
1D6
330
2
100
AcDbEntity
  8
OBJECT
100
AcDbLine
 10
9.213713
 20
1.305085
 30
0.0
 11
9.165185000000001
 21
1.253929999999999
 31
0.0
  0
LINE
  5
1D7
330
2
100
AcDbEntity
  8
OBJECT
100
AcDbLine
 10
9.285450000000001
 20
1.407392999999999
 30
0.0
 11
9.213713
 21
1.305085
 31
0.0
  0
LINE
  5
1D8
330
2
100
AcDbEntity
  8
OBJECT
100
AcDbLine
 10
9.297054000000001
 20
1.458546999999999
 30
0.0
 11
9.285450000000001
 21
1.407392999999999
 31
0.0
  0
LINE
  5
1D9
330
2
100
AcDbEntity
  8
OBJECT
100
AcDbLine
 10
9.297054000000001
 20
1.560855999999999
 30
0.0
 11
9.297054000000001
 21
1.458546999999999
 31
0.0
  0
LINE
  5
1DA
330
2
100
AcDbEntity
  8
OBJECT
100
AcDbLine
 10
9.285450000000001
 20
1.61201
 30
0.0
 11
9.297054000000001
 21
1.560855999999999
 31
0.0
  0
CIRCLE
  5
1DB
330
2
100
AcDbEntity
  8
OBJECT
100
AcDbCircle
 10
9.028257
 20
1.5
 30
0.0
 40
0.0855
  0
LINE
  5
1DC
330
2
100
AcDbEntity
  8
OBJECT
100
AcDbLine
 10
9.189449
 20
1.766976999999999
 30
0.0
 11
9.261185999999999
 21
1.664669
 31
0.0
  0
LINE
  5
1DD
330
2
100
AcDbEntity
  8
OBJECT
100
AcDbLine
 10
9.069184
 20
1.800076999999998
 30
0.0
 11
9.189449
 21
1.766976999999999
 31
0.0
  0
LINE
  5
1DE
330
2
100
AcDbEntity
  8
OBJECT
100
AcDbLine
 10
9.009051000000001
 20
1.818132
 30
0.0
 11
9.069184
 21
1.800076999999998
 31
0.0
  0
ARC
  5
1DF
330
2
100
AcDbEntity
  8
OBJECT
100
AcDbCircle
 10
13.1873583157302
 20
1.655999999999999
 30
0.0
 40
0.156
100
AcDbArc
 50
225.0000000000002
 51
270.0
  0
LINE
  5
1E0
330
2
100
AcDbEntity
  8
OBJECT
100
AcDbLine
 10
13.1505713157302
 20
-0.3125
 30
0.0
 11
13.5838366842698
 21
-0.3125
 31
0.0
  0
LINE
  5
1E1
330
2
100
AcDbEntity
  8
OBJECT
100
AcDbLine
 10
10.820412
 20
1.202776
 30
0.0
 11
10.784543
 21
1.150117000000002
 31
0.0
  0
LINE
  5
1E2
330
2
100
AcDbEntity
  8
OBJECT
100
AcDbLine
 10
11.40057131573021
 20
-0.3125
 30
0.0
 11
11.8338366842698
 21
-0.3125
 31
0.0
  0
LINE
  5
1E3
330
2
100
AcDbEntity
  8
OBJECT
100
AcDbLine
 10
10.604146
 20
0.2789909999999995
 30
0.0
 11
10.652674
 21
0.2278359999999982
 31
0.0
  0
LINE
  5
1E4
330
2
100
AcDbEntity
  8
OBJECT
100
AcDbLine
 10
11.023454
 20
0.0
 30
0.0
 11
11.29026265786511
 21
-0.2668086578651003
 31
0.0
  0
ARC
  5
1E5
330
2
100
AcDbEntity
  8
OBJECT
100
AcDbCircle
 10
11.40057131573021
 20
-0.1564999999999994
 30
0.0
 40
0.156
100
AcDbArc
 50
225.0
 51
270.0
  0
LINE
  5
1E6
330
2
100
AcDbEntity
  8
OBJECT
100
AcDbLine
 10
10.820412
 20
0.0563190000000002
 30
0.0
 11
10.796148
 21
0.0051649999999999
 31
0.0
  0
LINE
  5
1E7
330
2
100
AcDbEntity
  8
OBJECT
100
AcDbLine
 10
10.808807
 20
0.1074730000000006
 30
0.0
 11
10.820412
 21
0.0563190000000002
 31
0.0
  0
LINE
  5
1E8
330
2
100
AcDbEntity
  8
OBJECT
100
AcDbLine
 10
10.772939
 20
0.1586280000000002
 30
0.0
 11
10.808807
 21
0.1074730000000006
 31
0.0
  0
LINE
  5
1E9
330
2
100
AcDbEntity
  8
OBJECT
100
AcDbLine
 10
10.652674
 20
0.2278359999999982
 30
0.0
 11
10.772939
 21
0.1586280000000002
 31
0.0
  0
LINE
  5
1EA
330
2
100
AcDbEntity
  8
OBJECT
100
AcDbLine
 10
10.784543
 20
0.0
 30
0.0
 11
11.023454
 21
0.0
 31
0.0
  0
LINE
  5
1EB
330
2
100
AcDbEntity
  8
OBJECT
100
AcDbLine
 10
10.62841
 20
0.3812989999999985
 30
0.0
 11
10.604146
 21
0.3301450000000017
 31
0.0
  0
LINE
  5
1EC
330
2
100
AcDbEntity
  8
OBJECT
100
AcDbLine
 10
10.604146
 20
0.3301450000000017
 30
0.0
 11
10.604146
 21
0.2789909999999995
 31
0.0
  0
LINE
  5
1ED
330
2
100
AcDbEntity
  8
OBJECT
100
AcDbLine
 10
10.928017
 20
0.7408829999999984
 30
0.0
 11
10.928017
 21
0.6897290000000016
 31
0.0
  0
LINE
  5
1EE
330
2
100
AcDbEntity
  8
OBJECT
100
AcDbLine
 10
10.676938
 20
0.4324530000000006
 30
0.0
 11
10.62841
 21
0.3812989999999985
 31
0.0
  0
LINE
  5
1EF
330
2
100
AcDbEntity
  8
OBJECT
100
AcDbLine
 10
10.73707
 20
0.467057999999998
 30
0.0
 11
10.676938
 21
0.4324530000000006
 31
0.0
  0
LINE
  5
1F0
330
2
100
AcDbEntity
  8
OBJECT
100
AcDbLine
 10
10.796148
 20
0.5016619999999996
 30
0.0
 11
10.73707
 21
0.467057999999998
 31
0.0
  0
LINE
  5
1F1
330
2
100
AcDbEntity
  8
OBJECT
100
AcDbLine
 10
10.85628
 20
0.5347619999999989
 30
0.0
 11
10.796148
 21
0.5016619999999996
 31
0.0
  0
LINE
  5
1F2
330
2
100
AcDbEntity
  8
OBJECT
100
AcDbLine
 10
10.892149
 20
0.585916000000001
 30
0.0
 11
10.85628
 21
0.5347619999999989
 31
0.0
  0
LINE
  5
1F3
330
2
100
AcDbEntity
  8
OBJECT
100
AcDbLine
 10
10.916413
 20
0.6370700000000014
 30
0.0
 11
10.892149
 21
0.585916000000001
 31
0.0
  0
LINE
  5
1F4
330
2
100
AcDbEntity
  8
OBJECT
100
AcDbLine
 10
10.928017
 20
0.6897290000000016
 30
0.0
 11
10.916413
 21
0.6370700000000014
 31
0.0
  0
LINE
  5
1F5
330
2
100
AcDbEntity
  8
OBJECT
100
AcDbLine
 10
10.904808
 20
0.7920379999999998
 30
0.0
 11
10.928017
 21
0.7408829999999984
 31
0.0
  0
LINE
  5
1F6
330
2
100
AcDbEntity
  8
OBJECT
100
AcDbLine
 10
10.85628
 20
0.8431920000000019
 30
0.0
 11
10.904808
 21
0.7920379999999998
 31
0.0
  0
LINE
  5
1F7
330
2
100
AcDbEntity
  8
OBJECT
100
AcDbLine
 10
10.808807
 20
0.8943459999999988
 30
0.0
 11
10.85628
 21
0.8431920000000019
 31
0.0
  0
LINE
  5
1F8
330
2
100
AcDbEntity
  8
OBJECT
100
AcDbLine
 10
10.73707
 20
0.9966549999999987
 30
0.0
 11
10.808807
 21
0.8943459999999988
 31
0.0
  0
LINE
  5
1F9
330
2
100
AcDbEntity
  8
OBJECT
100
AcDbLine
 10
10.73707
 20
1.047808999999999
 30
0.0
 11
10.73707
 21
0.9966549999999987
 31
0.0
  0
LINE
  5
1FA
330
2
100
AcDbEntity
  8
OBJECT
100
AcDbLine
 10
10.760279
 20
1.098963000000001
 30
0.0
 11
10.73707
 21
1.047808999999999
 31
0.0
  0
LINE
  5
1FB
330
2
100
AcDbEntity
  8
OBJECT
100
AcDbLine
 10
10.784543
 20
1.150117000000002
 30
0.0
 11
10.760279
 21
1.098963000000001
 31
0.0
  0
LINE
  5
1FC
330
2
100
AcDbEntity
  8
OBJECT
100
AcDbLine
 10
12.2755713157302
 20
0.0000000000000018
 30
0.0
 11
12.7088366842698
 21
0.0
 31
0.0
  0
LINE
  5
1FD
330
2
100
AcDbEntity
  8
OBJECT
100
AcDbLine
 10
11.9441453421349
 20
-0.2668086578651003
 30
0.0
 11
12.1652626578651
 21
-0.0456913421348979
 31
0.0
  0
ARC
  5
1FE
330
2
100
AcDbEntity
  8
OBJECT
100
AcDbCircle
 10
11.8338366842698
 20
-0.1564999999999994
 30
0.0
 40
0.156
100
AcDbArc
 50
270.0
 51
315.0
  0
CIRCLE
  5
1FF
330
2
100
AcDbEntity
  8
OBJECT
100
AcDbCircle
 10
11.620417
 20
0.0
 30
0.0
 40
0.0855
  0
ARC
  5
200
330
2
100
AcDbEntity
  8
OBJECT
100
AcDbCircle
 10
12.2755713157302
 20
-0.1559999999999988
 30
0.0
 40
0.156
100
AcDbArc
 50
90.0
 51
135.0
  0
LINE
  5
201
330
2
100
AcDbEntity
  8
OBJECT
100
AcDbLine
 10
12.8191453421349
 20
-0.0456913421348997
 30
0.0
 11
13.0402626578651
 21
-0.2668086578651003
 31
0.0
  0
ARC
  5
202
330
2
100
AcDbEntity
  8
OBJECT
100
AcDbCircle
 10
13.1505713157302
 20
-0.1564999999999994
 30
0.0
 40
0.156
100
AcDbArc
 50
224.9999999999998
 51
270.0
  0
ARC
  5
203
330
2
100
AcDbEntity
  8
OBJECT
100
AcDbCircle
 10
12.7088366842698
 20
-0.1560000000000006
 30
0.0
 40
0.156
100
AcDbArc
 50
45.0
 51
90.0
  0
LINE
  5
204
330
2
100
AcDbEntity
  8
OBJECT
100
AcDbLine
 10
11.4373583157302
 20
1.5
 30
0.0
 11
11.8706236842698
 21
1.5
 31
0.0
  0
LINE
  5
205
330
2
100
AcDbEntity
  8
OBJECT
100
AcDbLine
 10
10.928017
 20
1.664669
 30
0.0
 11
10.964941
 21
1.61201
 31
0.0
  0
LINE
  5
206
330
2
100
AcDbEntity
  8
OBJECT
100
AcDbLine
 10
11.1059323421349
 20
1.766808657865102
 30
0.0
 11
11.3270496578651
 21
1.5456913421349
 31
0.0
  0
LINE
  5
207
330
2
100
AcDbEntity
  8
OBJECT
100
AcDbLine
 10
10.86894
 20
1.253929999999999
 30
0.0
 11
10.820412
 21
1.202776
 31
0.0
  0
LINE
  5
208
330
2
100
AcDbEntity
  8
OBJECT
100
AcDbLine
 10
10.940677
 20
1.356239000000002
 30
0.0
 11
10.86894
 21
1.253929999999999
 31
0.0
  0
LINE
  5
209
330
2
100
AcDbEntity
  8
OBJECT
100
AcDbLine
 10
10.964941
 20
1.407392999999999
 30
0.0
 11
10.940677
 21
1.356239000000002
 31
0.0
  0
LINE
  5
20A
330
2
100
AcDbEntity
  8
OBJECT
100
AcDbLine
 10
10.98815
 20
1.458546999999999
 30
0.0
 11
10.964941
 21
1.407392999999999
 31
0.0
  0
LINE
  5
20B
330
2
100
AcDbEntity
  8
OBJECT
100
AcDbLine
 10
10.98815
 20
1.509701999999999
 30
0.0
 11
10.98815
 21
1.458546999999999
 31
0.0
  0
LINE
  5
20C
330
2
100
AcDbEntity
  8
OBJECT
100
AcDbLine
 10
10.964941
 20
1.61201
 30
0.0
 11
10.98815
 21
1.509701999999999
 31
0.0
  0
ARC
  5
20D
330
2
100
AcDbEntity
  8
OBJECT
100
AcDbCircle
 10
11.4373583157302
 20
1.656000000000001
 30
0.0
 40
0.156
100
AcDbArc
 50
225.0
 51
270.0
  0
ARC
  5
20E
330
2
100
AcDbEntity
  8
OBJECT
100
AcDbCircle
 10
10.9956236842698
 20
1.656500000000001
 30
0.0
 40
0.156
100
AcDbArc
 50
45.00000000000019
 51
90.0
  0
LINE
  5
20F
330
2
100
AcDbEntity
  8
OBJECT
100
AcDbLine
 10
10.833071
 20
1.766976999999999
 30
0.0
 11
10.928017
 21
1.664669
 31
0.0
  0
LINE
  5
210
330
2
100
AcDbEntity
  8
OBJECT
100
AcDbLine
 10
10.796148
 20
1.818132
 30
0.0
 11
10.833071
 21
1.766976999999999
 31
0.0
  0
LINE
  5
211
330
2
100
AcDbEntity
  8
OBJECT
100
AcDbLine
 10
10.784543
 20
1.8125
 30
0.0
 11
10.9956236842698
 21
1.812500000000002
 31
0.0
  0
LINE
  5
212
330
2
100
AcDbEntity
  8
OBJECT
100
AcDbLine
 10
12.3123583157302
 20
1.8125
 30
0.0
 11
12.7456236842698
 21
1.8125
 31
0.0
  0
LINE
  5
213
330
2
100
AcDbEntity
  8
OBJECT
100
AcDbLine
 10
11.9809323421349
 20
1.5456913421349
 30
0.0
 11
12.2020496578651
 21
1.7668086578651
 31
0.0
  0
ARC
  5
214
330
2
100
AcDbEntity
  8
OBJECT
100
AcDbCircle
 10
11.8706236842698
 20
1.656000000000001
 30
0.0
 40
0.156
100
AcDbArc
 50
270.0
 51
315.0
  0
ARC
  5
215
330
2
100
AcDbEntity
  8
OBJECT
100
AcDbCircle
 10
12.3123583157302
 20
1.656499999999999
 30
0.0
 40
0.156
100
AcDbArc
 50
90.0
 51
134.9999999999998
  0
LINE
  5
216
330
2
100
AcDbEntity
  8
OBJECT
100
AcDbLine
 10
12.8559323421349
 20
1.7668086578651
 30
0.0
 11
13.0770496578651
 21
1.545691342134898
 31
0.0
  0
CIRCLE
  5
217
330
2
100
AcDbEntity
  8
OBJECT
100
AcDbCircle
 10
12.533004
 20
1.5
 30
0.0
 40
0.0855
  0
ARC
  5
218
330
2
100
AcDbEntity
  8
OBJECT
100
AcDbCircle
 10
12.7456236842698
 20
1.656499999999999
 30
0.0
 40
0.156
100
AcDbArc
 50
45.0
 51
90.0
  0
ARC
  5
219
330
2
100
AcDbEntity
  8
OBJECT
100
AcDbCircle
 10
14.9005713157302
 20
-0.1564999999999994
 30
0.0
 40
0.156
100
AcDbArc
 50
224.9999999999998
 51
270.0
  0
ARC
  5
21A
330
2
100
AcDbEntity
  8
OBJECT
100
AcDbCircle
 10
14.0255713157302
 20
-0.1559999999999988
 30
0.0
 40
0.156
100
AcDbArc
 50
90.0
 51
135.0
  0
LINE
  5
21B
330
2
100
AcDbEntity
  8
OBJECT
100
AcDbLine
 10
13.6941453421349
 20
-0.2668086578651003
 30
0.0
 11
13.9152626578651
 21
-0.0456913421348979
 31
0.0
  0
ARC
  5
21C
330
2
100
AcDbEntity
  8
OBJECT
100
AcDbCircle
 10
13.5838366842698
 20
-0.1564999999999994
 30
0.0
 40
0.156
100
AcDbArc
 50
270.0
 51
315.0
  0
CIRCLE
  5
21D
330
2
100
AcDbEntity
  8
OBJECT
100
AcDbCircle
 10
13.370417
 20
0.0
 30
0.0
 40
0.0855
  0
LINE
  5
21E
330
2
100
AcDbEntity
  8
OBJECT
100
AcDbLine
 10
14.5691453421349
 20
-0.0456913421348997
 30
0.0
 11
14.7902626578651
 21
-0.2668086578651003
 31
0.0
  0
LINE
  5
21F
330
2
100
AcDbEntity
  8
OBJECT
100
AcDbLine
 10
14.0255713157302
 20
0.0000000000000018
 30
0.0
 11
14.4588366842698
 21
0.0
 31
0.0
  0
ARC
  5
220
330
2
100
AcDbEntity
  8
OBJECT
100
AcDbCircle
 10
14.4588366842698
 20
-0.1560000000000006
 30
0.0
 40
0.156
100
AcDbArc
 50
45.0
 51
90.0
  0
ARC
  5
221
330
2
100
AcDbEntity
  8
OBJECT
100
AcDbCircle
 10
15.7755713157302
 20
-0.1560000000000006
 30
0.0
 40
0.156
100
AcDbArc
 50
90.0
 51
134.9999999999998
  0
LINE
  5
222
330
2
100
AcDbEntity
  8
OBJECT
100
AcDbLine
 10
15.4441453421349
 20
-0.2668086578651003
 30
0.0
 11
15.6652626578651
 21
-0.0456913421348997
 31
0.0
  0
LINE
  5
223
330
2
100
AcDbEntity
  8
OBJECT
100
AcDbLine
 10
14.9005713157302
 20
-0.3125
 30
0.0
 11
15.3338366842698
 21
-0.3125
 31
0.0
  0
ARC
  5
224
330
2
100
AcDbEntity
  8
OBJECT
100
AcDbCircle
 10
15.3338366842698
 20
-0.1564999999999994
 30
0.0
 40
0.156
100
AcDbArc
 50
270.0
 51
315.0
  0
CIRCLE
  5
225
330
2
100
AcDbEntity
  8
OBJECT
100
AcDbCircle
 10
15.120417
 20
0.0
 30
0.0
 40
0.0855
  0
LINE
  5
226
330
2
100
AcDbEntity
  8
OBJECT
100
AcDbLine
 10
16.3191453421349
 20
-0.0456913421348997
 30
0.0
 11
16.5402626578651
 21
-0.2668086578651003
 31
0.0
  0
LINE
  5
227
330
2
100
AcDbEntity
  8
OBJECT
100
AcDbLine
 10
15.7755713157302
 20
0.0
 30
0.0
 11
16.2088366842698
 21
0.0
 31
0.0
  0
ARC
  5
228
330
2
100
AcDbEntity
  8
OBJECT
100
AcDbCircle
 10
16.2088366842698
 20
-0.1560000000000006
 30
0.0
 40
0.156
100
AcDbArc
 50
45.0
 51
90.0
  0
ARC
  5
229
330
2
100
AcDbEntity
  8
OBJECT
100
AcDbCircle
 10
14.9373583157302
 20
1.655999999999999
 30
0.0
 40
0.156
100
AcDbArc
 50
225.0000000000002
 51
270.0
  0
ARC
  5
22A
330
2
100
AcDbEntity
  8
OBJECT
100
AcDbCircle
 10
14.0623583157302
 20
1.656499999999999
 30
0.0
 40
0.156
100
AcDbArc
 50
90.0
 51
134.9999999999998
  0
LINE
  5
22B
330
2
100
AcDbEntity
  8
OBJECT
100
AcDbLine
 10
13.7309323421349
 20
1.5456913421349
 30
0.0
 11
13.9520496578651
 21
1.7668086578651
 31
0.0
  0
LINE
  5
22C
330
2
100
AcDbEntity
  8
OBJECT
100
AcDbLine
 10
13.1873583157302
 20
1.499999999999998
 30
0.0
 11
13.6206236842698
 21
1.5
 31
0.0
  0
ARC
  5
22D
330
2
100
AcDbEntity
  8
OBJECT
100
AcDbCircle
 10
13.6206236842698
 20
1.656000000000001
 30
0.0
 40
0.156
100
AcDbArc
 50
270.0000000000002
 51
315.0
  0
LINE
  5
22E
330
2
100
AcDbEntity
  8
OBJECT
100
AcDbLine
 10
14.6059323421349
 20
1.7668086578651
 30
0.0
 11
14.8270496578651
 21
1.545691342134898
 31
0.0
  0
CIRCLE
  5
22F
330
2
100
AcDbEntity
  8
OBJECT
100
AcDbCircle
 10
14.285377
 20
1.5
 30
0.0
 40
0.0855
  0
LINE
  5
230
330
2
100
AcDbEntity
  8
OBJECT
100
AcDbLine
 10
14.0623583157302
 20
1.8125
 30
0.0
 11
14.4956236842698
 21
1.8125
 31
0.0
  0
ARC
  5
231
330
2
100
AcDbEntity
  8
OBJECT
100
AcDbCircle
 10
14.4956236842698
 20
1.656499999999999
 30
0.0
 40
0.156
100
AcDbArc
 50
45.0
 51
90.0
  0
ARC
  5
232
330
2
100
AcDbEntity
  8
OBJECT
100
AcDbCircle
 10
15.8123583157302
 20
1.656499999999999
 30
0.0
 40
0.156
100
AcDbArc
 50
90.0
 51
134.9999999999998
  0
LINE
  5
233
330
2
100
AcDbEntity
  8
OBJECT
100
AcDbLine
 10
15.4809323421349
 20
1.5456913421349
 30
0.0
 11
15.7020496578651
 21
1.7668086578651
 31
0.0
  0
LINE
  5
234
330
2
100
AcDbEntity
  8
OBJECT
100
AcDbLine
 10
14.9373583157302
 20
1.499999999999998
 30
0.0
 11
15.3706236842698
 21
1.5
 31
0.0
  0
ARC
  5
235
330
2
100
AcDbEntity
  8
OBJECT
100
AcDbCircle
 10
15.3706236842698
 20
1.656000000000001
 30
0.0
 40
0.156
100
AcDbArc
 50
270.0000000000002
 51
315.0
  0
CIRCLE
  5
236
330
2
100
AcDbEntity
  8
OBJECT
100
AcDbCircle
 10
16.025052
 20
1.5
 30
0.0
 40
0.0855
  0
LINE
  5
237
330
2
100
AcDbEntity
  8
OBJECT
100
AcDbLine
 10
15.8123583157302
 20
1.8125
 30
0.0
 11
16.2456236842698
 21
1.8125
 31
0.0
  0
ARC
  5
238
330
2
100
AcDbEntity
  8
OBJECT
100
AcDbCircle
 10
16.2456236842698
 20
1.656499999999999
 30
0.0
 40
0.156
100
AcDbArc
 50
45.0
 51
90.0
  0
LINE
  5
239
330
2
100
AcDbEntity
  8
OBJECT
100
AcDbLine
 10
19.8191453421349
 20
-0.0456913421348997
 30
0.0
 11
20.0402626578651
 21
-0.2668086578651003
 31
0.0
  0
LINE
  5
23A
330
2
100
AcDbEntity
  8
OBJECT
100
AcDbLine
 10
19.8559323421349
 20
1.7668086578651
 30
0.0
 11
20.0770496578651
 21
1.5456913421349
 31
0.0
  0
LINE
  5
23B
330
2
100
AcDbEntity
  8
OBJECT
100
AcDbLine
 10
18.0691453421349
 20
-0.0456913421348997
 30
0.0
 11
18.29026265786511
 21
-0.2668086578651021
 31
0.0
  0
ARC
  5
23C
330
2
100
AcDbEntity
  8
OBJECT
100
AcDbCircle
 10
17.5255713157302
 20
-0.1560000000000006
 30
0.0
 40
0.156
100
AcDbArc
 50
90.0
 51
134.9999999999998
  0
LINE
  5
23D
330
2
100
AcDbEntity
  8
OBJECT
100
AcDbLine
 10
17.1941453421349
 20
-0.2668086578651003
 30
0.0
 11
17.4152626578651
 21
-0.0456913421348997
 31
0.0
  0
LINE
  5
23E
330
2
100
AcDbEntity
  8
OBJECT
100
AcDbLine
 10
16.6505713157302
 20
-0.3125
 30
0.0
 11
17.0838366842698
 21
-0.3125
 31
0.0
  0
ARC
  5
23F
330
2
100
AcDbEntity
  8
OBJECT
100
AcDbCircle
 10
17.0838366842698
 20
-0.1564999999999994
 30
0.0
 40
0.156
100
AcDbArc
 50
270.0
 51
315.0
  0
CIRCLE
  5
240
330
2
100
AcDbEntity
  8
OBJECT
100
AcDbCircle
 10
16.867204
 20
0.0
 30
0.0
 40
0.0855
  0
LINE
  5
241
330
2
100
AcDbEntity
  8
OBJECT
100
AcDbLine
 10
17.5255713157302
 20
0.0
 30
0.0
 11
17.9588366842698
 21
0.0
 31
0.0
  0
ARC
  5
242
330
2
100
AcDbEntity
  8
OBJECT
100
AcDbCircle
 10
17.9588366842698
 20
-0.1560000000000006
 30
0.0
 40
0.156
100
AcDbArc
 50
45.0
 51
90.0
  0
LINE
  5
243
330
2
100
AcDbEntity
  8
OBJECT
100
AcDbLine
 10
18.9441453421349
 20
-0.2668086578651021
 30
0.0
 11
19.1652626578651
 21
-0.0456913421348997
 31
0.0
  0
LINE
  5
244
330
2
100
AcDbEntity
  8
OBJECT
100
AcDbLine
 10
18.40057131573021
 20
-0.3125
 30
0.0
 11
18.83383668426979
 21
-0.3125
 31
0.0
  0
ARC
  5
245
330
2
100
AcDbEntity
  8
OBJECT
100
AcDbCircle
 10
18.40057131573021
 20
-0.1564999999999994
 30
0.0
 40
0.156
100
AcDbArc
 50
225.0000000000002
 51
270.0
  0
ARC
  5
246
330
2
100
AcDbEntity
  8
OBJECT
100
AcDbCircle
 10
18.83383668426979
 20
-0.1564999999999994
 30
0.0
 40
0.156
100
AcDbArc
 50
270.0
 51
314.9999999999996
  0
CIRCLE
  5
247
330
2
100
AcDbEntity
  8
OBJECT
100
AcDbCircle
 10
18.620417
 20
0.0
 30
0.0
 40
0.0855
  0
LINE
  5
248
330
2
100
AcDbEntity
  8
OBJECT
100
AcDbLine
 10
19.2755713157302
 20
0.0
 30
0.0
 11
19.7088366842698
 21
0.0
 31
0.0
  0
ARC
  5
249
330
2
100
AcDbEntity
  8
OBJECT
100
AcDbCircle
 10
19.2755713157302
 20
-0.1560000000000006
 30
0.0
 40
0.156
100
AcDbArc
 50
90.0
 51
134.9999999999998
  0
ARC
  5
24A
330
2
100
AcDbEntity
  8
OBJECT
100
AcDbCircle
 10
19.7088366842698
 20
-0.1560000000000006
 30
0.0
 40
0.156
100
AcDbArc
 50
45.0
 51
90.0
  0
LINE
  5
24B
330
2
100
AcDbEntity
  8
OBJECT
100
AcDbLine
 10
18.1059323421349
 20
1.766808657865102
 30
0.0
 11
18.3270496578651
 21
1.545691342134901
 31
0.0
  0
LINE
  5
24C
330
2
100
AcDbEntity
  8
OBJECT
100
AcDbLine
 10
17.2309323421349
 20
1.545691342134898
 30
0.0
 11
17.4520496578651
 21
1.7668086578651
 31
0.0
  0
LINE
  5
24D
330
2
100
AcDbEntity
  8
OBJECT
100
AcDbLine
 10
16.6873583157302
 20
1.500000000000002
 30
0.0
 11
17.1206236842698
 21
1.499999999999998
 31
0.0
  0
ARC
  5
24E
330
2
100
AcDbEntity
  8
OBJECT
100
AcDbCircle
 10
16.6873583157302
 20
1.656000000000002
 30
0.0
 40
0.156
100
AcDbArc
 50
225.0000000000002
 51
269.9999999999998
  0
ARC
  5
24F
330
2
100
AcDbEntity
  8
OBJECT
100
AcDbCircle
 10
17.1206236842698
 20
1.655999999999999
 30
0.0
 40
0.156
100
AcDbArc
 50
270.0
 51
314.9999999999998
  0
CIRCLE
  5
250
330
2
100
AcDbEntity
  8
OBJECT
100
AcDbCircle
 10
17.782844
 20
1.5
 30
0.0
 40
0.0855
  0
LINE
  5
251
330
2
100
AcDbEntity
  8
OBJECT
100
AcDbLine
 10
17.5623583157302
 20
1.8125
 30
0.0
 11
17.9956236842698
 21
1.8125
 31
0.0
  0
ARC
  5
252
330
2
100
AcDbEntity
  8
OBJECT
100
AcDbCircle
 10
17.5623583157302
 20
1.656499999999999
 30
0.0
 40
0.156
100
AcDbArc
 50
90.0
 51
135.0
  0
ARC
  5
253
330
2
100
AcDbEntity
  8
OBJECT
100
AcDbCircle
 10
17.9956236842698
 20
1.656499999999999
 30
0.0
 40
0.156
100
AcDbArc
 50
45.00000000000041
 51
90.0
  0
LINE
  5
254
330
2
100
AcDbEntity
  8
OBJECT
100
AcDbLine
 10
18.9809323421349
 20
1.5456913421349
 30
0.0
 11
19.2020496578651
 21
1.766808657865102
 31
0.0
  0
LINE
  5
255
330
2
100
AcDbEntity
  8
OBJECT
100
AcDbLine
 10
18.4373583157302
 20
1.500000000000002
 30
0.0
 11
18.8706236842698
 21
1.5
 31
0.0
  0
ARC
  5
256
330
2
100
AcDbEntity
  8
OBJECT
100
AcDbCircle
 10
18.4373583157302
 20
1.656000000000002
 30
0.0
 40
0.156
100
AcDbArc
 50
225.0
 51
270.0
  0
ARC
  5
257
330
2
100
AcDbEntity
  8
OBJECT
100
AcDbCircle
 10
18.8706236842698
 20
1.656000000000001
 30
0.0
 40
0.156
100
AcDbArc
 50
270.0
 51
315.0
  0
CIRCLE
  5
258
330
2
100
AcDbEntity
  8
OBJECT
100
AcDbCircle
 10
19.532169
 20
1.5
 30
0.0
 40
0.0855
  0
LINE
  5
259
330
2
100
AcDbEntity
  8
OBJECT
100
AcDbLine
 10
19.3123583157302
 20
1.812500000000002
 30
0.0
 11
19.7456236842698
 21
1.8125
 31
0.0
  0
ARC
  5
25A
330
2
100
AcDbEntity
  8
OBJECT
100
AcDbCircle
 10
19.3123583157302
 20
1.656500000000001
 30
0.0
 40
0.156
100
AcDbArc
 50
90.0
 51
135.0
  0
ARC
  5
25B
330
2
100
AcDbEntity
  8
OBJECT
100
AcDbCircle
 10
19.7456236842698
 20
1.656499999999999
 30
0.0
 40
0.156
100
AcDbArc
 50
45.00000000000019
 51
90.0
  0
LINE
  5
25C
330
2
100
AcDbEntity
  8
OBJECT
100
AcDbLine
 10
23.3125
 20
1.8125
 30
0.0
 11
23.3125
 21
0.0
 31
0.0
  0
LINE
  5
25D
330
2
100
AcDbEntity
  8
OBJECT
100
AcDbLine
 10
21.56799541731359
 20
-0.0405617522120281
 30
0.0
 11
21.82254658268642
 21
-0.2719382477879719
 31
0.0
  0
LINE
  5
25E
330
2
100
AcDbEntity
  8
OBJECT
100
AcDbLine
 10
20.6941453421349
 20
-0.2668086578651003
 30
0.0
 11
20.9152626578651
 21
-0.0456913421348997
 31
0.0
  0
LINE
  5
25F
330
2
100
AcDbEntity
  8
OBJECT
100
AcDbLine
 10
20.1505713157302
 20
-0.3125
 30
0.0
 11
20.5838366842698
 21
-0.3125
 31
0.0
  0
ARC
  5
260
330
2
100
AcDbEntity
  8
OBJECT
100
AcDbCircle
 10
20.1505713157302
 20
-0.1564999999999994
 30
0.0
 40
0.156
100
AcDbArc
 50
224.9999999999998
 51
270.0
  0
ARC
  5
261
330
2
100
AcDbEntity
  8
OBJECT
100
AcDbCircle
 10
20.5838366842698
 20
-0.1564999999999994
 30
0.0
 40
0.156
100
AcDbArc
 50
270.0
 51
315.0
  0
CIRCLE
  5
262
330
2
100
AcDbEntity
  8
OBJECT
100
AcDbCircle
 10
20.370417
 20
0.0
 30
0.0
 40
0.0855
  0
LINE
  5
263
330
2
100
AcDbEntity
  8
OBJECT
100
AcDbLine
 10
21.0255713157302
 20
0.0
 30
0.0
 11
21.46306681802987
 21
0.0
 31
0.0
  0
ARC
  5
264
330
2
100
AcDbEntity
  8
OBJECT
100
AcDbCircle
 10
21.0255713157302
 20
-0.1560000000000006
 30
0.0
 40
0.156
100
AcDbArc
 50
90.0
 51
134.9999999999998
  0
ARC
  5
265
330
2
100
AcDbEntity
  8
OBJECT
100
AcDbCircle
 10
21.46306681802987
 20
-0.1560000000000006
 30
0.0
 40
0.156
100
AcDbArc
 50
47.73045877431215
 51
90.0
  0
LINE
  5
266
330
2
100
AcDbEntity
  8
OBJECT
100
AcDbLine
 10
22.4721483421349
 20
-0.2668086578651003
 30
0.0
 11
22.6932656578651
 21
-0.0456913421348997
 31
0.0
  0
LINE
  5
267
330
2
100
AcDbEntity
  8
OBJECT
100
AcDbLine
 10
21.92747518197013
 20
-0.3125
 30
0.0
 11
22.3618396842698
 21
-0.3125
 31
0.0
  0
ARC
  5
268
330
2
100
AcDbEntity
  8
OBJECT
100
AcDbCircle
 10
21.92747518197013
 20
-0.1564999999999994
 30
0.0
 40
0.156
100
AcDbArc
 50
227.7304587743121
 51
270.0
  0
ARC
  5
269
330
2
100
AcDbEntity
  8
OBJECT
100
AcDbCircle
 10
22.3618396842698
 20
-0.1564999999999994
 30
0.0
 40
0.156
100
AcDbArc
 50
270.0
 51
315.0
  0
CIRCLE
  5
26A
330
2
100
AcDbEntity
  8
OBJECT
100
AcDbCircle
 10
22.145207
 20
0.0
 30
0.0
 40
0.0855
  0
LINE
  5
26B
330
2
100
AcDbEntity
  8
OBJECT
100
AcDbLine
 10
22.8035743157302
 20
0.0
 30
0.0
 11
23.3125
 21
0.0
 31
0.0
  0
ARC
  5
26C
330
2
100
AcDbEntity
  8
OBJECT
100
AcDbCircle
 10
22.8035743157302
 20
-0.1560000000000006
 30
0.0
 40
0.156
100
AcDbArc
 50
90.0
 51
134.9999999999998
  0
CIRCLE
  5
26D
330
2
100
AcDbEntity
  8
OBJECT
100
AcDbCircle
 10
22.311412
 20
0.75
 30
0.0
 40
0.281
  0
CIRCLE
  5
26E
330
2
100
AcDbEntity
  8
OBJECT
100
AcDbCircle
 10
23.031247
 20
0.375
 30
0.0
 40
0.0855
  0
LINE
  5
26F
330
2
100
AcDbEntity
  8
OBJECT
100
AcDbLine
 10
21.6059323421349
 20
1.7668086578651
 30
0.0
 11
21.8270496578651
 21
1.5456913421349
 31
0.0
  0
LINE
  5
270
330
2
100
AcDbEntity
  8
OBJECT
100
AcDbLine
 10
20.7309323421349
 20
1.545691342134898
 30
0.0
 11
20.9520496578651
 21
1.7668086578651
 31
0.0
  0
LINE
  5
271
330
2
100
AcDbEntity
  8
OBJECT
100
AcDbLine
 10
20.1873583157302
 20
1.5
 30
0.0
 11
20.6206236842698
 21
1.499999999999998
 31
0.0
  0
ARC
  5
272
330
2
100
AcDbEntity
  8
OBJECT
100
AcDbCircle
 10
20.1873583157302
 20
1.656000000000001
 30
0.0
 40
0.156
100
AcDbArc
 50
225.0
 51
269.9999999999998
  0
ARC
  5
273
330
2
100
AcDbEntity
  8
OBJECT
100
AcDbCircle
 10
20.6206236842698
 20
1.655999999999999
 30
0.0
 40
0.156
100
AcDbArc
 50
270.0
 51
314.9999999999998
  0
CIRCLE
  5
274
330
2
100
AcDbEntity
  8
OBJECT
100
AcDbCircle
 10
21.281495
 20
1.5
 30
0.0
 40
0.0855
  0
LINE
  5
275
330
2
100
AcDbEntity
  8
OBJECT
100
AcDbLine
 10
21.0623583157302
 20
1.8125
 30
0.0
 11
21.4956236842698
 21
1.8125
 31
0.0
  0
ARC
  5
276
330
2
100
AcDbEntity
  8
OBJECT
100
AcDbCircle
 10
21.0623583157302
 20
1.656499999999999
 30
0.0
 40
0.156
100
AcDbArc
 50
90.0
 51
135.0
  0
ARC
  5
277
330
2
100
AcDbEntity
  8
OBJECT
100
AcDbCircle
 10
21.4956236842698
 20
1.656499999999999
 30
0.0
 40
0.156
100
AcDbArc
 50
45.0
 51
90.0
  0
LINE
  5
278
330
2
100
AcDbEntity
  8
OBJECT
100
AcDbLine
 10
22.47978341731359
 20
1.540561752212028
 30
0.0
 11
22.73433458268642
 21
1.771938247787972
 31
0.0
  0
LINE
  5
279
330
2
100
AcDbEntity
  8
OBJECT
100
AcDbLine
 10
21.9373583157302
 20
1.5
 30
0.0
 11
22.37485481802987
 21
1.5
 31
0.0
  0
ARC
  5
27A
330
2
100
AcDbEntity
  8
OBJECT
100
AcDbCircle
 10
21.9373583157302
 20
1.656000000000001
 30
0.0
 40
0.156
100
AcDbArc
 50
225.0000000000002
 51
270.0
  0
ARC
  5
27B
330
2
100
AcDbEntity
  8
OBJECT
100
AcDbCircle
 10
22.37485481802987
 20
1.656000000000001
 30
0.0
 40
0.156
100
AcDbArc
 50
270.0
 51
312.2695412256878
  0
CIRCLE
  5
27C
330
2
100
AcDbEntity
  8
OBJECT
100
AcDbCircle
 10
23.031247
 20
1.5
 30
0.0
 40
0.0855
  0
LINE
  5
27D
330
2
100
AcDbEntity
  8
OBJECT
100
AcDbLine
 10
22.83926318197014
 20
1.8125
 30
0.0
 11
23.3125
 21
1.8125
 31
0.0
  0
ARC
  5
27E
330
2
100
AcDbEntity
  8
OBJECT
100
AcDbCircle
 10
22.83926318197014
 20
1.656499999999999
 30
0.0
 40
0.156
100
AcDbArc
 50
90.0
 51
132.2695412256879
  0
ENDSEC
  0
SECTION
  2
OBJECTS
  0
DICTIONARY
  5
9
330
0
100
AcDbDictionary
281
     1
  3
ACAD_COLOR
350
156
  3
ACAD_GROUP
350
24
  3
ACAD_LAYOUT
350
D
  3
ACAD_MATERIAL
350
155
  3
ACAD_MLINESTYLE
350
25
  3
ACAD_PLOTSETTINGS
350
26
  3
ACAD_PLOTSTYLENAME
350
8
  3
ACAD_TABLESTYLE
350
157
  3
ACDBHEADERROUNDTRIPXREC
350
28A
  3
AcDbVariableDictionary
350
151
  0
DICTIONARY
  5
3
330
2
100
AcDbDictionary
280
     1
281
     1
  3
ACAD_SORTENTS
360
27F
  0
DICTIONARY
  5
156
102
{ACAD_REACTORS
330
9
102
}
330
9
100
AcDbDictionary
281
     1
  0
DICTIONARY
  5
24
102
{ACAD_REACTORS
330
9
102
}
330
9
100
AcDbDictionary
281
     1
  0
DICTIONARY
  5
D
102
{ACAD_REACTORS
330
9
102
}
330
9
100
AcDbDictionary
281
     1
  3
Layout1
350
13
  3
Model
350
C
  0
DICTIONARY
  5
155
102
{ACAD_REACTORS
330
9
102
}
330
9
100
AcDbDictionary
281
     1
  0
DICTIONARY
  5
25
102
{ACAD_REACTORS
330
9
102
}
330
9
100
AcDbDictionary
281
     1
  3
Standard
350
28
  0
DICTIONARY
  5
26
102
{ACAD_REACTORS
330
9
102
}
330
9
100
AcDbDictionary
281
     1
  0
ACDBDICTIONARYWDFLT
  5
8
102
{ACAD_REACTORS
330
9
102
}
330
9
100
AcDbDictionary
281
     1
  3
Normal
350
7
100
AcDbDictionaryWithDefault
340
7
  0
DICTIONARY
  5
157
102
{ACAD_REACTORS
330
9
102
}
330
9
100
AcDbDictionary
281
     1
  3
Standard
350
158
  0
DICTIONARY
  5
28A
102
{ACAD_REACTORS
330
9
102
}
330
9
100
AcDbDictionary
281
     1
  3
COLORDICT
350
28B
  3
MATERIALDICT
350
28C
  0
DICTIONARY
  5
151
102
{ACAD_REACTORS
330
9
102
}
330
9
100
AcDbDictionary
281
     1
  3
CTABLESTYLE
350
287
  3
HIDETEXT
350
289
  0
SORTENTSTABLE
  5
27F
102
{ACAD_REACTORS
330
3
102
}
330
3
100
AcDbSortentsTable
330
2
331
22E
  5
22E
331
185
  5
185
331
27B
  5
27B
331
265
  5
265
331
186
  5
186
331
168
  5
168
331
16A
  5
16A
331
21E
  5
21E
331
1AF
  5
1AF
331
1E6
  5
1E6
331
249
  5
249
331
1DB
  5
1DB
331
1DC
  5
1DC
331
1B0
  5
1B0
331
19E
  5
19E
331
161
  5
161
331
243
  5
243
331
26B
  5
26B
331
196
  5
196
331
169
  5
169
331
273
  5
273
331
233
  5
233
331
27C
  5
27C
331
258
  5
258
331
19D
  5
19D
331
1E7
  5
1E7
331
15F
  5
15F
331
1DD
  5
1DD
331
269
  5
269
331
1BA
  5
1BA
331
1D7
  5
1D7
331
263
  5
263
331
205
  5
205
331
214
  5
214
331
27E
  5
27E
331
16F
  5
16F
331
170
  5
170
331
25E
  5
25E
331
26C
  5
26C
331
181
  5
181
331
277
  5
277
331
275
  5
275
331
1A6
  5
1A6
331
24A
  5
24A
331
25D
  5
25D
331
1A2
  5
1A2
331
1F9
  5
1F9
331
1C1
  5
1C1
331
19F
  5
19F
331
241
  5
241
331
23F
  5
23F
331
188
  5
188
331
257
  5
257
331
212
  5
212
331
179
  5
179
331
1F3
  5
1F3
331
1F1
  5
1F1
331
1C9
  5
1C9
331
221
  5
221
331
1EC
  5
1EC
331
1FC
  5
1FC
331
211
  5
211
331
1A0
  5
1A0
331
15D
  5
15D
331
197
  5
197
331
1C0
  5
1C0
331
17A
  5
17A
331
1B4
  5
1B4
331
17E
  5
17E
331
25F
  5
25F
331
18D
  5
18D
331
1C8
  5
1C8
331
203
  5
203
331
204
  5
204
331
16D
  5
16D
331
1B8
  5
1B8
331
21F
  5
21F
331
1D1
  5
1D1
331
1C2
  5
1C2
331
178
  5
178
331
184
  5
184
331
21B
  5
21B
331
22F
  5
22F
331
1EE
  5
1EE
331
20A
  5
20A
331
18E
  5
18E
331
1A5
  5
1A5
331
26E
  5
26E
331
183
  5
183
331
21D
  5
21D
331
1A1
  5
1A1
331
261
  5
261
331
1D2
  5
1D2
331
240
  5
240
331
173
  5
173
331
167
  5
167
331
171
  5
171
331
1C5
  5
1C5
331
225
  5
225
331
222
  5
222
331
1A9
  5
1A9
331
242
  5
242
331
266
  5
266
331
19A
  5
19A
331
278
  5
278
331
17F
  5
17F
331
26A
  5
26A
331
25A
  5
25A
331
26F
  5
26F
331
17D
  5
17D
331
165
  5
165
331
19C
  5
19C
331
1B5
  5
1B5
331
208
  5
208
331
209
  5
209
331
216
  5
216
331
236
  5
236
331
1BF
  5
1BF
331
190
  5
190
331
1E2
  5
1E2
331
1C3
  5
1C3
331
1EB
  5
1EB
331
1D0
  5
1D0
331
272
  5
272
331
182
  5
182
331
1E3
  5
1E3
331
1A8
  5
1A8
331
20E
  5
20E
331
1ED
  5
1ED
331
195
  5
195
331
198
  5
198
331
201
  5
201
331
279
  5
279
331
1BD
  5
1BD
331
189
  5
189
331
1F4
  5
1F4
331
24D
  5
24D
331
237
  5
237
331
17B
  5
17B
331
1AC
  5
1AC
331
1C7
  5
1C7
331
1F6
  5
1F6
331
1F7
  5
1F7
331
1FE
  5
1FE
331
256
  5
256
331
1CE
  5
1CE
331
24E
  5
24E
331
224
  5
224
331
248
  5
248
331
1D4
  5
1D4
331
251
  5
251
331
25C
  5
25C
331
1AA
  5
1AA
331
1CA
  5
1CA
331
18C
  5
18C
331
1CB
  5
1CB
331
202
  5
202
331
163
  5
163
331
1B7
  5
1B7
331
228
  5
228
331
1A4
  5
1A4
331
268
  5
268
331
1F8
  5
1F8
331
23B
  5
23B
331
232
  5
232
331
1C6
  5
1C6
331
239
  5
239
331
166
  5
166
331
1DF
  5
1DF
331
259
  5
259
331
192
  5
192
331
1E9
  5
1E9
331
1CF
  5
1CF
331
270
  5
270
331
255
  5
255
331
177
  5
177
331
215
  5
215
331
252
  5
252
331
23C
  5
23C
331
1F2
  5
1F2
331
218
  5
218
331
17C
  5
17C
331
162
  5
162
331
160
  5
160
331
1B6
  5
1B6
331
25B
  5
25B
331
264
  5
264
331
230
  5
230
331
22B
  5
22B
331
235
  5
235
331
247
  5
247
331
274
  5
274
331
164
  5
164
331
18A
  5
18A
331
19B
  5
19B
331
227
  5
227
331
226
  5
226
331
220
  5
220
331
1EA
  5
1EA
331
1E5
  5
1E5
331
200
  5
200
331
250
  5
250
331
223
  5
223
331
15C
  5
15C
331
1C4
  5
1C4
331
267
  5
267
331
1AB
  5
1AB
331
1D9
  5
1D9
331
207
  5
207
331
174
  5
174
331
1B1
  5
1B1
331
175
  5
175
331
180
  5
180
331
1D5
  5
1D5
331
22D
  5
22D
331
1FD
  5
1FD
331
1DE
  5
1DE
331
245
  5
245
331
20B
  5
20B
331
1B3
  5
1B3
331
24C
  5
24C
331
254
  5
254
331
1D8
  5
1D8
331
210
  5
210
331
217
  5
217
331
18F
  5
18F
331
26D
  5
26D
331
1D3
  5
1D3
331
260
  5
260
331
1DA
  5
1DA
331
23E
  5
23E
331
194
  5
194
331
246
  5
246
331
271
  5
271
331
23D
  5
23D
331
20C
  5
20C
331
23A
  5
23A
331
16B
  5
16B
331
1E8
  5
1E8
331
21C
  5
21C
331
193
  5
193
331
1AE
  5
1AE
331
1BB
  5
1BB
331
1CD
  5
1CD
331
244
  5
244
331
1E4
  5
1E4
331
1F5
  5
1F5
331
231
  5
231
331
229
  5
229
331
262
  5
262
331
176
  5
176
331
1B2
  5
1B2
331
1F0
  5
1F0
331
16C
  5
16C
331
16E
  5
16E
331
20D
  5
20D
331
22A
  5
22A
331
22C
  5
22C
331
219
  5
219
331
199
  5
199
331
27A
  5
27A
331
1BE
  5
1BE
331
276
  5
276
331
24B
  5
24B
331
238
  5
238
331
1EF
  5
1EF
331
1B9
  5
1B9
331
15B
  5
15B
331
1A3
  5
1A3
331
27D
  5
27D
331
1AD
  5
1AD
331
1FA
  5
1FA
331
1CC
  5
1CC
331
1BC
  5
1BC
331
234
  5
234
331
1D6
  5
1D6
331
172
  5
172
331
191
  5
191
331
1A7
  5
1A7
331
21A
  5
21A
331
1FB
  5
1FB
331
1E0
  5
1E0
331
1E1
  5
1E1
331
187
  5
187
331
213
  5
213
331
253
  5
253
331
24F
  5
24F
331
18B
  5
18B
331
206
  5
206
331
1FF
  5
1FF
331
15E
  5
15E
331
20F
  5
20F
  0
LAYOUT
  5
13
102
{ACAD_REACTORS
330
D
102
}
102
{ACAD_XDICTIONARY
360
28D
102
}
330
D
100
AcDbPlotSettings
  1

  2
HP LaserJet 2100 Series PS
  4

  6

 40
0.0
 41
0.0
 42
0.0
 43
0.0
 44
0.0
 45
0.0
 46
0.0
 47
0.0
 48
0.0
 49
0.0
140
0.0
141
0.0
142
1.0
143
1.0
 70
   688
 72
     0
 73
     0
 74
     5
  7

 75
    16
147
1.0
148
0.0
149
0.0
100
AcDbLayout
  1
Layout1
 70
     0
 71
     1
 10
0.0
 20
0.0
 11
12.0
 21
9.0
 12
0.0
 22
0.0
 32
0.0
 14
1.000000000000000E+20
 24
1.000000000000000E+20
 34
1.000000000000000E+20
 15
-1.000000000000000E+20
 25
-1.000000000000000E+20
 35
-1.000000000000000E+20
146
0.0
 13
0.0
 23
0.0
 33
0.0
 16
1.0
 26
0.0
 36
0.0
 17
0.0
 27
1.0
 37
0.0
 76
     0
330
E
  0
LAYOUT
  5
C
102
{ACAD_REACTORS
330
D
102
}
102
{ACAD_XDICTIONARY
360
28F
102
}
330
D
100
AcDbPlotSettings
  1

  2
HP LaserJet 2100 Series PS
  4
Letter
  6

 40
5.365749835968018
 41
5.408084392547607
 42
5.4080810546875
 43
5.365753173828125
 44
215.8999938964844
 45
279.3999938964844
 46
0.0
 47
0.0
 48
0.0
 49
0.0
140
0.0
141
0.0
142
1.0
143
1.0
 70
 11952
 72
     0
 73
     1
 74
     0
  7

 75
     0
147
1.0
148
-242.5955673233797
149
5.063736297322069
100
AcDbLayout
  1
Model
 70
     1
 71
     0
 10
0.0
 20
0.0
 11
12.0
 21
9.0
 12
0.0
 22
0.0
 32
0.0
 14
0.0
 24
0.0
 34
0.0
 15
0.0
 25
0.0
 35
0.0
146
0.0
 13
0.0
 23
0.0
 33
0.0
 16
1.0
 26
0.0
 36
0.0
 17
0.0
 27
1.0
 37
0.0
 76
     0
330
2
  0
MLINESTYLE
  5
28
102
{ACAD_REACTORS
330
25
102
}
330
25
100
AcDbMlineStyle
  2
STANDARD
 70
     0
  3

 62
   256
 51
90.0
 52
90.0
 71
     2
 49
0.5
 62
   256
  6
BYLAYER
 49
-0.5
 62
   256
  6
BYLAYER
  0
ACDBPLACEHOLDER
  5
7
102
{ACAD_REACTORS
330
8
102
}
330
8
  0
ACAD_PROXY_OBJECT
  5
158
102
{ACAD_REACTORS
330
157
102
}
330
157
100
AcDbProxyObject
 90
      499
 91
      512
 95
   983063
 70
     0
 93
     1841
310
4214DD185B99185C9928B81E85EB51B8AE3F2E07A17AD46E2B8FC02B5E8DC0F42B1CFD028000000C1008070000C3001FDFF8000000C1003FBFF000000182007F7FE00000030400FEFFC00000060801FDFF8000000C1003FBFF00000018200000000000000681FA0B0000001820100E000186003FBFF000000182007F7FE000
310
00030400FEFFC00000060801FDFF8000000C1003FBFF000000182007F7FE000000304000AD7A3703D0AC73F4160000003040201C00030C007F7FE00000030400FEFFC00000060801FDFF8000000C1003FBFF000000182007F7FE00000030400FEFFC000000608000
340
16
340
16
340
16
 94
        0
  0
XRECORD
  5
28B
102
{ACAD_REACTORS
330
28A
102
}
330
28A
100
AcDbXrecord
340
156
  0
XRECORD
  5
28C
102
{ACAD_REACTORS
330
28A
102
}
330
28A
100
AcDbXrecord
340
155
  0
DICTIONARYVAR
  5
287
102
{ACAD_REACTORS
330
151
102
}
330
151
100
DictionaryVariables
280
     0
  1
STANDARD
  0
DICTIONARYVAR
  5
289
102
{ACAD_REACTORS
330
151
102
}
330
151
100
DictionaryVariables
280
     0
  1
0
  0
DICTIONARY
  5
28D
330
13
100
AcDbDictionary
280
     1
281
     1
  3
ACAD_XREC_ROUNDTRIP
360
28E
  0
DICTIONARY
  5
28F
330
C
100
AcDbDictionary
280
     1
281
     1
  3
ACAD_XREC_ROUNDTRIP
360
290
  0
XRECORD
  5
28E
102
{ACAD_REACTORS
330
28D
102
}
330
28D
100
AcDbXrecord
102
SHADEPLOT
 70
     0
102
SHADEPLOTRESLEVEL
 70
     2
102
SHADEPLOTCUSTOMDPI
 70
   300
  0
XRECORD
  5
290
102
{ACAD_REACTORS
330
28F
102
}
330
28F
100
AcDbXrecord
102
SHADEPLOT
 70
     0
102
SHADEPLOTRESLEVEL
 70
     2
102
SHADEPLOTCUSTOMDPI
 70
   300
  0
ENDSEC
  0
EOF
