  0
SECTION
  2
HEADER
  9
$ACADVER
  1
AC1015
  9
$ACADMAINTVER
 70
     6
  9
$DWGCODEPAGE
  3
ANSI_1252
  9
$INSBASE
 10
0.0
 20
0.0
 30
0.0
  9
$EXTMIN
 10
-4.715457861655948
 20
0.0619957664913488
 30
0.0
  9
$EXTMAX
 10
15.01591306403651
 20
7.916970161977375
 30
0.0
  9
$LIMMIN
 10
0.0
 20
0.0
  9
$LIMMAX
 10
31.5
 20
24.0
  9
$ORTHOMODE
 70
     1
  9
$REGENMODE
 70
     1
  9
$FILLMODE
 70
     1
  9
$QTEXTMODE
 70
     0
  9
$MIRRTEXT
 70
     1
  9
$LTSCALE
 40
1.0
  9
$ATTMODE
 70
     1
  9
$TEXTSIZE
 40
0.265625
  9
$TRACEWID
 40
0.05
  9
$TEXTSTYLE
  7
STANDARD
  9
$CLAYER
  8
0
  9
$CELTYPE
  6
BYLAYER
  9
$CECOLOR
 62
   256
  9
$CELTSCALE
 40
1.0
  9
$DISPSILH
 70
     0
  9
$DIMSCALE
 40
1.0
  9
$DIMASZ
 40
0.375
  9
$DIMEXO
 40
0.0625
  9
$DIMDLI
 40
0.75
  9
$DIMRND
 40
0.0
  9
$DIMDLE
 40
0.0
  9
$DIMEXE
 40
0.18
  9
$DIMTP
 40
0.0
  9
$DIMTM
 40
0.0
  9
$DIMTXT
 40
0.27
  9
$DIMCEN
 40
-0.06
  9
$DIMTSZ
 40
0.0
  9
$DIMTOL
 70
     0
  9
$DIMLIM
 70
     0
  9
$DIMTIH
 70
     1
  9
$DIMTOH
 70
     1
  9
$DIMSE1
 70
     0
  9
$DIMSE2
 70
     0
  9
$DIMTAD
 70
     0
  9
$DIMZIN
 70
     0
  9
$DIMBLK
  1

  9
$DIMASO
 70
     0
  9
$DIMSHO
 70
     0
  9
$DIMPOST
  1

  9
$DIMAPOST
  1

  9
$DIMALT
 70
     0
  9
$DIMALTD
 70
     2
  9
$DIMALTF
 40
25.4
  9
$DIMLFAC
 40
1.0
  9
$DIMTOFL
 70
     0
  9
$DIMTVP
 40
0.0
  9
$DIMTIX
 70
     0
  9
$DIMSOXD
 70
     0
  9
$DIMSAH
 70
     0
  9
$DIMBLK1
  1

  9
$DIMBLK2
  1

  9
$DIMSTYLE
  2
STANDARD
  9
$DIMCLRD
 70
     0
  9
$DIMCLRE
 70
     0
  9
$DIMCLRT
 70
     0
  9
$DIMTFAC
 40
1.0
  9
$DIMGAP
 40
0.09
  9
$DIMJUST
 70
     0
  9
$DIMSD1
 70
     0
  9
$DIMSD2
 70
     0
  9
$DIMTOLJ
 70
     1
  9
$DIMTZIN
 70
     0
  9
$DIMALTZ
 70
     0
  9
$DIMALTTZ
 70
     0
  9
$DIMUPT
 70
     0
  9
$DIMDEC
 70
     5
  9
$DIMTDEC
 70
     4
  9
$DIMALTU
 70
     2
  9
$DIMALTTD
 70
     2
  9
$DIMTXSTY
  7
STANDARD
  9
$DIMAUNIT
 70
     0
  9
$DIMADEC
 70
     0
  9
$DIMALTRND
 40
0.0
  9
$DIMAZIN
 70
     0
  9
$DIMDSEP
 70
    46
  9
$DIMATFIT
 70
     3
  9
$DIMFRAC
 70
     2
  9
$DIMLDRBLK
  1

  9
$DIMLUNIT
 70
     5
  9
$DIMLWD
 70
    -2
  9
$DIMLWE
 70
    -2
  9
$DIMTMOVE
 70
     2
  9
$LUNITS
 70
     2
  9
$LUPREC
 70
     4
  9
$SKETCHINC
 40
0.1
  9
$FILLETRAD
 40
0.1
  9
$AUNITS
 70
     0
  9
$AUPREC
 70
     0
  9
$MENU
  1
ACAD
  9
$ELEVATION
 40
0.0
  9
$PELEVATION
 40
0.0
  9
$THICKNESS
 40
0.0
  9
$LIMCHECK
 70
     0
  9
$CHAMFERA
 40
0.0
  9
$CHAMFERB
 40
0.0
  9
$CHAMFERC
 40
0.0
  9
$CHAMFERD
 40
0.0
  9
$SKPOLY
 70
     0
  9
$TDCREATE
 40
2447351.172397569
  9
$TDUCREATE
 40
2447351.505730903
  9
$TDUPDATE
 40
2454943.711188368
  9
$TDUUPDATE
 40
2454944.044521702
  9
$TDINDWG
 40
0.3187923495
  9
$TDUSRTIMER
 40
0.3187923495
  9
$USRTIMER
 70
     1
  9
$ANGBASE
 50
0.0
  9
$ANGDIR
 70
     0
  9
$PDMODE
 70
     0
  9
$PDSIZE
 40
0.0
  9
$PLINEWID
 40
0.0
  9
$SPLFRAME
 70
     0
  9
$SPLINETYPE
 70
     6
  9
$SPLINESEGS
 70
     8
  9
$HANDSEED
  5
80B
  9
$SURFTAB1
 70
     6
  9
$SURFTAB2
 70
     6
  9
$SURFTYPE
 70
     6
  9
$SURFU
 70
     6
  9
$SURFV
 70
     6
  9
$UCSBASE
  2

  9
$UCSNAME
  2

  9
$UCSORG
 10
0.0
 20
0.0
 30
0.0
  9
$UCSXDIR
 10
1.0
 20
0.0
 30
0.0
  9
$UCSYDIR
 10
0.0
 20
1.0
 30
0.0
  9
$UCSORTHOREF
  2

  9
$UCSORTHOVIEW
 70
     0
  9
$UCSORGTOP
 10
0.0
 20
0.0
 30
0.0
  9
$UCSORGBOTTOM
 10
0.0
 20
0.0
 30
0.0
  9
$UCSORGLEFT
 10
0.0
 20
0.0
 30
0.0
  9
$UCSORGRIGHT
 10
0.0
 20
0.0
 30
0.0
  9
$UCSORGFRONT
 10
0.0
 20
0.0
 30
0.0
  9
$UCSORGBACK
 10
0.0
 20
0.0
 30
0.0
  9
$PUCSBASE
  2

  9
$PUCSNAME
  2

  9
$PUCSORG
 10
0.0
 20
0.0
 30
0.0
  9
$PUCSXDIR
 10
1.0
 20
0.0
 30
0.0
  9
$PUCSYDIR
 10
0.0
 20
1.0
 30
0.0
  9
$PUCSORTHOREF
  2

  9
$PUCSORTHOVIEW
 70
     0
  9
$PUCSORGTOP
 10
0.0
 20
0.0
 30
0.0
  9
$PUCSORGBOTTOM
 10
0.0
 20
0.0
 30
0.0
  9
$PUCSORGLEFT
 10
0.0
 20
0.0
 30
0.0
  9
$PUCSORGRIGHT
 10
0.0
 20
0.0
 30
0.0
  9
$PUCSORGFRONT
 10
0.0
 20
0.0
 30
0.0
  9
$PUCSORGBACK
 10
0.0
 20
0.0
 30
0.0
  9
$USERI1
 70
     0
  9
$USERI2
 70
     0
  9
$USERI3
 70
     0
  9
$USERI4
 70
     0
  9
$USERI5
 70
     0
  9
$USERR1
 40
0.0
  9
$USERR2
 40
0.0
  9
$USERR3
 40
0.0
  9
$USERR4
 40
0.0
  9
$USERR5
 40
0.0
  9
$WORLDVIEW
 70
     1
  9
$SHADEDGE
 70
     3
  9
$SHADEDIF
 70
    70
  9
$TILEMODE
 70
     1
  9
$MAXACTVP
 70
    16
  9
$PINSBASE
 10
0.0
 20
0.0
 30
0.0
  9
$PLIMCHECK
 70
     0
  9
$PEXTMIN
 10
1.000000000000000E+20
 20
1.000000000000000E+20
 30
1.000000000000000E+20
  9
$PEXTMAX
 10
-1.000000000000000E+20
 20
-1.000000000000000E+20
 30
-1.000000000000000E+20
  9
$PLIMMIN
 10
0.0
 20
0.0
  9
$PLIMMAX
 10
12.0
 20
9.0
  9
$UNITMODE
 70
     0
  9
$VISRETAIN
 70
     0
  9
$PLINEGEN
 70
     1
  9
$PSLTSCALE
 70
     0
  9
$TREEDEPTH
 70
  3020
  9
$CMLSTYLE
  2
STANDARD
  9
$CMLJUST
 70
     0
  9
$CMLSCALE
 40
1.0
  9
$PROXYGRAPHICS
 70
     1
  9
$MEASUREMENT
 70
     0
  9
$CELWEIGHT
370
    -1
  9
$ENDCAPS
280
     0
  9
$JOINSTYLE
280
     0
  9
$LWDISPLAY
290
     0
  9
$INSUNITS
 70
     0
  9
$HYPERLINKBASE
  1

  9
$STYLESHEET
  1

  9
$XEDIT
290
     1
  9
$CEPSNTYPE
380
     0
  9
$PSTYLEMODE
290
     1
  9
$FINGERPRINTGUID
  2
{F59B2323-C619-4340-AE56-FA169BB797CF}
  9
$VERSIONGUID
  2
{701940CA-A1D5-4158-AB9B-00918A9690FC}
  9
$EXTNAMES
290
     1
  9
$PSVPSCALE
 40
0.0
  9
$OLESTARTUP
290
     0
  0
ENDSEC
  0
SECTION
  2
CLASSES
  0
CLASS
  1
DICTIONARYVAR
  2
AcDbDictionaryVar
  3
AutoCAD 2000
 90
        0
280
     0
281
     0
  0
CLASS
  1
LWPOLYLINE
  2
AcDbPolyline
  3
AutoCAD 2000
 90
        0
280
     0
281
     1
  0
CLASS
  1
ACDBDICTIONARYWDFLT
  2
AcDbDictionaryWithDefault
  3
AutoCAD 2000
 90
        0
280
     0
281
     0
  0
CLASS
  1
ACDBPLACEHOLDER
  2
AcDbPlaceHolder
  3
ObjectDBX Classes
 90
        0
280
     0
281
     0
  0
CLASS
  1
LAYOUT
  2
AcDbLayout
  3
ObjectDBX Classes
 90
        0
280
     0
281
     0
  0
CLASS
  1
LONG_TRANSACTION
  2
AcDbLongTransaction
  3
ObjectDBX Classes
 90
   -65536
280
     1
281
     0
  0
CLASS
  1
LWPOLYLINE
  2
AcDbPolyline
  3
AutoCAD 2000
 90
        0
280
     0
281
     1
  0
CLASS
  1
HATCH
  2
AcDbHatch
  3
AutoCAD 2000
 90
        0
280
     0
281
     1
  0
CLASS
  1
XRECORD
  2
AcDbXrecord
  3
AutoCAD 2000
 90
        0
280
     0
281
     0
  0
CLASS
  1
LONG_TRANSACTION
  2
AcDbLongTransaction
  3
ObjectDBX Classes
 90
   -65536
280
     1
281
     0
  0
CLASS
  1
LWPOLYLINE
  2
AcDbPolyline
  3
AutoCAD 2000
 90
        0
280
     0
281
     1
  0
CLASS
  1
HATCH
  2
AcDbHatch
  3
AutoCAD 2000
 90
        0
280
     0
281
     1
  0
CLASS
  1
XRECORD
  2
AcDbXrecord
  3
AutoCAD 2000
 90
        0
280
     0
281
     0
  0
CLASS
  1
LONG_TRANSACTION
  2
AcDbLongTransaction
  3
ObjectDBX Classes
 90
   -65536
280
     1
281
     0
  0
CLASS
  1
LWPOLYLINE
  2
AcDbPolyline
  3
AutoCAD 2000
 90
        0
280
     0
281
     1
  0
CLASS
  1
HATCH
  2
AcDbHatch
  3
AutoCAD 2000
 90
        0
280
     0
281
     1
  0
CLASS
  1
XRECORD
  2
AcDbXrecord
  3
AutoCAD 2000
 90
        0
280
     0
281
     0
  0
CLASS
  1
LONG_TRANSACTION
  2
AcDbLongTransaction
  3
ObjectDBX Classes
 90
   -65536
280
     1
281
     0
  0
CLASS
  1
LWPOLYLINE
  2
AcDbPolyline
  3
AutoCAD 2000
 90
        0
280
     0
281
     1
  0
CLASS
  1
HATCH
  2
AcDbHatch
  3
AutoCAD 2000
 90
        0
280
     0
281
     1
  0
CLASS
  1
XRECORD
  2
AcDbXrecord
  3
AutoCAD 2000
 90
        0
280
     0
281
     0
  0
CLASS
  1
LONG_TRANSACTION
  2
AcDbLongTransaction
  3
ObjectDBX Classes
 90
   -65536
280
     1
281
     0
  0
CLASS
  1
LWPOLYLINE
  2
AcDbPolyline
  3
AutoCAD 2000
 90
        0
280
     0
281
     1
  0
CLASS
  1
HATCH
  2
AcDbHatch
  3
AutoCAD 2000
 90
        0
280
     0
281
     1
  0
CLASS
  1
XRECORD
  2
AcDbXrecord
  3
AutoCAD 2000
 90
        0
280
     0
281
     0
  0
CLASS
  1
LONG_TRANSACTION
  2
AcDbLongTransaction
  3
ObjectDBX Classes
 90
   -65536
280
     1
281
     0
  0
CLASS
  1
LWPOLYLINE
  2
AcDbPolyline
  3
AutoCAD 2000
 90
        0
280
     0
281
     1
  0
CLASS
  1
HATCH
  2
AcDbHatch
  3
AutoCAD 2000
 90
        0
280
     0
281
     1
  0
CLASS
  1
XRECORD
  2
AcDbXrecord
  3
AutoCAD 2000
 90
        0
280
     0
281
     0
  0
CLASS
  1
LONG_TRANSACTION
  2
AcDbLongTransaction
  3
ObjectDBX Classes
 90
   -65536
280
     1
281
     0
  0
CLASS
  1
LWPOLYLINE
  2
AcDbPolyline
  3
AutoCAD 2000
 90
        0
280
     0
281
     1
  0
CLASS
  1
HATCH
  2
AcDbHatch
  3
AutoCAD 2000
 90
        0
280
     0
281
     1
  0
CLASS
  1
XRECORD
  2
AcDbXrecord
  3
AutoCAD 2000
 90
        0
280
     0
281
     0
  0
CLASS
  1
TABLESTYLE
  2
AcDbTableStyle
  3
ObjectDBX Classes
 90
     2047
280
     1
281
     0
  0
ENDSEC
  0
SECTION
  2
TABLES
  0
TABLE
  2
VPORT
  5
8
330
0
100
AcDbSymbolTable
 70
     2
  0
VPORT
  5
7FD
330
8
100
AcDbSymbolTableRecord
100
AcDbViewportTableRecord
  2
*Active
 70
     0
 10
0.0
 20
0.0
 11
1.0
 21
1.0
 12
10.57635436916273
 22
3.771439801777547
 13
0.0
 23
0.0
 14
0.0625
 24
0.0625
 15
0.5
 25
0.5
 16
0.0
 26
0.0
 36
1.0
 17
0.0
 27
0.0
 37
0.0
 40
24.2914979899237
 41
1.77079107505071
 42
50.0
 43
0.0
 44
0.0
 50
0.0
 51
0.0
 71
     0
 72
  1000
 73
     1
 74
     1
 75
     0
 76
     0
 77
     0
 78
     0
281
     0
 65
     1
110
0.0
120
0.0
130
0.0
111
1.0
121
0.0
131
0.0
112
0.0
122
1.0
132
0.0
 79
     0
146
0.0
  0
ENDTAB
  0
TABLE
  2
LTYPE
  5
5
330
0
100
AcDbSymbolTable
 70
     1
  0
LTYPE
  5
11
330
5
100
AcDbSymbolTableRecord
100
AcDbLinetypeTableRecord
  2
BYBLOCK
 70
     0
  3

 72
    65
 73
     0
 40
0.0
  0
LTYPE
  5
12
330
5
100
AcDbSymbolTableRecord
100
AcDbLinetypeTableRecord
  2
BYLAYER
 70
     0
  3

 72
    65
 73
     0
 40
0.0
  0
LTYPE
  5
13
330
5
100
AcDbSymbolTableRecord
100
AcDbLinetypeTableRecord
  2
CONTINUOUS
 70
     0
  3
Solid line
 72
    65
 73
     0
 40
0.0
  0
ENDTAB
  0
TABLE
  2
LAYER
  5
2
330
0
100
AcDbSymbolTable
 70
     1
  0
LAYER
  5
E
330
2
100
AcDbSymbolTableRecord
100
AcDbLayerTableRecord
  2
0
 70
     0
 62
     7
  6
CONTINUOUS
370
    -3
390
578
  0
ENDTAB
  0
TABLE
  2
STYLE
  5
3
330
0
100
AcDbSymbolTable
 70
     1
  0
STYLE
  5
F
330
3
100
AcDbSymbolTableRecord
100
AcDbTextStyleTableRecord
  2
STANDARD
 70
     0
 40
0.0
 41
1.0
 50
0.0
 71
     0
 42
0.265625
  3
txt
  4

  0
ENDTAB
  0
TABLE
  2
VIEW
  5
6
330
0
100
AcDbSymbolTable
 70
     1
  0
VIEW
  5
2C
330
6
100
AcDbSymbolTableRecord
100
AcDbViewTableRecord
  2
PRINTER
 70
     0
 40
23.5625
 10
15.875
 20
11.78125
 41
31.75
 11
0.0
 21
0.0
 31
1.0
 12
0.0
 22
0.0
 32
0.0
 42
50.0
 43
0.0
 44
0.0
 50
0.0
 71
     0
281
     0
 72
     0
  0
ENDTAB
  0
TABLE
  2
UCS
  5
7
330
0
100
AcDbSymbolTable
 70
     0
  0
ENDTAB
  0
TABLE
  2
APPID
  5
9
330
0
100
AcDbSymbolTable
 70
     2
  0
APPID
  5
10
330
9
100
AcDbSymbolTableRecord
100
AcDbRegAppTableRecord
  2
ACAD
 70
     0
  0
APPID
  5
6C5
330
9
100
AcDbSymbolTableRecord
100
AcDbRegAppTableRecord
  2
CONTENTBLOCKICON
 70
     0
  0
ENDTAB
  0
TABLE
  2
DIMSTYLE
  5
A
330
0
100
AcDbSymbolTable
 70
     1
100
AcDbDimStyleTable
  0
DIMSTYLE
105
367
330
A
100
AcDbSymbolTableRecord
100
AcDbDimStyleTableRecord
  2
STANDARD
 70
     0
  3

  4

340
F
  0
ENDTAB
  0
TABLE
  2
BLOCK_RECORD
  5
1
330
0
100
AcDbSymbolTable
 70
     0
  0
BLOCK_RECORD
  5
17
330
1
100
AcDbSymbolTableRecord
100
AcDbBlockTableRecord
  2
*MODEL_SPACE
340
57B
  0
BLOCK_RECORD
  5
14
330
1
100
AcDbSymbolTableRecord
100
AcDbBlockTableRecord
  2
*PAPER_SPACE
340
57C
  0
ENDTAB
  0
ENDSEC
  0
SECTION
  2
BLOCKS
  0
BLOCK
  5
3A
330
17
100
AcDbEntity
  8
0
100
AcDbBlockBegin
  2
*MODEL_SPACE
 70
     0
 10
0.0
 20
0.0
 30
0.0
  3
*MODEL_SPACE
  1

  4

  0
ENDBLK
  5
3B
330
17
100
AcDbEntity
  8
0
100
AcDbBlockEnd
  0
BLOCK
  5
38
330
14
100
AcDbEntity
 67
     1
  8
0
100
AcDbBlockBegin
  2
*PAPER_SPACE
 70
     0
 10
0.0
 20
0.0
 30
0.0
  3
*PAPER_SPACE
  1

  4

  0
ENDBLK
  5
39
330
14
100
AcDbEntity
 67
     1
  8
0
100
AcDbBlockEnd
  0
ENDSEC
  0
SECTION
  2
ENTITIES
  0
LINE
  5
25B
330
17
100
AcDbEntity
  8
0
100
AcDbLine
 10
0.0252276011902808
 20
7.916970161977375
 30
0.0
 11
10.27522760119028
 21
7.916970161977375
 31
0.0
  0
LINE
  5
25C
330
17
100
AcDbEntity
  8
0
100
AcDbLine
 10
10.27522760119028
 20
7.916970161977375
 30
0.0
 11
10.27522760119028
 21
6.567149746919824
 31
0.0
  0
LINE
  5
25D
330
17
100
AcDbEntity
  8
0
100
AcDbLine
 10
10.27522760119028
 20
7.817756702224564
 30
0.0
 11
0.0252276011902808
 21
7.817756702224472
 31
0.0
  0
LINE
  5
25E
330
17
100
AcDbEntity
  8
0
100
AcDbLine
 10
0.0252276011902808
 20
7.916970161977375
 30
0.0
 11
0.0252276011902808
 21
6.567149746919828
 31
0.0
  0
LINE
  5
25F
330
17
100
AcDbEntity
  8
0
100
AcDbLine
 10
10.02522760119028
 20
6.317149746919824
 30
0.0
 11
9.900227601190281
 21
6.317149746919824
 31
0.0
  0
LINE
  5
278
330
17
100
AcDbEntity
  8
0
100
AcDbLine
 10
6.150227601190274
 20
6.442149746919824
 30
0.0
 11
5.900227601190277
 21
6.692149746919824
 31
0.0
  0
LINE
  5
279
330
17
100
AcDbEntity
  8
0
100
AcDbLine
 10
0.2752276011902808
 20
6.317149746919824
 30
0.0
 11
0.0252276011902808
 21
6.567149746919824
 31
0.0
  0
LINE
  5
27A
330
17
100
AcDbEntity
  8
0
100
AcDbLine
 10
10.02522760119028
 20
6.317149746919821
 30
0.0
 11
10.27522760119028
 21
6.567149746919824
 31
0.0
  0
LINE
  5
27B
330
17
100
AcDbEntity
  8
0
100
AcDbLine
 10
8.150227601190281
 20
6.817149746919824
 30
0.0
 11
9.150227601190281
 21
6.817149746919824
 31
0.0
  0
LINE
  5
27C
330
17
100
AcDbEntity
  8
0
100
AcDbLine
 10
4.650227601190281
 20
6.817149746919824
 30
0.0
 11
5.650227601190281
 21
6.817149746919821
 31
0.0
  0
LINE
  5
27D
330
17
100
AcDbEntity
  8
0
100
AcDbLine
 10
3.900227601190281
 20
6.317149746919824
 30
0.0
 11
2.900227601190281
 21
6.317149746919824
 31
0.0
  0
LINE
  5
27E
330
17
100
AcDbEntity
  8
0
100
AcDbLine
 10
1.150227601190281
 20
6.817149746919824
 30
0.0
 11
2.150227601190281
 21
6.817149746919831
 31
0.0
  0
LINE
  5
27F
330
17
100
AcDbEntity
  8
0
100
AcDbLine
 10
0.4627276011902808
 20
6.317149746919824
 30
0.0
 11
0.2752276011902772
 21
6.317149746919824
 31
0.0
  0
LINE
  5
280
330
17
100
AcDbEntity
  8
0
100
AcDbLine
 10
7.650227601190284
 20
6.442149746919824
 30
0.0
 11
7.900227601190277
 21
6.692149746919824
 31
0.0
  0
LINE
  5
281
330
17
100
AcDbEntity
  8
0
100
AcDbLine
 10
7.400227601190281
 20
6.317149746919824
 30
0.0
 11
6.400227601190281
 21
6.317149746919824
 31
0.0
  0
ARC
  5
282
330
17
100
AcDbEntity
  8
0
100
AcDbCircle
 10
7.400227601190281
 20
6.629649746919835
 30
0.0
 40
0.3125000000000107
100
AcDbArc
 50
270.0
 51
323.130102354155
  0
ARC
  5
283
330
17
100
AcDbEntity
  8
0
100
AcDbCircle
 10
8.150227601190281
 20
6.504649746919817
 30
0.0
 40
0.3125000000000071
100
AcDbArc
 50
89.99999999999994
 51
143.1301023541553
  0
ARC
  5
284
330
17
100
AcDbEntity
  8
0
100
AcDbCircle
 10
9.150227601190281
 20
6.504649746919817
 30
0.0
 40
0.3125000000000071
100
AcDbArc
 50
36.8698976458447
 51
90.00000000000007
  0
LINE
  5
285
330
17
100
AcDbEntity
  8
0
100
AcDbLine
 10
9.650227601190281
 20
6.442149746919824
 30
0.0
 11
9.400227601190274
 21
6.692149746919824
 31
0.0
  0
LINE
  5
286
330
17
100
AcDbEntity
  8
0
100
AcDbLine
 10
9.900227601190281
 20
6.317149746919824
 30
0.0
 11
9.837727601190281
 21
6.317149746919824
 31
0.0
  0
LINE
  5
287
330
17
100
AcDbEntity
  8
0
100
AcDbLine
 10
9.650227601190281
 20
6.442149746919824
 30
0.0
 11
9.712727601190281
 21
6.379649746919824
 31
0.0
  0
ARC
  5
288
330
17
100
AcDbEntity
  8
0
100
AcDbCircle
 10
9.847693810346339
 20
6.493332165231941
 30
0.0
 40
0.1764640752313282
100
AcDbArc
 50
220.1075295612249
 51
266.762368084619
  0
ARC
  5
289
330
17
100
AcDbEntity
  8
0
100
AcDbCircle
 10
0.4527613920342226
 20
6.493332165231941
 30
0.0
 40
0.1764640752313282
100
AcDbArc
 50
273.2376319153811
 51
319.8924704387752
  0
LINE
  5
28A
330
17
100
AcDbEntity
  8
0
100
AcDbLine
 10
0.5877276011902843
 20
6.379649746919824
 30
0.0
 11
0.9002276011902808
 21
6.692149746919824
 31
0.0
  0
ARC
  5
28B
330
17
100
AcDbEntity
  8
0
100
AcDbCircle
 10
1.150227601190284
 20
6.504649746919817
 30
0.0
 40
0.3125000000000071
100
AcDbArc
 50
89.99999999999994
 51
143.1301023541553
  0
ARC
  5
28C
330
17
100
AcDbEntity
  8
0
100
AcDbCircle
 10
2.150227601190281
 20
6.504649746919824
 30
0.0
 40
0.3125000000000071
100
AcDbArc
 50
36.8698976458447
 51
90.00000000000007
  0
ARC
  5
28D
330
17
100
AcDbEntity
  8
0
100
AcDbCircle
 10
4.650227601190288
 20
6.504649746919817
 30
0.0
 40
0.3125000000000071
100
AcDbArc
 50
89.99999999999994
 51
143.1301023541553
  0
ARC
  5
28E
330
17
100
AcDbEntity
  8
0
100
AcDbCircle
 10
5.650227601190281
 20
6.504649746919814
 30
0.0
 40
0.3125000000000071
100
AcDbArc
 50
36.8698976458447
 51
90.00000000000007
  0
ARC
  5
28F
330
17
100
AcDbEntity
  8
0
100
AcDbCircle
 10
3.900227601190281
 20
6.629649746919835
 30
0.0
 40
0.3125000000000107
100
AcDbArc
 50
270.0
 51
323.130102354155
  0
ARC
  5
290
330
17
100
AcDbEntity
  8
0
100
AcDbCircle
 10
6.400227601190279
 20
6.629649746919835
 30
0.0
 40
0.3125000000000107
100
AcDbArc
 50
216.869897645845
 51
270.0000000000001
  0
LINE
  5
291
330
17
100
AcDbEntity
  8
0
100
AcDbLine
 10
4.150227601190283
 20
6.442149746919824
 30
0.0
 11
4.400227601190284
 21
6.692149746919824
 31
0.0
  0
ARC
  5
292
330
17
100
AcDbEntity
  8
0
100
AcDbCircle
 10
2.900227601190281
 20
6.629649746919835
 30
0.0
 40
0.3125000000000107
100
AcDbArc
 50
216.869897645845
 51
270.0000000000001
  0
LINE
  5
293
330
17
100
AcDbEntity
  8
0
100
AcDbLine
 10
2.650227601190272
 20
6.442149746919824
 30
0.0
 11
2.400227601190281
 21
6.692149746919824
 31
0.0
  0
LINE
  5
2AE
330
17
100
AcDbEntity
  8
0
100
AcDbLine
 10
10.27522760119028
 20
0.0827064446100962
 30
0.0
 11
0.0252276011902808
 21
0.0827064446100039
 31
0.0
  0
LINE
  5
2AF
330
17
100
AcDbEntity
  8
0
100
AcDbLine
 10
0.0252276011902808
 20
0.181919904362907
 30
0.0
 11
10.27522760119028
 21
0.181919904362907
 31
0.0
  0
LINE
  5
2B0
330
17
100
AcDbEntity
  8
0
100
AcDbLine
 10
1.150227601190281
 20
1.681919904362905
 30
0.0
 11
2.150227601190281
 21
1.681919904362903
 31
0.0
  0
LINE
  5
2B1
330
17
100
AcDbEntity
  8
0
100
AcDbLine
 10
0.0252276011902808
 20
0.0827064446100039
 30
0.0
 11
0.025227601190279
 21
0.9319199043629052
 31
0.0
  0
LINE
  5
2C4
330
17
100
AcDbEntity
  8
0
100
AcDbLine
 10
0.2752276011902808
 20
1.181919904362907
 30
0.0
 11
0.4002276011902808
 21
1.181919904362907
 31
0.0
  0
LINE
  5
2C5
330
17
100
AcDbEntity
  8
0
100
AcDbLine
 10
0.0252276011902808
 20
0.931919904362907
 30
0.0
 11
0.2752276011902808
 21
1.181919904362907
 31
0.0
  0
LINE
  5
2C6
330
17
100
AcDbEntity
  8
0
100
AcDbLine
 10
10.27522760119028
 20
0.931919904362907
 30
0.0
 11
10.02522760119028
 21
1.181919904362907
 31
0.0
  0
LINE
  5
2C7
330
17
100
AcDbEntity
  8
0
100
AcDbLine
 10
10.02522760119028
 20
1.181919904362907
 30
0.0
 11
9.900227601190281
 21
1.181919904362907
 31
0.0
  0
LINE
  5
2C8
330
17
100
AcDbEntity
  8
0
100
AcDbLine
 10
10.27522760119028
 20
0.0827064446100039
 30
0.0
 11
10.27522760119028
 21
0.9319199043629052
 31
0.0
  0
LINE
  5
2C9
330
17
100
AcDbEntity
  8
0
100
AcDbLine
 10
2.900227601190281
 20
1.181919904362907
 30
0.0
 11
3.900227601190281
 21
1.181919904362907
 31
0.0
  0
LINE
  5
2CA
330
17
100
AcDbEntity
  8
0
100
AcDbLine
 10
4.650227601190281
 20
1.681919904362905
 30
0.0
 11
5.650227601190281
 21
1.681919904362905
 31
0.0
  0
LINE
  5
2CB
330
17
100
AcDbEntity
  8
0
100
AcDbLine
 10
6.400227601190281
 20
1.181919904362907
 30
0.0
 11
7.400227601190279
 21
1.181919904362907
 31
0.0
  0
LINE
  5
2CC
330
17
100
AcDbEntity
  8
0
100
AcDbLine
 10
8.150227601190281
 20
1.681919904362907
 30
0.0
 11
9.150227601190281
 21
1.681919904362907
 31
0.0
  0
LINE
  5
2CD
330
17
100
AcDbEntity
  8
0
100
AcDbLine
 10
0.6502276011902808
 20
1.306919904362907
 30
0.0
 11
0.9002276011902826
 21
1.556919904362907
 31
0.0
  0
ARC
  5
2CE
330
17
100
AcDbEntity
  8
0
100
AcDbCircle
 10
1.150227601190281
 20
1.369419904362911
 30
0.0
 40
0.3124999999999947
100
AcDbArc
 50
90.00000000000006
 51
143.1301023541561
  0
ARC
  5
2CF
330
17
100
AcDbEntity
  8
0
100
AcDbCircle
 10
0.4002276011902808
 20
1.494419904362909
 30
0.0
 40
0.3125000000000018
100
AcDbArc
 50
270.0
 51
323.1301023541558
  0
LINE
  5
2D0
330
17
100
AcDbEntity
  8
0
100
AcDbLine
 10
2.400227601190279
 20
1.556919904362907
 30
0.0
 11
2.650227601190283
 21
1.306919904362907
 31
0.0
  0
ARC
  5
2D1
330
17
100
AcDbEntity
  8
0
100
AcDbCircle
 10
2.150227601190281
 20
1.369419904362907
 30
0.0
 40
0.3124999999999982
100
AcDbArc
 50
36.86989764584421
 51
89.99999999999982
  0
ARC
  5
2D2
330
17
100
AcDbEntity
  8
0
100
AcDbCircle
 10
2.900227601190281
 20
1.4944199043629
 30
0.0
 40
0.3124999999999929
100
AcDbArc
 50
216.8698976458434
 51
269.9999999999999
  0
LINE
  5
2D3
330
17
100
AcDbEntity
  8
0
100
AcDbLine
 10
4.150227601190281
 20
1.306919904362907
 30
0.0
 11
4.400227601190283
 21
1.556919904362907
 31
0.0
  0
LINE
  5
2D4
330
17
100
AcDbEntity
  8
0
100
AcDbLine
 10
5.900227601190281
 20
1.556919904362907
 30
0.0
 11
6.150227601190281
 21
1.306919904362907
 31
0.0
  0
ARC
  5
2D5
330
17
100
AcDbEntity
  8
0
100
AcDbCircle
 10
3.900227601190281
 20
1.494419904362907
 30
0.0
 40
0.3125
100
AcDbArc
 50
270.0
 51
323.130102354156
  0
ARC
  5
2D6
330
17
100
AcDbEntity
  8
0
100
AcDbCircle
 10
4.650227601190281
 20
1.369419904362911
 30
0.0
 40
0.3124999999999947
100
AcDbArc
 50
90.00000000000006
 51
143.1301023541561
  0
ARC
  5
2D7
330
17
100
AcDbEntity
  8
0
100
AcDbCircle
 10
5.650227601190281
 20
1.369419904362903
 30
0.0
 40
0.3125000000000018
100
AcDbArc
 50
36.86989764584456
 51
89.99999999999986
  0
LINE
  5
2D8
330
17
100
AcDbEntity
  8
0
100
AcDbLine
 10
7.650227601190281
 20
1.306919904362907
 30
0.0
 11
7.900227601190281
 21
1.556919904362907
 31
0.0
  0
ARC
  5
2D9
330
17
100
AcDbEntity
  8
0
100
AcDbCircle
 10
6.400227601190281
 20
1.494419904362907
 30
0.0
 40
0.3125
100
AcDbArc
 50
216.869897645844
 51
269.9999999999999
  0
ARC
  5
2DA
330
17
100
AcDbEntity
  8
0
100
AcDbCircle
 10
7.400227601190281
 20
1.494419904362907
 30
0.0
 40
0.3125
100
AcDbArc
 50
270.0
 51
323.130102354156
  0
ARC
  5
2DB
330
17
100
AcDbEntity
  8
0
100
AcDbCircle
 10
8.150227601190281
 20
1.369419904362907
 30
0.0
 40
0.3125
100
AcDbArc
 50
89.99999999999994
 51
143.130102354156
  0
ARC
  5
2DC
330
17
100
AcDbEntity
  8
0
100
AcDbCircle
 10
9.150227601190281
 20
1.369419904362907
 30
0.0
 40
0.3125
100
AcDbArc
 50
36.86989764584401
 51
90.00000000000003
  0
LINE
  5
2DD
330
17
100
AcDbEntity
  8
0
100
AcDbLine
 10
9.650227601190281
 20
1.306919904362907
 30
0.0
 11
9.400227601190281
 21
1.556919904362907
 31
0.0
  0
ARC
  5
2DE
330
17
100
AcDbEntity
  8
0
100
AcDbCircle
 10
9.900227601190281
 20
1.494419904362907
 30
0.0
 40
0.3125
100
AcDbArc
 50
216.869897645844
 51
269.9999999999999
  0
LINE
  5
2F8
330
17
100
AcDbEntity
  8
0
100
AcDbLine
 10
13.39607776025191
 20
0.0827064446100039
 30
0.0
 11
13.39607776025191
 21
0.1819199043628146
 31
0.0
  0
LINE
  5
2F9
330
17
100
AcDbEntity
  8
0
100
AcDbLine
 10
13.39607776025191
 20
0.1819199043628146
 30
0.0
 11
14.79607776025191
 21
0.1819199043628146
 31
0.0
  0
LINE
  5
2FA
330
17
100
AcDbEntity
  8
0
100
AcDbLine
 10
14.89607776025191
 20
0.2819199043628142
 30
0.0
 11
14.89607776025191
 21
1.681919904362815
 31
0.0
  0
LINE
  5
2FB
330
17
100
AcDbEntity
  8
0
100
AcDbLine
 10
14.89607776025191
 20
1.681919904362815
 30
0.0
 11
14.99520238591786
 21
1.681919904362815
 31
0.0
  0
LINE
  5
2FC
330
17
100
AcDbEntity
  8
0
100
AcDbLine
 10
14.99520238591786
 20
1.681919904362815
 30
0.0
 11
14.99520238591786
 21
0.1827064446100035
 31
0.0
  0
LINE
  5
2FD
330
17
100
AcDbEntity
  8
0
100
AcDbLine
 10
14.89520238591786
 20
0.0827064446100039
 30
0.0
 11
13.39607776025191
 21
0.0827064446100039
 31
0.0
  0
LINE
  5
31F
330
17
100
AcDbEntity
  8
0
100
AcDbLine
 10
3.525227601190281
 20
1.181919904362907
 30
0.0
 11
3.767727601190281
 21
1.181919904362907
 31
0.0
  0
CIRCLE
  5
34E
330
17
100
AcDbEntity
  8
0
100
AcDbCircle
 10
0.4002276011902808
 20
6.942756702224472
 30
0.0
 40
0.1405
  0
CIRCLE
  5
34F
330
17
100
AcDbEntity
  8
0
100
AcDbCircle
 10
3.400227601190281
 20
6.942756702224472
 30
0.0
 40
0.1405
  0
CIRCLE
  5
350
330
17
100
AcDbEntity
  8
0
100
AcDbCircle
 10
6.900227601190281
 20
6.942756702224472
 30
0.0
 40
0.1405
  0
CIRCLE
  5
351
330
17
100
AcDbEntity
  8
0
100
AcDbCircle
 10
9.900227601190281
 20
6.942756702224472
 30
0.0
 40
0.1405
  0
CIRCLE
  5
352
330
17
100
AcDbEntity
  8
0
100
AcDbCircle
 10
1.650227601190281
 20
1.181919904362907
 30
0.0
 40
0.1405
  0
CIRCLE
  5
353
330
17
100
AcDbEntity
  8
0
100
AcDbCircle
 10
5.150227601190281
 20
1.181919904362907
 30
0.0
 40
0.1405
  0
CIRCLE
  5
354
330
17
100
AcDbEntity
  8
0
100
AcDbCircle
 10
8.650227601190281
 20
1.181919904362907
 30
0.0
 40
0.1405
  0
ARC
  5
35F
330
17
100
AcDbEntity
  8
0
100
AcDbCircle
 10
14.79607776025191
 20
0.2819199043628142
 30
0.0
 40
0.1
100
AcDbArc
 50
270.0
 51
0.0
  0
ARC
  5
360
330
17
100
AcDbEntity
  8
0
100
AcDbCircle
 10
14.89520238591786
 20
0.1827064446100035
 30
0.0
 40
0.1
100
AcDbArc
 50
270.0
 51
0.0
  0
LINE
  5
532
330
17
100
AcDbEntity
  8
0
100
AcDbLine
 10
8.770614980026139
 20
7.31775670222455
 30
0.0
 11
8.649699720443238
 21
7.196841442641652
 31
0.0
  0
LINE
  5
533
330
17
100
AcDbEntity
  8
0
100
AcDbLine
 10
8.649699720443238
 20
7.438671961807451
 30
0.0
 11
8.770614980026139
 21
7.31775670222455
 31
0.0
  0
LINE
  5
534
330
17
100
AcDbEntity
  8
0
100
AcDbLine
 10
8.649699720443238
 20
7.196841442641652
 30
0.0
 11
8.52878446086034
 21
7.31775670222455
 31
0.0
  0
LINE
  5
535
330
17
100
AcDbEntity
  8
0
100
AcDbLine
 10
8.52878446086034
 20
7.31775670222455
 30
0.0
 11
8.649699720443238
 21
7.438671961807451
 31
0.0
  0
LINE
  5
54B
330
17
100
AcDbEntity
  8
0
100
AcDbLine
 10
1.650227601190281
 20
7.196841442641652
 30
0.0
 11
1.529312341607382
 21
7.31775670222455
 31
0.0
  0
LINE
  5
54C
330
17
100
AcDbEntity
  8
0
100
AcDbLine
 10
1.529312341607382
 20
7.31775670222455
 30
0.0
 11
1.650227601190281
 21
7.438671961807451
 31
0.0
  0
LINE
  5
54D
330
17
100
AcDbEntity
  8
0
100
AcDbLine
 10
1.650227601190281
 20
7.438671961807451
 30
0.0
 11
1.77114286077318
 21
7.31775670222455
 31
0.0
  0
LINE
  5
54E
330
17
100
AcDbEntity
  8
0
100
AcDbLine
 10
1.77114286077318
 20
7.31775670222455
 30
0.0
 11
1.650227601190281
 21
7.196841442641652
 31
0.0
  0
LINE
  5
7F5
330
17
100
AcDbEntity
  8
0
100
AcDbLine
 10
-3.095622557871351
 20
0.0827064446100039
 30
0.0
 11
-3.095622557871351
 21
0.1819199043628146
 31
0.0
  0
LINE
  5
7F6
330
17
100
AcDbEntity
  8
0
100
AcDbLine
 10
-3.095622557871351
 20
0.1819199043628146
 30
0.0
 11
-4.49562255787135
 21
0.1819199043628146
 31
0.0
  0
LINE
  5
7F7
330
17
100
AcDbEntity
  8
0
100
AcDbLine
 10
-4.595622557871351
 20
0.2819199043628142
 30
0.0
 11
-4.595622557871351
 21
1.681919904362815
 31
0.0
  0
LINE
  5
7F8
330
17
100
AcDbEntity
  8
0
100
AcDbLine
 10
-4.595622557871351
 20
1.681919904362815
 30
0.0
 11
-4.694747183537295
 21
1.681919904362815
 31
0.0
  0
LINE
  5
7F9
330
17
100
AcDbEntity
  8
0
100
AcDbLine
 10
-4.694747183537295
 20
1.681919904362815
 30
0.0
 11
-4.694747183537295
 21
0.1827064446100035
 31
0.0
  0
LINE
  5
7FA
330
17
100
AcDbEntity
  8
0
100
AcDbLine
 10
-4.594747183537294
 20
0.0827064446100039
 30
0.0
 11
-3.095622557871351
 21
0.0827064446100039
 31
0.0
  0
ARC
  5
7FB
330
17
100
AcDbEntity
  8
0
100
AcDbCircle
 10
-4.49562255787135
 20
0.2819199043628142
 30
0.0
 40
0.1
100
AcDbArc
 50
180.0
 51
270.0
  0
ARC
  5
7FC
330
17
100
AcDbEntity
  8
0
100
AcDbCircle
 10
-4.594747183537294
 20
0.1827064446100035
 30
0.0
 40
0.1
100
AcDbArc
 50
180.0
 51
270.0
  0
ENDSEC
  0
SECTION
  2
OBJECTS
  0
DICTIONARY
  5
C
330
0
100
AcDbDictionary
281
     1
  3
ACAD_COLOR
350
7DB
  3
ACAD_GROUP
350
D
  3
ACAD_LAYOUT
350
579
  3
ACAD_MATERIAL
350
7DA
  3
ACAD_MLINESTYLE
350
1A
  3
ACAD_PLOTSETTINGS
350
57A
  3
ACAD_PLOTSTYLENAME
350
577
  3
ACAD_TABLESTYLE
350
7DC
  3
ACDBHEADERROUNDTRIPXREC
350
804
  3
ACDBVARIABLEDICTIONARY
350
3C
  0
DICTIONARY
  5
7DB
102
{ACAD_REACTORS
330
C
102
}
330
C
100
AcDbDictionary
281
     1
  0
DICTIONARY
  5
D
102
{ACAD_REACTORS
330
C
102
}
330
C
100
AcDbDictionary
281
     1
  0
DICTIONARY
  5
579
102
{ACAD_REACTORS
330
C
102
}
330
C
100
AcDbDictionary
281
     1
  3
Layout1
350
57C
  3
Model
350
57B
  0
DICTIONARY
  5
7DA
102
{ACAD_REACTORS
330
C
102
}
330
C
100
AcDbDictionary
281
     1
  0
DICTIONARY
  5
1A
102
{ACAD_REACTORS
330
C
102
}
330
C
100
AcDbDictionary
281
     1
  3
STANDARD
350
1B
  0
DICTIONARY
  5
57A
102
{ACAD_REACTORS
330
C
102
}
330
C
100
AcDbDictionary
281
     1
  0
ACDBDICTIONARYWDFLT
  5
577
102
{ACAD_REACTORS
330
C
102
}
330
C
100
AcDbDictionary
281
     1
  3
Normal
350
578
100
AcDbDictionaryWithDefault
340
578
  0
DICTIONARY
  5
7DC
102
{ACAD_REACTORS
330
C
102
}
330
C
100
AcDbDictionary
281
     1
  3
Standard
350
7DD
  0
DICTIONARY
  5
804
102
{ACAD_REACTORS
330
C
102
}
330
C
100
AcDbDictionary
281
     1
  3
COLORDICT
350
805
  3
MATERIALDICT
350
806
  0
DICTIONARY
  5
3C
102
{ACAD_REACTORS
330
C
102
}
330
C
100
AcDbDictionary
281
     1
  3
CTABLESTYLE
350
7F0
  3
DIMADEC
350
3D
  0
LAYOUT
  5
57C
102
{ACAD_REACTORS
330
579
102
}
102
{ACAD_XDICTIONARY
360
807
102
}
330
579
100
AcDbPlotSettings
  1

  2
hp psc 2100 series
  4

  6

 40
0.0
 41
0.0
 42
0.0
 43
0.0
 44
0.0
 45
0.0
 46
0.0
 47
0.0
 48
0.0
 49
0.0
140
0.0
141
0.0
142
1.0
143
1.0
 70
   688
 72
     0
 73
     0
 74
     5
  7

 75
    16
147
1.0
148
0.0
149
0.0
100
AcDbLayout
  1
Layout1
 70
     0
 71
     1
 10
0.0
 20
0.0
 11
12.0
 21
9.0
 12
0.0
 22
0.0
 32
0.0
 14
1.000000000000000E+20
 24
1.000000000000000E+20
 34
1.000000000000000E+20
 15
-1.000000000000000E+20
 25
-1.000000000000000E+20
 35
-1.000000000000000E+20
146
0.0
 13
0.0
 23
0.0
 33
0.0
 16
1.0
 26
0.0
 36
0.0
 17
0.0
 27
1.0
 37
0.0
 76
     0
330
14
  0
LAYOUT
  5
57B
102
{ACAD_REACTORS
330
579
102
}
102
{ACAD_XDICTIONARY
360
809
102
}
330
579
100
AcDbPlotSettings
  1

  2
HP LaserJet 2100 Series PS
  4
Letter
  6

 40
5.365749835968018
 41
5.365735054016113
 42
3.175003051757813
 43
3.17498779296875
 44
210.4813232421875
 45
273.9813232421875
 46
0.0
 47
0.0
 48
0.0
 49
0.0
140
0.0
141
0.0
142
1.0
143
3.962056750635113
 70
 28336
 72
     0
 73
     0
 74
     2
  7

 75
     0
147
0.2523941636726181
148
0.0
149
0.0
100
AcDbLayout
  1
Model
 70
     1
 71
     0
 10
0.0
 20
0.0
 11
12.0
 21
9.0
 12
0.0
 22
0.0
 32
0.0
 14
0.0
 24
0.0
 34
0.0
 15
0.0
 25
0.0
 35
0.0
146
0.0
 13
0.0
 23
0.0
 33
0.0
 16
1.0
 26
0.0
 36
0.0
 17
0.0
 27
1.0
 37
0.0
 76
     0
330
17
  0
MLINESTYLE
  5
1B
102
{ACAD_REACTORS
330
1A
102
}
330
1A
100
AcDbMlineStyle
  2
STANDARD
 70
     0
  3

 62
   256
 51
90.0
 52
90.0
 71
     2
 49
0.5
 62
   256
  6
BYLAYER
 49
-0.5
 62
   256
  6
BYLAYER
  0
ACDBPLACEHOLDER
  5
578
102
{ACAD_REACTORS
330
577
102
}
330
577
  0
ACAD_PROXY_OBJECT
  5
7DD
102
{ACAD_REACTORS
330
7DC
102
}
330
7DC
100
AcDbProxyObject
 90
      499
 91
      533
 95
   983063
 70
     0
 93
     1841
310
4214DD185B99185C9928B81E85EB51B8AE3F2E07A17AD46E2B8FC02B5E8DC0F42B1CFD028000000C1008070000C3001FDFF8000000C1003FBFF000000182007F7FE00000030400FEFFC00000060801FDFF8000000C1003FBFF00000018200000000000000681FA0B0000001820100E000186003FBFF000000182007F7FE000
310
00030400FEFFC00000060801FDFF8000000C1003FBFF000000182007F7FE000000304000AD7A3703D0AC73F4160000003040201C00030C007F7FE00000030400FEFFC00000060801FDFF8000000C1003FBFF000000182007F7FE00000030400FEFFC000000608000
340
F
340
F
340
F
 94
        0
  0
XRECORD
  5
805
102
{ACAD_REACTORS
330
804
102
}
330
804
100
AcDbXrecord
340
7DB
  0
XRECORD
  5
806
102
{ACAD_REACTORS
330
804
102
}
330
804
100
AcDbXrecord
340
7DA
  0
DICTIONARYVAR
  5
7F0
102
{ACAD_REACTORS
330
3C
102
}
330
3C
100
DictionaryVariables
280
     0
  1
STANDARD
  0
DICTIONARYVAR
  5
3D
102
{ACAD_REACTORS
330
3C
102
}
330
3C
100
DictionaryVariables
280
     0
  1
0
  0
DICTIONARY
  5
807
330
57C
100
AcDbDictionary
280
     1
281
     1
  3
ACAD_XREC_ROUNDTRIP
360
808
  0
DICTIONARY
  5
809
330
57B
100
AcDbDictionary
280
     1
281
     1
  3
ACAD_XREC_ROUNDTRIP
360
80A
  0
XRECORD
  5
808
102
{ACAD_REACTORS
330
807
102
}
330
807
100
AcDbXrecord
102
SHADEPLOT
 70
     0
102
SHADEPLOTRESLEVEL
 70
     2
102
SHADEPLOTCUSTOMDPI
 70
   300
  0
XRECORD
  5
80A
102
{ACAD_REACTORS
330
809
102
}
330
809
100
AcDbXrecord
102
SHADEPLOT
 70
     0
102
SHADEPLOTRESLEVEL
 70
     2
102
SHADEPLOTCUSTOMDPI
 70
   300
  0
ENDSEC
  0
EOF
