  0
SECTION
  2
HEADER
  9
$ACADVER
  1
AC1015
  9
$ACADMAINTVER
 70
     6
  9
$DWGCODEPAGE
  3
ANSI_1252
  9
$INSBASE
 10
0.0
 20
0.0
 30
0.0
  9
$EXTMIN
 10
-0.0019224900729924
 20
-0.0014647543413204
 30
-0.0000000349181948
  9
$EXTMAX
 10
10.17859443547363
 20
17.46916111574009
 30
0.0000000814935746
  9
$LIMMIN
 10
0.0
 20
0.0
  9
$LIMMAX
 10
31.5
 20
24.0
  9
$ORTHOMODE
 70
     0
  9
$REGENMODE
 70
     1
  9
$FILLMODE
 70
     1
  9
$QTEXTMODE
 70
     0
  9
$MIRRTEXT
 70
     1
  9
$LTSCALE
 40
1.0
  9
$ATTMODE
 70
     1
  9
$TEXTSIZE
 40
0.265625
  9
$TRACEWID
 40
0.05
  9
$TEXTSTYLE
  7
STANDARD
  9
$CLAYER
  8
0
  9
$CELTYPE
  6
BYLAYER
  9
$CECOLOR
 62
   256
  9
$CELTSCALE
 40
1.0
  9
$DISPSILH
 70
     0
  9
$DIMSCALE
 40
1.0
  9
$DIMASZ
 40
0.375
  9
$DIMEXO
 40
0.0625
  9
$DIMDLI
 40
0.75
  9
$DIMRND
 40
0.0
  9
$DIMDLE
 40
0.0
  9
$DIMEXE
 40
0.18
  9
$DIMTP
 40
0.0
  9
$DIMTM
 40
0.0
  9
$DIMTXT
 40
0.27
  9
$DIMCEN
 40
-0.06
  9
$DIMTSZ
 40
0.0
  9
$DIMTOL
 70
     0
  9
$DIMLIM
 70
     0
  9
$DIMTIH
 70
     1
  9
$DIMTOH
 70
     1
  9
$DIMSE1
 70
     0
  9
$DIMSE2
 70
     0
  9
$DIMTAD
 70
     0
  9
$DIMZIN
 70
     0
  9
$DIMBLK
  1

  9
$DIMASO
 70
     0
  9
$DIMSHO
 70
     0
  9
$DIMPOST
  1

  9
$DIMAPOST
  1

  9
$DIMALT
 70
     0
  9
$DIMALTD
 70
     2
  9
$DIMALTF
 40
25.4
  9
$DIMLFAC
 40
1.0
  9
$DIMTOFL
 70
     0
  9
$DIMTVP
 40
0.0
  9
$DIMTIX
 70
     0
  9
$DIMSOXD
 70
     0
  9
$DIMSAH
 70
     0
  9
$DIMBLK1
  1

  9
$DIMBLK2
  1

  9
$DIMSTYLE
  2
STANDARD
  9
$DIMCLRD
 70
     0
  9
$DIMCLRE
 70
     0
  9
$DIMCLRT
 70
     0
  9
$DIMTFAC
 40
1.0
  9
$DIMGAP
 40
0.09
  9
$DIMJUST
 70
     0
  9
$DIMSD1
 70
     0
  9
$DIMSD2
 70
     0
  9
$DIMTOLJ
 70
     1
  9
$DIMTZIN
 70
     0
  9
$DIMALTZ
 70
     0
  9
$DIMALTTZ
 70
     0
  9
$DIMUPT
 70
     0
  9
$DIMDEC
 70
     4
  9
$DIMTDEC
 70
     4
  9
$DIMALTU
 70
     2
  9
$DIMALTTD
 70
     2
  9
$DIMTXSTY
  7
STANDARD
  9
$DIMAUNIT
 70
     0
  9
$DIMADEC
 70
     0
  9
$DIMALTRND
 40
0.0
  9
$DIMAZIN
 70
     0
  9
$DIMDSEP
 70
    46
  9
$DIMATFIT
 70
     3
  9
$DIMFRAC
 70
     0
  9
$DIMLDRBLK
  1

  9
$DIMLUNIT
 70
     2
  9
$DIMLWD
 70
    -2
  9
$DIMLWE
 70
    -2
  9
$DIMTMOVE
 70
     2
  9
$LUNITS
 70
     2
  9
$LUPREC
 70
     4
  9
$SKETCHINC
 40
0.1
  9
$FILLETRAD
 40
0.1
  9
$AUNITS
 70
     0
  9
$AUPREC
 70
     0
  9
$MENU
  1
ACAD
  9
$ELEVATION
 40
0.0
  9
$PELEVATION
 40
0.0
  9
$THICKNESS
 40
0.0
  9
$LIMCHECK
 70
     0
  9
$CHAMFERA
 40
0.0
  9
$CHAMFERB
 40
0.0
  9
$CHAMFERC
 40
0.0
  9
$CHAMFERD
 40
0.0
  9
$SKPOLY
 70
     0
  9
$TDCREATE
 40
2447351.138887037
  9
$TDUCREATE
 40
2447351.472220371
  9
$TDUPDATE
 40
2453846.818184699
  9
$TDUUPDATE
 40
2453847.151518032
  9
$TDINDWG
 40
0.4854928241
  9
$TDUSRTIMER
 40
0.4854928241
  9
$USRTIMER
 70
     1
  9
$ANGBASE
 50
0.0
  9
$ANGDIR
 70
     0
  9
$PDMODE
 70
     0
  9
$PDSIZE
 40
0.0
  9
$PLINEWID
 40
0.0
  9
$SPLFRAME
 70
     0
  9
$SPLINETYPE
 70
     6
  9
$SPLINESEGS
 70
     8
  9
$HANDSEED
  5
132
  9
$SURFTAB1
 70
     6
  9
$SURFTAB2
 70
     6
  9
$SURFTYPE
 70
     6
  9
$SURFU
 70
     6
  9
$SURFV
 70
     6
  9
$UCSBASE
  2

  9
$UCSNAME
  2

  9
$UCSORG
 10
0.0
 20
0.0
 30
0.0
  9
$UCSXDIR
 10
1.0
 20
0.0
 30
0.0
  9
$UCSYDIR
 10
0.0
 20
1.0
 30
0.0
  9
$UCSORTHOREF
  2

  9
$UCSORTHOVIEW
 70
     0
  9
$UCSORGTOP
 10
0.0
 20
0.0
 30
0.0
  9
$UCSORGBOTTOM
 10
0.0
 20
0.0
 30
0.0
  9
$UCSORGLEFT
 10
0.0
 20
0.0
 30
0.0
  9
$UCSORGRIGHT
 10
0.0
 20
0.0
 30
0.0
  9
$UCSORGFRONT
 10
0.0
 20
0.0
 30
0.0
  9
$UCSORGBACK
 10
0.0
 20
0.0
 30
0.0
  9
$PUCSBASE
  2

  9
$PUCSNAME
  2

  9
$PUCSORG
 10
0.0
 20
0.0
 30
0.0
  9
$PUCSXDIR
 10
1.0
 20
0.0
 30
0.0
  9
$PUCSYDIR
 10
0.0
 20
1.0
 30
0.0
  9
$PUCSORTHOREF
  2

  9
$PUCSORTHOVIEW
 70
     0
  9
$PUCSORGTOP
 10
0.0
 20
0.0
 30
0.0
  9
$PUCSORGBOTTOM
 10
0.0
 20
0.0
 30
0.0
  9
$PUCSORGLEFT
 10
0.0
 20
0.0
 30
0.0
  9
$PUCSORGRIGHT
 10
0.0
 20
0.0
 30
0.0
  9
$PUCSORGFRONT
 10
0.0
 20
0.0
 30
0.0
  9
$PUCSORGBACK
 10
0.0
 20
0.0
 30
0.0
  9
$USERI1
 70
     0
  9
$USERI2
 70
     0
  9
$USERI3
 70
     0
  9
$USERI4
 70
     0
  9
$USERI5
 70
     0
  9
$USERR1
 40
0.0
  9
$USERR2
 40
0.0
  9
$USERR3
 40
0.0
  9
$USERR4
 40
0.0
  9
$USERR5
 40
0.0
  9
$WORLDVIEW
 70
     1
  9
$SHADEDGE
 70
     3
  9
$SHADEDIF
 70
    70
  9
$TILEMODE
 70
     1
  9
$MAXACTVP
 70
    16
  9
$PINSBASE
 10
0.0
 20
0.0
 30
0.0
  9
$PLIMCHECK
 70
     0
  9
$PEXTMIN
 10
1.000000000000000E+20
 20
1.000000000000000E+20
 30
1.000000000000000E+20
  9
$PEXTMAX
 10
-1.000000000000000E+20
 20
-1.000000000000000E+20
 30
-1.000000000000000E+20
  9
$PLIMMIN
 10
0.0
 20
0.0
  9
$PLIMMAX
 10
12.0
 20
9.0
  9
$UNITMODE
 70
     0
  9
$VISRETAIN
 70
     0
  9
$PLINEGEN
 70
     1
  9
$PSLTSCALE
 70
     0
  9
$TREEDEPTH
 70
  3020
  9
$CMLSTYLE
  2
STANDARD
  9
$CMLJUST
 70
     0
  9
$CMLSCALE
 40
1.0
  9
$PROXYGRAPHICS
 70
     1
  9
$MEASUREMENT
 70
     0
  9
$CELWEIGHT
370
    -1
  9
$ENDCAPS
280
     0
  9
$JOINSTYLE
280
     0
  9
$LWDISPLAY
290
     0
  9
$INSUNITS
 70
     0
  9
$HYPERLINKBASE
  1

  9
$STYLESHEET
  1

  9
$XEDIT
290
     1
  9
$CEPSNTYPE
380
     0
  9
$PSTYLEMODE
290
     1
  9
$FINGERPRINTGUID
  2
{F39D1DF8-3E68-11D7-BE3F-00508B5FCD51}
  9
$VERSIONGUID
  2
{3D8FCFD0-6664-4A93-8C06-A70C428CC6A9}
  9
$EXTNAMES
290
     1
  9
$PSVPSCALE
 40
0.0
  9
$OLESTARTUP
290
     0
  0
ENDSEC
  0
SECTION
  2
CLASSES
  0
CLASS
  1
DICTIONARYVAR
  2
AcDbDictionaryVar
  3
AutoCAD 2000
 90
        0
280
     0
281
     0
  0
CLASS
  1
LWPOLYLINE
  2
AcDbPolyline
  3
AutoCAD 2000
 90
        0
280
     0
281
     1
  0
CLASS
  1
ACDBDICTIONARYWDFLT
  2
AcDbDictionaryWithDefault
  3
AutoCAD 2000
 90
        0
280
     0
281
     0
  0
CLASS
  1
ACDBPLACEHOLDER
  2
AcDbPlaceHolder
  3
ObjectDBX Classes
 90
        0
280
     0
281
     0
  0
CLASS
  1
LAYOUT
  2
AcDbLayout
  3
ObjectDBX Classes
 90
        0
280
     0
281
     0
  0
CLASS
  1
LONG_TRANSACTION
  2
AcDbLongTransaction
  3
AutoCAD 2000
 90
   -65536
280
     1
281
     0
  0
CLASS
  1
LWPOLYLINE
  2
AcDbPolyline
  3
AutoCAD 2000
 90
        0
280
     0
281
     1
  0
CLASS
  1
HATCH
  2
AcDbHatch
  3
AutoCAD 2000
 90
        0
280
     0
281
     1
  0
CLASS
  1
XRECORD
  2
AcDbXrecord
  3
AutoCAD 2000
 90
        0
280
     0
281
     0
  0
CLASS
  1
LONG_TRANSACTION
  2
AcDbLongTransaction
  3
AutoCAD 2000
 90
   -65536
280
     1
281
     0
  0
CLASS
  1
LWPOLYLINE
  2
AcDbPolyline
  3
AutoCAD 2000
 90
        0
280
     0
281
     1
  0
CLASS
  1
HATCH
  2
AcDbHatch
  3
AutoCAD 2000
 90
        0
280
     0
281
     1
  0
CLASS
  1
XRECORD
  2
AcDbXrecord
  3
AutoCAD 2000
 90
        0
280
     0
281
     0
  0
CLASS
  1
LONG_TRANSACTION
  2
AcDbLongTransaction
  3
AutoCAD 2000
 90
   -65536
280
     1
281
     0
  0
CLASS
  1
LWPOLYLINE
  2
AcDbPolyline
  3
AutoCAD 2000
 90
        0
280
     0
281
     1
  0
CLASS
  1
HATCH
  2
AcDbHatch
  3
AutoCAD 2000
 90
        0
280
     0
281
     1
  0
CLASS
  1
XRECORD
  2
AcDbXrecord
  3
AutoCAD 2000
 90
        0
280
     0
281
     0
  0
CLASS
  1
LONG_TRANSACTION
  2
AcDbLongTransaction
  3
AutoCAD 2000
 90
   -65536
280
     1
281
     0
  0
CLASS
  1
LWPOLYLINE
  2
AcDbPolyline
  3
AutoCAD 2000
 90
        0
280
     0
281
     1
  0
CLASS
  1
HATCH
  2
AcDbHatch
  3
AutoCAD 2000
 90
        0
280
     0
281
     1
  0
CLASS
  1
XRECORD
  2
AcDbXrecord
  3
AutoCAD 2000
 90
        0
280
     0
281
     0
  0
CLASS
  1
TABLESTYLE
  2
AcDbTableStyle
  3
ObjectDBX Classes
 90
     2047
280
     1
281
     0
  0
CLASS
  1
SORTENTSTABLE
  2
AcDbSortentsTable
  3
AutoCAD 2000
 90
        0
280
     0
281
     0
  0
ENDSEC
  0
SECTION
  2
TABLES
  0
TABLE
  2
VPORT
  5
1D
330
0
100
AcDbSymbolTable
 70
     2
  0
VPORT
  5
129
330
1D
100
AcDbSymbolTableRecord
100
AcDbViewportTableRecord
  2
*Active
 70
     0
 10
0.0
 20
0.0
 11
1.0
 21
1.0
 12
15.7490387549635
 22
11.99926762282934
 13
0.0
 23
0.0
 14
0.0625
 24
0.0625
 15
0.5
 25
0.5
 16
0.0
 26
0.0
 36
1.0
 17
0.0
 27
0.0
 37
0.0
 40
24.38858515360489
 41
1.77088948787062
 42
50.0
 43
0.0
 44
0.0
 50
0.0
 51
0.0
 71
     0
 72
  1000
 73
     1
 74
     1
 75
     0
 76
     0
 77
     0
 78
     0
281
     0
 65
     1
110
0.0
120
0.0
130
0.0
111
1.0
121
0.0
131
0.0
112
0.0
122
1.0
132
0.0
 79
     0
146
0.0
  0
ENDTAB
  0
TABLE
  2
LTYPE
  5
18
330
0
100
AcDbSymbolTable
 70
     1
  0
LTYPE
  5
19
330
18
100
AcDbSymbolTableRecord
100
AcDbLinetypeTableRecord
  2
BYBLOCK
 70
     0
  3

 72
    65
 73
     0
 40
0.0
  0
LTYPE
  5
1A
330
18
100
AcDbSymbolTableRecord
100
AcDbLinetypeTableRecord
  2
BYLAYER
 70
     0
  3

 72
    65
 73
     0
 40
0.0
  0
LTYPE
  5
A
330
18
100
AcDbSymbolTableRecord
100
AcDbLinetypeTableRecord
  2
CONTINUOUS
 70
     0
  3
Solid line
 72
    65
 73
     0
 40
0.0
  0
ENDTAB
  0
TABLE
  2
LAYER
  5
14
330
0
100
AcDbSymbolTable
 70
     1
  0
LAYER
  5
6
330
14
100
AcDbSymbolTableRecord
100
AcDbLayerTableRecord
  2
0
 70
     0
 62
     7
  6
CONTINUOUS
370
    -3
390
7
  0
ENDTAB
  0
TABLE
  2
STYLE
  5
15
330
0
100
AcDbSymbolTable
 70
     1
  0
STYLE
  5
16
330
15
100
AcDbSymbolTableRecord
100
AcDbTextStyleTableRecord
  2
STANDARD
 70
     0
 40
0.0
 41
1.0
 50
0.0
 71
     0
 42
0.265625
  3
txt
  4

  0
ENDTAB
  0
TABLE
  2
VIEW
  5
1B
330
0
100
AcDbSymbolTable
 70
     0
  0
ENDTAB
  0
TABLE
  2
UCS
  5
1C
330
0
100
AcDbSymbolTable
 70
     0
  0
ENDTAB
  0
TABLE
  2
APPID
  5
1F
330
0
100
AcDbSymbolTable
 70
     1
  0
APPID
  5
20
330
1F
100
AcDbSymbolTableRecord
100
AcDbRegAppTableRecord
  2
ACAD
 70
     0
  0
ENDTAB
  0
TABLE
  2
DIMSTYLE
  5
21
330
0
100
AcDbSymbolTable
 70
     1
100
AcDbDimStyleTable
  0
DIMSTYLE
105
28
330
21
100
AcDbSymbolTableRecord
100
AcDbDimStyleTableRecord
  2
STANDARD
 70
     0
  3

  4

340
16
  0
ENDTAB
  0
TABLE
  2
BLOCK_RECORD
  5
1
330
0
100
AcDbSymbolTable
 70
     0
  0
BLOCK_RECORD
  5
2
102
{ACAD_XDICTIONARY
360
3
102
}
330
1
100
AcDbSymbolTableRecord
100
AcDbBlockTableRecord
  2
*MODEL_SPACE
340
C
  0
BLOCK_RECORD
  5
E
330
1
100
AcDbSymbolTableRecord
100
AcDbBlockTableRecord
  2
*PAPER_SPACE
340
13
  0
ENDTAB
  0
ENDSEC
  0
SECTION
  2
BLOCKS
  0
BLOCK
  5
5
330
2
100
AcDbEntity
  8
0
100
AcDbBlockBegin
  2
*MODEL_SPACE
 70
     0
 10
0.0
 20
0.0
 30
0.0
  3
*MODEL_SPACE
  1

  4

  0
ENDBLK
  5
B
330
2
100
AcDbEntity
  8
0
100
AcDbBlockEnd
  0
BLOCK
  5
11
330
E
100
AcDbEntity
 67
     1
  8
0
100
AcDbBlockBegin
  2
*PAPER_SPACE
 70
     0
 10
0.0
 20
0.0
 30
0.0
  3
*PAPER_SPACE
  1

  4

  0
ENDBLK
  5
12
330
E
100
AcDbEntity
 67
     1
  8
0
100
AcDbBlockEnd
  0
ENDSEC
  0
SECTION
  2
ENTITIES
  0
ARC
  5
B9
330
2
100
AcDbEntity
  8
0
100
AcDbCircle
 10
8.869215202843968
 20
1.125
 30
0.0
 40
0.3124999999999982
100
AcDbArc
 50
126.8698976458442
 51
179.9999999999998
  0
LINE
  5
BA
330
2
100
AcDbEntity
  8
0
100
AcDbLine
 10
10.15592866259679
 20
8.25
 30
0.0
 11
10.15592866259686
 21
0.0
 31
0.0
  0
LINE
  5
BB
330
2
100
AcDbEntity
  8
0
100
AcDbLine
 10
10.05671520284397
 20
0.0
 30
0.0
 11
10.05671520284397
 21
8.25
 31
0.0
  0
LINE
  5
BC
330
2
100
AcDbEntity
  8
0
100
AcDbLine
 10
8.806715202843968
 20
0.0
 30
0.0
 11
8.556715202843968
 21
0.25
 31
0.0
  0
LINE
  5
BD
330
2
100
AcDbEntity
  8
0
100
AcDbLine
 10
8.556715202843968
 20
0.25
 30
0.0
 11
8.556715202843972
 21
1.125
 31
0.0
  0
LINE
  5
BE
330
2
100
AcDbEntity
  8
0
100
AcDbLine
 10
10.15592866259686
 20
0.0
 30
0.0
 11
8.806715202843968
 21
0.0
 31
0.0
  0
CIRCLE
  5
BF
330
2
100
AcDbEntity
  8
0
100
AcDbCircle
 10
9.181715202843968
 20
0.625
 30
0.0
 40
0.1405
  0
LINE
  5
C6
330
2
100
AcDbEntity
  8
0
100
AcDbLine
 10
8.681715202843968
 20
4.875
 30
0.0
 11
8.931715202843968
 21
5.125
 31
0.0
  0
ARC
  5
C7
330
2
100
AcDbEntity
  8
0
100
AcDbCircle
 10
8.744215202843968
 20
2.875
 30
0.0
 40
0.3125
100
AcDbArc
 50
0.0
 51
53.13010235415597
  0
LINE
  5
C8
330
2
100
AcDbEntity
  8
0
100
AcDbLine
 10
8.681715202843968
 20
1.374999999999998
 30
0.0
 11
8.931715202843968
 21
1.625000000000002
 31
0.0
  0
LINE
  5
C9
330
2
100
AcDbEntity
  8
0
100
AcDbLine
 10
9.056715202843968
 20
1.875
 30
0.0
 11
9.056715202843968
 21
2.875
 31
0.0
  0
ARC
  5
CA
330
2
100
AcDbEntity
  8
0
100
AcDbCircle
 10
8.744215202843975
 20
1.875
 30
0.0
 40
0.3124999999999929
100
AcDbArc
 50
306.8698976458434
 51
359.9999999999999
  0
LINE
  5
CB
330
2
100
AcDbEntity
  8
0
100
AcDbLine
 10
9.678818298501401
 20
2.364489290795349
 30
0.0
 11
9.557903038918504
 21
2.24357403121245
 31
0.0
  0
LINE
  5
CC
330
2
100
AcDbEntity
  8
0
100
AcDbLine
 10
9.557903038918504
 20
2.485404550378249
 30
0.0
 11
9.678818298501401
 21
2.364489290795349
 31
0.0
  0
LINE
  5
CD
330
2
100
AcDbEntity
  8
0
100
AcDbLine
 10
9.557903038918504
 20
2.24357403121245
 30
0.0
 11
9.436987779335603
 21
2.364489290795349
 31
0.0
  0
LINE
  5
CE
330
2
100
AcDbEntity
  8
0
100
AcDbLine
 10
9.436987779335603
 20
2.364489290795349
 30
0.0
 11
9.557903038918504
 21
2.485404550378249
 31
0.0
  0
LINE
  5
CF
330
2
100
AcDbEntity
  8
0
100
AcDbLine
 10
8.931715202843968
 20
3.125
 30
0.0
 11
8.681715202843968
 21
3.375000000000002
 31
0.0
  0
LINE
  5
D0
330
2
100
AcDbEntity
  8
0
100
AcDbLine
 10
8.556715202843968
 20
3.625
 30
0.0
 11
8.556715202843968
 21
4.625
 31
0.0
  0
ARC
  5
D1
330
2
100
AcDbEntity
  8
0
100
AcDbCircle
 10
8.869215202843964
 20
3.625
 30
0.0
 40
0.3124999999999947
100
AcDbArc
 50
180.0000000000001
 51
233.1301023541561
  0
ARC
  5
D2
330
2
100
AcDbEntity
  8
0
100
AcDbCircle
 10
8.869215202843972
 20
4.625
 30
0.0
 40
0.3125000000000018
100
AcDbArc
 50
126.8698976458446
 51
179.9999999999999
  0
CIRCLE
  5
D3
330
2
100
AcDbEntity
  8
0
100
AcDbCircle
 10
9.181715202843968
 20
4.125
 30
0.0
 40
0.1405
  0
LINE
  5
DA
330
2
100
AcDbEntity
  8
0
100
AcDbLine
 10
8.931715202843968
 20
6.625
 30
0.0
 11
8.681715202843968
 21
6.875
 31
0.0
  0
LINE
  5
DB
330
2
100
AcDbEntity
  8
0
100
AcDbLine
 10
9.436987779335603
 20
5.863742067815991
 30
0.0
 11
9.557903038918504
 21
5.984657327398892
 31
0.0
  0
LINE
  5
DC
330
2
100
AcDbEntity
  8
0
100
AcDbLine
 10
9.557903038918504
 20
5.984657327398892
 30
0.0
 11
9.678818298501401
 21
5.863742067815991
 31
0.0
  0
LINE
  5
DD
330
2
100
AcDbEntity
  8
0
100
AcDbLine
 10
9.056715202843968
 20
5.375
 30
0.0
 11
9.056715202843968
 21
6.374999999999998
 31
0.0
  0
LINE
  5
DE
330
2
100
AcDbEntity
  8
0
100
AcDbLine
 10
9.056715202843968
 20
5.6875
 30
0.0
 11
9.056715202843968
 21
5.9925
 31
0.0
  0
LINE
  5
DF
330
2
100
AcDbEntity
  8
0
100
AcDbLine
 10
9.678818298501401
 20
5.863742067815991
 30
0.0
 11
9.557903038918504
 21
5.742826808233094
 31
0.0
  0
ARC
  5
E0
330
2
100
AcDbEntity
  8
0
100
AcDbCircle
 10
8.744215202843968
 20
5.375000000000002
 30
0.0
 40
0.3125
100
AcDbArc
 50
306.869897645844
 51
359.9999999999999
  0
LINE
  5
E1
330
2
100
AcDbEntity
  8
0
100
AcDbLine
 10
9.557903038918504
 20
5.742826808233094
 30
0.0
 11
9.436987779335603
 21
5.863742067815991
 31
0.0
  0
ARC
  5
E2
330
2
100
AcDbEntity
  8
0
100
AcDbCircle
 10
8.744215202843968
 20
6.375000000000002
 30
0.0
 40
0.3125
100
AcDbArc
 50
0.0
 51
53.13010235415597
  0
LINE
  5
E3
330
2
100
AcDbEntity
  8
0
100
AcDbLine
 10
8.556715202843968
 20
8.0
 30
0.0
 11
8.806715202843968
 21
8.25
 31
0.0
  0
LINE
  5
E4
330
2
100
AcDbEntity
  8
0
100
AcDbLine
 10
8.556715202843968
 20
7.125
 30
0.0
 11
8.556715202843968
 21
8.0
 31
0.0
  0
ARC
  5
E5
330
2
100
AcDbEntity
  8
0
100
AcDbCircle
 10
8.869215202843968
 20
7.125000000000002
 30
0.0
 40
0.3125
100
AcDbArc
 50
179.9999999999999
 51
233.130102354156
  0
CIRCLE
  5
E7
330
2
100
AcDbEntity
  8
0
100
AcDbCircle
 10
9.181715202843968
 20
7.625000000000002
 30
0.0
 40
0.1405
  0
LINE
  5
ED
330
2
100
AcDbEntity
  8
0
100
AcDbLine
 10
10.15592866259679
 20
8.25
 30
0.0
 11
8.806715202843968
 21
8.25
 31
0.0
  0
LINE
  5
EE
330
2
100
AcDbEntity
  8
0
100
AcDbLine
 10
10.05671520284397
 20
15.84870484837769
 30
0.0
 11
10.05671520284397
 21
17.24870484837769
 31
0.0
  0
LINE
  5
EF
330
2
100
AcDbEntity
  8
0
100
AcDbLine
 10
10.15592866259678
 20
17.34782947404363
 30
0.0
 11
10.15592866259678
 21
15.84870484837769
 31
0.0
  0
LINE
  5
F0
330
2
100
AcDbEntity
  8
0
100
AcDbLine
 10
10.15592866259678
 20
16.09870484837769
 30
0.0
 11
10.05671520284397
 21
16.09870484837769
 31
0.0
  0
LINE
  5
F1
330
2
100
AcDbEntity
  8
0
100
AcDbLine
 10
10.15592866259678
 20
15.84870484837769
 30
0.0
 11
10.05671520284397
 21
15.84870484837769
 31
0.0
  0
LINE
  5
F2
330
2
100
AcDbEntity
  8
0
100
AcDbLine
 10
9.95671520284397
 20
17.34870484837769
 30
0.0
 11
8.556715202843968
 21
17.34870484837769
 31
0.0
  0
LINE
  5
F3
330
2
100
AcDbEntity
  8
0
100
AcDbLine
 10
8.556715202843968
 20
17.44782947404363
 30
0.0
 11
10.05592866259678
 21
17.44782947404363
 31
0.0
  0
LINE
  5
F4
330
2
100
AcDbEntity
  8
0
100
AcDbLine
 10
8.556715202843968
 20
17.34870484837769
 30
0.0
 11
8.556715202843968
 21
17.44782947404363
 31
0.0
  0
LINE
  5
F5
330
2
100
AcDbEntity
  8
0
100
AcDbLine
 10
8.806715202843968
 20
17.34870484837769
 30
0.0
 11
8.806715202843968
 21
17.44782947404363
 31
0.0
  0
ARC
  5
F6
330
2
100
AcDbEntity
  8
0
100
AcDbCircle
 10
9.956715202843967
 20
17.24870484837769
 30
0.0
 40
0.1
100
AcDbArc
 50
0.0
 51
90.0
  0
ARC
  5
F7
330
2
100
AcDbEntity
  8
0
100
AcDbCircle
 10
10.05592866259678
 20
17.34782947404363
 30
0.0
 40
0.1
100
AcDbArc
 50
0.0
 51
90.0
  0
ARC
  5
F8
330
2
100
AcDbEntity
  8
0
100
AcDbCircle
 10
1.41232041505755
 20
1.125000000000002
 30
0.0
 40
0.3125000000000071
100
AcDbArc
 50
126.8698976458447
 51
180.0000000000001
  0
LINE
  5
F9
330
2
100
AcDbEntity
  8
0
100
AcDbLine
 10
0.0
 20
0.0
 30
0.0
 11
0.0
 21
8.250000000000002
 31
0.0
  0
LINE
  5
FA
330
2
100
AcDbEntity
  8
0
100
AcDbLine
 10
0.0992134597528214
 20
8.250000000000002
 30
0.0
 11
0.099213459752896
 21
0.0
 31
0.0
  0
LINE
  5
FB
330
2
100
AcDbEntity
  8
0
100
AcDbLine
 10
0.8498204150575504
 20
0.0000000000000036
 30
0.0
 11
0.0
 21
0.0
 31
0.0
  0
LINE
  5
FC
330
2
100
AcDbEntity
  8
0
100
AcDbLine
 10
1.09982041505755
 20
0.25
 30
0.0
 11
1.099820415057543
 21
1.125000000000002
 31
0.0
  0
LINE
  5
FD
330
2
100
AcDbEntity
  8
0
100
AcDbLine
 10
0.8498204150575504
 20
0.0
 30
0.0
 11
1.09982041505755
 21
0.25
 31
0.0
  0
LINE
  5
FE
330
2
100
AcDbEntity
  8
0
100
AcDbLine
 10
1.47482041505755
 20
5.124999999999995
 30
0.0
 11
1.22482041505755
 21
4.874999999999998
 31
0.0
  0
ARC
  5
FF
330
2
100
AcDbEntity
  8
0
100
AcDbCircle
 10
1.28732041505754
 20
2.875000000000002
 30
0.0
 40
0.3125000000000107
100
AcDbArc
 50
0.0
 51
53.13010235415502
  0
LINE
  5
100
330
2
100
AcDbEntity
  8
0
100
AcDbLine
 10
1.59982041505755
 20
2.875000000000002
 30
0.0
 11
1.59982041505755
 21
1.875000000000002
 31
0.0
  0
ARC
  5
101
330
2
100
AcDbEntity
  8
0
100
AcDbCircle
 10
1.28732041505754
 20
1.875000000000002
 30
0.0
 40
0.3125000000000107
100
AcDbArc
 50
306.869897645845
 51
0.0000000000000799
  0
LINE
  5
102
330
2
100
AcDbEntity
  8
0
100
AcDbLine
 10
1.47482041505755
 20
1.624999999999993
 30
0.0
 11
1.22482041505755
 21
1.375000000000002
 31
0.0
  0
CIRCLE
  5
103
330
2
100
AcDbEntity
  8
0
100
AcDbCircle
 10
1.099213459752903
 20
2.375000000000002
 30
0.0
 40
0.1405
  0
LINE
  5
10A
330
2
100
AcDbEntity
  8
0
100
AcDbLine
 10
1.09982041505755
 20
3.625000000000002
 30
0.0
 11
1.099820415057554
 21
4.625000000000002
 31
0.0
  0
ARC
  5
10B
330
2
100
AcDbEntity
  8
0
100
AcDbCircle
 10
1.412320415057558
 20
3.625000000000009
 30
0.0
 40
0.3125000000000071
100
AcDbArc
 50
179.9999999999999
 51
233.1301023541553
  0
LINE
  5
10C
330
2
100
AcDbEntity
  8
0
100
AcDbLine
 10
1.47482041505755
 20
3.125000000000004
 30
0.0
 11
1.22482041505755
 21
3.375000000000005
 31
0.0
  0
ARC
  5
10D
330
2
100
AcDbEntity
  8
0
100
AcDbCircle
 10
1.412320415057561
 20
4.625000000000002
 30
0.0
 40
0.3125000000000071
100
AcDbArc
 50
126.8698976458447
 51
180.0000000000001
  0
LINE
  5
10E
330
2
100
AcDbEntity
  8
0
100
AcDbLine
 10
0.8498204150575504
 20
8.250000000000002
 30
0.0
 11
0.0
 21
8.250000000000002
 31
0.0
  0
LINE
  5
10F
330
2
100
AcDbEntity
  8
0
100
AcDbLine
 10
1.47482041505755
 20
6.625000000000005
 30
0.0
 11
1.22482041505755
 21
6.874999999999998
 31
0.0
  0
LINE
  5
111
330
2
100
AcDbEntity
  8
0
100
AcDbLine
 10
1.59982041505755
 20
6.375000000000002
 30
0.0
 11
1.59982041505755
 21
5.375000000000002
 31
0.0
  0
CIRCLE
  5
112
330
2
100
AcDbEntity
  8
0
100
AcDbCircle
 10
1.099213459752903
 20
5.875000000000002
 30
0.0
 40
0.1405
  0
ARC
  5
116
330
2
100
AcDbEntity
  8
0
100
AcDbCircle
 10
1.28732041505754
 20
5.374999999999998
 30
0.0
 40
0.3125000000000107
100
AcDbArc
 50
306.869897645845
 51
0.0000000000000799
  0
ARC
  5
119
330
2
100
AcDbEntity
  8
0
100
AcDbCircle
 10
1.28732041505754
 20
6.375000000000002
 30
0.0
 40
0.3125000000000107
100
AcDbArc
 50
0.0
 51
53.13010235415502
  0
LINE
  5
11A
330
2
100
AcDbEntity
  8
0
100
AcDbLine
 10
1.09982041505755
 20
7.125000000000002
 30
0.0
 11
1.09982041505755
 21
8.000000000000002
 31
0.0
  0
ARC
  5
11B
330
2
100
AcDbEntity
  8
0
100
AcDbCircle
 10
1.412320415057558
 20
7.125000000000002
 30
0.0
 40
0.3125000000000071
100
AcDbArc
 50
179.9999999999999
 51
233.1301023541553
  0
LINE
  5
11C
330
2
100
AcDbEntity
  8
0
100
AcDbLine
 10
1.09982041505755
 20
8.000000000000002
 30
0.0
 11
0.8498204150575504
 21
8.250000000000002
 31
0.0
  0
ENDSEC
  0
SECTION
  2
OBJECTS
  0
DICTIONARY
  5
9
330
0
100
AcDbDictionary
281
     1
  3
ACAD_COLOR
350
AF
  3
ACAD_GROUP
350
23
  3
ACAD_LAYOUT
350
D
  3
ACAD_MATERIAL
350
AE
  3
ACAD_MLINESTYLE
350
24
  3
ACAD_PLOTSETTINGS
350
25
  3
ACAD_PLOTSTYLENAME
350
8
  3
ACAD_TABLESTYLE
350
B0
  3
ACDBHEADERROUNDTRIPXREC
350
12B
  3
AcDbVariableDictionary
350
AA
  0
DICTIONARY
  5
3
330
2
100
AcDbDictionary
280
     1
281
     1
  3
ACAD_SORTENTS
360
B5
  0
DICTIONARY
  5
AF
102
{ACAD_REACTORS
330
9
102
}
330
9
100
AcDbDictionary
281
     1
  0
DICTIONARY
  5
23
102
{ACAD_REACTORS
330
9
102
}
330
9
100
AcDbDictionary
281
     1
  0
DICTIONARY
  5
D
102
{ACAD_REACTORS
330
9
102
}
330
9
100
AcDbDictionary
281
     1
  3
Layout1
350
13
  3
Model
350
C
  0
DICTIONARY
  5
AE
102
{ACAD_REACTORS
330
9
102
}
330
9
100
AcDbDictionary
281
     1
  0
DICTIONARY
  5
24
102
{ACAD_REACTORS
330
9
102
}
330
9
100
AcDbDictionary
281
     1
  3
STANDARD
350
27
  0
DICTIONARY
  5
25
102
{ACAD_REACTORS
330
9
102
}
330
9
100
AcDbDictionary
281
     1
  0
ACDBDICTIONARYWDFLT
  5
8
102
{ACAD_REACTORS
330
9
102
}
330
9
100
AcDbDictionary
281
     1
  3
Normal
350
7
100
AcDbDictionaryWithDefault
340
7
  0
DICTIONARY
  5
B0
102
{ACAD_REACTORS
330
9
102
}
330
9
100
AcDbDictionary
281
     1
  3
Standard
350
B1
  0
DICTIONARY
  5
12B
102
{ACAD_REACTORS
330
9
102
}
330
9
100
AcDbDictionary
281
     1
  3
COLORDICT
350
12C
  3
MATERIALDICT
350
12D
  0
DICTIONARY
  5
AA
102
{ACAD_REACTORS
330
9
102
}
330
9
100
AcDbDictionary
281
     1
  3
CTABLESTYLE
350
124
  3
HIDETEXT
350
12A
  0
SORTENTSTABLE
  5
B5
102
{ACAD_REACTORS
330
3
102
}
330
3
100
AcDbSortentsTable
330
2
331
0
  5
115
331
102
  5
102
331
112
  5
112
331
CB
  5
D4
331
10E
  5
10E
331
CD
  5
D6
331
FA
  5
FA
331
CC
  5
D5
331
D1
  5
DA
331
10C
  5
10C
331
FC
  5
FC
331
F2
  5
BC
331
FD
  5
FD
331
CA
  5
D3
331
BF
  5
C8
331
EE
  5
B8
331
E2
  5
EB
331
BB
  5
C4
331
F4
  5
BE
331
100
  5
100
331
10F
  5
10F
331
F7
  5
C1
331
CE
  5
D7
331
DD
  5
E6
331
DC
  5
E5
331
E5
  5
EE
331
10D
  5
10D
331
F9
  5
F9
331
F5
  5
BF
331
F8
  5
F8
331
FB
  5
FB
331
11B
  5
11B
331
E0
  5
E9
331
10A
  5
10A
331
BA
  5
C3
331
C6
  5
CF
331
C7
  5
D0
331
C9
  5
D2
331
FE
  5
FE
331
E3
  5
EC
331
E7
  5
F0
331
EF
  5
B9
331
F1
  5
BB
331
D0
  5
D9
331
BC
  5
C5
331
DF
  5
E8
331
BD
  5
C6
331
DE
  5
E7
331
10B
  5
10B
331
F6
  5
C0
331
F0
  5
BA
331
116
  5
116
331
DB
  5
E4
331
E4
  5
ED
331
B9
  5
C2
331
119
  5
119
331
11C
  5
11C
331
F3
  5
BD
331
D2
  5
DB
331
11A
  5
11A
331
D3
  5
DC
331
111
  5
111
331
DA
  5
E3
331
CF
  5
D8
331
C8
  5
D1
331
E1
  5
EA
331
101
  5
101
331
103
  5
103
331
BE
  5
C7
331
ED
  5
F6
331
FF
  5
FF
  0
LAYOUT
  5
13
102
{ACAD_REACTORS
330
D
102
}
102
{ACAD_XDICTIONARY
360
12E
102
}
330
D
100
AcDbPlotSettings
  1

  2
HP LaserJet 2100 Series PS
  4

  6

 40
0.0
 41
0.0
 42
0.0
 43
0.0
 44
0.0
 45
0.0
 46
0.0
 47
0.0
 48
0.0
 49
0.0
140
0.0
141
0.0
142
1.0
143
1.0
 70
   688
 72
     0
 73
     0
 74
     5
  7

 75
    16
147
1.0
148
0.0
149
0.0
100
AcDbLayout
  1
Layout1
 70
     0
 71
     1
 10
0.0
 20
0.0
 11
12.0
 21
9.0
 12
0.0
 22
0.0
 32
0.0
 14
1.000000000000000E+20
 24
1.000000000000000E+20
 34
1.000000000000000E+20
 15
-1.000000000000000E+20
 25
-1.000000000000000E+20
 35
-1.000000000000000E+20
146
0.0
 13
0.0
 23
0.0
 33
0.0
 16
1.0
 26
0.0
 36
0.0
 17
0.0
 27
1.0
 37
0.0
 76
     0
330
E
  0
LAYOUT
  5
C
102
{ACAD_REACTORS
330
D
102
}
102
{ACAD_XDICTIONARY
360
130
102
}
330
D
100
AcDbPlotSettings
  1

  2
HP LaserJet 2100 Series PS
  4
Letter
  6

 40
5.365749835968018
 41
5.408084392547607
 42
5.4080810546875
 43
5.365753173828125
 44
215.8999938964844
 45
279.3999938964844
 46
0.0
 47
0.0
 48
0.0
 49
0.0
140
0.0
141
0.0
142
1.0
143
3.900526331091487
 70
 28336
 72
     0
 73
     1
 74
     2
  7

 75
     0
147
0.2563756568001861
148
0.0
149
0.0
100
AcDbLayout
  1
Model
 70
     1
 71
     0
 10
0.0
 20
0.0
 11
12.0
 21
9.0
 12
0.0
 22
0.0
 32
0.0
 14
0.0
 24
0.0
 34
0.0
 15
0.0
 25
0.0
 35
0.0
146
0.0
 13
0.0
 23
0.0
 33
0.0
 16
1.0
 26
0.0
 36
0.0
 17
0.0
 27
1.0
 37
0.0
 76
     0
330
2
  0
MLINESTYLE
  5
27
102
{ACAD_REACTORS
330
24
102
}
330
24
100
AcDbMlineStyle
  2
STANDARD
 70
     0
  3

 62
   256
 51
90.0
 52
90.0
 71
     2
 49
0.5
 62
   256
  6
BYLAYER
 49
-0.5
 62
   256
  6
BYLAYER
  0
ACDBPLACEHOLDER
  5
7
102
{ACAD_REACTORS
330
8
102
}
330
8
  0
ACAD_PROXY_OBJECT
  5
B1
102
{ACAD_REACTORS
330
B0
102
}
330
B0
100
AcDbProxyObject
 90
      499
 91
      521
 95
   393239
 70
     0
 93
     1841
310
4214DD185B99185C9928B81E85EB51B8AE3F2E07A17AD46E2B8FC02B5E8DC0F42B1CFD028000000C1008070000C3001FDFF8000000C1003FBFF000000182007F7FE00000030400FEFFC00000060801FDFF8000000C1003FBFF00000018200000000000000681FA0B0000001820100E000186003FBFF000000182007F7FE000
310
00030400FEFFC00000060801FDFF8000000C1003FBFF000000182007F7FE000000304000AD7A3703D0AC73F4160000003040201C00030C007F7FE00000030400FEFFC00000060801FDFF8000000C1003FBFF000000182007F7FE00000030400FEFFC000000608000
340
16
340
16
340
16
 94
        0
  0
XRECORD
  5
12C
102
{ACAD_REACTORS
330
12B
102
}
330
12B
100
AcDbXrecord
340
AF
  0
XRECORD
  5
12D
102
{ACAD_REACTORS
330
12B
102
}
330
12B
100
AcDbXrecord
340
AE
  0
DICTIONARYVAR
  5
124
102
{ACAD_REACTORS
330
AA
102
}
330
AA
100
DictionaryVariables
280
     0
  1
STANDARD
  0
DICTIONARYVAR
  5
12A
102
{ACAD_REACTORS
330
AA
102
}
330
AA
100
DictionaryVariables
280
     0
  1
0
  0
DICTIONARY
  5
12E
330
13
100
AcDbDictionary
280
     1
281
     1
  3
ACAD_XREC_ROUNDTRIP
360
12F
  0
DICTIONARY
  5
130
330
C
100
AcDbDictionary
280
     1
281
     1
  3
ACAD_XREC_ROUNDTRIP
360
131
  0
XRECORD
  5
12F
102
{ACAD_REACTORS
330
12E
102
}
330
12E
100
AcDbXrecord
102
SHADEPLOT
 70
     0
102
SHADEPLOTRESLEVEL
 70
     2
102
SHADEPLOTCUSTOMDPI
 70
   300
  0
XRECORD
  5
131
102
{ACAD_REACTORS
330
130
102
}
330
130
100
AcDbXrecord
102
SHADEPLOT
 70
     0
102
SHADEPLOTRESLEVEL
 70
     2
102
SHADEPLOTCUSTOMDPI
 70
   300
  0
ENDSEC
  0
EOF
