  0
SECTION
  2
HEADER
  9
$ACADVER
  1
AC1015
  9
$ACADMAINTVER
 70
     6
  9
$DWGCODEPAGE
  3
ANSI_1252
  9
$INSBASE
 10
0.0
 20
0.0
 30
0.0
  9
$EXTMIN
 10
-12.9439583598208
 20
-0.046875
 30
0.0
  9
$EXTMAX
 10
12.9439583598208
 20
14.67173776189478
 30
0.0
  9
$LIMMIN
 10
0.0
 20
0.0
  9
$LIMMAX
 10
31.5
 20
24.0
  9
$ORTHOMODE
 70
     1
  9
$REGENMODE
 70
     1
  9
$FILLMODE
 70
     1
  9
$QTEXTMODE
 70
     0
  9
$MIRRTEXT
 70
     0
  9
$LTSCALE
 40
1.0
  9
$ATTMODE
 70
     1
  9
$TEXTSIZE
 40
0.27
  9
$TRACEWID
 40
0.05
  9
$TEXTSTYLE
  7
STANDARD
  9
$CLAYER
  8
0
  9
$CELTYPE
  6
BYLAYER
  9
$CECOLOR
 62
   256
  9
$CELTSCALE
 40
1.0
  9
$DISPSILH
 70
     0
  9
$DIMSCALE
 40
1.0
  9
$DIMASZ
 40
0.375
  9
$DIMEXO
 40
0.0625
  9
$DIMDLI
 40
0.75
  9
$DIMRND
 40
0.0
  9
$DIMDLE
 40
0.0
  9
$DIMEXE
 40
0.18
  9
$DIMTP
 40
0.0
  9
$DIMTM
 40
0.0
  9
$DIMTXT
 40
0.27
  9
$DIMCEN
 40
-0.06
  9
$DIMTSZ
 40
0.0
  9
$DIMTOL
 70
     0
  9
$DIMLIM
 70
     0
  9
$DIMTIH
 70
     1
  9
$DIMTOH
 70
     1
  9
$DIMSE1
 70
     0
  9
$DIMSE2
 70
     0
  9
$DIMTAD
 70
     0
  9
$DIMZIN
 70
     0
  9
$DIMBLK
  1

  9
$DIMASO
 70
     0
  9
$DIMSHO
 70
     0
  9
$DIMPOST
  1

  9
$DIMAPOST
  1

  9
$DIMALT
 70
     0
  9
$DIMALTD
 70
     2
  9
$DIMALTF
 40
25.4
  9
$DIMLFAC
 40
1.0
  9
$DIMTOFL
 70
     0
  9
$DIMTVP
 40
0.0
  9
$DIMTIX
 70
     0
  9
$DIMSOXD
 70
     0
  9
$DIMSAH
 70
     0
  9
$DIMBLK1
  1

  9
$DIMBLK2
  1

  9
$DIMSTYLE
  2
STANDARD
  9
$DIMCLRD
 70
     0
  9
$DIMCLRE
 70
     0
  9
$DIMCLRT
 70
     0
  9
$DIMTFAC
 40
1.0
  9
$DIMGAP
 40
0.09
  9
$DIMJUST
 70
     0
  9
$DIMSD1
 70
     0
  9
$DIMSD2
 70
     0
  9
$DIMTOLJ
 70
     1
  9
$DIMTZIN
 70
     0
  9
$DIMALTZ
 70
     0
  9
$DIMALTTZ
 70
     0
  9
$DIMUPT
 70
     0
  9
$DIMDEC
 70
     5
  9
$DIMTDEC
 70
     5
  9
$DIMALTU
 70
     2
  9
$DIMALTTD
 70
     2
  9
$DIMTXSTY
  7
STANDARD
  9
$DIMAUNIT
 70
     0
  9
$DIMADEC
 70
     0
  9
$DIMALTRND
 40
0.0
  9
$DIMAZIN
 70
     0
  9
$DIMDSEP
 70
    46
  9
$DIMATFIT
 70
     3
  9
$DIMFRAC
 70
     2
  9
$DIMLDRBLK
  1

  9
$DIMLUNIT
 70
     5
  9
$DIMLWD
 70
    -2
  9
$DIMLWE
 70
    -2
  9
$DIMTMOVE
 70
     2
  9
$LUNITS
 70
     2
  9
$LUPREC
 70
     3
  9
$SKETCHINC
 40
0.1
  9
$FILLETRAD
 40
0.2
  9
$AUNITS
 70
     0
  9
$AUPREC
 70
     0
  9
$MENU
  1
ACAD
  9
$ELEVATION
 40
0.0
  9
$PELEVATION
 40
0.0
  9
$THICKNESS
 40
0.0
  9
$LIMCHECK
 70
     0
  9
$CHAMFERA
 40
0.0
  9
$CHAMFERB
 40
0.0
  9
$CHAMFERC
 40
0.0
  9
$CHAMFERD
 40
0.0
  9
$SKPOLY
 70
     0
  9
$TDCREATE
 40
2450613.848194097
  9
$TDUCREATE
 40
2450614.181527431
  9
$TDUPDATE
 40
2454509.869198391
  9
$TDUUPDATE
 40
2454510.202531725
  9
$TDINDWG
 40
0.3573010301
  9
$TDUSRTIMER
 40
0.3573010301
  9
$USRTIMER
 70
     1
  9
$ANGBASE
 50
0.0
  9
$ANGDIR
 70
     0
  9
$PDMODE
 70
     0
  9
$PDSIZE
 40
0.0
  9
$PLINEWID
 40
0.0
  9
$SPLFRAME
 70
     0
  9
$SPLINETYPE
 70
     6
  9
$SPLINESEGS
 70
     8
  9
$HANDSEED
  5
6D5A
  9
$SURFTAB1
 70
     6
  9
$SURFTAB2
 70
     6
  9
$SURFTYPE
 70
     6
  9
$SURFU
 70
     6
  9
$SURFV
 70
     6
  9
$UCSBASE
  2

  9
$UCSNAME
  2

  9
$UCSORG
 10
0.0
 20
0.0
 30
0.0
  9
$UCSXDIR
 10
1.0
 20
0.0
 30
0.0
  9
$UCSYDIR
 10
0.0
 20
1.0
 30
0.0
  9
$UCSORTHOREF
  2

  9
$UCSORTHOVIEW
 70
     0
  9
$UCSORGTOP
 10
0.0
 20
0.0
 30
0.0
  9
$UCSORGBOTTOM
 10
0.0
 20
0.0
 30
0.0
  9
$UCSORGLEFT
 10
0.0
 20
0.0
 30
0.0
  9
$UCSORGRIGHT
 10
0.0
 20
0.0
 30
0.0
  9
$UCSORGFRONT
 10
0.0
 20
0.0
 30
0.0
  9
$UCSORGBACK
 10
0.0
 20
0.0
 30
0.0
  9
$PUCSBASE
  2

  9
$PUCSNAME
  2

  9
$PUCSORG
 10
0.0
 20
0.0
 30
0.0
  9
$PUCSXDIR
 10
1.0
 20
0.0
 30
0.0
  9
$PUCSYDIR
 10
0.0
 20
1.0
 30
0.0
  9
$PUCSORTHOREF
  2

  9
$PUCSORTHOVIEW
 70
     0
  9
$PUCSORGTOP
 10
0.0
 20
0.0
 30
0.0
  9
$PUCSORGBOTTOM
 10
0.0
 20
0.0
 30
0.0
  9
$PUCSORGLEFT
 10
0.0
 20
0.0
 30
0.0
  9
$PUCSORGRIGHT
 10
0.0
 20
0.0
 30
0.0
  9
$PUCSORGFRONT
 10
0.0
 20
0.0
 30
0.0
  9
$PUCSORGBACK
 10
0.0
 20
0.0
 30
0.0
  9
$USERI1
 70
     0
  9
$USERI2
 70
     0
  9
$USERI3
 70
     0
  9
$USERI4
 70
     0
  9
$USERI5
 70
     0
  9
$USERR1
 40
0.0
  9
$USERR2
 40
0.0
  9
$USERR3
 40
0.0
  9
$USERR4
 40
0.0
  9
$USERR5
 40
0.0
  9
$WORLDVIEW
 70
     1
  9
$SHADEDGE
 70
     3
  9
$SHADEDIF
 70
    70
  9
$TILEMODE
 70
     1
  9
$MAXACTVP
 70
    16
  9
$PINSBASE
 10
0.0
 20
0.0
 30
0.0
  9
$PLIMCHECK
 70
     0
  9
$PEXTMIN
 10
1.000000000000000E+20
 20
1.000000000000000E+20
 30
1.000000000000000E+20
  9
$PEXTMAX
 10
-1.000000000000000E+20
 20
-1.000000000000000E+20
 30
-1.000000000000000E+20
  9
$PLIMMIN
 10
0.0
 20
0.0
  9
$PLIMMAX
 10
12.0
 20
9.0
  9
$UNITMODE
 70
     0
  9
$VISRETAIN
 70
     0
  9
$PLINEGEN
 70
     0
  9
$PSLTSCALE
 70
     0
  9
$TREEDEPTH
 70
  3020
  9
$CMLSTYLE
  2
STANDARD
  9
$CMLJUST
 70
     0
  9
$CMLSCALE
 40
1.0
  9
$PROXYGRAPHICS
 70
     1
  9
$MEASUREMENT
 70
     0
  9
$CELWEIGHT
370
    -1
  9
$ENDCAPS
280
     0
  9
$JOINSTYLE
280
     0
  9
$LWDISPLAY
290
     0
  9
$INSUNITS
 70
     0
  9
$HYPERLINKBASE
  1

  9
$STYLESHEET
  1
monochrome.ctb
  9
$XEDIT
290
     1
  9
$CEPSNTYPE
380
     0
  9
$PSTYLEMODE
290
     1
  9
$FINGERPRINTGUID
  2
{81491931-CD26-11D5-BE3F-00508B5FCD51}
  9
$VERSIONGUID
  2
{2B4CC556-8F92-4F73-8B71-AE74D1B2023C}
  9
$EXTNAMES
290
     1
  9
$PSVPSCALE
 40
0.0
  9
$OLESTARTUP
290
     0
  0
ENDSEC
  0
SECTION
  2
CLASSES
  0
CLASS
  1
DICTIONARYVAR
  2
AcDbDictionaryVar
  3
AutoCAD 2000
 90
        0
280
     0
281
     0
  0
CLASS
  1
LWPOLYLINE
  2
AcDbPolyline
  3
AutoCAD 2000
 90
        0
280
     0
281
     1
  0
CLASS
  1
ACDBDICTIONARYWDFLT
  2
AcDbDictionaryWithDefault
  3
AutoCAD 2000
 90
        0
280
     0
281
     0
  0
CLASS
  1
ACDBPLACEHOLDER
  2
AcDbPlaceHolder
  3
ObjectDBX Classes
 90
        0
280
     0
281
     0
  0
CLASS
  1
LAYOUT
  2
AcDbLayout
  3
ObjectDBX Classes
 90
        0
280
     0
281
     0
  0
CLASS
  1
LONG_TRANSACTION
  2
AcDbLongTransaction
  3
ObjectDBX Classes
 90
   -65536
280
     1
281
     0
  0
CLASS
  1
LWPOLYLINE
  2
AcDbPolyline
  3
AutoCAD 2000
 90
        0
280
     0
281
     1
  0
CLASS
  1
HATCH
  2
AcDbHatch
  3
AutoCAD 2000
 90
        0
280
     0
281
     1
  0
CLASS
  1
XRECORD
  2
AcDbXrecord
  3
AutoCAD 2000
 90
        0
280
     0
281
     0
  0
CLASS
  1
LONG_TRANSACTION
  2
AcDbLongTransaction
  3
ObjectDBX Classes
 90
   -65536
280
     1
281
     0
  0
CLASS
  1
LWPOLYLINE
  2
AcDbPolyline
  3
AutoCAD 2000
 90
        0
280
     0
281
     1
  0
CLASS
  1
HATCH
  2
AcDbHatch
  3
AutoCAD 2000
 90
        0
280
     0
281
     1
  0
CLASS
  1
XRECORD
  2
AcDbXrecord
  3
AutoCAD 2000
 90
        0
280
     0
281
     0
  0
CLASS
  1
LONG_TRANSACTION
  2
AcDbLongTransaction
  3
ObjectDBX Classes
 90
   -65536
280
     1
281
     0
  0
CLASS
  1
LWPOLYLINE
  2
AcDbPolyline
  3
AutoCAD 2000
 90
        0
280
     0
281
     1
  0
CLASS
  1
HATCH
  2
AcDbHatch
  3
AutoCAD 2000
 90
        0
280
     0
281
     1
  0
CLASS
  1
XRECORD
  2
AcDbXrecord
  3
AutoCAD 2000
 90
        0
280
     0
281
     0
  0
CLASS
  1
LONG_TRANSACTION
  2
AcDbLongTransaction
  3
ObjectDBX Classes
 90
   -65536
280
     1
281
     0
  0
CLASS
  1
LWPOLYLINE
  2
AcDbPolyline
  3
AutoCAD 2000
 90
        0
280
     0
281
     1
  0
CLASS
  1
HATCH
  2
AcDbHatch
  3
AutoCAD 2000
 90
        0
280
     0
281
     1
  0
CLASS
  1
XRECORD
  2
AcDbXrecord
  3
AutoCAD 2000
 90
        0
280
     0
281
     0
  0
CLASS
  1
TABLESTYLE
  2
AcDbTableStyle
  3
ObjectDBX Classes
 90
     2047
280
     1
281
     0
  0
CLASS
  1
SORTENTSTABLE
  2
AcDbSortentsTable
  3
AutoCAD 2000
 90
        0
280
     0
281
     0
  0
CLASS
  1
MATERIAL
  2
AcDbMaterial
  3
ObjectDBX Classes
 90
        0
280
     1
281
     0
  0
ENDSEC
  0
SECTION
  2
TABLES
  0
TABLE
  2
VPORT
  5
759
330
0
100
AcDbSymbolTable
 70
     3
  0
VPORT
  5
6D4C
330
759
100
AcDbSymbolTableRecord
100
AcDbViewportTableRecord
  2
*Active
 70
     0
 10
0.0
 20
0.0
 11
1.0
 21
1.0
 12
0.3699974093031386
 22
8.118844903710107
 13
0.0
 23
0.0
 14
0.0625
 24
0.0625
 15
0.5
 25
0.5
 16
0.0
 26
0.0
 36
1.0
 17
0.0
 27
0.0
 37
0.0
 40
23.41415480052168
 41
1.692748091603053
 42
50.0
 43
0.0
 44
0.0
 50
0.0
 51
0.0
 71
     0
 72
   100
 73
     1
 74
     0
 75
     0
 76
     0
 77
     0
 78
     0
281
     0
 65
     1
110
0.0
120
0.0
130
0.0
111
1.0
121
0.0
131
0.0
112
0.0
122
1.0
132
0.0
 79
     0
146
0.0
  0
ENDTAB
  0
TABLE
  2
LTYPE
  5
756
330
0
100
AcDbSymbolTable
 70
     3
  0
LTYPE
  5
762
330
756
100
AcDbSymbolTableRecord
100
AcDbLinetypeTableRecord
  2
BYBLOCK
 70
     0
  3

 72
    65
 73
     0
 40
0.0
  0
LTYPE
  5
763
330
756
100
AcDbSymbolTableRecord
100
AcDbLinetypeTableRecord
  2
BYLAYER
 70
     0
  3

 72
    65
 73
     0
 40
0.0
  0
LTYPE
  5
764
330
756
100
AcDbSymbolTableRecord
100
AcDbLinetypeTableRecord
  2
CONTINUOUS
 70
     0
  3
Solid line
 72
    65
 73
     0
 40
0.0
  0
LTYPE
  5
793
330
756
100
AcDbSymbolTableRecord
100
AcDbLinetypeTableRecord
  2
DASHED
 70
     0
  3
__ __ __ __ __ __ __ __ __ __ __ __ __ __ __
 72
    65
 73
     2
 40
0.75
 49
0.5
 74
     0
 49
-0.25
 74
     0
  0
LTYPE
  5
123B
330
756
100
AcDbSymbolTableRecord
100
AcDbLinetypeTableRecord
  2
HIDDEN2
 70
     0
  3
Hidden (.5x) _ _ _ _ _ _ _ _ _ _ _ _ _ _ _ _ _
 72
    65
 73
     2
 40
0.1875
 49
0.125
 74
     0
 49
-0.0625
 74
     0
  0
ENDTAB
  0
TABLE
  2
LAYER
  5
753
102
{ACAD_XDICTIONARY
360
9F9
102
}
330
0
100
AcDbSymbolTable
 70
     3
  0
LAYER
  5
75F
330
753
100
AcDbSymbolTableRecord
100
AcDbLayerTableRecord
  2
0
 70
     0
 62
     7
  6
CONTINUOUS
370
    -3
390
7C5
  0
LAYER
  5
7A4
330
753
100
AcDbSymbolTableRecord
100
AcDbLayerTableRecord
  2
DIM
 70
     0
 62
     5
  6
CONTINUOUS
370
    -3
390
7C5
  0
LAYER
  5
2102
102
{ACAD_XDICTIONARY
360
2103
102
}
330
753
100
AcDbSymbolTableRecord
100
AcDbLayerTableRecord
  2
Defpoints
 70
     0
 62
     7
  6
CONTINUOUS
290
     0
370
    -3
390
7C5
  0
ENDTAB
  0
TABLE
  2
STYLE
  5
754
330
0
100
AcDbSymbolTable
 70
     1
  0
STYLE
  5
760
330
754
100
AcDbSymbolTableRecord
100
AcDbTextStyleTableRecord
  2
STANDARD
 70
     0
 40
0.0
 41
1.0
 50
0.0
 71
     0
 42
0.27
  3
TXT
  4

  0
ENDTAB
  0
TABLE
  2
VIEW
  5
757
330
0
100
AcDbSymbolTable
 70
     4
  0
VIEW
  5
798
330
757
100
AcDbSymbolTableRecord
100
AcDbViewTableRecord
  2
PLOTTER
 70
     0
 40
23.625
 10
17.01330184198921
 20
11.8125
 41
1.0
 11
0.0
 21
0.0
 31
1.0
 12
0.0
 22
0.0
 32
0.0
 42
50.0
 43
0.0
 44
0.0
 50
0.0
 71
     0
281
     0
 72
     0
  0
VIEW
  5
799
330
757
100
AcDbSymbolTableRecord
100
AcDbViewTableRecord
  2
UPPER
 70
     0
 40
10.92682926829268
 10
12.68329970046198
 20
16.68292682926829
 41
1.0
 11
0.0
 21
0.0
 31
1.0
 12
0.0
 22
0.0
 32
0.0
 42
50.0
 43
0.0
 44
0.0
 50
0.0
 71
     0
281
     0
 72
     0
  0
VIEW
  5
79A
330
757
100
AcDbSymbolTableRecord
100
AcDbViewTableRecord
  2
LEFT
 70
     0
 40
5.446009389671362
 10
10.90014360505218
 20
8.479102255811291
 41
1.0
 11
0.0
 21
0.0
 31
1.0
 12
0.0
 22
0.0
 32
0.0
 42
50.0
 43
0.0
 44
0.0
 50
0.0
 71
     0
281
     0
 72
     0
  0
VIEW
  5
79B
330
757
100
AcDbSymbolTableRecord
100
AcDbViewTableRecord
  2
RIGHT
 70
     0
 40
10.21596244131455
 10
22.88218731978697
 20
10.27871292797435
 41
1.0
 11
0.0
 21
0.0
 31
1.0
 12
0.0
 22
0.0
 32
0.0
 42
50.0
 43
0.0
 44
0.0
 50
0.0
 71
     0
281
     0
 72
     0
  0
ENDTAB
  0
TABLE
  2
UCS
  5
758
330
0
100
AcDbSymbolTable
 70
     0
  0
ENDTAB
  0
TABLE
  2
APPID
  5
75A
330
0
100
AcDbSymbolTable
 70
     5
  0
APPID
  5
761
330
75A
100
AcDbSymbolTableRecord
100
AcDbRegAppTableRecord
  2
ACAD
 70
     0
  0
APPID
  5
1156
330
75A
100
AcDbSymbolTableRecord
100
AcDbRegAppTableRecord
  2
ACAD_DSTYLE_DIMTEXT_FILL
 70
     0
  0
APPID
  5
178C
330
75A
100
AcDbSymbolTableRecord
100
AcDbRegAppTableRecord
  2
ACAD_PSEXT
 70
     0
  0
APPID
  5
2115
330
75A
100
AcDbSymbolTableRecord
100
AcDbRegAppTableRecord
  2
AcAecLayerStandard
 70
     0
  0
APPID
  5
2116
330
75A
100
AcDbSymbolTableRecord
100
AcDbRegAppTableRecord
  2
DCO15
 70
     0
  0
ENDTAB
  0
TABLE
  2
DIMSTYLE
  5
75B
330
0
100
AcDbSymbolTable
 70
     1
100
AcDbDimStyleTable
  0
DIMSTYLE
105
7B9
330
75B
100
AcDbSymbolTableRecord
100
AcDbDimStyleTableRecord
  2
STANDARD
 70
     0
  3

  4

340
760
  0
ENDTAB
  0
TABLE
  2
BLOCK_RECORD
  5
752
330
0
100
AcDbSymbolTable
 70
     0
  0
BLOCK_RECORD
  5
768
102
{ACAD_XDICTIONARY
360
7F5
102
}
330
752
100
AcDbSymbolTableRecord
100
AcDbBlockTableRecord
  2
*MODEL_SPACE
340
7C8
  0
BLOCK_RECORD
  5
765
330
752
100
AcDbSymbolTableRecord
100
AcDbBlockTableRecord
  2
*PAPER_SPACE
340
7C9
  0
ENDTAB
  0
ENDSEC
  0
SECTION
  2
BLOCKS
  0
BLOCK
  5
7B1
330
768
100
AcDbEntity
  8
0
100
AcDbBlockBegin
  2
*MODEL_SPACE
 70
     0
 10
0.0
 20
0.0
 30
0.0
  3
*MODEL_SPACE
  1

  4

  0
ENDBLK
  5
7B2
330
768
100
AcDbEntity
  8
0
100
AcDbBlockEnd
  0
BLOCK
  5
7AF
330
765
100
AcDbEntity
 67
     1
  8
0
100
AcDbBlockBegin
  2
*PAPER_SPACE
 70
     0
 10
0.0
 20
0.0
 30
0.0
  3
*PAPER_SPACE
  1

  4

  0
ENDBLK
  5
7B0
330
765
100
AcDbEntity
 67
     1
  8
0
100
AcDbBlockEnd
  0
ENDSEC
  0
SECTION
  2
ENTITIES
  0
TEXT
  5
D9
330
768
100
AcDbEntity
  8
DIM
100
AcDbText
 10
9.860040913637929
 20
20.93053558724526
 30
0.0
 40
0.27
  1
   
 11
9.860040913637929
 21
21.06553558724526
 31
0.0
100
AcDbText
 73
     2
  0
HATCH
  5
2EF3
330
768
100
AcDbEntity
  8
0
100
AcDbHatch
 10
0.0
 20
0.0
 30
0.0
210
0.0
220
0.0
230
1.0
  2
SOLID
 70
     1
 71
     0
 91
        1
 92
        1
 93
        1
 72
     4
 94
        3
 73
     0
 74
     0
 95
       11
 96
        7
 40
0.0
 40
0.0
 40
0.0
 40
0.0
 40
1.0
 40
1.0
 40
1.0
 40
2.0
 40
2.0
 40
2.0
 40
2.0
 10
41.12136854708425
 20
18.69845877274835
 10
41.09897542642453
 20
18.70011241858168
 10
41.10765706704953
 20
18.72064518767891
 10
41.12543375975786
 20
18.71933605139418
 10
41.13938639647661
 20
18.71837142465807
 10
41.1357690462162
 20
18.69749414601224
 10
41.12136854708425
 20
18.69845877274835
 97
        0
 75
     2
 76
     1
 98
        1
 10
29.78810682833425
 20
10.02563759219279
  0
HATCH
  5
2EF4
330
768
100
AcDbEntity
  8
0
100
AcDbHatch
 10
0.0
 20
0.0
 30
0.0
210
0.0
220
0.0
230
1.0
  2
SOLID
 70
     1
 71
     0
 91
        1
 92
        1
 93
        1
 72
     4
 94
        3
 73
     0
 74
     0
 95
       11
 96
        7
 40
0.0
 40
0.0
 40
0.0
 40
0.0
 40
1.0
 40
1.0
 40
1.0
 40
2.0
 40
2.0
 40
2.0
 40
2.0
 10
41.27567437390717
 20
18.68061317813029
 10
41.25328125324744
 20
18.68219792205391
 10
41.26192844291759
 20
18.70279959306085
 10
41.27970513562592
 20
18.70155935868585
 10
41.29372667425439
 20
18.70059473194974
 10
41.29010932399397
 20
18.67957964948446
 10
41.27567437390717
 20
18.68061317813029
 97
        0
 75
     2
 76
     1
 98
        1
 10
29.78810682833425
 20
10.02563759219279
  0
HATCH
  5
2EF5
330
768
100
AcDbEntity
  8
0
100
AcDbHatch
 10
0.0
 20
0.0
 30
0.0
210
0.0
220
0.0
230
1.0
  2
SOLID
 70
     1
 71
     0
 91
        1
 92
        1
 93
        1
 72
     4
 94
        3
 73
     0
 74
     0
 95
       11
 96
        7
 40
0.0
 40
0.0
 40
0.0
 40
0.0
 40
1.0
 40
1.0
 40
1.0
 40
2.0
 40
2.0
 40
2.0
 40
2.0
 10
41.37906168944537
 20
18.47032454965807
 10
41.35666856878564
 20
18.47190929358168
 10
41.36528130750092
 20
18.49251096458863
 10
41.38305800020925
 20
18.49133963212335
 10
41.39704508788287
 20
18.49030610347752
 10
41.39346218857731
 20
18.46929102101224
 10
41.37906168944537
 20
18.47032454965807
 97
        0
 75
     2
 76
     1
 98
        1
 10
29.78810682833425
 20
10.02563759219279
  0
HATCH
  5
2EF6
330
768
100
AcDbEntity
  8
0
100
AcDbHatch
 10
0.0
 20
0.0
 30
0.0
210
0.0
220
0.0
230
1.0
  2
SOLID
 70
     1
 71
     0
 91
        1
 92
        1
 93
        1
 72
     4
 94
        3
 73
     0
 74
     0
 95
       11
 96
        7
 40
0.0
 40
0.0
 40
0.0
 40
0.0
 40
1.0
 40
1.0
 40
1.0
 40
2.0
 40
2.0
 40
2.0
 40
2.0
 10
41.84852485133772
 20
18.36545584306085
 10
41.82616618163286
 20
18.36710948889418
 10
41.83484782225786
 20
18.38764225799141
 10
41.8526245149662
 20
18.38647092552613
 10
41.86661160263981
 20
18.38543739688029
 10
41.86295980142453
 20
18.36442231441502
 10
41.84852485133772
 20
18.36545584306085
 97
        0
 75
     2
 76
     1
 98
        1
 10
29.78810682833425
 20
10.02563759219279
  0
HATCH
  5
2EF7
330
768
100
AcDbEntity
  8
0
100
AcDbHatch
 10
0.0
 20
0.0
 30
0.0
210
0.0
220
0.0
230
1.0
  2
SOLID
 70
     1
 71
     0
 91
        1
 92
        1
 93
        1
 72
     4
 94
        3
 73
     0
 74
     0
 95
       11
 96
        7
 40
0.0
 40
0.0
 40
0.0
 40
0.0
 40
1.0
 40
1.0
 40
1.0
 40
2.0
 40
2.0
 40
2.0
 40
2.0
 10
41.48964925454953
 20
18.50291515295668
 10
41.46725613388981
 20
18.50449989688029
 10
41.47586887260508
 20
18.52510156788724
 10
41.49364556531342
 20
18.52386133351224
 10
41.50763265298703
 20
18.5228278048664
 10
41.50408420463634
 20
18.50188162431085
 10
41.48964925454953
 20
18.50291515295668
 97
        0
 75
     2
 76
     1
 98
        1
 10
29.78810682833425
 20
10.02563759219279
  0
HATCH
  5
2EF8
330
768
100
AcDbEntity
  8
0
100
AcDbHatch
 10
0.0
 20
0.0
 30
0.0
210
0.0
220
0.0
230
1.0
  2
SOLID
 70
     1
 71
     0
 91
        1
 92
        1
 93
        1
 72
     4
 94
        3
 73
     0
 74
     0
 95
       11
 96
        7
 40
0.0
 40
0.0
 40
0.0
 40
0.0
 40
1.0
 40
1.0
 40
1.0
 40
2.0
 40
2.0
 40
2.0
 40
2.0
 10
41.60220052408078
 20
18.65718652882474
 10
41.57977295246619
 20
18.65884017465807
 10
41.58848904404606
 20
18.67944184566501
 10
41.60623128579953
 20
18.67813270938029
 10
41.62021837347314
 20
18.67709918073446
 10
41.61670437607731
 20
18.6561530001789
 10
41.60220052408078
 20
18.65718652882474
 97
        0
 75
     2
 76
     1
 98
        1
 10
29.78810682833425
 20
10.02563759219279
  0
HATCH
  5
2EFB
330
768
100
AcDbEntity
  8
0
100
AcDbHatch
 10
0.0
 20
0.0
 30
0.0
210
0.0
220
0.0
230
1.0
  2
SOLID
 70
     1
 71
     0
 91
        1
 92
        1
 93
        1
 72
     4
 94
        3
 73
     0
 74
     0
 95
       11
 96
        7
 40
0.0
 40
0.0
 40
0.0
 40
0.0
 40
1.0
 40
1.0
 40
1.0
 40
2.0
 40
2.0
 40
2.0
 40
2.0
 10
41.92531602972314
 20
18.49202865122057
 10
41.90299181097314
 20
18.49361339514418
 10
41.9115356477787
 20
18.51428396806085
 10
41.92934679144189
 20
18.51297483177613
 10
41.94329942816064
 20
18.51194130313029
 10
41.93971652885509
 20
18.49092622066502
 10
41.92531602972314
 20
18.49202865122057
 97
        0
 75
     2
 76
     1
 98
        1
 10
29.78810682833425
 20
10.02563759219279
  0
HATCH
  5
2EFC
330
768
100
AcDbEntity
  8
0
100
AcDbHatch
 10
0.0
 20
0.0
 30
0.0
210
0.0
220
0.0
230
1.0
  2
SOLID
 70
     1
 71
     0
 91
        1
 92
        1
 93
        1
 72
     4
 94
        3
 73
     0
 74
     0
 95
       11
 96
        7
 40
0.0
 40
0.0
 40
0.0
 40
0.0
 40
1.0
 40
1.0
 40
1.0
 40
2.0
 40
2.0
 40
2.0
 40
2.0
 10
42.03204508788286
 20
18.47080686302613
 10
42.00965196722314
 20
18.47239160694974
 10
42.01833360784814
 20
18.49299327795668
 10
42.03607584960162
 20
18.49175304358168
 10
42.05009738823009
 20
18.49071951493585
 10
42.04648003796967
 20
18.46977333438029
 10
42.03204508788286
 20
18.47080686302613
 97
        0
 75
     2
 76
     1
 98
        1
 10
29.78810682833425
 20
10.02563759219279
  0
HATCH
  5
2EFD
330
768
100
AcDbEntity
  8
0
100
AcDbHatch
 10
0.0
 20
0.0
 30
0.0
210
0.0
220
0.0
230
1.0
  2
SOLID
 70
     1
 71
     0
 91
        1
 92
        1
 93
        1
 72
     4
 94
        3
 73
     0
 74
     0
 95
       11
 96
        7
 40
0.0
 40
0.0
 40
0.0
 40
0.0
 40
1.0
 40
1.0
 40
1.0
 40
2.0
 40
2.0
 40
2.0
 40
2.0
 10
42.07407525281342
 20
18.39673731007474
 10
42.05168213215369
 20
18.39832205399835
 10
42.06036377277869
 20
18.41892372500529
 10
42.07814046548703
 20
18.41761458872057
 10
42.09212755316064
 20
18.41658106007474
 10
42.08854465385509
 20
18.3957037814289
 10
42.07407525281342
 20
18.39673731007474
 97
        0
 75
     2
 76
     1
 98
        1
 10
29.78810682833425
 20
10.02563759219279
  0
HATCH
  5
2EFE
330
768
100
AcDbEntity
  8
0
100
AcDbHatch
 10
0.0
 20
0.0
 30
0.0
210
0.0
220
0.0
230
1.0
  2
SOLID
 70
     1
 71
     0
 91
        1
 92
        1
 93
        1
 72
     4
 94
        3
 73
     0
 74
     0
 95
       11
 96
        7
 40
0.0
 40
0.0
 40
0.0
 40
0.0
 40
1.0
 40
1.0
 40
1.0
 40
2.0
 40
2.0
 40
2.0
 40
2.0
 10
42.60930528753564
 20
18.35835894635946
 10
42.58691216687592
 20
18.35994369028307
 10
42.5955249055912
 20
18.38054536129001
 10
42.61330159829953
 20
18.37923622500529
 10
42.627323136928
 20
18.37820269635946
 10
42.62374023762244
 20
18.35732541771363
 10
42.60930528753564
 20
18.35835894635946
 97
        0
 75
     2
 76
     1
 98
        1
 10
29.78810682833425
 20
10.02563759219279
  0
HATCH
  5
2EFF
330
768
100
AcDbEntity
  8
0
100
AcDbHatch
 10
0.0
 20
0.0
 30
0.0
210
0.0
220
0.0
230
1.0
  2
SOLID
 70
     1
 71
     0
 91
        1
 92
        1
 93
        1
 72
     4
 94
        3
 73
     0
 74
     0
 95
       11
 96
        7
 40
0.0
 40
0.0
 40
0.0
 40
0.0
 40
1.0
 40
1.0
 40
1.0
 40
2.0
 40
2.0
 40
2.0
 40
2.0
 10
43.23086941513981
 20
18.48630979271363
 10
43.20844184352522
 20
18.48796343854696
 10
43.21715793510509
 20
18.50856510955391
 10
43.2348657259037
 20
18.50725597326918
 10
43.24888726453217
 20
18.50629134653307
 10
43.24520101236203
 20
18.48527626406779
 10
43.23086941513981
 20
18.48630979271363
 97
        0
 75
     2
 76
     1
 98
        1
 10
29.78810682833425
 20
10.02563759219279
  0
HATCH
  5
2F13
330
768
100
AcDbEntity
  8
0
100
AcDbHatch
 10
0.0
 20
0.0
 30
0.0
210
0.0
220
0.0
230
1.0
  2
SOLID
 70
     1
 71
     0
 91
        1
 92
        1
 93
        1
 72
     4
 94
        3
 73
     0
 74
     0
 95
       11
 96
        7
 40
0.0
 40
0.0
 40
0.0
 40
0.0
 40
1.0
 40
1.0
 40
1.0
 40
2.0
 40
2.0
 40
2.0
 40
2.0
 10
43.96477810654606
 20
19.37149262691501
 10
43.94238498588634
 20
19.37266395938029
 10
43.95068766600787
 20
19.39340343420668
 10
43.9684643587162
 20
19.39250770938029
 10
43.98248589734467
 20
19.39174978837335
 10
43.97924750758772
 20
19.37073470590807
 10
43.96477810654606
 20
19.37149262691501
 97
        0
 75
     2
 76
     1
 98
        1
 10
29.78810682833425
 20
10.02563759219279
  0
HATCH
  5
2F14
330
768
100
AcDbEntity
  8
0
100
AcDbHatch
 10
0.0
 20
0.0
 30
0.0
210
0.0
220
0.0
230
1.0
  2
SOLID
 70
     1
 71
     0
 91
        1
 92
        1
 93
        1
 72
     4
 94
        3
 73
     0
 74
     0
 95
       11
 96
        7
 40
0.0
 40
0.0
 40
0.0
 40
0.0
 40
1.0
 40
1.0
 40
1.0
 40
2.0
 40
2.0
 40
2.0
 40
2.0
 10
43.60335313909814
 20
19.50213064774835
 10
43.58096001843842
 20
19.50330198021363
 10
43.58919379665022
 20
19.52411035694974
 10
43.60697048935856
 20
19.52314573021363
 10
43.62099202798703
 20
19.52245671111641
 10
43.61782254013981
 20
19.50137272674141
 10
43.60335313909814
 20
19.50213064774835
 97
        0
 75
     2
 76
     1
 98
        1
 10
29.78810682833425
 20
10.02563759219279
  0
HATCH
  5
2F18
330
768
100
AcDbEntity
  8
0
100
AcDbHatch
 10
0.0
 20
0.0
 30
0.0
210
0.0
220
0.0
230
1.0
  2
SOLID
 70
     1
 71
     0
 91
        1
 92
        1
 93
        1
 72
     4
 94
        3
 73
     0
 74
     0
 95
       11
 96
        7
 40
0.0
 40
0.0
 40
0.0
 40
0.0
 40
1.0
 40
1.0
 40
1.0
 40
2.0
 40
2.0
 40
2.0
 40
2.0
 10
44.0391577180912
 20
19.49944347326918
 10
44.01679904838633
 20
19.50061480573446
 10
44.02499837564328
 20
19.52142318247057
 10
44.04280951930647
 20
19.52045855573446
 10
44.05676215602522
 20
19.51976953663724
 10
44.053592668178
 20
19.49868555226224
 10
44.0391577180912
 20
19.49944347326918
 97
        0
 75
     2
 76
     1
 98
        1
 10
29.78810682833425
 20
10.02563759219279
  0
HATCH
  5
2F19
330
768
100
AcDbEntity
  8
0
100
AcDbHatch
 10
0.0
 20
0.0
 30
0.0
210
0.0
220
0.0
230
1.0
  2
SOLID
 70
     1
 71
     0
 91
        1
 92
        1
 93
        1
 72
     4
 94
        3
 73
     0
 74
     0
 95
       11
 96
        7
 40
0.0
 40
0.0
 40
0.0
 40
0.0
 40
1.0
 40
1.0
 40
1.0
 40
2.0
 40
2.0
 40
2.0
 40
2.0
 10
44.14630018770925
 20
19.48021984045668
 10
44.12387261609467
 20
19.48146007483168
 10
44.1321752962162
 20
19.50219954965807
 10
44.14991753796967
 20
19.50123492292196
 10
44.163973527553
 20
19.50047700191502
 10
44.16073513779606
 20
19.47946191944974
 10
44.14630018770925
 20
19.48021984045668
 97
        0
 75
     2
 76
     1
 98
        1
 10
29.78810682833425
 20
10.02563759219279
  0
HATCH
  5
2F4E
330
768
100
AcDbEntity
  8
0
100
AcDbHatch
 10
0.0
 20
0.0
 30
0.0
210
0.0
220
0.0
230
1.0
  2
SOLID
 70
     1
 71
     0
 91
        1
 92
        1
 93
        1
 72
     4
 94
        3
 73
     0
 74
     0
 95
       11
 96
        7
 40
0.0
 40
0.0
 40
0.0
 40
0.0
 40
1.0
 40
1.0
 40
1.0
 40
2.0
 40
2.0
 40
2.0
 40
2.0
 10
44.62110324760509
 20
20.10095714514418
 10
44.59891683267453
 20
20.10440224063029
 10
44.60932102104258
 20
20.12424599063029
 10
44.62685655706689
 20
20.12148991424141
 10
44.64077474283078
 20
20.11928505313029
 10
44.63536594291759
 20
20.09875228403307
 10
44.62110324760509
 20
20.10095714514418
 97
        0
 75
     2
 76
     1
 98
        1
 10
29.78810682833425
 20
10.02563759219279
  0
HATCH
  5
2F52
330
768
100
AcDbEntity
  8
0
100
AcDbHatch
 10
0.0
 20
0.0
 30
0.0
210
0.0
220
0.0
230
1.0
  2
SOLID
 70
     1
 71
     0
 91
        1
 92
        1
 93
        1
 72
     4
 94
        3
 73
     0
 74
     0
 95
       11
 96
        7
 40
0.0
 40
0.0
 40
0.0
 40
0.0
 40
1.0
 40
1.0
 40
1.0
 40
2.0
 40
2.0
 40
2.0
 40
2.0
 10
45.36193658093842
 20
20.77123492292196
 10
45.33975016600786
 20
20.77468001840807
 10
45.35015435437592
 20
20.79452376840807
 10
45.36768989040022
 20
20.79176769201918
 10
45.38160807616411
 20
20.78956283090807
 10
45.37619927625092
 20
20.76903006181085
 10
45.36193658093842
 20
20.77123492292196
 97
        0
 75
     2
 76
     1
 98
        1
 10
29.78810682833425
 20
10.02563759219279
  0
HATCH
  5
2F56
330
768
100
AcDbEntity
  8
0
100
AcDbHatch
 10
0.0
 20
0.0
 30
0.0
210
0.0
220
0.0
230
1.0
  2
SOLID
 70
     1
 71
     0
 91
        1
 92
        1
 93
        1
 72
     4
 94
        3
 73
     0
 74
     0
 95
       11
 96
        7
 40
0.0
 40
0.0
 40
0.0
 40
0.0
 40
1.0
 40
1.0
 40
1.0
 40
2.0
 40
2.0
 40
2.0
 40
2.0
 10
46.14679823458425
 20
20.56384017465807
 10
46.12461181965369
 20
20.56728527014418
 10
46.13501600802175
 20
20.58712902014418
 10
46.15255154404606
 20
20.58437294375529
 10
46.16646972980995
 20
20.58216808264418
 10
46.16106092989675
 20
20.56163531354696
 10
46.14679823458425
 20
20.56384017465807
 97
        0
 75
     2
 76
     1
 98
        1
 10
29.78810682833425
 20
10.02563759219279
  0
HATCH
  5
2F75
330
768
100
AcDbEntity
  8
0
100
AcDbHatch
 10
0.0
 20
0.0
 30
0.0
210
0.0
220
0.0
230
1.0
  2
SOLID
 70
     1
 71
     0
 91
        1
 92
        1
 93
        1
 72
     4
 94
        3
 73
     0
 74
     0
 95
       11
 96
        7
 40
0.0
 40
0.0
 40
0.0
 40
0.0
 40
1.0
 40
1.0
 40
1.0
 40
2.0
 40
2.0
 40
2.0
 40
2.0
 10
41.30547444986203
 20
19.57151487083863
 10
41.28304687824745
 20
19.57275510521363
 10
41.29134955836897
 20
19.5934256781303
 10
41.30912625107731
 20
19.59246105139418
 10
41.32311333875092
 20
19.59170313038724
 10
41.31987494899398
 20
19.57075694983168
 10
41.30547444986203
 20
19.57151487083863
 97
        0
 75
     2
 76
     1
 98
        1
 10
29.78810682833425
 20
10.02563759219279
  0
HATCH
  5
2F77
330
768
100
AcDbEntity
  8
0
100
AcDbHatch
 10
0.0
 20
0.0
 30
0.0
210
0.0
220
0.0
230
1.0
  2
SOLID
 70
     1
 71
     0
 91
        1
 92
        1
 93
        1
 72
     4
 94
        3
 73
     0
 74
     0
 95
       11
 96
        7
 40
0.0
 40
0.0
 40
0.0
 40
0.0
 40
1.0
 40
1.0
 40
1.0
 40
2.0
 40
2.0
 40
2.0
 40
2.0
 10
41.56740505967106
 20
19.3482037814289
 10
41.54497748805648
 20
19.34937511389418
 10
41.55321126626828
 20
19.37018349063029
 10
41.57098795897662
 20
19.3692877658039
 10
41.58500949760509
 20
19.36852984479696
 10
41.58180555880301
 20
19.34744586042196
 10
41.56740505967106
 20
19.3482037814289
 97
        0
 75
     2
 76
     1
 98
        1
 10
29.78810682833425
 20
10.02563759219279
  0
HATCH
  5
2F78
330
768
100
AcDbEntity
  8
0
100
AcDbHatch
 10
0.0
 20
0.0
 30
0.0
210
0.0
220
0.0
230
1.0
  2
SOLID
 70
     1
 71
     0
 91
        1
 92
        1
 93
        1
 72
     4
 94
        3
 73
     0
 74
     0
 95
       11
 96
        7
 40
0.0
 40
0.0
 40
0.0
 40
0.0
 40
1.0
 40
1.0
 40
1.0
 40
2.0
 40
2.0
 40
2.0
 40
2.0
 10
42.03876302408078
 20
19.25222342118585
 10
42.01636990342106
 20
19.25339475365113
 10
42.02467258354258
 20
19.27413422847751
 10
42.04244927625092
 20
19.27323850365113
 10
42.05647081487939
 20
19.27248058264418
 10
42.05323242512245
 20
19.2514655001789
 10
42.03876302408078
 20
19.25222342118585
 97
        0
 75
     2
 76
     1
 98
        1
 10
29.78810682833425
 20
10.02563759219279
  0
HATCH
  5
2F79
330
768
100
AcDbEntity
  8
0
100
AcDbHatch
 10
0.0
 20
0.0
 30
0.0
210
0.0
220
0.0
230
1.0
  2
SOLID
 70
     1
 71
     0
 91
        1
 92
        1
 93
        1
 72
     4
 94
        3
 73
     0
 74
     0
 95
       11
 96
        7
 40
0.0
 40
0.0
 40
0.0
 40
0.0
 40
1.0
 40
1.0
 40
1.0
 40
2.0
 40
2.0
 40
2.0
 40
2.0
 10
41.67733805663286
 20
19.38286144201918
 10
41.65494493597314
 20
19.38403277448446
 10
41.66317871418494
 20
19.40484115122057
 10
41.68095540689328
 20
19.40387652448446
 10
41.69497694552175
 20
19.40318750538724
 10
41.69180745767453
 20
19.38210352101224
 10
41.67733805663286
 20
19.38286144201918
 97
        0
 75
     2
 76
     1
 98
        1
 10
29.78810682833425
 20
10.02563759219279
  0
HATCH
  5
2F7D
330
768
100
AcDbEntity
  8
0
100
AcDbHatch
 10
0.0
 20
0.0
 30
0.0
210
0.0
220
0.0
230
1.0
  2
SOLID
 70
     1
 71
     0
 91
        1
 92
        1
 93
        1
 72
     4
 94
        3
 73
     0
 74
     0
 95
       11
 96
        7
 40
0.0
 40
0.0
 40
0.0
 40
0.0
 40
1.0
 40
1.0
 40
1.0
 40
2.0
 40
2.0
 40
2.0
 40
2.0
 10
42.11314263562592
 20
19.38017426754001
 10
42.09078396592106
 20
19.38134560000529
 10
42.098983293178
 20
19.4021539767414
 10
42.1167944368412
 20
19.40118935000529
 10
42.13074707355995
 20
19.40050033090807
 10
42.12757758571272
 20
19.37941634653307
 10
42.11314263562592
 20
19.38017426754001
 97
        0
 75
     2
 76
     1
 98
        1
 10
29.78810682833425
 20
10.02563759219279
  0
HATCH
  5
2F7E
330
768
100
AcDbEntity
  8
0
100
AcDbHatch
 10
0.0
 20
0.0
 30
0.0
210
0.0
220
0.0
230
1.0
  2
SOLID
 70
     1
 71
     0
 91
        1
 92
        1
 93
        1
 72
     4
 94
        3
 73
     0
 74
     0
 95
       11
 96
        7
 40
0.0
 40
0.0
 40
0.0
 40
0.0
 40
1.0
 40
1.0
 40
1.0
 40
2.0
 40
2.0
 40
2.0
 40
2.0
 10
42.22028510524397
 20
19.36095063472752
 10
42.19785753362939
 20
19.36219086910252
 10
42.20616021375092
 20
19.38293034392891
 10
42.22390245550439
 20
19.38196571719279
 10
42.23795844508773
 20
19.38120779618585
 10
42.23472005533078
 20
19.36019271372057
 10
42.22028510524397
 20
19.36095063472752
 97
        0
 75
     2
 76
     1
 98
        1
 10
29.78810682833425
 20
10.02563759219279
  0
HATCH
  5
2F80
330
768
100
AcDbEntity
  8
0
100
AcDbHatch
 10
0.0
 20
0.0
 30
0.0
210
0.0
220
0.0
230
1.0
  2
SOLID
 70
     1
 71
     0
 91
        1
 92
        1
 93
        1
 72
     4
 94
        3
 73
     0
 74
     0
 95
       11
 96
        7
 40
0.0
 40
0.0
 40
0.0
 40
0.0
 40
1.0
 40
1.0
 40
1.0
 40
2.0
 40
2.0
 40
2.0
 40
2.0
 10
42.41372721678911
 20
19.18518186302613
 10
42.39133409612939
 20
19.1863531954914
 10
42.39960232529606
 20
19.20709267031779
 10
42.41737901800439
 20
19.20612804358168
 10
42.43133165472314
 20
19.20537012257474
 10
42.42816216687592
 20
19.18442394201918
 10
42.41372721678911
 20
19.18518186302613
 97
        0
 75
     2
 76
     1
 98
        1
 10
29.78810682833425
 20
10.02563759219279
  0
HATCH
  5
2F81
330
768
100
AcDbEntity
  8
0
100
AcDbHatch
 10
0.0
 20
0.0
 30
0.0
210
0.0
220
0.0
230
1.0
  2
SOLID
 70
     1
 71
     0
 91
        1
 92
        1
 93
        1
 72
     4
 94
        3
 73
     0
 74
     0
 95
       11
 96
        7
 40
0.0
 40
0.0
 40
0.0
 40
0.0
 40
1.0
 40
1.0
 40
1.0
 40
2.0
 40
2.0
 40
2.0
 40
2.0
 10
42.43963433484467
 20
19.16354666337335
 10
42.41720676323008
 20
19.16478689774835
 10
42.42550944335162
 20
19.18552637257474
 10
42.44328613605995
 20
19.18456174583863
 10
42.45727322373356
 20
19.18387272674141
 10
42.45406928493147
 20
19.16278874236641
 10
42.43963433484467
 20
19.16354666337335
 97
        0
 75
     2
 76
     1
 98
        1
 10
29.78810682833425
 20
10.02563759219279
  0
HATCH
  5
2F82
330
768
100
AcDbEntity
  8
0
100
AcDbHatch
 10
0.0
 20
0.0
 30
0.0
210
0.0
220
0.0
230
1.0
  2
SOLID
 70
     1
 71
     0
 91
        1
 92
        1
 93
        1
 72
     4
 94
        3
 73
     0
 74
     0
 95
       11
 96
        7
 40
0.0
 40
0.0
 40
0.0
 40
0.0
 40
1.0
 40
1.0
 40
1.0
 40
2.0
 40
2.0
 40
2.0
 40
2.0
 10
42.85945367078217
 20
19.11428179792196
 10
42.83702609916759
 20
19.11545313038724
 10
42.84536323024398
 20
19.13619260521363
 10
42.86310547199744
 20
19.13529688038724
 10
42.87709255967106
 20
19.13453895938029
 10
42.87385416991411
 20
19.11352387691501
 10
42.85945367078217
 20
19.11428179792196
 97
        0
 75
     2
 76
     1
 98
        1
 10
29.78810682833425
 20
10.02563759219279
  0
HATCH
  5
2F85
330
768
100
AcDbEntity
  8
0
100
AcDbHatch
 10
0.0
 20
0.0
 30
0.0
210
0.0
220
0.0
230
1.0
  2
SOLID
 70
     1
 71
     0
 91
        1
 92
        1
 93
        1
 72
     4
 94
        3
 73
     0
 74
     0
 95
       11
 96
        7
 40
0.0
 40
0.0
 40
0.0
 40
0.0
 40
1.0
 40
1.0
 40
1.0
 40
2.0
 40
2.0
 40
2.0
 40
2.0
 10
43.4878735384037
 20
19.17560449757474
 10
43.46544596678911
 20
19.17677583004002
 10
43.47374864691064
 20
19.19758420677613
 10
43.49152533961897
 20
19.19661958004001
 10
43.50551242729259
 20
19.19586165903307
 10
43.5023084884905
 20
19.1748465765678
 10
43.4878735384037
 20
19.17560449757474
 97
        0
 75
     2
 76
     1
 98
        1
 10
29.78810682833425
 20
10.02563759219279
  0
HATCH
  5
2F88
330
768
100
AcDbEntity
  8
0
100
AcDbHatch
 10
0.0
 20
0.0
 30
0.0
210
0.0
220
0.0
230
1.0
  2
SOLID
 70
     1
 71
     0
 91
        1
 92
        1
 93
        1
 72
     4
 94
        3
 73
     0
 74
     0
 95
       11
 96
        7
 40
0.0
 40
0.0
 40
0.0
 40
0.0
 40
1.0
 40
1.0
 40
1.0
 40
2.0
 40
2.0
 40
2.0
 40
2.0
 10
43.55667209526133
 20
19.0706668890678
 10
43.53427897460161
 20
19.07183822153307
 10
43.54254720376828
 20
19.09264659826918
 10
43.56035834743148
 20
19.09168197153307
 10
43.57434543510509
 20
19.09099295243585
 10
43.571141496303
 20
19.06990896806085
 10
43.55667209526133
 20
19.0706668890678
 97
        0
 75
     2
 76
     1
 98
        1
 10
29.78810682833425
 20
10.02563759219279
  0
HATCH
  5
2F8B
330
768
100
AcDbEntity
  8
0
100
AcDbHatch
 10
0.0
 20
0.0
 30
0.0
210
0.0
220
0.0
230
1.0
  2
SOLID
 70
     1
 71
     0
 91
        1
 92
        1
 93
        1
 72
     4
 94
        3
 73
     0
 74
     0
 95
       11
 96
        7
 40
0.0
 40
0.0
 40
0.0
 40
0.0
 40
1.0
 40
1.0
 40
1.0
 40
2.0
 40
2.0
 40
2.0
 40
2.0
 10
43.91048340168494
 20
18.92356131181085
 10
43.88809028102523
 20
18.92473264427613
 10
43.89635851019189
 20
18.94547211910252
 10
43.91413520290023
 20
18.94450749236641
 10
43.92812229057384
 20
18.94381847326918
 10
43.92491835177175
 20
18.9228033908039
 10
43.91048340168494
 20
18.92356131181085
 97
        0
 75
     2
 76
     1
 98
        1
 10
29.78810682833425
 20
10.02563759219279
  0
HATCH
  5
2F8F
330
768
100
AcDbEntity
  8
0
100
AcDbHatch
 10
0.0
 20
0.0
 30
0.0
210
0.0
220
0.0
230
1.0
  2
SOLID
 70
     1
 71
     0
 91
        1
 92
        1
 93
        1
 72
     4
 94
        3
 73
     0
 74
     0
 95
       11
 96
        7
 40
0.0
 40
0.0
 40
0.0
 40
0.0
 40
1.0
 40
1.0
 40
1.0
 40
2.0
 40
2.0
 40
2.0
 40
2.0
 10
40.56185058918495
 20
20.20899533958863
 10
40.53945746852522
 20
20.21016667205391
 10
40.54776014864675
 20
20.23097504879002
 10
40.56550239040023
 20
20.23001042205391
 10
40.57955837998356
 20
20.22925250104696
 10
40.57628553927175
 20
20.20823741858168
 10
40.56185058918495
 20
20.20899533958863
 97
        0
 75
     2
 76
     1
 98
        1
 10
29.78810682833425
 20
10.02563759219279
  0
HATCH
  5
2F91
330
768
100
AcDbEntity
  8
0
100
AcDbHatch
 10
0.0
 20
0.0
 30
0.0
210
0.0
220
0.0
230
1.0
  2
SOLID
 70
     1
 71
     0
 91
        1
 92
        1
 93
        1
 72
     4
 94
        3
 73
     0
 74
     0
 95
       11
 96
        7
 40
0.0
 40
0.0
 40
0.0
 40
0.0
 40
1.0
 40
1.0
 40
1.0
 40
2.0
 40
2.0
 40
2.0
 40
2.0
 10
43.62712429795231
 20
20.08421398108168
 10
43.60469672633772
 20
20.08538531354696
 10
43.61299940645925
 20
20.10612478837335
 10
43.63077609916758
 20
20.10516016163724
 10
43.64479763779606
 20
20.10447114254001
 10
43.64152479708425
 20
20.08345606007474
 10
43.62712429795231
 20
20.08421398108168
 97
        0
 75
     2
 76
     1
 98
        1
 10
29.78810682833425
 20
10.02563759219279
  0
HATCH
  5
2F94
330
768
100
AcDbEntity
  8
0
100
AcDbHatch
 10
0.0
 20
0.0
 30
0.0
210
0.0
220
0.0
230
1.0
  2
SOLID
 70
     1
 71
     0
 91
        1
 92
        1
 93
        1
 72
     4
 94
        3
 73
     0
 74
     0
 95
       11
 96
        7
 40
0.0
 40
0.0
 40
0.0
 40
0.0
 40
1.0
 40
1.0
 40
1.0
 40
2.0
 40
2.0
 40
2.0
 40
2.0
 10
43.85050428927175
 20
20.24220606007474
 10
43.82811116861203
 20
20.24337739254002
 10
43.8363793977787
 20
20.26418576927613
 10
43.85419054144189
 20
20.26329004444974
 10
43.8681776291155
 20
20.26253212344279
 10
43.86497369031342
 20
20.24144813906779
 10
43.85050428927175
 20
20.24220606007474
 97
        0
 75
     2
 76
     1
 98
        1
 10
29.78810682833425
 20
10.02563759219279
  0
HATCH
  5
2F95
330
768
100
AcDbEntity
  8
0
100
AcDbHatch
 10
0.0
 20
0.0
 30
0.0
210
0.0
220
0.0
230
1.0
  2
SOLID
 70
     1
 71
     0
 91
        1
 92
        1
 93
        1
 72
     4
 94
        3
 73
     0
 74
     0
 95
       11
 96
        7
 40
0.0
 40
0.0
 40
0.0
 40
0.0
 40
1.0
 40
1.0
 40
1.0
 40
2.0
 40
2.0
 40
2.0
 40
2.0
 10
43.62188775281342
 20
20.26453027882474
 10
43.59949463215369
 20
20.26570161129002
 10
43.60776286132036
 20
20.28650998802613
 10
43.62557400498356
 20
20.28554536129002
 10
43.63956109265717
 20
20.28485634219279
 10
43.63632270290022
 20
20.26377235781779
 10
43.62188775281342
 20
20.26453027882474
 97
        0
 75
     2
 76
     1
 98
        1
 10
29.78810682833425
 20
10.02563759219279
  0
HATCH
  5
2F96
330
768
100
AcDbEntity
  8
0
100
AcDbHatch
 10
0.0
 20
0.0
 30
0.0
210
0.0
220
0.0
230
1.0
  2
SOLID
 70
     1
 71
     0
 91
        1
 92
        1
 93
        1
 72
     4
 94
        3
 73
     0
 74
     0
 95
       11
 96
        7
 40
0.0
 40
0.0
 40
0.0
 40
0.0
 40
1.0
 40
1.0
 40
1.0
 40
2.0
 40
2.0
 40
2.0
 40
2.0
 10
43.58977946288286
 20
20.36085514861641
 10
43.56738634222314
 20
20.36202648108168
 10
43.57565457138981
 20
20.38276595590807
 10
43.593465715053
 20
20.38180132917196
 10
43.60748725368148
 20
20.38111231007474
 10
43.60424886392453
 20
20.36009722760946
 10
43.58977946288286
 20
20.36085514861641
 97
        0
 75
     2
 76
     1
 98
        1
 10
29.78810682833425
 20
10.02563759219279
  0
HATCH
  5
2F99
330
768
100
AcDbEntity
  8
0
100
AcDbHatch
 10
0.0
 20
0.0
 30
0.0
210
0.0
220
0.0
230
1.0
  2
SOLID
 70
     1
 71
     0
 91
        1
 92
        1
 93
        1
 72
     4
 94
        3
 73
     0
 74
     0
 95
       11
 96
        7
 40
0.0
 40
0.0
 40
0.0
 40
0.0
 40
1.0
 40
1.0
 40
1.0
 40
2.0
 40
2.0
 40
2.0
 40
2.0
 10
45.43800428927175
 20
19.91299273542196
 10
45.41561116861203
 20
19.91416406788724
 10
45.4238793977787
 20
19.93497244462335
 10
45.44169054144189
 20
19.93400781788724
 10
45.4556776291155
 20
19.93331879879002
 10
45.45247369031342
 20
19.91223481441502
 10
45.43800428927175
 20
19.91299273542196
 97
        0
 75
     2
 76
     1
 98
        1
 10
29.78810682833425
 20
10.02563759219279
  0
HATCH
  5
2F9A
330
768
100
AcDbEntity
  8
0
100
AcDbHatch
 10
0.0
 20
0.0
 30
0.0
210
0.0
220
0.0
230
1.0
  2
SOLID
 70
     1
 71
     0
 91
        1
 92
        1
 93
        1
 72
     4
 94
        3
 73
     0
 74
     0
 95
       11
 96
        7
 40
0.0
 40
0.0
 40
0.0
 40
0.0
 40
1.0
 40
1.0
 40
1.0
 40
2.0
 40
2.0
 40
2.0
 40
2.0
 10
45.20938775281342
 20
19.93524805226224
 10
45.1869946321537
 20
19.93648828663724
 10
45.19526286132036
 20
19.95729666337335
 10
45.21307400498355
 20
19.95633203663724
 10
45.22706109265717
 20
19.95557411563029
 10
45.22382270290022
 20
19.9344901312553
 10
45.20938775281342
 20
19.93524805226224
 97
        0
 75
     2
 76
     1
 98
        1
 10
29.78810682833425
 20
10.02563759219279
  0
HATCH
  5
2F9B
330
768
100
AcDbEntity
  8
0
100
AcDbHatch
 10
0.0
 20
0.0
 30
0.0
210
0.0
220
0.0
230
1.0
  2
SOLID
 70
     1
 71
     0
 91
        1
 92
        1
 93
        1
 72
     4
 94
        3
 73
     0
 74
     0
 95
       11
 96
        7
 40
0.0
 40
0.0
 40
0.0
 40
0.0
 40
1.0
 40
1.0
 40
1.0
 40
2.0
 40
2.0
 40
2.0
 40
2.0
 10
45.17727946288287
 20
20.0315729220539
 10
45.15488634222314
 20
20.0328131564289
 10
45.16315457138981
 20
20.05355263125529
 10
45.18096571505301
 20
20.05258800451918
 10
45.19498725368148
 20
20.05183008351224
 10
45.19174886392453
 20
20.03081500104696
 10
45.17727946288287
 20
20.0315729220539
 97
        0
 75
     2
 76
     1
 98
        1
 10
29.78810682833425
 20
10.02563759219279
  0
HATCH
  5
2F9E
330
768
100
AcDbEntity
  8
0
100
AcDbHatch
 10
0.0
 20
0.0
 30
0.0
210
0.0
220
0.0
230
1.0
  2
SOLID
 70
     1
 71
     0
 91
        1
 92
        1
 93
        1
 72
     4
 94
        3
 73
     0
 74
     0
 95
       11
 96
        7
 40
0.0
 40
0.0
 40
0.0
 40
0.0
 40
1.0
 40
1.0
 40
1.0
 40
2.0
 40
2.0
 40
2.0
 40
2.0
 10
42.99246880750092
 20
19.96894108611641
 10
42.9700756868412
 20
19.97011241858168
 10
42.97834391600786
 20
19.99092079531779
 10
42.99615505967105
 20
19.99002507049141
 10
43.01014214734467
 20
19.98926714948446
 10
43.00693820854259
 20
19.96818316510946
 10
42.99246880750092
 20
19.96894108611641
 97
        0
 75
     2
 76
     1
 98
        1
 10
29.78810682833425
 20
10.02563759219279
  0
HATCH
  5
2F9F
330
768
100
AcDbEntity
  8
0
100
AcDbHatch
 10
0.0
 20
0.0
 30
0.0
210
0.0
220
0.0
230
1.0
  2
SOLID
 70
     1
 71
     0
 91
        1
 92
        1
 93
        1
 72
     4
 94
        3
 73
     0
 74
     0
 95
       11
 96
        7
 40
0.0
 40
0.0
 40
0.0
 40
0.0
 40
1.0
 40
1.0
 40
1.0
 40
2.0
 40
2.0
 40
2.0
 40
2.0
 10
42.76385227104259
 20
19.9912653048664
 10
42.74145915038287
 20
19.99243663733168
 10
42.74972737954953
 20
20.01324501406779
 10
42.76753852321272
 20
20.01228038733168
 10
42.78152561088633
 20
20.01159136823446
 10
42.77828722112939
 20
19.99050738385946
 10
42.76385227104259
 20
19.9912653048664
 97
        0
 75
     2
 76
     1
 98
        1
 10
29.78810682833425
 20
10.02563759219279
  0
HATCH
  5
2FA0
330
768
100
AcDbEntity
  8
0
100
AcDbHatch
 10
0.0
 20
0.0
 30
0.0
210
0.0
220
0.0
230
1.0
  2
SOLID
 70
     1
 71
     0
 91
        1
 92
        1
 93
        1
 72
     4
 94
        3
 73
     0
 74
     0
 95
       11
 96
        7
 40
0.0
 40
0.0
 40
0.0
 40
0.0
 40
1.0
 40
1.0
 40
1.0
 40
2.0
 40
2.0
 40
2.0
 40
2.0
 10
42.73174398111203
 20
20.08759017465807
 10
42.7093508604523
 20
20.08876150712335
 10
42.71761908961898
 20
20.10950098194974
 10
42.73543023328217
 20
20.10853635521363
 10
42.74945177191064
 20
20.1078473361164
 10
42.7462133821537
 20
20.08683225365112
 10
42.73174398111203
 20
20.08759017465807
 97
        0
 75
     2
 76
     1
 98
        1
 10
29.78810682833425
 20
10.02563759219279
  0
HATCH
  5
2FD8
330
768
100
AcDbEntity
  8
0
100
AcDbHatch
 10
0.0
 20
0.0
 30
0.0
210
0.0
220
0.0
230
1.0
  2
SOLID
 70
     1
 71
     0
 91
        1
 92
        1
 93
        1
 72
     4
 94
        3
 73
     0
 74
     0
 95
       11
 96
        7
 40
0.0
 40
0.0
 40
0.0
 40
0.0
 40
1.0
 40
1.0
 40
1.0
 40
2.0
 40
2.0
 40
2.0
 40
2.0
 10
38.69884630316064
 20
19.39684852969279
 10
38.69884630316064
 20
19.37438650712335
 10
38.67776231878564
 20
19.38162120764418
 10
38.67776231878564
 20
19.39939790035252
 10
38.67776231878564
 20
19.41338498802613
 10
38.69884630316064
 20
19.41131793073446
 10
38.69884630316064
 20
19.39684852969279
 97
        0
 75
     2
 76
     1
 98
        1
 10
29.78810682833425
 20
10.02563759219279
  0
HATCH
  5
2FDC
330
768
100
AcDbEntity
  8
0
100
AcDbHatch
 10
0.0
 20
0.0
 30
0.0
210
0.0
220
0.0
230
1.0
  2
SOLID
 70
     1
 71
     0
 91
        1
 92
        1
 93
        1
 72
     4
 94
        3
 73
     0
 74
     0
 95
       11
 96
        7
 40
0.0
 40
0.0
 40
0.0
 40
0.0
 40
1.0
 40
1.0
 40
1.0
 40
2.0
 40
2.0
 40
2.0
 40
2.0
 10
38.86762153102522
 20
19.77815169809557
 10
38.86762153102522
 20
19.75575857743585
 10
38.84643419378564
 20
19.76285547413724
 10
38.84643419378564
 20
19.78070106875529
 10
38.84643419378564
 20
19.7946881564289
 10
38.86762153102522
 20
19.79262109913724
 10
38.86762153102522
 20
19.77815169809557
 97
        0
 75
     2
 76
     1
 98
        1
 10
29.78810682833425
 20
10.02563759219279
  0
HATCH
  5
2FE0
330
768
100
AcDbEntity
  8
0
100
AcDbHatch
 10
0.0
 20
0.0
 30
0.0
210
0.0
220
0.0
230
1.0
  2
SOLID
 70
     1
 71
     0
 91
        1
 92
        1
 93
        1
 72
     4
 94
        3
 73
     0
 74
     0
 95
       11
 96
        7
 40
0.0
 40
0.0
 40
0.0
 40
0.0
 40
1.0
 40
1.0
 40
1.0
 40
2.0
 40
2.0
 40
2.0
 40
2.0
 10
38.84732991861203
 20
20.21347396372057
 10
38.84732991861203
 20
20.19108084306085
 10
38.82610813041759
 20
20.19824664167196
 10
38.82610813041759
 20
20.21602333438029
 10
38.82610813041759
 20
20.23001042205391
 10
38.84732991861203
 20
20.22794336476224
 10
38.84732991861203
 20
20.21347396372057
 97
        0
 75
     2
 76
     1
 98
        1
 10
29.78810682833425
 20
10.02563759219279
  0
HATCH
  5
2FE1
330
768
100
AcDbEntity
  8
0
100
AcDbHatch
 10
0.0
 20
0.0
 30
0.0
210
0.0
220
0.0
230
1.0
  2
SOLID
 70
     1
 71
     0
 91
        1
 92
        1
 93
        1
 72
     4
 94
        3
 73
     0
 74
     0
 95
       11
 96
        7
 40
0.0
 40
0.0
 40
0.0
 40
0.0
 40
1.0
 40
1.0
 40
1.0
 40
2.0
 40
2.0
 40
2.0
 40
2.0
 10
38.86083469291759
 20
20.32151215816501
 10
38.86083469291759
 20
20.29905013559557
 10
38.83968180663286
 20
20.30621593420668
 10
38.83968180663286
 20
20.32399262691502
 10
38.83968180663286
 20
20.33804861649835
 10
38.86083469291759
 20
20.33598155920668
 10
38.86083469291759
 20
20.32151215816501
 97
        0
 75
     2
 76
     1
 98
        1
 10
29.78810682833425
 20
10.02563759219279
  0
HATCH
  5
2FE4
330
768
100
AcDbEntity
  8
0
100
AcDbHatch
 10
0.0
 20
0.0
 30
0.0
210
0.0
220
0.0
230
1.0
  2
SOLID
 70
     1
 71
     0
 91
        1
 92
        1
 93
        1
 72
     4
 94
        3
 73
     0
 74
     0
 95
       11
 96
        7
 40
0.0
 40
0.0
 40
0.0
 40
0.0
 40
1.0
 40
1.0
 40
1.0
 40
2.0
 40
2.0
 40
2.0
 40
2.0
 10
37.86868164387245
 20
19.20447439774835
 10
37.86868164387245
 20
19.18208127708863
 10
37.847459855678
 20
19.18917817379002
 10
37.847459855678
 20
19.20702376840807
 10
37.847459855678
 20
19.2210797579914
 10
37.86868164387245
 20
19.21894379879002
 10
37.86868164387245
 20
19.20447439774835
 97
        0
 75
     2
 76
     1
 98
        1
 10
29.78810682833425
 20
10.02563759219279
  0
HATCH
  5
2FE8
330
768
100
AcDbEntity
  8
0
100
AcDbHatch
 10
0.0
 20
0.0
 30
0.0
210
0.0
220
0.0
230
1.0
  2
SOLID
 70
     1
 71
     0
 91
        1
 92
        1
 93
        1
 72
     4
 94
        3
 73
     0
 74
     0
 95
       11
 96
        7
 40
0.0
 40
0.0
 40
0.0
 40
0.0
 40
1.0
 40
1.0
 40
1.0
 40
2.0
 40
2.0
 40
2.0
 40
2.0
 10
37.96318061305647
 20
19.32257227101224
 10
37.96318061305647
 20
19.30017915035252
 10
37.94192437390717
 20
19.3072760470539
 10
37.94192437390717
 20
19.32512164167196
 10
37.94192437390717
 20
19.33910872934557
 10
37.96318061305647
 20
19.3370416720539
 10
37.96318061305647
 20
19.32257227101224
 97
        0
 75
     2
 76
     1
 98
        1
 10
29.78810682833425
 20
10.02563759219279
  0
HATCH
  5
2FEA
330
768
100
AcDbEntity
  8
0
100
AcDbHatch
 10
0.0
 20
0.0
 30
0.0
210
0.0
220
0.0
230
1.0
  2
SOLID
 70
     1
 71
     0
 91
        1
 92
        1
 93
        1
 72
     4
 94
        3
 73
     0
 74
     0
 95
       11
 96
        7
 40
0.0
 40
0.0
 40
0.0
 40
0.0
 40
1.0
 40
1.0
 40
1.0
 40
2.0
 40
2.0
 40
2.0
 40
2.0
 10
37.80119222329953
 20
20.03129731441501
 10
37.80119222329953
 20
20.00883529184557
 10
37.78003933701481
 20
20.01600109045668
 10
37.78003933701481
 20
20.03377778316501
 10
37.78003933701481
 20
20.04783377274835
 10
37.80119222329953
 20
20.04576671545668
 10
37.80119222329953
 20
20.03129731441501
 97
        0
 75
     2
 76
     1
 98
        1
 10
29.78810682833425
 20
10.02563759219279
  0
HATCH
  5
3006
330
768
100
AcDbEntity
  8
0
100
AcDbHatch
 10
0.0
 20
0.0
 30
0.0
210
0.0
220
0.0
230
1.0
  2
SOLID
 70
     1
 71
     0
 91
        1
 92
        1
 93
        1
 72
     4
 94
        3
 73
     0
 74
     0
 95
       11
 96
        7
 40
0.0
 40
0.0
 40
0.0
 40
0.0
 40
1.0
 40
1.0
 40
1.0
 40
2.0
 40
2.0
 40
2.0
 40
2.0
 10
44.74216390298703
 20
22.39711328663724
 10
44.74216390298703
 20
22.37465126406779
 10
44.72107991861203
 20
22.38188596458863
 10
44.72107991861203
 20
22.39966265729696
 10
44.72107991861203
 20
22.41364974497057
 10
44.74216390298703
 20
22.41158268767891
 10
44.74216390298703
 20
22.39711328663724
 97
        0
 75
     2
 76
     1
 98
        1
 10
29.78810682833425
 20
10.02563759219279
  0
HATCH
  5
3008
330
768
100
AcDbEntity
  8
0
100
AcDbHatch
 10
0.0
 20
0.0
 30
0.0
210
0.0
220
0.0
230
1.0
  2
SOLID
 70
     1
 71
     0
 91
        1
 92
        1
 93
        1
 72
     4
 94
        3
 73
     0
 74
     0
 95
       11
 96
        7
 40
0.0
 40
0.0
 40
0.0
 40
0.0
 40
1.0
 40
1.0
 40
1.0
 40
2.0
 40
2.0
 40
2.0
 40
2.0
 10
44.91093913085162
 20
22.77845090599488
 10
44.91093913085162
 20
22.7560233343803
 10
44.88975179361203
 20
22.76315468203654
 10
44.88975179361203
 20
22.78096582569974
 10
44.88975179361203
 20
22.79498736432821
 10
44.91093913085162
 20
22.79288585608168
 10
44.91093913085162
 20
22.77845090599488
 97
        0
 75
     2
 76
     1
 98
        1
 10
29.78810682833425
 20
10.02563759219279
  0
HATCH
  5
300C
330
768
100
AcDbEntity
  8
0
100
AcDbHatch
 10
0.0
 20
0.0
 30
0.0
210
0.0
220
0.0
230
1.0
  2
SOLID
 70
     1
 71
     0
 91
        1
 92
        1
 93
        1
 72
     4
 94
        3
 73
     0
 74
     0
 95
       11
 96
        7
 40
0.0
 40
0.0
 40
0.0
 40
0.0
 40
1.0
 40
1.0
 40
1.0
 40
2.0
 40
2.0
 40
2.0
 40
2.0
 10
44.89064751843842
 20
23.21377317161988
 10
44.89064751843842
 20
23.19134560000529
 10
44.86942573024398
 20
23.1985113986164
 10
44.86942573024398
 20
23.21628809132474
 10
44.86942573024398
 20
23.23030962995321
 10
44.89064751843842
 20
23.22824257266154
 10
44.89064751843842
 20
23.21377317161988
 97
        0
 75
     2
 76
     1
 98
        1
 10
29.78810682833425
 20
10.02563759219279
  0
HATCH
  5
300D
330
768
100
AcDbEntity
  8
0
100
AcDbHatch
 10
0.0
 20
0.0
 30
0.0
210
0.0
220
0.0
230
1.0
  2
SOLID
 70
     1
 71
     0
 91
        1
 92
        1
 93
        1
 72
     4
 94
        3
 73
     0
 74
     0
 95
       11
 96
        7
 40
0.0
 40
0.0
 40
0.0
 40
0.0
 40
1.0
 40
1.0
 40
1.0
 40
2.0
 40
2.0
 40
2.0
 40
2.0
 10
44.90415229274397
 20
23.32177691510946
 10
44.90415229274397
 20
23.29931489254002
 10
44.88299940645925
 20
23.30648069115113
 10
44.88299940645925
 20
23.32425738385946
 10
44.88299940645925
 20
23.33831337344279
 10
44.90415229274397
 20
23.33624631615113
 10
44.90415229274397
 20
23.32177691510946
 97
        0
 75
     2
 76
     1
 98
        1
 10
29.78810682833425
 20
10.02563759219279
  0
HATCH
  5
3028
330
768
100
AcDbEntity
  8
0
100
AcDbHatch
 10
0.0
 20
0.0
 30
0.0
210
0.0
220
0.0
230
1.0
  2
SOLID
 70
     1
 71
     0
 91
        1
 92
        1
 93
        1
 72
     4
 94
        3
 73
     0
 74
     0
 95
       11
 96
        7
 40
0.0
 40
0.0
 40
0.0
 40
0.0
 40
1.0
 40
1.0
 40
1.0
 40
2.0
 40
2.0
 40
2.0
 40
2.0
 10
37.18906765732731
 20
22.72942719722752
 10
37.18906765732731
 20
22.70699962561293
 10
37.16794922199745
 20
22.71419987517891
 10
37.16794922199745
 20
22.73190766597752
 10
37.16794922199745
 20
22.74606700842543
 10
37.18906765732731
 20
22.74389659826918
 10
37.18906765732731
 20
22.72942719722752
 97
        0
 75
     2
 76
     1
 98
        1
 10
29.78810682833425
 20
10.02563759219279
  0
HATCH
  5
302B
330
768
100
AcDbEntity
  8
0
100
AcDbHatch
 10
0.0
 20
0.0
 30
0.0
210
0.0
220
0.0
230
1.0
  2
SOLID
 70
     1
 71
     0
 91
        1
 92
        1
 93
        1
 72
     4
 94
        3
 73
     0
 74
     0
 95
       11
 96
        7
 40
0.0
 40
0.0
 40
0.0
 40
0.0
 40
1.0
 40
1.0
 40
1.0
 40
2.0
 40
2.0
 40
2.0
 40
2.0
 10
37.29035346461897
 20
22.86102984479696
 10
37.29035346461897
 20
22.83863672413724
 10
37.26913167642453
 20
22.84580252274835
 10
37.26913167642453
 20
22.8636481173664
 10
37.26913167642453
 20
22.87763520504002
 10
37.29035346461897
 20
22.87556814774835
 10
37.29035346461897
 20
22.86102984479696
 97
        0
 75
     2
 76
     1
 98
        1
 10
29.78810682833425
 20
10.02563759219279
  0
HATCH
  5
302D
330
768
100
AcDbEntity
  8
0
100
AcDbHatch
 10
0.0
 20
0.0
 30
0.0
210
0.0
220
0.0
230
1.0
  2
SOLID
 70
     1
 71
     0
 91
        1
 92
        1
 93
        1
 72
     4
 94
        3
 73
     0
 74
     0
 95
       11
 96
        7
 40
0.0
 40
0.0
 40
0.0
 40
0.0
 40
1.0
 40
1.0
 40
1.0
 40
2.0
 40
2.0
 40
2.0
 40
2.0
 10
37.11151855793495
 20
23.06015636389418
 10
37.11151855793495
 20
23.03776324323446
 10
37.09029676974051
 20
23.04486013993585
 10
37.09029676974051
 20
23.06270573455391
 10
37.09029676974051
 20
23.07676172413724
 10
37.11151855793495
 20
23.07462576493585
 10
37.11151855793495
 20
23.06015636389418
 97
        0
 75
     2
 76
     1
 98
        1
 10
29.78810682833425
 20
10.02563759219279
  0
HATCH
  5
302E
330
768
100
AcDbEntity
  8
0
100
AcDbHatch
 10
0.0
 20
0.0
 30
0.0
210
0.0
220
0.0
230
1.0
  2
SOLID
 70
     1
 71
     0
 91
        1
 92
        1
 93
        1
 72
     4
 94
        3
 73
     0
 74
     0
 95
       11
 96
        7
 40
0.0
 40
0.0
 40
0.0
 40
0.0
 40
1.0
 40
1.0
 40
1.0
 40
2.0
 40
2.0
 40
2.0
 40
2.0
 10
37.06432074977523
 20
22.89486068247057
 10
37.06432074977523
 20
22.87236420894627
 10
37.04313341253564
 20
22.8795989094671
 10
37.04313341253564
 20
22.89734115122057
 10
37.04313341253564
 20
22.91132823889418
 10
37.06432074977523
 20
22.90926118160251
 10
37.06432074977523
 20
22.89486068247057
 97
        0
 75
     2
 76
     1
 98
        1
 10
29.78810682833425
 20
10.02563759219279
  0
HATCH
  5
3031
330
768
100
AcDbEntity
  8
0
100
AcDbHatch
 10
0.0
 20
0.0
 30
0.0
210
0.0
220
0.0
230
1.0
  2
SOLID
 70
     1
 71
     0
 91
        1
 92
        1
 93
        1
 72
     4
 94
        3
 73
     0
 74
     0
 95
       11
 96
        7
 40
0.0
 40
0.0
 40
0.0
 40
0.0
 40
1.0
 40
1.0
 40
1.0
 40
2.0
 40
2.0
 40
2.0
 40
2.0
 10
37.20601752711897
 20
23.17825423715807
 10
37.20601752711897
 20
23.15586111649835
 10
37.18476128796967
 20
23.16295801319974
 10
37.18476128796967
 20
23.18080360781779
 10
37.18476128796967
 20
23.19482514644627
 10
37.20601752711897
 20
23.19272363819974
 10
37.20601752711897
 20
23.17825423715807
 97
        0
 75
     2
 76
     1
 98
        1
 10
29.78810682833425
 20
10.02563759219279
  0
HATCH
  5
3033
330
768
100
AcDbEntity
  8
0
100
AcDbHatch
 10
0.0
 20
0.0
 30
0.0
210
0.0
220
0.0
230
1.0
  2
SOLID
 70
     1
 71
     0
 91
        1
 92
        1
 93
        1
 72
     4
 94
        3
 73
     0
 74
     0
 95
       11
 96
        7
 40
0.0
 40
0.0
 40
0.0
 40
0.0
 40
1.0
 40
1.0
 40
1.0
 40
2.0
 40
2.0
 40
2.0
 40
2.0
 10
36.9923182541155
 20
24.61658160260946
 10
36.9923182541155
 20
24.59411958004002
 10
36.97116536783078
 20
24.60128537865113
 10
36.97116536783078
 20
24.61906207135946
 10
36.97116536783078
 20
24.63311806094279
 10
36.9923182541155
 20
24.63105100365113
 10
36.9923182541155
 20
24.61658160260946
 97
        0
 75
     2
 76
     1
 98
        1
 10
29.78810682833425
 20
10.02563759219279
  0
HATCH
  5
3035
330
768
100
AcDbEntity
  8
0
100
AcDbHatch
 10
0.0
 20
0.0
 30
0.0
210
0.0
220
0.0
230
1.0
  2
SOLID
 70
     1
 71
     0
 91
        1
 92
        1
 93
        1
 72
     4
 94
        3
 73
     0
 74
     0
 95
       11
 96
        7
 40
0.0
 40
0.0
 40
0.0
 40
0.0
 40
1.0
 40
1.0
 40
1.0
 40
2.0
 40
2.0
 40
2.0
 40
2.0
 10
36.96644558701481
 20
23.99155515404175
 10
36.96644558701481
 20
23.96912758242717
 10
36.9451893478655
 20
23.97627615556085
 10
36.9451893478655
 20
23.99410452470147
 10
36.9451893478655
 20
24.00812606332995
 10
36.96644558701481
 20
24.00602455508342
 10
36.96644558701481
 20
23.99155515404175
 97
        0
 75
     2
 76
     1
 98
        1
 10
29.78810682833425
 20
10.02563759219279
  0
HATCH
  5
3037
330
768
100
AcDbEntity
  8
0
100
AcDbHatch
 10
0.0
 20
0.0
 30
0.0
210
0.0
220
0.0
230
1.0
  2
SOLID
 70
     1
 71
     0
 91
        1
 92
        1
 93
        1
 72
     4
 94
        3
 73
     0
 74
     0
 95
       11
 96
        7
 40
0.0
 40
0.0
 40
0.0
 40
0.0
 40
1.0
 40
1.0
 40
1.0
 40
2.0
 40
2.0
 40
2.0
 40
2.0
 10
37.44558946722314
 20
24.68674097218411
 10
37.44558946722314
 20
24.66431340056953
 10
37.4243676790287
 20
24.67147919918064
 10
37.4243676790287
 20
24.68930756832127
 10
37.4243676790287
 20
24.70331188147231
 10
37.44558946722314
 20
24.70121037322578
 10
37.44558946722314
 20
24.68674097218411
 97
        0
 75
     2
 76
     1
 98
        1
 10
29.78810682833425
 20
10.02563759219279
  0
HATCH
  5
3038
330
768
100
AcDbEntity
  8
0
100
AcDbHatch
 10
0.0
 20
0.0
 30
0.0
210
0.0
220
0.0
230
1.0
  2
SOLID
 70
     1
 71
     0
 91
        1
 92
        1
 93
        1
 72
     4
 94
        3
 73
     0
 74
     0
 95
       11
 96
        7
 40
0.0
 40
0.0
 40
0.0
 40
0.0
 40
1.0
 40
1.0
 40
1.0
 40
2.0
 40
2.0
 40
2.0
 40
2.0
 10
37.35109049803911
 20
24.64962006832127
 10
37.35109049803911
 20
24.62717527122925
 10
37.32993761175439
 20
24.63432384436293
 10
37.32993761175439
 20
24.65215221350356
 10
37.32993761175439
 20
24.66620820308689
 10
37.35109049803911
 20
24.66408946936293
 10
37.35109049803911
 20
24.64962006832127
 97
        0
 75
     2
 76
     1
 98
        1
 10
29.78810682833425
 20
10.02563759219279
  0
HATCH
  5
303C
330
768
100
AcDbEntity
  8
0
100
AcDbHatch
 10
0.0
 20
0.0
 30
0.0
210
0.0
220
0.0
230
1.0
  2
SOLID
 70
     1
 71
     0
 91
        1
 92
        1
 93
        1
 72
     4
 94
        3
 73
     0
 74
     0
 95
       11
 96
        7
 40
0.0
 40
0.0
 40
0.0
 40
0.0
 40
1.0
 40
1.0
 40
1.0
 40
2.0
 40
2.0
 40
2.0
 40
2.0
 10
36.72900960611203
 20
24.14556814774835
 10
36.72900960611203
 20
24.1231061251789
 10
36.70785671982731
 20
24.13034082569974
 10
36.70785671982731
 20
24.14811751840807
 10
36.70785671982731
 20
24.16212183155911
 10
36.72900960611203
 20
24.16005477426744
 10
36.72900960611203
 20
24.14556814774835
 97
        0
 75
     2
 76
     1
 98
        1
 10
29.78810682833425
 20
10.02563759219279
  0
HATCH
  5
303D
330
768
100
AcDbEntity
  8
0
100
AcDbHatch
 10
0.0
 20
0.0
 30
0.0
210
0.0
220
0.0
230
1.0
  2
SOLID
 70
     1
 71
     0
 91
        1
 92
        1
 93
        1
 72
     4
 94
        3
 73
     0
 74
     0
 95
       11
 96
        7
 40
0.0
 40
0.0
 40
0.0
 40
0.0
 40
1.0
 40
1.0
 40
1.0
 40
2.0
 40
2.0
 40
2.0
 40
2.0
 10
36.7087524446537
 20
24.11184066293932
 10
36.7087524446537
 20
24.08941309132474
 10
36.68756510741412
 20
24.09657888993585
 10
36.68756510741412
 20
24.11435558264418
 10
36.68756510741412
 20
24.12841157222751
 10
36.7087524446537
 20
24.12631006398099
 10
36.7087524446537
 20
24.11184066293932
 97
        0
 75
     2
 76
     1
 98
        1
 10
29.78810682833425
 20
10.02563759219279
  0
HATCH
  5
304F
330
768
100
AcDbEntity
  8
0
100
AcDbHatch
 10
0.0
 20
0.0
 30
0.0
210
0.0
220
0.0
230
1.0
  2
SOLID
 70
     1
 71
     0
 91
        1
 92
        1
 93
        1
 72
     4
 94
        3
 73
     0
 74
     0
 95
       11
 96
        7
 40
0.0
 40
0.0
 40
0.0
 40
0.0
 40
1.0
 40
1.0
 40
1.0
 40
2.0
 40
2.0
 40
2.0
 40
2.0
 10
44.6282690462162
 20
19.15334918073446
 10
44.6282690462162
 20
19.13088715816502
 10
44.60711615993147
 20
19.13805295677613
 10
44.60711615993147
 20
19.15582964948446
 10
44.60711615993147
 20
19.16988563906779
 10
44.6282690462162
 20
19.16781858177613
 10
44.6282690462162
 20
19.15334918073446
 97
        0
 75
     2
 76
     1
 98
        1
 10
29.78810682833425
 20
10.02563759219279
  0
HATCH
  5
3055
330
768
100
AcDbEntity
  8
0
100
AcDbHatch
 10
0.0
 20
0.0
 30
0.0
210
0.0
220
0.0
230
1.0
  2
SOLID
 70
     1
 71
     0
 91
        1
 92
        1
 93
        1
 72
     4
 94
        3
 73
     0
 74
     0
 95
       11
 96
        7
 40
0.0
 40
0.0
 40
0.0
 40
0.0
 40
1.0
 40
1.0
 40
1.0
 40
2.0
 40
2.0
 40
2.0
 40
2.0
 10
44.42910807616411
 20
19.2241803439289
 10
44.42910807616411
 20
19.20171832135946
 10
44.40795518987939
 20
19.20895302188029
 10
44.40795518987939
 20
19.22672971458863
 10
44.40795518987939
 20
19.24071680226224
 10
44.42910807616411
 20
19.23864974497057
 10
44.42910807616411
 20
19.2241803439289
 97
        0
 75
     2
 76
     1
 98
        1
 10
29.78810682833425
 20
10.02563759219279
  0
HATCH
  5
3056
330
768
100
AcDbEntity
  8
0
100
AcDbHatch
 10
0.0
 20
0.0
 30
0.0
210
0.0
220
0.0
230
1.0
  2
SOLID
 70
     1
 71
     0
 91
        1
 92
        1
 93
        1
 72
     4
 94
        3
 73
     0
 74
     0
 95
       11
 96
        7
 40
0.0
 40
0.0
 40
0.0
 40
0.0
 40
1.0
 40
1.0
 40
1.0
 40
2.0
 40
2.0
 40
2.0
 40
2.0
 10
44.40885091470578
 20
19.19048731007474
 10
44.40885091470578
 20
19.16802528750529
 10
44.3876635774662
 20
19.17519108611641
 10
44.3876635774662
 20
19.19296777882474
 10
44.3876635774662
 20
19.20702376840807
 10
44.40885091470578
 20
19.2049567111164
 10
44.40885091470578
 20
19.19048731007474
 97
        0
 75
     2
 76
     1
 98
        1
 10
29.78810682833425
 20
10.02563759219279
  0
HATCH
  5
306F
330
768
100
AcDbEntity
  8
0
100
AcDbHatch
 10
0.0
 20
0.0
 30
0.0
210
0.0
220
0.0
230
1.0
  2
SOLID
 70
     1
 71
     0
 91
        1
 92
        1
 93
        1
 72
     4
 94
        3
 73
     0
 74
     0
 95
       11
 96
        7
 40
0.0
 40
0.0
 40
0.0
 40
0.0
 40
1.0
 40
1.0
 40
1.0
 40
2.0
 40
2.0
 40
2.0
 40
2.0
 10
42.83919650932383
 20
21.95906939557821
 10
42.83919650932383
 20
21.93657292205391
 10
42.82069634656342
 20
21.94380762257474
 10
42.82069634656342
 20
21.96154986432821
 10
42.82069634656342
 20
21.9756403048664
 10
42.83919650932383
 20
21.97350434566501
 10
42.83919650932383
 20
21.95906939557821
 97
        0
 75
     2
 76
     1
 98
        1
 10
29.78810682833425
 20
10.02563759219279
  0
HATCH
  5
3070
330
768
100
AcDbEntity
  8
0
100
AcDbHatch
 10
0.0
 20
0.0
 30
0.0
210
0.0
220
0.0
230
1.0
  2
SOLID
 70
     1
 71
     0
 91
        1
 92
        1
 93
        1
 72
     4
 94
        3
 73
     0
 74
     0
 95
       11
 96
        7
 40
0.0
 40
0.0
 40
0.0
 40
0.0
 40
1.0
 40
1.0
 40
1.0
 40
2.0
 40
2.0
 40
2.0
 40
2.0
 10
42.9657348665287
 20
22.07720171979696
 10
42.9657348665287
 20
22.05473969722751
 10
42.94720025281342
 20
22.06187104488377
 10
42.94720025281342
 20
22.07968218854696
 10
42.94720025281342
 20
22.09377262908516
 10
42.9657348665287
 20
22.09163666988377
 10
42.9657348665287
 20
22.07720171979696
 97
        0
 75
     2
 76
     1
 98
        1
 10
29.78810682833425
 20
10.02563759219279
  0
HATCH
  5
3071
330
768
100
AcDbEntity
  8
0
100
AcDbHatch
 10
0.0
 20
0.0
 30
0.0
210
0.0
220
0.0
230
1.0
  2
SOLID
 70
     1
 71
     0
 91
        1
 92
        1
 93
        1
 72
     4
 94
        3
 73
     0
 74
     0
 95
       11
 96
        7
 40
0.0
 40
0.0
 40
0.0
 40
0.0
 40
1.0
 40
1.0
 40
1.0
 40
2.0
 40
2.0
 40
2.0
 40
2.0
 10
42.98923041774398
 20
22.10414236649835
 10
42.98923041774398
 20
22.08168034392891
 10
42.97073025498356
 20
22.08888059349488
 10
42.97073025498356
 20
22.10665728620321
 10
42.97073025498356
 20
22.1207477267414
 10
42.98923041774398
 20
22.11861176754002
 10
42.98923041774398
 20
22.10414236649835
 97
        0
 75
     2
 76
     1
 98
        1
 10
29.78810682833425
 20
10.02563759219279
  0
HATCH
  5
3073
330
768
100
AcDbEntity
  8
0
100
AcDbHatch
 10
0.0
 20
0.0
 30
0.0
210
0.0
220
0.0
230
1.0
  2
SOLID
 70
     1
 71
     0
 91
        1
 92
        1
 93
        1
 72
     4
 94
        3
 73
     0
 74
     0
 95
       11
 96
        7
 40
0.0
 40
0.0
 40
0.0
 40
0.0
 40
1.0
 40
1.0
 40
1.0
 40
2.0
 40
2.0
 40
2.0
 40
2.0
 10
42.85376926323009
 20
22.35725353186293
 10
42.85376926323009
 20
22.33482596024835
 10
42.83537245333425
 20
22.34202620981432
 10
42.83537245333425
 20
22.35973400061293
 10
42.83537245333425
 20
22.37389334306085
 10
42.85376926323009
 20
22.3717229329046
 10
42.85376926323009
 20
22.35725353186293
 97
        0
 75
     2
 76
     1
 98
        1
 10
29.78810682833425
 20
10.02563759219279
  0
HATCH
  5
3074
330
768
100
AcDbEntity
  8
0
100
AcDbHatch
 10
0.0
 20
0.0
 30
0.0
210
0.0
220
0.0
230
1.0
  2
SOLID
 70
     1
 71
     0
 91
        1
 92
        1
 93
        1
 72
     4
 94
        3
 73
     0
 74
     0
 95
       11
 96
        7
 40
0.0
 40
0.0
 40
0.0
 40
0.0
 40
1.0
 40
1.0
 40
1.0
 40
2.0
 40
2.0
 40
2.0
 40
2.0
 10
42.88329373154606
 20
22.40789643550876
 10
42.88329373154606
 20
22.38543441293932
 10
42.86475911783078
 20
22.39260021155043
 10
42.86475911783078
 20
22.41041135521363
 10
42.86475911783078
 20
22.4244328938421
 10
42.88329373154606
 20
22.42233138559557
 10
42.88329373154606
 20
22.40789643550876
 97
        0
 75
     2
 76
     1
 98
        1
 10
29.78810682833425
 20
10.02563759219279
  0
HATCH
  5
3076
330
768
100
AcDbEntity
  8
0
100
AcDbHatch
 10
0.0
 20
0.0
 30
0.0
210
0.0
220
0.0
230
1.0
  2
SOLID
 70
     1
 71
     0
 91
        1
 92
        1
 93
        1
 72
     4
 94
        3
 73
     0
 74
     0
 95
       11
 96
        7
 40
0.0
 40
0.0
 40
0.0
 40
0.0
 40
1.0
 40
1.0
 40
1.0
 40
2.0
 40
2.0
 40
2.0
 40
2.0
 10
42.94210151149397
 20
22.48885617943238
 10
42.94210151149397
 20
22.46646305877265
 10
42.92360134873356
 20
22.47359440642891
 10
42.92360134873356
 20
22.49144000104696
 10
42.92360134873356
 20
22.50542708872057
 10
42.94210151149397
 20
22.50336003142891
 10
42.94210151149397
 20
22.48885617943238
 97
        0
 75
     2
 76
     1
 98
        1
 10
29.78810682833425
 20
10.02563759219279
  0
HATCH
  5
3078
330
768
100
AcDbEntity
  8
0
100
AcDbHatch
 10
0.0
 20
0.0
 30
0.0
210
0.0
220
0.0
230
1.0
  2
SOLID
 70
     1
 71
     0
 91
        1
 92
        1
 93
        1
 72
     4
 94
        3
 73
     0
 74
     0
 95
       11
 96
        7
 40
0.0
 40
0.0
 40
0.0
 40
0.0
 40
1.0
 40
1.0
 40
1.0
 40
2.0
 40
2.0
 40
2.0
 40
2.0
 10
42.78617648979258
 20
22.68794824757474
 10
42.78617648979258
 20
22.66555512691502
 10
42.76764187607731
 20
22.67268647457127
 10
42.76764187607731
 20
22.69053206918932
 10
42.76764187607731
 20
22.70455360781779
 10
42.78617648979258
 20
22.70245209957126
 10
42.78617648979258
 20
22.68794824757474
 97
        0
 75
     2
 76
     1
 98
        1
 10
29.78810682833425
 20
10.02563759219279
  0
HATCH
  5
3079
330
768
100
AcDbEntity
  8
0
100
AcDbHatch
 10
0.0
 20
0.0
 30
0.0
210
0.0
220
0.0
230
1.0
  2
SOLID
 70
     1
 71
     0
 91
        1
 92
        1
 93
        1
 72
     4
 94
        3
 73
     0
 74
     0
 95
       11
 96
        7
 40
0.0
 40
0.0
 40
0.0
 40
0.0
 40
1.0
 40
1.0
 40
1.0
 40
2.0
 40
2.0
 40
2.0
 40
2.0
 10
42.74500759873356
 20
22.52265256615113
 10
42.74500759873356
 20
22.50019054358168
 10
42.726541886928
 20
22.50742524410251
 10
42.726541886928
 20
22.52516748585599
 10
42.726541886928
 20
22.5391545735296
 10
42.74500759873356
 20
22.53705306528307
 10
42.74500759873356
 20
22.52265256615113
 97
        0
 75
     2
 76
     1
 98
        1
 10
29.78810682833425
 20
10.02563759219279
  0
HATCH
  5
307C
330
768
100
AcDbEntity
  8
0
100
AcDbHatch
 10
0.0
 20
0.0
 30
0.0
210
0.0
220
0.0
230
1.0
  2
SOLID
 70
     1
 71
     0
 91
        1
 92
        1
 93
        1
 72
     4
 94
        3
 73
     0
 74
     0
 95
       11
 96
        7
 40
0.0
 40
0.0
 40
0.0
 40
0.0
 40
1.0
 40
1.0
 40
1.0
 40
2.0
 40
2.0
 40
2.0
 40
2.0
 10
42.86858317382036
 20
22.80608057179349
 10
42.86858317382036
 20
22.78365300017891
 10
42.85004856010509
 20
22.79078434783515
 10
42.85004856010509
 20
22.80859549149835
 10
42.85004856010509
 20
22.82265148108168
 10
42.86858317382036
 20
22.82051552188029
 10
42.86858317382036
 20
22.80608057179349
 97
        0
 75
     2
 76
     1
 98
        1
 10
29.78810682833425
 20
10.02563759219279
  0
HATCH
  5
307D
330
768
100
AcDbEntity
  8
0
100
AcDbHatch
 10
0.0
 20
0.0
 30
0.0
210
0.0
220
0.0
230
1.0
  2
SOLID
 70
     1
 71
     0
 91
        1
 92
        1
 93
        1
 72
     4
 94
        3
 73
     0
 74
     0
 95
       11
 96
        7
 40
0.0
 40
0.0
 40
0.0
 40
0.0
 40
1.0
 40
1.0
 40
1.0
 40
2.0
 40
2.0
 40
2.0
 40
2.0
 10
42.94516764647661
 20
22.82971392682821
 10
42.94516764647661
 20
22.80725190425877
 10
42.92663303276134
 20
22.81441770286988
 10
42.92663303276134
 20
22.83222884653307
 10
42.92663303276134
 20
22.8462848361164
 10
42.94516764647661
 20
22.84414887691501
 10
42.94516764647661
 20
22.82971392682821
 97
        0
 75
     2
 76
     1
 98
        1
 10
29.78810682833425
 20
10.02563759219279
  0
HATCH
  5
307E
330
768
100
AcDbEntity
  8
0
100
AcDbHatch
 10
0.0
 20
0.0
 30
0.0
210
0.0
220
0.0
230
1.0
  2
SOLID
 70
     1
 71
     0
 91
        1
 92
        1
 93
        1
 72
     4
 94
        3
 73
     0
 74
     0
 95
       11
 96
        7
 40
0.0
 40
0.0
 40
0.0
 40
0.0
 40
1.0
 40
1.0
 40
1.0
 40
2.0
 40
2.0
 40
2.0
 40
2.0
 10
43.09385796765717
 20
23.2667242892414
 10
43.09385796765717
 20
23.24426226667196
 10
43.07539225585161
 20
23.25142806528307
 10
43.07539225585161
 20
23.26923920894627
 10
43.07539225585161
 20
23.28326074757474
 10
43.09385796765717
 20
23.28119369028307
 10
43.09385796765717
 20
23.2667242892414
 97
        0
 75
     2
 76
     1
 98
        1
 10
29.78810682833425
 20
10.02563759219279
  0
HATCH
  5
307F
330
768
100
AcDbEntity
  8
0
100
AcDbHatch
 10
0.0
 20
0.0
 30
0.0
210
0.0
220
0.0
230
1.0
  2
SOLID
 70
     1
 71
     0
 91
        1
 92
        1
 93
        1
 72
     4
 94
        3
 73
     0
 74
     0
 95
       11
 96
        7
 40
0.0
 40
0.0
 40
0.0
 40
0.0
 40
1.0
 40
1.0
 40
1.0
 40
2.0
 40
2.0
 40
2.0
 40
2.0
 10
43.10264296114675
 20
23.30723861215807
 10
43.10264296114675
 20
23.28481104054349
 10
43.08421170029606
 20
23.29194238819974
 10
43.08421170029606
 20
23.30978798281779
 10
43.08421170029606
 20
23.3237750704914
 10
43.10264296114675
 20
23.32170801319974
 10
43.10264296114675
 20
23.30723861215807
 97
        0
 75
     2
 76
     1
 98
        1
 10
29.78810682833425
 20
10.02563759219279
  0
HATCH
  5
3080
330
768
100
AcDbEntity
  8
0
100
AcDbHatch
 10
0.0
 20
0.0
 30
0.0
210
0.0
220
0.0
230
1.0
  2
SOLID
 70
     1
 71
     0
 91
        1
 92
        1
 93
        1
 72
     4
 94
        3
 73
     0
 74
     0
 95
       11
 96
        7
 40
0.0
 40
0.0
 40
0.0
 40
0.0
 40
1.0
 40
1.0
 40
1.0
 40
2.0
 40
2.0
 40
2.0
 40
2.0
 10
43.01152018553911
 20
23.69005762257474
 10
43.01152018553911
 20
23.66759560000529
 10
42.99305447373356
 20
23.6747613986164
 10
42.99305447373356
 20
23.6925725422796
 10
42.99305447373356
 20
23.70659408090807
 10
43.01152018553911
 20
23.7045270236164
 10
43.01152018553911
 20
23.69005762257474
 97
        0
 75
     2
 76
     1
 98
        1
 10
29.78810682833425
 20
10.02563759219279
  0
HATCH
  5
3081
330
768
100
AcDbEntity
  8
0
100
AcDbHatch
 10
0.0
 20
0.0
 30
0.0
210
0.0
220
0.0
230
1.0
  2
SOLID
 70
     1
 71
     0
 91
        1
 92
        1
 93
        1
 72
     4
 94
        3
 73
     0
 74
     0
 95
       11
 96
        7
 40
0.0
 40
0.0
 40
0.0
 40
0.0
 40
1.0
 40
1.0
 40
1.0
 40
2.0
 40
2.0
 40
2.0
 40
2.0
 10
43.0203051790287
 20
23.7305719454914
 10
43.0203051790287
 20
23.70814437387682
 10
43.001873918178
 20
23.71527572153307
 10
43.001873918178
 20
23.73312131615113
 10
43.001873918178
 20
23.74710840382474
 10
43.0203051790287
 20
23.74504134653307
 10
43.0203051790287
 20
23.7305719454914
 97
        0
 75
     2
 76
     1
 98
        1
 10
29.78810682833425
 20
10.02563759219279
  0
HATCH
  5
3082
330
768
100
AcDbEntity
  8
0
100
AcDbHatch
 10
0.0
 20
0.0
 30
0.0
210
0.0
220
0.0
230
1.0
  2
SOLID
 70
     1
 71
     0
 91
        1
 92
        1
 93
        1
 72
     4
 94
        3
 73
     0
 74
     0
 95
       11
 96
        7
 40
0.0
 40
0.0
 40
0.0
 40
0.0
 40
1.0
 40
1.0
 40
1.0
 40
2.0
 40
2.0
 40
2.0
 40
2.0
 10
42.72733425888981
 20
23.5147711642414
 10
42.72733425888981
 20
23.49230914167196
 10
42.70886854708425
 20
23.49947494028307
 10
42.70886854708425
 20
23.51728608394627
 10
42.70886854708425
 20
23.53130762257474
 10
42.72733425888981
 20
23.52924056528307
 10
42.72733425888981
 20
23.5147711642414
 97
        0
 75
     2
 76
     1
 98
        1
 10
29.78810682833425
 20
10.02563759219279
  0
HATCH
  5
3083
330
768
100
AcDbEntity
  8
0
100
AcDbHatch
 10
0.0
 20
0.0
 30
0.0
210
0.0
220
0.0
230
1.0
  2
SOLID
 70
     1
 71
     0
 91
        1
 92
        1
 93
        1
 72
     4
 94
        3
 73
     0
 74
     0
 95
       11
 96
        7
 40
0.0
 40
0.0
 40
0.0
 40
0.0
 40
1.0
 40
1.0
 40
1.0
 40
2.0
 40
2.0
 40
2.0
 40
2.0
 10
42.73611925237939
 20
23.55528548715807
 10
42.73611925237939
 20
23.53285791554349
 10
42.7176879915287
 20
23.53998926319974
 10
42.7176879915287
 20
23.55783485781779
 10
42.7176879915287
 20
23.5718219454914
 10
42.73611925237939
 20
23.56975488819974
 10
42.73611925237939
 20
23.55528548715807
 97
        0
 75
     2
 76
     1
 98
        1
 10
29.78810682833425
 20
10.02563759219279
  0
HATCH
  5
3085
330
768
100
AcDbEntity
  8
0
100
AcDbHatch
 10
0.0
 20
0.0
 30
0.0
210
0.0
220
0.0
230
1.0
  2
SOLID
 70
     1
 71
     0
 91
        1
 92
        1
 93
        1
 72
     4
 94
        3
 73
     0
 74
     0
 95
       11
 96
        7
 40
0.0
 40
0.0
 40
0.0
 40
0.0
 40
1.0
 40
1.0
 40
1.0
 40
2.0
 40
2.0
 40
2.0
 40
2.0
 10
42.95677761826481
 20
25.1717242892414
 10
42.95677761826481
 20
25.14926226667196
 10
42.93834635741411
 20
25.15642806528307
 10
42.93834635741411
 20
25.17423920894627
 10
42.93834635741411
 20
25.18827797305217
 10
42.95677761826481
 20
25.18615923932821
 10
42.95677761826481
 20
25.1717242892414
 97
        0
 75
     2
 76
     1
 98
        1
 10
29.78810682833425
 20
10.02563759219279
  0
HATCH
  5
3088
330
768
100
AcDbEntity
  8
0
100
AcDbHatch
 10
0.0
 20
0.0
 30
0.0
210
0.0
220
0.0
230
1.0
  2
SOLID
 70
     1
 71
     0
 91
        1
 92
        1
 93
        1
 72
     4
 94
        3
 73
     0
 74
     0
 95
       11
 96
        7
 40
0.0
 40
0.0
 40
0.0
 40
0.0
 40
1.0
 40
1.0
 40
1.0
 40
2.0
 40
2.0
 40
2.0
 40
2.0
 10
42.81270372503564
 20
24.71614486215807
 10
42.81270372503564
 20
24.69368283958863
 10
42.79416911132037
 20
24.70086586367717
 10
42.79416911132037
 20
24.71865978186293
 10
42.79416911132037
 20
24.73269854596883
 10
42.81270372503564
 20
24.73057981224488
 10
42.81270372503564
 20
24.71614486215807
 97
        0
 75
     2
 76
     1
 98
        1
 10
29.78810682833425
 20
10.02563759219279
  0
HATCH
  5
3089
330
768
100
AcDbEntity
  8
0
100
AcDbHatch
 10
0.0
 20
0.0
 30
0.0
210
0.0
220
0.0
230
1.0
  2
SOLID
 70
     1
 71
     0
 91
        1
 92
        1
 93
        1
 72
     4
 94
        3
 73
     0
 74
     0
 95
       11
 96
        7
 40
0.0
 40
0.0
 40
0.0
 40
0.0
 40
1.0
 40
1.0
 40
1.0
 40
2.0
 40
2.0
 40
2.0
 40
2.0
 10
42.81270372503564
 20
24.79036944440633
 10
42.81270372503564
 20
24.76794187279175
 10
42.79416911132037
 20
24.77509044592543
 10
42.79416911132037
 20
24.79290158958863
 10
42.79416911132037
 20
24.80695757917196
 10
42.81270372503564
 20
24.804838845448
 10
42.81270372503564
 20
24.79036944440633
 97
        0
 75
     2
 76
     1
 98
        1
 10
29.78810682833425
 20
10.02563759219279
  0
HATCH
  5
308A
330
768
100
AcDbEntity
  8
0
100
AcDbHatch
 10
0.0
 20
0.0
 30
0.0
210
0.0
220
0.0
230
1.0
  2
SOLID
 70
     1
 71
     0
 91
        1
 92
        1
 93
        1
 72
     4
 94
        3
 73
     0
 74
     0
 95
       11
 96
        7
 40
0.0
 40
0.0
 40
0.0
 40
0.0
 40
1.0
 40
1.0
 40
1.0
 40
2.0
 40
2.0
 40
2.0
 40
2.0
 10
42.90971761392453
 20
24.71952105573446
 10
42.90971761392453
 20
24.69705903316502
 10
42.89125190211897
 20
24.70425928273099
 10
42.89125190211897
 20
24.72205320091675
 10
42.89125190211897
 20
24.73610919050008
 10
42.90971761392453
 20
24.73395600582126
 10
42.90971761392453
 20
24.71952105573446
 97
        0
 75
     2
 76
     1
 98
        1
 10
29.78810682833425
 20
10.02563759219279
  0
HATCH
  5
308B
330
768
100
AcDbEntity
  8
0
100
AcDbHatch
 10
0.0
 20
0.0
 30
0.0
210
0.0
220
0.0
230
1.0
  2
SOLID
 70
     1
 71
     0
 91
        1
 92
        1
 93
        1
 72
     4
 94
        3
 73
     0
 74
     0
 95
       11
 96
        7
 40
0.0
 40
0.0
 40
0.0
 40
0.0
 40
1.0
 40
1.0
 40
1.0
 40
2.0
 40
2.0
 40
2.0
 40
2.0
 10
42.90971761392453
 20
24.68238292639418
 10
42.90971761392453
 20
24.65993812930217
 10
42.89125190211897
 20
24.66712115339071
 10
42.89125190211897
 20
24.68493229705391
 10
42.89125190211897
 20
24.69895383568238
 10
42.90971761392453
 20
24.69685232743585
 10
42.90971761392453
 20
24.68238292639418
 97
        0
 75
     2
 76
     1
 98
        1
 10
29.78810682833425
 20
10.02563759219279
  0
HATCH
  5
308D
330
768
100
AcDbEntity
  8
0
100
AcDbHatch
 10
0.0
 20
0.0
 30
0.0
210
0.0
220
0.0
230
1.0
  2
SOLID
 70
     1
 71
     0
 91
        1
 92
        1
 93
        1
 72
     4
 94
        3
 73
     0
 74
     0
 95
       11
 96
        7
 40
0.0
 40
0.0
 40
0.0
 40
0.0
 40
1.0
 40
1.0
 40
1.0
 40
2.0
 40
2.0
 40
2.0
 40
2.0
 10
43.08638211045231
 20
24.54402789167196
 10
43.08638211045231
 20
24.52160032005738
 10
43.06784749673703
 20
24.52876611866849
 10
43.06784749673703
 20
24.54661171328655
 10
43.06784749673703
 20
24.56059880096015
 10
43.08638211045231
 20
24.55849729271363
 10
43.08638211045231
 20
24.54402789167196
 97
        0
 75
     2
 76
     1
 98
        1
 10
29.78810682833425
 20
10.02563759219279
  0
HATCH
  5
308E
330
768
100
AcDbEntity
  8
0
100
AcDbHatch
 10
0.0
 20
0.0
 30
0.0
210
0.0
220
0.0
230
1.0
  2
SOLID
 70
     1
 71
     0
 91
        1
 92
        1
 93
        1
 72
     4
 94
        3
 73
     0
 74
     0
 95
       11
 96
        7
 40
0.0
 40
0.0
 40
0.0
 40
0.0
 40
1.0
 40
1.0
 40
1.0
 40
2.0
 40
2.0
 40
2.0
 40
2.0
 10
43.07749376409814
 20
24.3145500813421
 10
43.07749376409814
 20
24.29212250972751
 10
43.05895915038286
 20
24.29928830833863
 10
43.05895915038286
 20
24.31711667747925
 10
43.05895915038286
 20
24.33112099063029
 10
43.07749376409814
 20
24.32901948238376
 10
43.07749376409814
 20
24.3145500813421
 97
        0
 75
     2
 76
     1
 98
        1
 10
29.78810682833425
 20
10.02563759219279
  0
HATCH
  5
308F
330
768
100
AcDbEntity
  8
0
100
AcDbHatch
 10
0.0
 20
0.0
 30
0.0
210
0.0
220
0.0
230
1.0
  2
SOLID
 70
     1
 71
     0
 91
        1
 92
        1
 93
        1
 72
     4
 94
        3
 73
     0
 74
     0
 95
       11
 96
        7
 40
0.0
 40
0.0
 40
0.0
 40
0.0
 40
1.0
 40
1.0
 40
1.0
 40
2.0
 40
2.0
 40
2.0
 40
2.0
 10
42.99508708007036
 20
24.27742917747925
 10
42.99508708007036
 20
24.25498438038724
 10
42.97662136826481
 20
24.26213295352092
 10
42.97662136826481
 20
24.27996132266154
 10
42.97662136826481
 20
24.29401731224488
 10
42.99508708007036
 20
24.29189857852092
 10
42.99508708007036
 20
24.27742917747925
 97
        0
 75
     2
 76
     1
 98
        1
 10
29.78810682833425
 20
10.02563759219279
  0
HATCH
  5
3099
330
768
100
AcDbEntity
  8
0
100
AcDbHatch
 10
0.0
 20
0.0
 30
0.0
210
0.0
220
0.0
230
1.0
  2
SOLID
 70
     1
 71
     0
 91
        1
 92
        1
 93
        1
 72
     4
 94
        3
 73
     0
 74
     0
 95
       11
 96
        7
 40
0.0
 40
0.0
 40
0.0
 40
0.0
 40
1.0
 40
1.0
 40
1.0
 40
2.0
 40
2.0
 40
2.0
 40
2.0
 10
46.54856527017453
 20
20.03756738819974
 10
46.55828043944536
 20
20.01737912865113
 10
46.53609402451481
 20
20.01469195417196
 10
46.52837701062592
 20
20.03074609913724
 10
46.52231364257036
 20
20.04335514861641
 10
46.54226074543495
 20
20.05065875104696
 10
46.54856527017453
 20
20.03756738819974
 97
        0
 75
     2
 76
     1
 98
        1
 10
29.78810682833425
 20
10.02563759219279
  0
HATCH
  5
309A
330
768
100
AcDbEntity
  8
0
100
AcDbHatch
 10
0.0
 20
0.0
 30
0.0
210
0.0
220
0.0
230
1.0
  2
SOLID
 70
     1
 71
     0
 91
        1
 92
        1
 93
        1
 72
     4
 94
        3
 73
     0
 74
     0
 95
       11
 96
        7
 40
0.0
 40
0.0
 40
0.0
 40
0.0
 40
1.0
 40
1.0
 40
1.0
 40
2.0
 40
2.0
 40
2.0
 40
2.0
 10
46.54491346895925
 20
19.99843110347752
 10
46.55462863823009
 20
19.9782428439289
 10
46.53244222329953
 20
19.97548676754002
 10
46.52472520941064
 20
19.99154091250529
 10
46.51866184135508
 20
20.00414996198446
 10
46.53864339517453
 20
20.01152246632474
 10
46.54491346895925
 20
19.99843110347752
 97
        0
 75
     2
 76
     1
 98
        1
 10
29.78810682833425
 20
10.02563759219279
  0
HATCH
  5
30A4
330
768
100
AcDbEntity
  8
0
100
AcDbHatch
 10
0.0
 20
0.0
 30
0.0
210
0.0
220
0.0
230
1.0
  2
SOLID
 70
     1
 71
     0
 91
        1
 92
        1
 93
        1
 72
     4
 94
        3
 73
     0
 74
     0
 95
       11
 96
        7
 40
0.0
 40
0.0
 40
0.0
 40
0.0
 40
1.0
 40
1.0
 40
1.0
 40
2.0
 40
2.0
 40
2.0
 40
2.0
 10
46.92487305012244
 20
19.34324284392891
 10
46.93458821939328
 20
19.32298568247057
 10
46.91247070637245
 20
19.32036740990113
 10
46.90475369248355
 20
19.33635265295668
 10
46.898690324428
 20
19.34896170243585
 10
46.91860297633772
 20
19.35626530486641
 10
46.92487305012244
 20
19.34324284392891
 97
        0
 75
     2
 76
     1
 98
        1
 10
29.78810682833425
 20
10.02563759219279
  0
HATCH
  5
30A6
330
768
100
AcDbEntity
  8
0
100
AcDbHatch
 10
0.0
 20
0.0
 30
0.0
210
0.0
220
0.0
230
1.0
  2
SOLID
 70
     1
 71
     0
 91
        1
 92
        1
 93
        1
 72
     4
 94
        3
 73
     0
 74
     0
 95
       11
 96
        7
 40
0.0
 40
0.0
 40
0.0
 40
0.0
 40
1.0
 40
1.0
 40
1.0
 40
2.0
 40
2.0
 40
2.0
 40
2.0
 10
46.72185357312592
 20
19.7810455783039
 10
46.73156874239675
 20
19.76078841684557
 10
46.7093823274662
 20
19.75817014427613
 10
46.70166531357731
 20
19.7742242892414
 10
46.69560194552175
 20
19.78683333872057
 10
46.71554904838634
 20
19.79413694115113
 10
46.72185357312592
 20
19.7810455783039
 97
        0
 75
     2
 76
     1
 98
        1
 10
29.78810682833425
 20
10.02563759219279
  0
HATCH
  5
30A7
330
768
100
AcDbEntity
  8
0
100
AcDbHatch
 10
0.0
 20
0.0
 30
0.0
210
0.0
220
0.0
230
1.0
  2
SOLID
 70
     1
 71
     0
 91
        1
 92
        1
 93
        1
 72
     4
 94
        3
 73
     0
 74
     0
 95
       11
 96
        7
 40
0.0
 40
0.0
 40
0.0
 40
0.0
 40
1.0
 40
1.0
 40
1.0
 40
2.0
 40
2.0
 40
2.0
 40
2.0
 10
46.50753418293495
 20
18.70810504010946
 10
46.51724935220578
 20
18.68798568247057
 10
46.49502848632037
 20
18.68516070417196
 10
46.48731147243147
 20
18.70128375104696
 10
46.48124810437592
 20
18.71389280052613
 10
46.50126410915023
 20
18.72119640295668
 10
46.50753418293495
 20
18.70810504010946
 97
        0
 75
     2
 76
     1
 98
        1
 10
29.78810682833425
 20
10.02563759219279
  0
HATCH
  5
30A9
330
768
100
AcDbEntity
  8
0
100
AcDbHatch
 10
0.0
 20
0.0
 30
0.0
210
0.0
220
0.0
230
1.0
  2
SOLID
 70
     1
 71
     0
 91
        1
 92
        1
 93
        1
 72
     4
 94
        3
 73
     0
 74
     0
 95
       11
 96
        7
 40
0.0
 40
0.0
 40
0.0
 40
0.0
 40
1.0
 40
1.0
 40
1.0
 40
2.0
 40
2.0
 40
2.0
 40
2.0
 10
46.26010742512244
 20
18.81007986649835
 10
46.26978814343842
 20
18.78989160694974
 10
46.247567277553
 20
18.78713553056085
 10
46.23985026366411
 20
18.80318967552613
 10
46.2337524446537
 20
18.81579872500529
 10
46.25380290038287
 20
18.82310232743585
 10
46.26010742512244
 20
18.81007986649835
 97
        0
 75
     2
 76
     1
 98
        1
 10
29.78810682833425
 20
10.02563759219279
  0
HATCH
  5
30AA
330
768
100
AcDbEntity
  8
0
100
AcDbHatch
 10
0.0
 20
0.0
 30
0.0
210
0.0
220
0.0
230
1.0
  2
SOLID
 70
     1
 71
     0
 91
        1
 92
        1
 93
        1
 72
     4
 94
        3
 73
     0
 74
     0
 95
       11
 96
        7
 40
0.0
 40
0.0
 40
0.0
 40
0.0
 40
1.0
 40
1.0
 40
1.0
 40
2.0
 40
2.0
 40
2.0
 40
2.0
 10
46.28918403102522
 20
18.6406500704914
 10
46.29893365125092
 20
18.62039290903307
 10
46.27667833441064
 20
18.61770573455391
 10
46.26899577147661
 20
18.63369097760946
 10
46.26293240342106
 20
18.64630002708863
 10
46.28294840819537
 20
18.65360362951918
 10
46.28918403102522
 20
18.6406500704914
 97
        0
 75
     2
 76
     1
 98
        1
 10
29.78810682833425
 20
10.02563759219279
  0
HATCH
  5
30AE
330
768
100
AcDbEntity
  8
0
100
AcDbHatch
 10
0.0
 20
0.0
 30
0.0
210
0.0
220
0.0
230
1.0
  2
SOLID
 70
     1
 71
     0
 91
        1
 92
        1
 93
        1
 72
     4
 94
        3
 73
     0
 74
     0
 95
       11
 96
        7
 40
0.0
 40
0.0
 40
0.0
 40
0.0
 40
1.0
 40
1.0
 40
1.0
 40
2.0
 40
2.0
 40
2.0
 40
2.0
 10
46.0235327180912
 20
19.7853863986164
 10
46.03328233831689
 20
19.76519813906779
 10
46.01102702147662
 20
19.76237316076918
 10
46.00331000758772
 20
19.77842730573446
 10
45.99721218857731
 20
19.79110525712335
 10
46.01729709526133
 20
19.79840885955391
 10
46.0235327180912
 20
19.7853863986164
 97
        0
 75
     2
 76
     1
 98
        1
 10
29.78810682833425
 20
10.02563759219279
  0
HATCH
  5
30B0
330
768
100
AcDbEntity
  8
0
100
AcDbHatch
 10
0.0
 20
0.0
 30
0.0
210
0.0
220
0.0
230
1.0
  2
SOLID
 70
     1
 71
     0
 91
        1
 92
        1
 93
        1
 72
     4
 94
        3
 73
     0
 74
     0
 95
       11
 96
        7
 40
0.0
 40
0.0
 40
0.0
 40
0.0
 40
1.0
 40
1.0
 40
1.0
 40
2.0
 40
2.0
 40
2.0
 40
2.0
 10
46.29404161566064
 20
18.95746105139418
 10
46.30379123588634
 20
18.93727279184557
 10
46.28153591904606
 20
18.93444781354696
 10
46.27381890515717
 20
18.95050195851224
 10
46.26772108614675
 20
18.96317990990113
 10
46.28780599283078
 20
18.97048351233168
 10
46.29404161566064
 20
18.95746105139418
 97
        0
 75
     2
 76
     1
 98
        1
 10
29.78810682833425
 20
10.02563759219279
  0
HATCH
  5
30B2
330
768
100
AcDbEntity
  8
0
100
AcDbHatch
 10
0.0
 20
0.0
 30
0.0
210
0.0
220
0.0
230
1.0
  2
SOLID
 70
     1
 71
     0
 91
        1
 92
        1
 93
        1
 72
     4
 94
        3
 73
     0
 74
     0
 95
       11
 96
        7
 40
0.0
 40
0.0
 40
0.0
 40
0.0
 40
1.0
 40
1.0
 40
1.0
 40
2.0
 40
2.0
 40
2.0
 40
2.0
 10
45.8409426573273
 20
19.52597070851224
 10
45.85065782659814
 20
19.5057135470539
 10
45.82850586262245
 20
19.50295747066502
 10
45.82078884873356
 20
19.51901161563029
 10
45.814725480678
 20
19.53168956701918
 10
45.83467258354258
 20
19.53899316944974
 10
45.8409426573273
 20
19.52597070851224
 97
        0
 75
     2
 76
     1
 98
        1
 10
29.78810682833425
 20
10.02563759219279
  0
HATCH
  5
30B3
330
768
100
AcDbEntity
  8
0
100
AcDbHatch
 10
0.0
 20
0.0
 30
0.0
210
0.0
220
0.0
230
1.0
  2
SOLID
 70
     1
 71
     0
 91
        1
 92
        1
 93
        1
 72
     4
 94
        3
 73
     0
 74
     0
 95
       11
 96
        7
 40
0.0
 40
0.0
 40
0.0
 40
0.0
 40
1.0
 40
1.0
 40
1.0
 40
2.0
 40
2.0
 40
2.0
 40
2.0
 10
45.83246772243147
 20
19.56682954097752
 10
45.84218289170231
 20
19.5466412814289
 10
45.82006537868148
 20
19.54388520504002
 10
45.81234836479258
 20
19.56000825191502
 10
45.80628499673703
 20
19.57261730139418
 10
45.82619764864676
 20
19.57985200191502
 10
45.83246772243147
 20
19.56682954097752
 97
        0
 75
     2
 76
     1
 98
        1
 10
29.78810682833425
 20
10.02563759219279
  0
HATCH
  5
30B4
330
768
100
AcDbEntity
  8
0
100
AcDbHatch
 10
0.0
 20
0.0
 30
0.0
210
0.0
220
0.0
230
1.0
  2
SOLID
 70
     1
 71
     0
 91
        1
 92
        1
 93
        1
 72
     4
 94
        3
 73
     0
 74
     0
 95
       11
 96
        7
 40
0.0
 40
0.0
 40
0.0
 40
0.0
 40
1.0
 40
1.0
 40
1.0
 40
2.0
 40
2.0
 40
2.0
 40
2.0
 10
45.72570421331689
 20
19.58660438906779
 10
45.73541938258772
 20
19.56634722760946
 10
45.71316406574745
 20
19.56359115122057
 10
45.70544705185856
 20
19.57964529618585
 10
45.69934923284814
 20
19.59232324757474
 10
45.71943413953217
 20
19.59962685000529
 10
45.72570421331689
 20
19.58660438906779
 97
        0
 75
     2
 76
     1
 98
        1
 10
29.78810682833425
 20
10.02563759219279
  0
HATCH
  5
30B5
330
768
100
AcDbEntity
  8
0
100
AcDbHatch
 10
0.0
 20
0.0
 30
0.0
210
0.0
220
0.0
230
1.0
  2
SOLID
 70
     1
 71
     0
 91
        1
 92
        1
 93
        1
 72
     4
 94
        3
 73
     0
 74
     0
 95
       11
 96
        7
 40
0.0
 40
0.0
 40
0.0
 40
0.0
 40
1.0
 40
1.0
 40
1.0
 40
2.0
 40
2.0
 40
2.0
 40
2.0
 10
45.54903971678911
 20
18.95573850365113
 10
45.55875488605994
 20
18.93555024410252
 10
45.53656847112939
 20
18.93286306962335
 10
45.5288514572405
 20
18.94891721458863
 10
45.52278808918494
 20
18.96152626406779
 10
45.54273519204953
 20
18.96882986649835
 10
45.54903971678911
 20
18.95573850365113
 97
        0
 75
     2
 76
     1
 98
        1
 10
29.78810682833425
 20
10.02563759219279
  0
HATCH
  5
30B6
330
768
100
AcDbEntity
  8
0
100
AcDbHatch
 10
0.0
 20
0.0
 30
0.0
210
0.0
220
0.0
230
1.0
  2
SOLID
 70
     1
 71
     0
 91
        1
 92
        1
 93
        1
 72
     4
 94
        3
 73
     0
 74
     0
 95
       11
 96
        7
 40
0.0
 40
0.0
 40
0.0
 40
0.0
 40
1.0
 40
1.0
 40
1.0
 40
2.0
 40
2.0
 40
2.0
 40
2.0
 10
45.54538791557383
 20
18.9166022189289
 10
45.55510308484467
 20
18.89641395938029
 10
45.53291666991412
 20
18.89365788299141
 10
45.52519965602522
 20
18.90971202795668
 10
45.51913628796967
 20
18.92232107743585
 10
45.53911784178911
 20
18.92969358177613
 10
45.54538791557383
 20
18.9166022189289
 97
        0
 75
     2
 76
     1
 98
        1
 10
29.78810682833425
 20
10.02563759219279
  0
HATCH
  5
30D3
330
768
100
AcDbEntity
  8
0
100
AcDbHatch
 10
0.0
 20
0.0
 30
0.0
210
0.0
220
0.0
230
1.0
  2
SOLID
 70
     1
 71
     0
 91
        1
 92
        1
 93
        1
 72
     4
 94
        3
 73
     0
 74
     0
 95
       11
 96
        7
 40
0.0
 40
0.0
 40
0.0
 40
0.0
 40
1.0
 40
1.0
 40
1.0
 40
2.0
 40
2.0
 40
2.0
 40
2.0
 10
37.4969213899662
 20
20.35699664167196
 10
37.49454427408078
 20
20.33467242292196
 10
37.47423543619016
 20
20.34404308264418
 10
37.47611301323008
 20
20.36175087344279
 10
37.47759440428911
 20
20.37566905920668
 10
37.49843723198008
 20
20.3713971408039
 10
37.4969213899662
 20
20.35699664167196
 97
        0
 75
     2
 76
     1
 98
        1
 10
29.78810682833425
 20
10.02563759219279
  0
HATCH
  5
30D4
330
768
100
AcDbEntity
  8
0
100
AcDbHatch
 10
0.0
 20
0.0
 30
0.0
210
0.0
220
0.0
230
1.0
  2
SOLID
 70
     1
 71
     0
 91
        1
 92
        1
 93
        1
 72
     4
 94
        3
 73
     0
 74
     0
 95
       11
 96
        7
 40
0.0
 40
0.0
 40
0.0
 40
0.0
 40
1.0
 40
1.0
 40
1.0
 40
2.0
 40
2.0
 40
2.0
 40
2.0
 10
37.48086724500092
 20
20.20596365556085
 10
37.4784901291155
 20
20.18363943681085
 10
37.45818129122488
 20
20.19301009653307
 10
37.46005886826481
 20
20.21071788733168
 10
37.46155748480127
 20
20.22477387691502
 10
37.48240031249224
 20
20.22036415469279
 10
37.48086724500092
 20
20.20596365556085
 97
        0
 75
     2
 76
     1
 98
        1
 10
29.78810682833425
 20
10.02563759219279
  0
HATCH
  5
30D8
330
768
100
AcDbEntity
  8
0
100
AcDbHatch
 10
0.0
 20
0.0
 30
0.0
210
0.0
220
0.0
230
1.0
  2
SOLID
 70
     1
 71
     0
 91
        1
 92
        1
 93
        1
 72
     4
 94
        3
 73
     0
 74
     0
 95
       11
 96
        7
 40
0.0
 40
0.0
 40
0.0
 40
0.0
 40
1.0
 40
1.0
 40
1.0
 40
2.0
 40
2.0
 40
2.0
 40
2.0
 10
37.22196831921967
 20
21.3505621798664
 10
37.22196831921967
 20
21.32816905920668
 10
37.20074653102522
 20
21.33533485781779
 10
37.20074653102522
 20
21.35318045243585
 10
37.20074653102522
 20
21.36716754010946
 10
37.22196831921967
 20
21.3651004828178
 10
37.22196831921967
 20
21.3505621798664
 97
        0
 75
     2
 76
     1
 98
        1
 10
29.78810682833425
 20
10.02563759219279
  0
HATCH
  5
30D9
330
768
100
AcDbEntity
  8
0
100
AcDbHatch
 10
0.0
 20
0.0
 30
0.0
210
0.0
220
0.0
230
1.0
  2
SOLID
 70
     1
 71
     0
 91
        1
 92
        1
 93
        1
 72
     4
 94
        3
 73
     0
 74
     0
 95
       11
 96
        7
 40
0.0
 40
0.0
 40
0.0
 40
0.0
 40
1.0
 40
1.0
 40
1.0
 40
2.0
 40
2.0
 40
2.0
 40
2.0
 10
37.17477051105995
 20
21.18526649844279
 10
37.17477051105995
 20
21.16280447587335
 10
37.15358317382037
 20
21.17003917639418
 10
37.15358317382037
 20
21.18781586910252
 10
37.15358317382037
 20
21.20180295677613
 10
37.17477051105995
 20
21.1997014485296
 10
37.17477051105995
 20
21.18526649844279
 97
        0
 75
     2
 76
     1
 98
        1
 10
29.78810682833425
 20
10.02563759219279
  0
HATCH
  5
30DA
330
768
100
AcDbEntity
  8
0
100
AcDbHatch
 10
0.0
 20
0.0
 30
0.0
210
0.0
220
0.0
230
1.0
  2
SOLID
 70
     1
 71
     0
 91
        1
 92
        1
 93
        1
 72
     4
 94
        3
 73
     0
 74
     0
 95
       11
 96
        7
 40
0.0
 40
0.0
 40
0.0
 40
0.0
 40
1.0
 40
1.0
 40
1.0
 40
2.0
 40
2.0
 40
2.0
 40
2.0
 10
37.23209689994884
 20
21.34725488819974
 10
37.23209689994884
 20
21.32475841467543
 10
37.21094401366411
 20
21.33195866424141
 10
37.21094401366411
 20
21.34973535694974
 10
37.21094401366411
 20
21.36379134653307
 10
37.23209689994884
 20
21.36172428924141
 10
37.23209689994884
 20
21.34725488819974
 97
        0
 75
     2
 76
     1
 98
        1
 10
29.78810682833425
 20
10.02563759219279
  0
HATCH
  5
30DB
330
768
100
AcDbEntity
  8
0
100
AcDbHatch
 10
0.0
 20
0.0
 30
0.0
210
0.0
220
0.0
230
1.0
  2
SOLID
 70
     1
 71
     0
 91
        1
 92
        1
 93
        1
 72
     4
 94
        3
 73
     0
 74
     0
 95
       11
 96
        7
 40
0.0
 40
0.0
 40
0.0
 40
0.0
 40
1.0
 40
1.0
 40
1.0
 40
2.0
 40
2.0
 40
2.0
 40
2.0
 10
37.31646728840369
 20
21.46872895504001
 10
37.31646728840369
 20
21.44626693247057
 10
37.29521104925439
 20
21.45343273108168
 10
37.29521104925439
 20
21.47120942379002
 10
37.29521104925439
 20
21.48526541337335
 10
37.31646728840369
 20
21.48312945417196
 10
37.31646728840369
 20
21.46872895504001
 97
        0
 75
     2
 76
     1
 98
        1
 10
29.78810682833425
 20
10.02563759219279
  0
HATCH
  5
30DC
330
768
100
AcDbEntity
  8
0
100
AcDbHatch
 10
0.0
 20
0.0
 30
0.0
210
0.0
220
0.0
230
1.0
  2
SOLID
 70
     1
 71
     0
 91
        1
 92
        1
 93
        1
 72
     4
 94
        3
 73
     0
 74
     0
 95
       11
 96
        7
 40
0.0
 40
0.0
 40
0.0
 40
0.0
 40
1.0
 40
1.0
 40
1.0
 40
2.0
 40
2.0
 40
2.0
 40
2.0
 10
37.40431722329953
 20
21.49236231007474
 10
37.40431722329953
 20
21.46990028750529
 10
37.38306098415023
 20
21.47706608611641
 10
37.38306098415023
 20
21.4948772297796
 10
37.38306098415023
 20
21.50889876840807
 10
37.40431722329953
 20
21.50676280920668
 10
37.40431722329953
 20
21.49236231007474
 97
        0
 75
     2
 76
     1
 98
        1
 10
29.78810682833425
 20
10.02563759219279
  0
HATCH
  5
30E1
330
768
100
AcDbEntity
  8
0
100
AcDbHatch
 10
0.0
 20
0.0
 30
0.0
210
0.0
220
0.0
230
1.0
  2
SOLID
 70
     1
 71
     0
 91
        1
 92
        1
 93
        1
 72
     4
 94
        3
 73
     0
 74
     0
 95
       11
 96
        7
 40
0.0
 40
0.0
 40
0.0
 40
0.0
 40
1.0
 40
1.0
 40
1.0
 40
2.0
 40
2.0
 40
2.0
 40
2.0
 10
36.97502387477523
 20
22.25014551319974
 10
36.97502387477523
 20
22.22775239254002
 10
36.95380208658078
 20
22.23491819115113
 10
36.95380208658078
 20
22.25276378576918
 10
36.95380208658078
 20
22.26675087344279
 10
36.97502387477523
 20
22.26468381615113
 10
36.97502387477523
 20
22.25014551319974
 97
        0
 75
     2
 76
     1
 98
        1
 10
29.78810682833425
 20
10.02563759219279
  0
HATCH
  5
30E2
330
768
100
AcDbEntity
  8
0
100
AcDbHatch
 10
0.0
 20
0.0
 30
0.0
210
0.0
220
0.0
230
1.0
  2
SOLID
 70
     1
 71
     0
 91
        1
 92
        1
 93
        1
 72
     4
 94
        3
 73
     0
 74
     0
 95
       11
 96
        7
 40
0.0
 40
0.0
 40
0.0
 40
0.0
 40
1.0
 40
1.0
 40
1.0
 40
2.0
 40
2.0
 40
2.0
 40
2.0
 10
36.9278260666155
 20
22.08484983177613
 10
36.9278260666155
 20
22.06238780920668
 10
36.90663872937592
 20
22.06962250972752
 10
36.90663872937592
 20
22.08739920243585
 10
36.90663872937592
 20
22.10138629010946
 10
36.9278260666155
 20
22.09928478186293
 10
36.9278260666155
 20
22.08484983177613
 97
        0
 75
     2
 76
     1
 98
        1
 10
29.78810682833425
 20
10.02563759219279
  0
HATCH
  5
30E3
330
768
100
AcDbEntity
  8
0
100
AcDbHatch
 10
0.0
 20
0.0
 30
0.0
210
0.0
220
0.0
230
1.0
  2
SOLID
 70
     1
 71
     0
 91
        1
 92
        1
 93
        1
 72
     4
 94
        3
 73
     0
 74
     0
 95
       11
 96
        7
 40
0.0
 40
0.0
 40
0.0
 40
0.0
 40
1.0
 40
1.0
 40
1.0
 40
2.0
 40
2.0
 40
2.0
 40
2.0
 10
36.98515245550439
 20
22.24683822153307
 10
36.98515245550439
 20
22.22434174800877
 10
36.96399956921967
 20
22.23154199757474
 10
36.96399956921967
 20
22.24931869028307
 10
36.96399956921967
 20
22.2633746798664
 10
36.98515245550439
 20
22.26130762257474
 10
36.98515245550439
 20
22.24683822153307
 97
        0
 75
     2
 76
     1
 98
        1
 10
29.78810682833425
 20
10.02563759219279
  0
HATCH
  5
30E4
330
768
100
AcDbEntity
  8
0
100
AcDbHatch
 10
0.0
 20
0.0
 30
0.0
210
0.0
220
0.0
230
1.0
  2
SOLID
 70
     1
 71
     0
 91
        1
 92
        1
 93
        1
 72
     4
 94
        3
 73
     0
 74
     0
 95
       11
 96
        7
 40
0.0
 40
0.0
 40
0.0
 40
0.0
 40
1.0
 40
1.0
 40
1.0
 40
2.0
 40
2.0
 40
2.0
 40
2.0
 10
37.06952284395926
 20
22.36831228837335
 10
37.06952284395926
 20
22.3458502658039
 10
37.04826660480995
 20
22.35301606441502
 10
37.04826660480995
 20
22.37079275712335
 10
37.04826660480995
 20
22.38484874670668
 10
37.06952284395926
 20
22.38271278750529
 10
37.06952284395926
 20
22.36831228837335
 97
        0
 75
     2
 76
     1
 98
        1
 10
29.78810682833425
 20
10.02563759219279
  0
HATCH
  5
30E5
330
768
100
AcDbEntity
  8
0
100
AcDbHatch
 10
0.0
 20
0.0
 30
0.0
210
0.0
220
0.0
230
1.0
  2
SOLID
 70
     1
 71
     0
 91
        1
 92
        1
 93
        1
 72
     4
 94
        3
 73
     0
 74
     0
 95
       11
 96
        7
 40
0.0
 40
0.0
 40
0.0
 40
0.0
 40
1.0
 40
1.0
 40
1.0
 40
2.0
 40
2.0
 40
2.0
 40
2.0
 10
37.15737277885508
 20
22.39194564340807
 10
37.15737277885508
 20
22.36948362083863
 10
37.13611653970578
 20
22.37664941944974
 10
37.13611653970578
 20
22.39446056311293
 10
37.13611653970578
 20
22.40848210174141
 10
37.15737277885508
 20
22.40634614254002
 10
37.15737277885508
 20
22.39194564340807
 97
        0
 75
     2
 76
     1
 98
        1
 10
29.78810682833425
 20
10.02563759219279
  0
HATCH
  5
30EA
330
768
100
AcDbEntity
  8
0
100
AcDbHatch
 10
0.0
 20
0.0
 30
0.0
210
0.0
220
0.0
230
1.0
  2
SOLID
 70
     1
 71
     0
 91
        1
 92
        1
 93
        1
 72
     4
 94
        3
 73
     0
 74
     0
 95
       11
 96
        7
 40
0.0
 40
0.0
 40
0.0
 40
0.0
 40
1.0
 40
1.0
 40
1.0
 40
2.0
 40
2.0
 40
2.0
 40
2.0
 10
37.83932943033078
 20
22.26778440208863
 10
37.83932943033078
 20
22.24539128142891
 10
37.81810764213633
 20
22.25255708004001
 10
37.81810764213633
 20
22.27040267465807
 10
37.81810764213633
 20
22.28438976233168
 10
37.83932943033078
 20
22.28232270504002
 10
37.83932943033078
 20
22.26778440208863
 97
        0
 75
     2
 76
     1
 98
        1
 10
29.78810682833425
 20
10.02563759219279
  0
HATCH
  5
30F8
330
768
100
AcDbEntity
  8
0
100
AcDbHatch
 10
0.0
 20
0.0
 30
0.0
210
0.0
220
0.0
230
1.0
  2
SOLID
 70
     1
 71
     0
 91
        1
 92
        1
 93
        1
 72
     4
 94
        3
 73
     0
 74
     0
 95
       11
 96
        7
 40
0.0
 40
0.0
 40
0.0
 40
0.0
 40
1.0
 40
1.0
 40
1.0
 40
2.0
 40
2.0
 40
2.0
 40
2.0
 10
39.18705078449744
 20
18.61805024410252
 10
39.18705078449744
 20
18.59558822153307
 10
39.165828996303
 20
18.60275402014418
 10
39.165828996303
 20
18.62053071285251
 10
39.165828996303
 20
18.63458670243585
 10
39.18705078449744
 20
18.63251964514418
 10
39.18705078449744
 20
18.61805024410252
 97
        0
 75
     2
 76
     1
 98
        1
 10
29.78810682833425
 20
10.02563759219279
  0
HATCH
  5
30FC
330
768
100
AcDbEntity
  8
0
100
AcDbHatch
 10
0.0
 20
0.0
 30
0.0
210
0.0
220
0.0
230
1.0
  2
SOLID
 70
     1
 71
     0
 91
        1
 92
        1
 93
        1
 72
     4
 94
        3
 73
     0
 74
     0
 95
       11
 96
        7
 40
0.0
 40
0.0
 40
0.0
 40
0.0
 40
1.0
 40
1.0
 40
1.0
 40
2.0
 40
2.0
 40
2.0
 40
2.0
 10
38.2063354524662
 20
18.86354774844279
 10
38.20395833658078
 20
18.84122352969279
 10
38.18366672416759
 20
18.85059418941502
 10
38.18552707573009
 20
18.86830198021363
 10
38.18700846678912
 20
18.88222016597752
 10
38.20785129448009
 20
18.87794824757474
 10
38.2063354524662
 20
18.86354774844279
 97
        0
 75
     2
 76
     1
 98
        1
 10
29.78810682833425
 20
10.02563759219279
  0
HATCH
  5
30FD
330
768
100
AcDbEntity
  8
0
100
AcDbHatch
 10
0.0
 20
0.0
 30
0.0
210
0.0
220
0.0
230
1.0
  2
SOLID
 70
     1
 71
     0
 91
        1
 92
        1
 93
        1
 72
     4
 94
        3
 73
     0
 74
     0
 95
       11
 96
        7
 40
0.0
 40
0.0
 40
0.0
 40
0.0
 40
1.0
 40
1.0
 40
1.0
 40
2.0
 40
2.0
 40
2.0
 40
2.0
 10
38.19028130750092
 20
18.71251476233168
 10
38.1879041916155
 20
18.69019054358168
 10
38.16761257920231
 20
18.6995612033039
 10
38.16947293076481
 20
18.71726899410252
 10
38.1709887727787
 20
18.73132498368585
 10
38.19179714951481
 20
18.72691526146363
 10
38.19028130750092
 20
18.71251476233168
 97
        0
 75
     2
 76
     1
 98
        1
 10
29.78810682833425
 20
10.02563759219279
  0
HATCH
  5
30FE
330
768
100
AcDbEntity
  8
0
100
AcDbHatch
 10
0.0
 20
0.0
 30
0.0
210
0.0
220
0.0
230
1.0
  2
SOLID
 70
     1
 71
     0
 91
        1
 92
        1
 93
        1
 72
     4
 94
        3
 73
     0
 74
     0
 95
       11
 96
        7
 40
0.0
 40
0.0
 40
0.0
 40
0.0
 40
1.0
 40
1.0
 40
1.0
 40
2.0
 40
2.0
 40
2.0
 40
2.0
 10
37.79213162217106
 20
22.10248872066502
 10
37.79213162217106
 20
22.08002669809557
 10
37.77094428493147
 20
22.08726139861641
 10
37.77094428493147
 20
22.10503809132474
 10
37.77094428493147
 20
22.11902517899835
 10
37.79213162217106
 20
22.11692367075182
 10
37.79213162217106
 20
22.10248872066502
 97
        0
 75
     2
 76
     1
 98
        1
 10
29.78810682833425
 20
10.02563759219279
  0
HATCH
  5
30FF
330
768
100
AcDbEntity
  8
0
100
AcDbHatch
 10
0.0
 20
0.0
 30
0.0
210
0.0
220
0.0
230
1.0
  2
SOLID
 70
     1
 71
     0
 91
        1
 92
        1
 93
        1
 72
     4
 94
        3
 73
     0
 74
     0
 95
       11
 96
        7
 40
0.0
 40
0.0
 40
0.0
 40
0.0
 40
1.0
 40
1.0
 40
1.0
 40
2.0
 40
2.0
 40
2.0
 40
2.0
 10
37.84945801105994
 20
22.26447711042196
 10
37.84945801105994
 20
22.24198063689765
 10
37.82830512477523
 20
22.24918088646363
 10
37.82830512477523
 20
22.26695757917196
 10
37.82830512477523
 20
22.28101356875529
 10
37.84945801105994
 20
22.27894651146363
 10
37.84945801105994
 20
22.26447711042196
 97
        0
 75
     2
 76
     1
 98
        1
 10
29.78810682833425
 20
10.02563759219279
  0
HATCH
  5
3100
330
768
100
AcDbEntity
  8
0
100
AcDbHatch
 10
0.0
 20
0.0
 30
0.0
210
0.0
220
0.0
230
1.0
  2
SOLID
 70
     1
 71
     0
 91
        1
 92
        1
 93
        1
 72
     4
 94
        3
 73
     0
 74
     0
 95
       11
 96
        7
 40
0.0
 40
0.0
 40
0.0
 40
0.0
 40
1.0
 40
1.0
 40
1.0
 40
2.0
 40
2.0
 40
2.0
 40
2.0
 10
37.93382839951481
 20
22.38595117726224
 10
37.93382839951481
 20
22.36348915469279
 10
37.9125721603655
 20
22.37065495330391
 10
37.9125721603655
 20
22.38843164601224
 10
37.9125721603655
 20
22.40248763559557
 10
37.93382839951481
 20
22.40035167639418
 10
37.93382839951481
 20
22.38595117726224
 97
        0
 75
     2
 76
     1
 98
        1
 10
29.78810682833425
 20
10.02563759219279
  0
HATCH
  5
3101
330
768
100
AcDbEntity
  8
0
100
AcDbHatch
 10
0.0
 20
0.0
 30
0.0
210
0.0
220
0.0
230
1.0
  2
SOLID
 70
     1
 71
     0
 91
        1
 92
        1
 93
        1
 72
     4
 94
        3
 73
     0
 74
     0
 95
       11
 96
        7
 40
0.0
 40
0.0
 40
0.0
 40
0.0
 40
1.0
 40
1.0
 40
1.0
 40
2.0
 40
2.0
 40
2.0
 40
2.0
 10
38.02167833441064
 20
22.40958453229696
 10
38.02167833441064
 20
22.38712250972752
 10
38.00042209526134
 20
22.39428830833863
 10
38.00042209526134
 20
22.41209945200182
 10
38.00042209526134
 20
22.42612099063029
 10
38.02167833441064
 20
22.42398503142891
 10
38.02167833441064
 20
22.40958453229696
 97
        0
 75
     2
 76
     1
 98
        1
 10
29.78810682833425
 20
10.02563759219279
  0
HATCH
  5
313D
330
768
100
AcDbEntity
  8
0
100
AcDbHatch
 10
0.0
 20
0.0
 30
0.0
210
0.0
220
0.0
230
1.0
  2
SOLID
 70
     1
 71
     0
 91
        1
 92
        1
 93
        1
 72
     4
 94
        3
 73
     0
 74
     0
 95
       11
 96
        7
 40
0.0
 40
0.0
 40
0.0
 40
0.0
 40
1.0
 40
1.0
 40
1.0
 40
2.0
 40
2.0
 40
2.0
 40
2.0
 10
36.74568386826481
 20
22.65563325191501
 10
36.74568386826481
 20
22.63317122934557
 10
36.72446208007036
 20
22.64037147891154
 10
36.72446208007036
 20
22.65811372066501
 10
36.72446208007036
 20
22.67220416120321
 10
36.74568386826481
 20
22.67006820200182
 10
36.74568386826481
 20
22.65563325191501
 97
        0
 75
     2
 76
     1
 98
        1
 10
29.78810682833425
 20
10.02563759219279
  0
HATCH
  5
313F
330
768
100
AcDbEntity
  8
0
100
AcDbHatch
 10
0.0
 20
0.0
 30
0.0
210
0.0
220
0.0
230
1.0
  2
SOLID
 70
     1
 71
     0
 91
        1
 92
        1
 93
        1
 72
     4
 94
        3
 73
     0
 74
     0
 95
       11
 96
        7
 40
0.0
 40
0.0
 40
0.0
 40
0.0
 40
1.0
 40
1.0
 40
1.0
 40
2.0
 40
2.0
 40
2.0
 40
2.0
 10
36.9177319368412
 20
22.80070622283515
 10
36.9177319368412
 20
22.77827865122057
 10
36.89654459960161
 20
22.78544444983168
 10
36.89654459960161
 20
22.80322114254001
 10
36.89654459960161
 20
22.81731158307821
 10
36.9177319368412
 20
22.81517562387682
 10
36.9177319368412
 20
22.80070622283515
 97
        0
 75
     2
 76
     1
 98
        1
 10
29.78810682833425
 20
10.02563759219279
  0
HATCH
  5
3141
330
768
100
AcDbEntity
  8
0
100
AcDbHatch
 10
0.0
 20
0.0
 30
0.0
210
0.0
220
0.0
230
1.0
  2
SOLID
 70
     1
 71
     0
 91
        1
 92
        1
 93
        1
 72
     4
 94
        3
 73
     0
 74
     0
 95
       11
 96
        7
 40
0.0
 40
0.0
 40
0.0
 40
0.0
 40
1.0
 40
1.0
 40
1.0
 40
2.0
 40
2.0
 40
2.0
 40
2.0
 10
36.76242703232731
 20
23.05381738819974
 10
36.76242703232731
 20
23.03135536563029
 10
36.74130859699745
 20
23.03859006615113
 10
36.74130859699745
 20
23.05629785694974
 10
36.74130859699745
 20
23.07042274844279
 10
36.76242703232731
 20
23.06828678924141
 10
36.76242703232731
 20
23.05381738819974
 97
        0
 75
     2
 76
     1
 98
        1
 10
29.78810682833425
 20
10.02563759219279
  0
HATCH
  5
3142
330
768
100
AcDbEntity
  8
0
100
AcDbHatch
 10
0.0
 20
0.0
 30
0.0
210
0.0
220
0.0
230
1.0
  2
SOLID
 70
     1
 71
     0
 91
        1
 92
        1
 93
        1
 72
     4
 94
        3
 73
     0
 74
     0
 95
       11
 96
        7
 40
0.0
 40
0.0
 40
0.0
 40
0.0
 40
1.0
 40
1.0
 40
1.0
 40
2.0
 40
2.0
 40
2.0
 40
2.0
 10
36.79625787000092
 20
23.10446029184557
 10
36.79625787000092
 20
23.08199826927613
 10
36.77500163085161
 20
23.08916406788724
 10
36.77500163085161
 20
23.10697521155043
 10
36.77500163085161
 20
23.1209967501789
 10
36.79625787000092
 20
23.11892969288724
 10
36.79625787000092
 20
23.10446029184557
 97
        0
 75
     2
 76
     1
 98
        1
 10
29.78810682833425
 20
10.02563759219279
  0
HATCH
  5
3144
330
768
100
AcDbEntity
  8
0
100
AcDbHatch
 10
0.0
 20
0.0
 30
0.0
210
0.0
220
0.0
230
1.0
  2
SOLID
 70
     1
 71
     0
 91
        1
 92
        1
 93
        1
 72
     4
 94
        3
 73
     0
 74
     0
 95
       11
 96
        7
 40
0.0
 40
0.0
 40
0.0
 40
0.0
 40
1.0
 40
1.0
 40
1.0
 40
2.0
 40
2.0
 40
2.0
 40
2.0
 10
36.86371283961898
 20
23.18542003576918
 10
36.86371283961898
 20
23.16302691510946
 10
36.84249105142453
 20
23.17015826276571
 10
36.84249105142453
 20
23.18800385738377
 10
36.84249105142453
 20
23.20202539601224
 10
36.86371283961898
 20
23.19992388776571
 10
36.86371283961898
 20
23.18542003576918
 97
        0
 75
     2
 76
     1
 98
        1
 10
29.78810682833425
 20
10.02563759219279
  0
HATCH
  5
3145
330
768
100
AcDbEntity
  8
0
100
AcDbHatch
 10
0.0
 20
0.0
 30
0.0
210
0.0
220
0.0
230
1.0
  2
SOLID
 70
     1
 71
     0
 91
        1
 92
        1
 93
        1
 72
     4
 94
        3
 73
     0
 74
     0
 95
       11
 96
        7
 40
0.0
 40
0.0
 40
0.0
 40
0.0
 40
1.0
 40
1.0
 40
1.0
 40
2.0
 40
2.0
 40
2.0
 40
2.0
 10
36.63768012477522
 20
23.21921642248793
 10
36.63768012477522
 20
23.19671994896363
 10
36.61649278753564
 20
23.20395464948446
 10
36.61649278753564
 20
23.22173134219279
 10
36.61649278753564
 20
23.2357184298664
 10
36.63768012477522
 20
23.23365137257474
 10
36.63768012477522
 20
23.21921642248793
 97
        0
 75
     2
 76
     1
 98
        1
 10
29.78810682833425
 20
10.02563759219279
  0
HATCH
  5
3162
330
768
100
AcDbEntity
  8
0
100
AcDbHatch
 10
0.0
 20
0.0
 30
0.0
210
0.0
220
0.0
230
1.0
  2
SOLID
 70
     1
 71
     0
 91
        1
 92
        1
 93
        1
 72
     4
 94
        3
 73
     0
 74
     0
 95
       11
 96
        7
 40
0.0
 40
0.0
 40
0.0
 40
0.0
 40
1.0
 40
1.0
 40
1.0
 40
2.0
 40
2.0
 40
2.0
 40
2.0
 10
41.49901991427175
 20
20.16331337344279
 10
41.49901991427175
 20
20.14085135087335
 10
41.47779812607731
 20
20.14801714948446
 10
41.47779812607731
 20
20.16579384219279
 10
41.47779812607731
 20
20.17984983177612
 10
41.49901991427175
 20
20.17771387257474
 10
41.49901991427175
 20
20.16331337344279
 97
        0
 75
     2
 76
     1
 98
        1
 10
29.78810682833425
 20
10.02563759219279
  0
HATCH
  5
3163
330
768
100
AcDbEntity
  8
0
100
AcDbHatch
 10
0.0
 20
0.0
 30
0.0
210
0.0
220
0.0
230
1.0
  2
SOLID
 70
     1
 71
     0
 91
        1
 92
        1
 93
        1
 72
     4
 94
        3
 73
     0
 74
     0
 95
       11
 96
        7
 40
0.0
 40
0.0
 40
0.0
 40
0.0
 40
1.0
 40
1.0
 40
1.0
 40
2.0
 40
2.0
 40
2.0
 40
2.0
 10
41.64412733614675
 20
20.28141124670668
 10
41.64412733614675
 20
20.25894922413724
 10
41.62290554795231
 20
20.26611502274835
 10
41.62290554795231
 20
20.28389171545668
 10
41.62290554795231
 20
20.29801660694974
 10
41.64412733614675
 20
20.29588064774835
 10
41.64412733614675
 20
20.28141124670668
 97
        0
 75
     2
 76
     1
 98
        1
 10
29.78810682833425
 20
10.02563759219279
  0
HATCH
  5
3164
330
768
100
AcDbEntity
  8
0
100
AcDbHatch
 10
0.0
 20
0.0
 30
0.0
210
0.0
220
0.0
230
1.0
  2
SOLID
 70
     1
 71
     0
 91
        1
 92
        1
 93
        1
 72
     4
 94
        3
 73
     0
 74
     0
 95
       11
 96
        7
 40
0.0
 40
0.0
 40
0.0
 40
0.0
 40
1.0
 40
1.0
 40
1.0
 40
2.0
 40
2.0
 40
2.0
 40
2.0
 10
41.67106798284814
 20
20.30835189340807
 10
41.67106798284814
 20
20.28595877274835
 10
41.64988064560856
 20
20.29312457135946
 10
41.64988064560856
 20
20.3109012640678
 10
41.64988064560856
 20
20.32495725365113
 10
41.67106798284814
 20
20.32282129444974
 10
41.67106798284814
 20
20.30835189340807
 97
        0
 75
     2
 76
     1
 98
        1
 10
29.78810682833425
 20
10.02563759219279
  0
HATCH
  5
317B
330
768
100
AcDbEntity
  8
0
100
AcDbHatch
 10
0.0
 20
0.0
 30
0.0
210
0.0
220
0.0
230
1.0
  2
SOLID
 70
     1
 71
     0
 91
        1
 92
        1
 93
        1
 72
     4
 94
        3
 73
     0
 74
     0
 95
       11
 96
        7
 40
0.0
 40
0.0
 40
0.0
 40
0.0
 40
1.0
 40
1.0
 40
1.0
 40
2.0
 40
2.0
 40
2.0
 40
2.0
 10
41.82506375107731
 20
22.26792220590807
 10
41.82506375107731
 20
22.24546018333863
 10
41.80397976670231
 20
22.25262598194974
 10
41.80397976670231
 20
22.27040267465807
 10
41.80397976670231
 20
22.28445866424141
 10
41.82506375107731
 20
22.28232270504002
 10
41.82506375107731
 20
22.26792220590807
 97
        0
 75
     2
 76
     1
 98
        1
 10
29.78810682833425
 20
10.02563759219279
  0
HATCH
  5
317D
330
768
100
AcDbEntity
  8
0
100
AcDbHatch
 10
0.0
 20
0.0
 30
0.0
210
0.0
220
0.0
230
1.0
  2
SOLID
 70
     1
 71
     0
 91
        1
 92
        1
 93
        1
 72
     4
 94
        3
 73
     0
 74
     0
 95
       11
 96
        7
 40
0.0
 40
0.0
 40
0.0
 40
0.0
 40
1.0
 40
1.0
 40
1.0
 40
2.0
 40
2.0
 40
2.0
 40
2.0
 10
42.03424994899397
 20
22.54125608177613
 10
42.03424994899397
 20
22.51879405920668
 10
42.01302816079953
 20
22.52595985781779
 10
42.01302816079953
 20
22.54373655052613
 10
42.01302816079953
 20
22.55779254010946
 10
42.03424994899397
 20
22.55565658090807
 10
42.03424994899397
 20
22.54125608177613
 97
        0
 75
     2
 76
     1
 98
        1
 10
29.78810682833425
 20
10.02563759219279
  0
HATCH
  5
317E
330
768
100
AcDbEntity
  8
0
100
AcDbHatch
 10
0.0
 20
0.0
 30
0.0
210
0.0
220
0.0
230
1.0
  2
SOLID
 70
     1
 71
     0
 91
        1
 92
        1
 93
        1
 72
     4
 94
        3
 73
     0
 74
     0
 95
       11
 96
        7
 40
0.0
 40
0.0
 40
0.0
 40
0.0
 40
1.0
 40
1.0
 40
1.0
 40
2.0
 40
2.0
 40
2.0
 40
2.0
 10
42.10525336696272
 20
23.01702376840807
 10
42.10525336696272
 20
22.99463064774835
 10
42.08406602972314
 20
23.0017619954046
 10
42.08406602972314
 20
23.0195731390678
 10
42.08406602972314
 20
23.03362912865113
 10
42.10525336696272
 20
23.03149316944974
 10
42.10525336696272
 20
23.01702376840807
 97
        0
 75
     2
 76
     1
 98
        1
 10
29.78810682833425
 20
10.02563759219279
  0
HATCH
  5
317F
330
768
100
AcDbEntity
  8
0
100
AcDbHatch
 10
0.0
 20
0.0
 30
0.0
210
0.0
220
0.0
230
1.0
  2
SOLID
 70
     1
 71
     0
 91
        1
 92
        1
 93
        1
 72
     4
 94
        3
 73
     0
 74
     0
 95
       11
 96
        7
 40
0.0
 40
0.0
 40
0.0
 40
0.0
 40
1.0
 40
1.0
 40
1.0
 40
2.0
 40
2.0
 40
2.0
 40
2.0
 10
41.99383897894189
 20
22.64922537431085
 10
41.99383897894189
 20
22.6267633517414
 10
41.97265164170231
 20
22.63392915035252
 10
41.97265164170231
 20
22.65170584306085
 10
41.97265164170231
 20
22.66576183264418
 10
41.99383897894189
 20
22.66369477535251
 10
41.99383897894189
 20
22.64922537431085
 97
        0
 75
     2
 76
     1
 98
        1
 10
29.78810682833425
 20
10.02563759219279
  0
HATCH
  5
3180
330
768
100
AcDbEntity
  8
0
100
AcDbHatch
 10
0.0
 20
0.0
 30
0.0
210
0.0
220
0.0
230
1.0
  2
SOLID
 70
     1
 71
     0
 91
        1
 92
        1
 93
        1
 72
     4
 94
        3
 73
     0
 74
     0
 95
       11
 96
        7
 40
0.0
 40
0.0
 40
0.0
 40
0.0
 40
1.0
 40
1.0
 40
1.0
 40
2.0
 40
2.0
 40
2.0
 40
2.0
 10
41.83185058918495
 20
22.75044227969279
 10
41.83185058918495
 20
22.72798025712335
 10
41.81069770290022
 20
22.73521495764418
 10
41.81069770290022
 20
22.75299165035252
 10
41.81069770290022
 20
22.76704763993585
 10
41.83185058918495
 20
22.76498058264418
 10
41.83185058918495
 20
22.75044227969279
 97
        0
 75
     2
 76
     1
 98
        1
 10
29.78810682833425
 20
10.02563759219279
  0
HATCH
  5
3183
330
768
100
AcDbEntity
  8
0
100
AcDbHatch
 10
0.0
 20
0.0
 30
0.0
210
0.0
220
0.0
230
1.0
  2
SOLID
 70
     1
 71
     0
 91
        1
 92
        1
 93
        1
 72
     4
 94
        3
 73
     0
 74
     0
 95
       11
 96
        7
 40
0.0
 40
0.0
 40
0.0
 40
0.0
 40
1.0
 40
1.0
 40
1.0
 40
2.0
 40
2.0
 40
2.0
 40
2.0
 10
41.9735473665287
 20
23.08454763993585
 10
41.9735473665287
 20
23.06212006832127
 10
41.95232557833425
 20
23.06925141597752
 10
41.95232557833425
 20
23.08709701059557
 10
41.95232557833425
 20
23.10108409826918
 10
41.9735473665287
 20
23.09901704097752
 10
41.9735473665287
 20
23.08454763993585
 97
        0
 75
     2
 76
     1
 98
        1
 10
29.78810682833425
 20
10.02563759219279
  0
HATCH
  5
3184
330
768
100
AcDbEntity
  8
0
100
AcDbHatch
 10
0.0
 20
0.0
 30
0.0
210
0.0
220
0.0
230
1.0
  2
SOLID
 70
     1
 71
     0
 91
        1
 92
        1
 93
        1
 72
     4
 94
        3
 73
     0
 74
     0
 95
       11
 96
        7
 40
0.0
 40
0.0
 40
0.0
 40
0.0
 40
1.0
 40
1.0
 40
1.0
 40
2.0
 40
2.0
 40
2.0
 40
2.0
 10
41.98705214083425
 20
23.19255138342543
 10
41.98705214083425
 20
23.17012381181085
 10
41.96589925454953
 20
23.1772551594671
 10
41.96589925454953
 20
23.19506630313029
 10
41.96589925454953
 20
23.20912229271363
 10
41.98705214083425
 20
23.20698633351224
 10
41.98705214083425
 20
23.19255138342543
 97
        0
 75
     2
 76
     1
 98
        1
 10
29.78810682833425
 20
10.02563759219279
  0
HATCH
  5
3188
330
768
100
AcDbEntity
  8
0
100
AcDbHatch
 10
0.0
 20
0.0
 30
0.0
210
0.0
220
0.0
230
1.0
  2
SOLID
 70
     1
 71
     0
 91
        1
 92
        1
 93
        1
 72
     4
 94
        3
 73
     0
 74
     0
 95
       11
 96
        7
 40
0.0
 40
0.0
 40
0.0
 40
0.0
 40
1.0
 40
1.0
 40
1.0
 40
2.0
 40
2.0
 40
2.0
 40
2.0
 10
42.19964898328217
 20
23.84384668507474
 10
42.19964898328217
 20
23.82138466250529
 10
42.17849609699745
 20
23.82858491207126
 10
42.17849609699745
 20
23.8463616047796
 10
42.17849609699745
 20
23.86038314340807
 10
42.19964898328217
 20
23.8583160861164
 10
42.19964898328217
 20
23.84384668507474
 97
        0
 75
     2
 76
     1
 98
        1
 10
29.78810682833425
 20
10.02563759219279
  0
HATCH
  5
318B
330
768
100
AcDbEntity
  8
0
100
AcDbHatch
 10
0.0
 20
0.0
 30
0.0
210
0.0
220
0.0
230
1.0
  2
SOLID
 70
     1
 71
     0
 91
        1
 92
        1
 93
        1
 72
     4
 94
        3
 73
     0
 74
     0
 95
       11
 96
        7
 40
0.0
 40
0.0
 40
0.0
 40
0.0
 40
1.0
 40
1.0
 40
1.0
 40
2.0
 40
2.0
 40
2.0
 40
2.0
 10
42.10525336696272
 20
24.46814966359036
 10
42.10525336696272
 20
24.44568764102092
 10
42.08406602972314
 20
24.45288789058689
 10
42.08406602972314
 20
24.47066458329523
 10
42.08406602972314
 20
24.48468612192369
 10
42.10525336696272
 20
24.4826018391546
 10
42.10525336696272
 20
24.46814966359036
 97
        0
 75
     2
 76
     1
 98
        1
 10
29.78810682833425
 20
10.02563759219279
  0
HATCH
  5
318E
330
768
100
AcDbEntity
  8
0
100
AcDbHatch
 10
0.0
 20
0.0
 30
0.0
210
0.0
220
0.0
230
1.0
  2
SOLID
 70
     1
 71
     0
 91
        1
 92
        1
 93
        1
 72
     4
 94
        3
 73
     0
 74
     0
 95
       11
 96
        7
 40
0.0
 40
0.0
 40
0.0
 40
0.0
 40
1.0
 40
1.0
 40
1.0
 40
2.0
 40
2.0
 40
2.0
 40
2.0
 10
42.20640137043495
 20
24.54239147131606
 10
42.20640137043495
 20
24.51996389970147
 10
42.18521403319537
 20
24.52712969831259
 10
42.18521403319537
 20
24.54494084197578
 10
42.18521403319537
 20
24.55897960608168
 10
42.20640137043495
 20
24.55689532331259
 10
42.20640137043495
 20
24.54239147131606
 97
        0
 75
     2
 76
     1
 98
        1
 10
29.78810682833425
 20
10.02563759219279
  0
HATCH
  5
3191
330
768
100
AcDbEntity
  8
0
100
AcDbHatch
 10
0.0
 20
0.0
 30
0.0
210
0.0
220
0.0
230
1.0
  2
SOLID
 70
     1
 71
     0
 91
        1
 92
        1
 93
        1
 72
     4
 94
        3
 73
     0
 74
     0
 95
       11
 96
        7
 40
0.0
 40
0.0
 40
0.0
 40
0.0
 40
1.0
 40
1.0
 40
1.0
 40
2.0
 40
2.0
 40
2.0
 40
2.0
 10
42.334627824428
 20
24.90347192921536
 10
42.334627824428
 20
24.88104435760078
 10
42.31350938909814
 20
24.88821015621189
 10
42.31350938909814
 20
24.90602129987509
 10
42.31350938909814
 20
24.92004283850356
 10
42.334627824428
 20
24.9179241047796
 10
42.334627824428
 20
24.90347192921536
 97
        0
 75
     2
 76
     1
 98
        1
 10
29.78810682833425
 20
10.02563759219279
  0
HATCH
  5
3192
330
768
100
AcDbEntity
  8
0
100
AcDbHatch
 10
0.0
 20
0.0
 30
0.0
210
0.0
220
0.0
230
1.0
  2
SOLID
 70
     1
 71
     0
 91
        1
 92
        1
 93
        1
 72
     4
 94
        3
 73
     0
 74
     0
 95
       11
 96
        7
 40
0.0
 40
0.0
 40
0.0
 40
0.0
 40
1.0
 40
1.0
 40
1.0
 40
2.0
 40
2.0
 40
2.0
 40
2.0
 10
42.31430176105994
 20
25.13294973954522
 10
42.31430176105994
 20
25.11048771697578
 10
42.29325222763981
 20
25.11768796654175
 10
42.29325222763981
 20
25.13549911020495
 10
42.29325222763981
 20
25.14953787431085
 10
42.31430176105994
 20
25.14741914058689
 10
42.31430176105994
 20
25.13294973954522
 97
        0
 75
     2
 76
     1
 98
        1
 10
29.78810682833425
 20
10.02563759219279
  0
HATCH
  5
3196
330
768
100
AcDbEntity
  8
0
100
AcDbHatch
 10
0.0
 20
0.0
 30
0.0
210
0.0
220
0.0
230
1.0
  2
SOLID
 70
     1
 71
     0
 91
        1
 92
        1
 93
        1
 72
     4
 94
        3
 73
     0
 74
     0
 95
       11
 96
        7
 40
0.0
 40
0.0
 40
0.0
 40
0.0
 40
1.0
 40
1.0
 40
1.0
 40
2.0
 40
2.0
 40
2.0
 40
2.0
 10
40.38067301757037
 20
21.46128754879002
 10
40.38067301757037
 20
21.43889442813029
 10
40.35958903319536
 20
21.44606022674141
 10
40.35958903319536
 20
21.46383691944974
 10
40.35958903319536
 20
21.47792735998793
 10
40.38067301757037
 20
21.47575694983168
 10
40.38067301757037
 20
21.46128754879002
 97
        0
 75
     2
 76
     1
 98
        1
 10
29.78810682833425
 20
10.02563759219279
  0
HATCH
  5
3198
330
768
100
AcDbEntity
  8
0
100
AcDbHatch
 10
0.0
 20
0.0
 30
0.0
210
0.0
220
0.0
230
1.0
  2
SOLID
 70
     1
 71
     0
 91
        1
 92
        1
 93
        1
 72
     4
 94
        3
 73
     0
 74
     0
 95
       11
 96
        7
 40
0.0
 40
0.0
 40
0.0
 40
0.0
 40
1.0
 40
1.0
 40
1.0
 40
2.0
 40
2.0
 40
2.0
 40
2.0
 10
38.10787462347314
 20
23.17790972760946
 10
38.10787462347314
 20
23.15544770504001
 10
38.08661838432384
 20
23.16268240556085
 10
38.08661838432384
 20
23.18045909826918
 10
38.08661838432384
 20
23.19451508785252
 10
38.10787462347314
 20
23.19237912865113
 10
38.10787462347314
 20
23.17790972760946
 97
        0
 75
     2
 76
     1
 98
        1
 10
29.78810682833425
 20
10.02563759219279
  0
HATCH
  5
3199
330
768
100
AcDbEntity
  8
0
100
AcDbHatch
 10
0.0
 20
0.0
 30
0.0
210
0.0
220
0.0
230
1.0
  2
SOLID
 70
     1
 71
     0
 91
        1
 92
        1
 93
        1
 72
     4
 94
        3
 73
     0
 74
     0
 95
       11
 96
        7
 40
0.0
 40
0.0
 40
0.0
 40
0.0
 40
1.0
 40
1.0
 40
1.0
 40
2.0
 40
2.0
 40
2.0
 40
2.0
 10
38.3272583040287
 20
23.17790972760946
 10
38.3272583040287
 20
23.15544770504001
 10
38.30600206487939
 20
23.16268240556085
 10
38.30600206487939
 20
23.18045909826918
 10
38.30600206487939
 20
23.19451508785252
 10
38.3272583040287
 20
23.19237912865113
 10
38.3272583040287
 20
23.17790972760946
 97
        0
 75
     2
 76
     1
 98
        1
 10
29.78810682833425
 20
10.02563759219279
  0
HATCH
  5
319A
330
768
100
AcDbEntity
  8
0
100
AcDbHatch
 10
0.0
 20
0.0
 30
0.0
210
0.0
220
0.0
230
1.0
  2
SOLID
 70
     1
 71
     0
 91
        1
 92
        1
 93
        1
 72
     4
 94
        3
 73
     0
 74
     0
 95
       11
 96
        7
 40
0.0
 40
0.0
 40
0.0
 40
0.0
 40
1.0
 40
1.0
 40
1.0
 40
2.0
 40
2.0
 40
2.0
 40
2.0
 10
38.6782446321537
 20
23.11383095156779
 10
38.6782446321537
 20
23.09136892899835
 10
38.65702284395925
 20
23.09853472760946
 10
38.65702284395925
 20
23.11631142031779
 10
38.65702284395925
 20
23.13043631181085
 10
38.6782446321537
 20
23.12830035260946
 10
38.6782446321537
 20
23.11383095156779
 97
        0
 75
     2
 76
     1
 98
        1
 10
29.78810682833425
 20
10.02563759219279
  0
HATCH
  5
319B
330
768
100
AcDbEntity
  8
0
100
AcDbHatch
 10
0.0
 20
0.0
 30
0.0
210
0.0
220
0.0
230
1.0
  2
SOLID
 70
     1
 71
     0
 91
        1
 92
        1
 93
        1
 72
     4
 94
        3
 73
     0
 74
     0
 95
       11
 96
        7
 40
0.0
 40
0.0
 40
0.0
 40
0.0
 40
1.0
 40
1.0
 40
1.0
 40
2.0
 40
2.0
 40
2.0
 40
2.0
 10
38.70518527885508
 20
23.14077159826918
 10
38.70518527885508
 20
23.1183440266546
 10
38.6839979416155
 20
23.12554427622057
 10
38.6839979416155
 20
23.1433209689289
 10
38.6839979416155
 20
23.15737695851224
 10
38.70518527885508
 20
23.15524099931085
 10
38.70518527885508
 20
23.14077159826918
 97
        0
 75
     2
 76
     1
 98
        1
 10
29.78810682833425
 20
10.02563759219279
  0
HATCH
  5
319D
330
768
100
AcDbEntity
  8
0
100
AcDbHatch
 10
0.0
 20
0.0
 30
0.0
210
0.0
220
0.0
230
1.0
  2
SOLID
 70
     1
 71
     0
 91
        1
 92
        1
 93
        1
 72
     4
 94
        3
 73
     0
 74
     0
 95
       11
 96
        7
 40
0.0
 40
0.0
 40
0.0
 40
0.0
 40
1.0
 40
1.0
 40
1.0
 40
2.0
 40
2.0
 40
2.0
 40
2.0
 10
38.5498803743412
 20
23.39391721458863
 10
38.5498803743412
 20
23.37145519201918
 10
38.52876193901133
 20
23.37868989254002
 10
38.52876193901133
 20
23.39639768333863
 10
38.52876193901133
 20
23.41052257483168
 10
38.5498803743412
 20
23.40838661563029
 10
38.5498803743412
 20
23.39391721458863
 97
        0
 75
     2
 76
     1
 98
        1
 10
29.78810682833425
 20
10.02563759219279
  0
HATCH
  5
319E
330
768
100
AcDbEntity
  8
0
100
AcDbHatch
 10
0.0
 20
0.0
 30
0.0
210
0.0
220
0.0
230
1.0
  2
SOLID
 70
     1
 71
     0
 91
        1
 92
        1
 93
        1
 72
     4
 94
        3
 73
     0
 74
     0
 95
       11
 96
        7
 40
0.0
 40
0.0
 40
0.0
 40
0.0
 40
1.0
 40
1.0
 40
1.0
 40
2.0
 40
2.0
 40
2.0
 40
2.0
 10
38.58371121201481
 20
23.44456011823446
 10
38.58371121201481
 20
23.42209809566501
 10
38.5624549728655
 20
23.42926389427613
 10
38.5624549728655
 20
23.44704058698446
 10
38.5624549728655
 20
23.46109657656779
 10
38.58371121201481
 20
23.45899506832127
 10
38.58371121201481
 20
23.44456011823446
 97
        0
 75
     2
 76
     1
 98
        1
 10
29.78810682833425
 20
10.02563759219279
  0
HATCH
  5
31A0
330
768
100
AcDbEntity
  8
0
100
AcDbHatch
 10
0.0
 20
0.0
 30
0.0
210
0.0
220
0.0
230
1.0
  2
SOLID
 70
     1
 71
     0
 91
        1
 92
        1
 93
        1
 72
     4
 94
        3
 73
     0
 74
     0
 95
       11
 96
        7
 40
0.0
 40
0.0
 40
0.0
 40
0.0
 40
1.0
 40
1.0
 40
1.0
 40
2.0
 40
2.0
 40
2.0
 40
2.0
 10
38.65116618163286
 20
23.52551986215807
 10
38.65116618163286
 20
23.50312674149835
 10
38.62994439343842
 20
23.51022363819974
 10
38.62994439343842
 20
23.52806923281779
 10
38.62994439343842
 20
23.54209077144627
 10
38.65116618163286
 20
23.53998926319974
 10
38.65116618163286
 20
23.52551986215807
 97
        0
 75
     2
 76
     1
 98
        1
 10
29.78810682833425
 20
10.02563759219279
  0
HATCH
  5
31A2
330
768
100
AcDbEntity
  8
0
100
AcDbHatch
 10
0.0
 20
0.0
 30
0.0
210
0.0
220
0.0
230
1.0
  2
SOLID
 70
     1
 71
     0
 91
        1
 92
        1
 93
        1
 72
     4
 94
        3
 73
     0
 74
     0
 95
       11
 96
        7
 40
0.0
 40
0.0
 40
0.0
 40
0.0
 40
1.0
 40
1.0
 40
1.0
 40
2.0
 40
2.0
 40
2.0
 40
2.0
 10
38.47233127494884
 20
23.72457747934557
 10
38.47233127494884
 20
23.70218435868585
 10
38.45110948675439
 20
23.70935015729696
 10
38.45110948675439
 20
23.72719575191502
 10
38.45110948675439
 20
23.74118283958863
 10
38.47233127494884
 20
23.73911578229696
 10
38.47233127494884
 20
23.72457747934557
 97
        0
 75
     2
 76
     1
 98
        1
 10
29.78810682833425
 20
10.02563759219279
  0
HATCH
  5
31A3
330
768
100
AcDbEntity
  8
0
100
AcDbHatch
 10
0.0
 20
0.0
 30
0.0
210
0.0
220
0.0
230
1.0
  2
SOLID
 70
     1
 71
     0
 91
        1
 92
        1
 93
        1
 72
     4
 94
        3
 73
     0
 74
     0
 95
       11
 96
        7
 40
0.0
 40
0.0
 40
0.0
 40
0.0
 40
1.0
 40
1.0
 40
1.0
 40
2.0
 40
2.0
 40
2.0
 40
2.0
 10
38.42513346678911
 20
23.55928179792196
 10
38.42513346678911
 20
23.53681977535252
 10
38.40394612954953
 20
23.54405447587335
 10
38.40394612954953
 20
23.56183116858168
 10
38.40394612954953
 20
23.57581825625529
 10
38.42513346678911
 20
23.57371674800877
 10
38.42513346678911
 20
23.55928179792196
 97
        0
 75
     2
 76
     1
 98
        1
 10
29.78810682833425
 20
10.02563759219279
  0
HATCH
  5
31A7
330
768
100
AcDbEntity
  8
0
100
AcDbHatch
 10
0.0
 20
0.0
 30
0.0
210
0.0
220
0.0
230
1.0
  2
SOLID
 70
     1
 71
     0
 91
        1
 92
        1
 93
        1
 72
     4
 94
        3
 73
     0
 74
     0
 95
       11
 96
        7
 40
0.0
 40
0.0
 40
0.0
 40
0.0
 40
1.0
 40
1.0
 40
1.0
 40
2.0
 40
2.0
 40
2.0
 40
2.0
 10
38.482459855678
 20
23.7212701876789
 10
38.482459855678
 20
23.6987737141546
 10
38.46130696939328
 20
23.70597396372057
 10
38.46130696939328
 20
23.72375065642891
 10
38.46130696939328
 20
23.73780664601224
 10
38.482459855678
 20
23.73573958872057
 10
38.482459855678
 20
23.7212701876789
 97
        0
 75
     2
 76
     1
 98
        1
 10
29.78810682833425
 20
10.02563759219279
  0
HATCH
  5
31A8
330
768
100
AcDbEntity
  8
0
100
AcDbHatch
 10
0.0
 20
0.0
 30
0.0
210
0.0
220
0.0
230
1.0
  2
SOLID
 70
     1
 71
     0
 91
        1
 92
        1
 93
        1
 72
     4
 94
        3
 73
     0
 74
     0
 95
       11
 96
        7
 40
0.0
 40
0.0
 40
0.0
 40
0.0
 40
1.0
 40
1.0
 40
1.0
 40
2.0
 40
2.0
 40
2.0
 40
2.0
 10
38.56683024413287
 20
23.84274425451918
 10
38.56683024413287
 20
23.82028223194974
 10
38.54557400498356
 20
23.82744803056085
 10
38.54557400498356
 20
23.84522472326918
 10
38.54557400498356
 20
23.85928071285252
 10
38.56683024413287
 20
23.85714475365113
 10
38.56683024413287
 20
23.84274425451918
 97
        0
 75
     2
 76
     1
 98
        1
 10
29.78810682833425
 20
10.02563759219279
  0
HATCH
  5
31A9
330
768
100
AcDbEntity
  8
0
100
AcDbHatch
 10
0.0
 20
0.0
 30
0.0
210
0.0
220
0.0
230
1.0
  2
SOLID
 70
     1
 71
     0
 91
        1
 92
        1
 93
        1
 72
     4
 94
        3
 73
     0
 74
     0
 95
       11
 96
        7
 40
0.0
 40
0.0
 40
0.0
 40
0.0
 40
1.0
 40
1.0
 40
1.0
 40
2.0
 40
2.0
 40
2.0
 40
2.0
 10
38.6546801790287
 20
23.8663776095539
 10
38.6546801790287
 20
23.84391558698446
 10
38.63342393987939
 20
23.85108138559557
 10
38.63342393987939
 20
23.86889252925877
 10
38.63342393987939
 20
23.88291406788724
 10
38.6546801790287
 20
23.88077810868585
 10
38.6546801790287
 20
23.8663776095539
 97
        0
 75
     2
 76
     1
 98
        1
 10
29.78810682833425
 20
10.02563759219279
  0
HATCH
  5
31AB
330
768
100
AcDbEntity
  8
0
100
AcDbHatch
 10
0.0
 20
0.0
 30
0.0
210
0.0
220
0.0
230
1.0
  2
SOLID
 70
     1
 71
     0
 91
        1
 92
        1
 93
        1
 72
     4
 94
        3
 73
     0
 74
     0
 95
       11
 96
        7
 40
0.0
 40
0.0
 40
0.0
 40
0.0
 40
1.0
 40
1.0
 40
1.0
 40
2.0
 40
2.0
 40
2.0
 40
2.0
 10
40.63044244031342
 20
21.52881142031779
 10
40.63044244031342
 20
21.50634939774835
 10
40.60918620116411
 20
21.51358409826918
 10
40.60918620116411
 20
21.53136079097752
 10
40.60918620116411
 20
21.54541678056085
 10
40.63044244031342
 20
21.54328082135946
 10
40.63044244031342
 20
21.52881142031779
 97
        0
 75
     2
 76
     1
 98
        1
 10
29.78810682833425
 20
10.02563759219279
  0
HATCH
  5
31AC
330
768
100
AcDbEntity
  8
0
100
AcDbHatch
 10
0.0
 20
0.0
 30
0.0
210
0.0
220
0.0
230
1.0
  2
SOLID
 70
     1
 71
     0
 91
        1
 92
        1
 93
        1
 72
     4
 94
        3
 73
     0
 74
     0
 95
       11
 96
        7
 40
0.0
 40
0.0
 40
0.0
 40
0.0
 40
1.0
 40
1.0
 40
1.0
 40
2.0
 40
2.0
 40
2.0
 40
2.0
 10
40.84982612086898
 20
21.52881142031779
 10
40.84982612086898
 20
21.50634939774835
 10
40.82856988171967
 20
21.51358409826918
 10
40.82856988171967
 20
21.53136079097752
 10
40.82856988171967
 20
21.54541678056085
 10
40.84982612086898
 20
21.54328082135946
 10
40.84982612086898
 20
21.52881142031779
 97
        0
 75
     2
 76
     1
 98
        1
 10
29.78810682833425
 20
10.02563759219279
  0
HATCH
  5
31AD
330
768
100
AcDbEntity
  8
0
100
AcDbHatch
 10
0.0
 20
0.0
 30
0.0
210
0.0
220
0.0
230
1.0
  2
SOLID
 70
     1
 71
     0
 91
        1
 92
        1
 93
        1
 72
     4
 94
        3
 73
     0
 74
     0
 95
       11
 96
        7
 40
0.0
 40
0.0
 40
0.0
 40
0.0
 40
1.0
 40
1.0
 40
1.0
 40
2.0
 40
2.0
 40
2.0
 40
2.0
 10
41.05570502711898
 20
21.34663477101224
 10
41.05570502711898
 20
21.32413829748793
 10
41.03448323892453
 20
21.3313385470539
 10
41.03448323892453
 20
21.34911523976224
 10
41.03448323892453
 20
21.36317122934557
 10
41.05570502711898
 20
21.36103527014418
 10
41.05570502711898
 20
21.34663477101224
 97
        0
 75
     2
 76
     1
 98
        1
 10
29.78810682833425
 20
10.02563759219279
  0
HATCH
  5
31AE
330
768
100
AcDbEntity
  8
0
100
AcDbHatch
 10
0.0
 20
0.0
 30
0.0
210
0.0
220
0.0
230
1.0
  2
SOLID
 70
     1
 71
     0
 91
        1
 92
        1
 93
        1
 72
     4
 94
        3
 73
     0
 74
     0
 95
       11
 96
        7
 40
0.0
 40
0.0
 40
0.0
 40
0.0
 40
1.0
 40
1.0
 40
1.0
 40
2.0
 40
2.0
 40
2.0
 40
2.0
 10
41.20081244899397
 20
21.46473264427613
 10
41.20081244899397
 20
21.44227062170668
 10
41.17959066079953
 20
21.44943642031779
 10
41.17959066079953
 20
21.46721311302613
 10
41.17959066079953
 20
21.48133800451918
 10
41.20081244899397
 20
21.47920204531779
 10
41.20081244899397
 20
21.46473264427613
 97
        0
 75
     2
 76
     1
 98
        1
 10
29.78810682833425
 20
10.02563759219279
  0
HATCH
  5
31AF
330
768
100
AcDbEntity
  8
0
100
AcDbHatch
 10
0.0
 20
0.0
 30
0.0
210
0.0
220
0.0
230
1.0
  2
SOLID
 70
     1
 71
     0
 91
        1
 92
        1
 93
        1
 72
     4
 94
        3
 73
     0
 74
     0
 95
       11
 96
        7
 40
0.0
 40
0.0
 40
0.0
 40
0.0
 40
1.0
 40
1.0
 40
1.0
 40
2.0
 40
2.0
 40
2.0
 40
2.0
 10
41.22775309569536
 20
21.49167329097752
 10
41.22775309569536
 20
21.46924571936293
 10
41.20656575845578
 20
21.4764459689289
 10
41.20656575845578
 20
21.49422266163724
 10
41.20656575845578
 20
21.50827865122057
 10
41.22775309569536
 20
21.50614269201918
 10
41.22775309569536
 20
21.49167329097752
 97
        0
 75
     2
 76
     1
 98
        1
 10
29.78810682833425
 20
10.02563759219279
  0
HATCH
  5
31B1
330
768
100
AcDbEntity
  8
0
100
AcDbHatch
 10
0.0
 20
0.0
 30
0.0
210
0.0
220
0.0
230
1.0
  2
SOLID
 70
     1
 71
     0
 91
        1
 92
        1
 93
        1
 72
     4
 94
        3
 73
     0
 74
     0
 95
       11
 96
        7
 40
0.0
 40
0.0
 40
0.0
 40
0.0
 40
1.0
 40
1.0
 40
1.0
 40
2.0
 40
2.0
 40
2.0
 40
2.0
 10
41.07244819118147
 20
21.74481890729696
 10
41.07244819118147
 20
21.72235688472751
 10
41.05132975585161
 20
21.72959158524835
 10
41.05132975585161
 20
21.74729937604696
 10
41.05132975585161
 20
21.76142426754002
 10
41.07244819118147
 20
21.75928830833863
 10
41.07244819118147
 20
21.74481890729696
 97
        0
 75
     2
 76
     1
 98
        1
 10
29.78810682833425
 20
10.02563759219279
  0
HATCH
  5
31B2
330
768
100
AcDbEntity
  8
0
100
AcDbHatch
 10
0.0
 20
0.0
 30
0.0
210
0.0
220
0.0
230
1.0
  2
SOLID
 70
     1
 71
     0
 91
        1
 92
        1
 93
        1
 72
     4
 94
        3
 73
     0
 74
     0
 95
       11
 96
        7
 40
0.0
 40
0.0
 40
0.0
 40
0.0
 40
1.0
 40
1.0
 40
1.0
 40
2.0
 40
2.0
 40
2.0
 40
2.0
 10
41.10627902885508
 20
21.79546181094279
 10
41.10627902885508
 20
21.77299978837335
 10
41.08502278970578
 20
21.78016558698446
 10
41.08502278970578
 20
21.79794227969279
 10
41.08502278970578
 20
21.81199826927613
 10
41.10627902885508
 20
21.8098967610296
 10
41.10627902885508
 20
21.79546181094279
 97
        0
 75
     2
 76
     1
 98
        1
 10
29.78810682833425
 20
10.02563759219279
  0
HATCH
  5
31B4
330
768
100
AcDbEntity
  8
0
100
AcDbHatch
 10
0.0
 20
0.0
 30
0.0
210
0.0
220
0.0
230
1.0
  2
SOLID
 70
     1
 71
     0
 91
        1
 92
        1
 93
        1
 72
     4
 94
        3
 73
     0
 74
     0
 95
       11
 96
        7
 40
0.0
 40
0.0
 40
0.0
 40
0.0
 40
1.0
 40
1.0
 40
1.0
 40
2.0
 40
2.0
 40
2.0
 40
2.0
 10
41.17373399847314
 20
21.8764215548664
 10
41.17373399847314
 20
21.85402843420668
 10
41.15251221027869
 20
21.86112533090807
 10
41.15251221027869
 20
21.87897092552613
 10
41.15251221027869
 20
21.8929924641546
 10
41.17373399847314
 20
21.89089095590807
 10
41.17373399847314
 20
21.8764215548664
 97
        0
 75
     2
 76
     1
 98
        1
 10
29.78810682833425
 20
10.02563759219279
  0
HATCH
  5
31B6
330
768
100
AcDbEntity
  8
0
100
AcDbHatch
 10
0.0
 20
0.0
 30
0.0
210
0.0
220
0.0
230
1.0
  2
SOLID
 70
     1
 71
     0
 91
        1
 92
        1
 93
        1
 72
     4
 94
        3
 73
     0
 74
     0
 95
       11
 96
        7
 40
0.0
 40
0.0
 40
0.0
 40
0.0
 40
1.0
 40
1.0
 40
1.0
 40
2.0
 40
2.0
 40
2.0
 40
2.0
 10
40.99489909178912
 20
22.0754791720539
 10
40.99489909178912
 20
22.05308605139418
 10
40.97367730359467
 20
22.06025185000529
 10
40.97367730359467
 20
22.07809744462335
 10
40.97367730359467
 20
22.09208453229696
 10
40.99489909178912
 20
22.09001747500529
 10
40.99489909178912
 20
22.0754791720539
 97
        0
 75
     2
 76
     1
 98
        1
 10
29.78810682833425
 20
10.02563759219279
  0
HATCH
  5
31B7
330
768
100
AcDbEntity
  8
0
100
AcDbHatch
 10
0.0
 20
0.0
 30
0.0
210
0.0
220
0.0
230
1.0
  2
SOLID
 70
     1
 71
     0
 91
        1
 92
        1
 93
        1
 72
     4
 94
        3
 73
     0
 74
     0
 95
       11
 96
        7
 40
0.0
 40
0.0
 40
0.0
 40
0.0
 40
1.0
 40
1.0
 40
1.0
 40
2.0
 40
2.0
 40
2.0
 40
2.0
 10
40.94770128362939
 20
21.91018349063029
 10
40.94770128362939
 20
21.88772146806085
 10
40.92651394638981
 20
21.89495616858168
 10
40.92651394638981
 20
21.91273286129002
 10
40.92651394638981
 20
21.92671994896363
 10
40.94770128362939
 20
21.9246184407171
 10
40.94770128362939
 20
21.91018349063029
 97
        0
 75
     2
 76
     1
 98
        1
 10
29.78810682833425
 20
10.02563759219279
  0
HATCH
  5
31BB
330
768
100
AcDbEntity
  8
0
100
AcDbHatch
 10
0.0
 20
0.0
 30
0.0
210
0.0
220
0.0
230
1.0
  2
SOLID
 70
     1
 71
     0
 91
        1
 92
        1
 93
        1
 72
     4
 94
        3
 73
     0
 74
     0
 95
       11
 96
        7
 40
0.0
 40
0.0
 40
0.0
 40
0.0
 40
1.0
 40
1.0
 40
1.0
 40
2.0
 40
2.0
 40
2.0
 40
2.0
 10
41.00502767251828
 20
22.07217188038724
 10
41.00502767251828
 20
22.04967540686293
 10
40.98387478623356
 20
22.0568756564289
 10
40.98387478623356
 20
22.07465234913724
 10
40.98387478623356
 20
22.08870833872057
 10
41.00502767251828
 20
22.0866412814289
 10
41.00502767251828
 20
22.07217188038724
 97
        0
 75
     2
 76
     1
 98
        1
 10
29.78810682833425
 20
10.02563759219279
  0
HATCH
  5
31BC
330
768
100
AcDbEntity
  8
0
100
AcDbHatch
 10
0.0
 20
0.0
 30
0.0
210
0.0
220
0.0
230
1.0
  2
SOLID
 70
     1
 71
     0
 91
        1
 92
        1
 93
        1
 72
     4
 94
        3
 73
     0
 74
     0
 95
       11
 96
        7
 40
0.0
 40
0.0
 40
0.0
 40
0.0
 40
1.0
 40
1.0
 40
1.0
 40
2.0
 40
2.0
 40
2.0
 40
2.0
 10
41.08939806097314
 20
22.19364594722752
 10
41.08939806097314
 20
22.17118392465807
 10
41.06814182182384
 20
22.17834972326918
 10
41.06814182182384
 20
22.19612641597752
 10
41.06814182182384
 20
22.21018240556085
 10
41.08939806097314
 20
22.20804644635946
 10
41.08939806097314
 20
22.19364594722752
 97
        0
 75
     2
 76
     1
 98
        1
 10
29.78810682833425
 20
10.02563759219279
  0
HATCH
  5
31BD
330
768
100
AcDbEntity
  8
0
100
AcDbHatch
 10
0.0
 20
0.0
 30
0.0
210
0.0
220
0.0
230
1.0
  2
SOLID
 70
     1
 71
     0
 91
        1
 92
        1
 93
        1
 72
     4
 94
        3
 73
     0
 74
     0
 95
       11
 96
        7
 40
0.0
 40
0.0
 40
0.0
 40
0.0
 40
1.0
 40
1.0
 40
1.0
 40
2.0
 40
2.0
 40
2.0
 40
2.0
 10
41.17724799586897
 20
22.21727930226224
 10
41.17724799586897
 20
22.19481727969279
 10
41.15599175671967
 20
22.2019830783039
 10
41.15599175671967
 20
22.2197942219671
 10
41.15599175671967
 20
22.23381576059557
 10
41.17724799586897
 20
22.23167980139418
 10
41.17724799586897
 20
22.21727930226224
 97
        0
 75
     2
 76
     1
 98
        1
 10
29.78810682833425
 20
10.02563759219279
  0
HATCH
  5
31BF
330
768
100
AcDbEntity
  8
0
100
AcDbHatch
 10
0.0
 20
0.0
 30
0.0
210
0.0
220
0.0
230
1.0
  2
SOLID
 70
     1
 71
     0
 91
        1
 92
        1
 93
        1
 72
     4
 94
        3
 73
     0
 74
     0
 95
       11
 96
        7
 40
0.0
 40
0.0
 40
0.0
 40
0.0
 40
1.0
 40
1.0
 40
1.0
 40
2.0
 40
2.0
 40
2.0
 40
2.0
 10
40.9375038009905
 20
22.94281641163724
 10
40.9375038009905
 20
22.92042329097752
 10
40.91638536566064
 20
22.9275201876789
 10
40.91638536566064
 20
22.94536578229696
 10
40.91638536566064
 20
22.95938732092543
 10
40.9375038009905
 20
22.9572858126789
 10
40.9375038009905
 20
22.94281641163724
 97
        0
 75
     2
 76
     1
 98
        1
 10
29.78810682833425
 20
10.02563759219279
  0
HATCH
  5
31C0
330
768
100
AcDbEntity
  8
0
100
AcDbHatch
 10
0.0
 20
0.0
 30
0.0
210
0.0
220
0.0
230
1.0
  2
SOLID
 70
     1
 71
     0
 91
        1
 92
        1
 93
        1
 72
     4
 94
        3
 73
     0
 74
     0
 95
       11
 96
        7
 40
0.0
 40
0.0
 40
0.0
 40
0.0
 40
1.0
 40
1.0
 40
1.0
 40
2.0
 40
2.0
 40
2.0
 40
2.0
 10
40.84982612086898
 20
23.0068951876789
 10
40.84982612086898
 20
22.98450206701918
 10
40.82856988171967
 20
22.99163341467543
 10
40.82856988171967
 20
23.00944455833863
 10
40.82856988171967
 20
23.02350054792196
 10
40.84982612086898
 20
23.02136458872057
 10
40.84982612086898
 20
23.0068951876789
 97
        0
 75
     2
 76
     1
 98
        1
 10
29.78810682833425
 20
10.02563759219279
  0
HATCH
  5
31C3
330
768
100
AcDbEntity
  8
0
100
AcDbHatch
 10
0.0
 20
0.0
 30
0.0
210
0.0
220
0.0
230
1.0
  2
SOLID
 70
     1
 71
     0
 91
        1
 92
        1
 93
        1
 72
     4
 94
        3
 73
     0
 74
     0
 95
       11
 96
        7
 40
0.0
 40
0.0
 40
0.0
 40
0.0
 40
1.0
 40
1.0
 40
1.0
 40
2.0
 40
2.0
 40
2.0
 40
2.0
 10
41.19054606444536
 20
24.559272439198
 10
41.19054606444536
 20
24.53681041662856
 10
41.1694276291155
 20
24.54397621523967
 10
41.1694276291155
 20
24.56178735890286
 10
41.1694276291155
 20
24.57582612300876
 10
41.19054606444536
 20
24.57370738928481
 10
41.19054606444536
 20
24.559272439198
 97
        0
 75
     2
 76
     1
 98
        1
 10
29.78810682833425
 20
10.02563759219279
  0
HATCH
  5
31C6
330
768
100
AcDbEntity
  8
0
100
AcDbHatch
 10
0.0
 20
0.0
 30
0.0
210
0.0
220
0.0
230
1.0
  2
SOLID
 70
     1
 71
     0
 91
        1
 92
        1
 93
        1
 72
     4
 94
        3
 73
     0
 74
     0
 95
       11
 96
        7
 40
0.0
 40
0.0
 40
0.0
 40
0.0
 40
1.0
 40
1.0
 40
1.0
 40
2.0
 40
2.0
 40
2.0
 40
2.0
 10
40.907118058803
 20
24.12729191619453
 10
40.907118058803
 20
24.10484711910252
 10
40.88596517251828
 20
24.11203014319106
 10
40.88596517251828
 20
24.12985851233168
 10
40.88596517251828
 20
24.14382837452786
 10
40.907118058803
 20
24.14179576819106
 10
40.907118058803
 20
24.12729191619453
 97
        0
 75
     2
 76
     1
 98
        1
 10
29.78810682833425
 20
10.02563759219279
  0
HATCH
  5
31C7
330
768
100
AcDbEntity
  8
0
100
AcDbHatch
 10
0.0
 20
0.0
 30
0.0
210
0.0
220
0.0
230
1.0
  2
SOLID
 70
     1
 71
     0
 91
        1
 92
        1
 93
        1
 72
     4
 94
        3
 73
     0
 74
     0
 95
       11
 96
        7
 40
0.0
 40
0.0
 40
0.0
 40
0.0
 40
1.0
 40
1.0
 40
1.0
 40
2.0
 40
2.0
 40
2.0
 40
2.0
 10
40.88021186305647
 20
24.12729191619453
 10
40.88021186305647
 20
24.10484711910252
 10
40.85895562390717
 20
24.11203014319106
 10
40.85895562390717
 20
24.12985851233168
 10
40.85895562390717
 20
24.14382837452786
 10
40.88021186305647
 20
24.14179576819106
 10
40.88021186305647
 20
24.12729191619453
 97
        0
 75
     2
 76
     1
 98
        1
 10
29.78810682833425
 20
10.02563759219279
  0
HATCH
  5
31C8
330
768
100
AcDbEntity
  8
0
100
AcDbHatch
 10
0.0
 20
0.0
 30
0.0
210
0.0
220
0.0
230
1.0
  2
SOLID
 70
     1
 71
     0
 91
        1
 92
        1
 93
        1
 72
     4
 94
        3
 73
     0
 74
     0
 95
       11
 96
        7
 40
0.0
 40
0.0
 40
0.0
 40
0.0
 40
1.0
 40
1.0
 40
1.0
 40
2.0
 40
2.0
 40
2.0
 40
2.0
 10
41.02531928493148
 20
24.10369301211467
 10
41.02531928493148
 20
24.08123098954523
 10
41.00409749673703
 20
24.08841401363377
 10
41.00409749673703
 20
24.10620793181953
 10
41.00409749673703
 20
24.12024669592543
 10
41.02531928493148
 20
24.11812796220147
 10
41.02531928493148
 20
24.10369301211467
 97
        0
 75
     2
 76
     1
 98
        1
 10
29.78810682833425
 20
10.02563759219279
  0
HATCH
  5
31C9
330
768
100
AcDbEntity
  8
0
100
AcDbHatch
 10
0.0
 20
0.0
 30
0.0
210
0.0
220
0.0
230
1.0
  2
SOLID
 70
     1
 71
     0
 91
        1
 92
        1
 93
        1
 72
     4
 94
        3
 73
     0
 74
     0
 95
       11
 96
        7
 40
0.0
 40
0.0
 40
0.0
 40
0.0
 40
1.0
 40
1.0
 40
1.0
 40
2.0
 40
2.0
 40
2.0
 40
2.0
 10
41.02531928493148
 20
24.17791759436293
 10
41.02531928493148
 20
24.15549002274835
 10
41.00409749673703
 20
24.16263859588203
 10
41.00409749673703
 20
24.18044973954522
 10
41.00409749673703
 20
24.19450572912856
 10
41.02531928493148
 20
24.1923869954046
 10
41.02531928493148
 20
24.17791759436293
 97
        0
 75
     2
 76
     1
 98
        1
 10
29.78810682833425
 20
10.02563759219279
  0
HATCH
  5
31CA
330
768
100
AcDbEntity
  8
0
100
AcDbHatch
 10
0.0
 20
0.0
 30
0.0
210
0.0
220
0.0
230
1.0
  2
SOLID
 70
     1
 71
     0
 91
        1
 92
        1
 93
        1
 72
     4
 94
        3
 73
     0
 74
     0
 95
       11
 96
        7
 40
0.0
 40
0.0
 40
0.0
 40
0.0
 40
1.0
 40
1.0
 40
1.0
 40
2.0
 40
2.0
 40
2.0
 40
2.0
 10
41.13659586913286
 20
24.10706920569105
 10
41.13659586913286
 20
24.08460718312161
 10
41.11540853189328
 20
24.09180743268759
 10
41.11540853189328
 20
24.10960135087335
 10
41.11540853189328
 20
24.12365734045668
 10
41.13659586913286
 20
24.12150415577786
 10
41.13659586913286
 20
24.10706920569105
 97
        0
 75
     2
 76
     1
 98
        1
 10
29.78810682833425
 20
10.02563759219279
  0
HATCH
  5
31CB
330
768
100
AcDbEntity
  8
0
100
AcDbHatch
 10
0.0
 20
0.0
 30
0.0
210
0.0
220
0.0
230
1.0
  2
SOLID
 70
     1
 71
     0
 91
        1
 92
        1
 93
        1
 72
     4
 94
        3
 73
     0
 74
     0
 95
       11
 96
        7
 40
0.0
 40
0.0
 40
0.0
 40
0.0
 40
1.0
 40
1.0
 40
1.0
 40
2.0
 40
2.0
 40
2.0
 40
2.0
 10
41.13659586913286
 20
24.06993107635078
 10
41.13659586913286
 20
24.04748627925877
 10
41.11540853189328
 20
24.05466930334731
 10
41.11540853189328
 20
24.0724804470105
 10
41.11540853189328
 20
24.08650198563897
 10
41.13659586913286
 20
24.08440047739245
 10
41.13659586913286
 20
24.06993107635078
 97
        0
 75
     2
 76
     1
 98
        1
 10
29.78810682833425
 20
10.02563759219279
  0
HATCH
  5
31CD
330
768
100
AcDbEntity
  8
0
100
AcDbHatch
 10
0.0
 20
0.0
 30
0.0
210
0.0
220
0.0
230
1.0
  2
SOLID
 70
     1
 71
     0
 91
        1
 92
        1
 93
        1
 72
     4
 94
        3
 73
     0
 74
     0
 95
       11
 96
        7
 40
0.0
 40
0.0
 40
0.0
 40
0.0
 40
1.0
 40
1.0
 40
1.0
 40
2.0
 40
2.0
 40
2.0
 40
2.0
 10
41.3391674837162
 20
23.93155881615113
 10
41.3391674837162
 20
23.9091656954914
 10
41.31794569552175
 20
23.91633149410252
 10
41.31794569552175
 20
23.93417708872057
 10
41.31794569552175
 20
23.94816417639418
 10
41.3391674837162
 20
23.94602821719279
 10
41.3391674837162
 20
23.93155881615113
 97
        0
 75
     2
 76
     1
 98
        1
 10
29.78810682833425
 20
10.02563759219279
  0
HATCH
  5
31D4
330
768
100
AcDbEntity
  8
0
100
AcDbHatch
 10
0.0
 20
0.0
 30
0.0
210
0.0
220
0.0
230
1.0
  2
SOLID
 70
     1
 71
     0
 91
        1
 92
        1
 93
        1
 72
     4
 94
        3
 73
     0
 74
     0
 95
       11
 96
        7
 40
0.0
 40
0.0
 40
0.0
 40
0.0
 40
1.0
 40
1.0
 40
1.0
 40
2.0
 40
2.0
 40
2.0
 40
2.0
 10
40.38752875758772
 20
23.41527680660251
 10
40.38752875758772
 20
23.39281478403307
 10
40.36627251843842
 20
23.39998058264418
 10
40.36627251843842
 20
23.41775727535251
 10
40.36627251843842
 20
23.43181326493585
 10
40.38752875758772
 20
23.42974620764418
 10
40.38752875758772
 20
23.41527680660251
 97
        0
 75
     2
 76
     1
 98
        1
 10
29.78810682833425
 20
10.02563759219279
  0
HATCH
  5
31D6
330
768
100
AcDbEntity
  8
0
100
AcDbHatch
 10
0.0
 20
0.0
 30
0.0
210
0.0
220
0.0
230
1.0
  2
SOLID
 70
     1
 71
     0
 91
        1
 92
        1
 93
        1
 72
     4
 94
        3
 73
     0
 74
     0
 95
       11
 96
        7
 40
0.0
 40
0.0
 40
0.0
 40
0.0
 40
1.0
 40
1.0
 40
1.0
 40
2.0
 40
2.0
 40
2.0
 40
2.0
 10
40.26257514430647
 20
23.17563596458863
 10
40.26257514430647
 20
23.15317394201918
 10
40.24142225802175
 20
23.16040864254001
 10
40.24142225802175
 20
23.17818533524835
 10
40.24142225802175
 20
23.19224132483168
 10
40.26257514430647
 20
23.1901053656303
 10
40.26257514430647
 20
23.17563596458863
 97
        0
 75
     2
 76
     1
 98
        1
 10
29.78810682833425
 20
10.02563759219279
  0
HATCH
  5
31D7
330
768
100
AcDbEntity
  8
0
100
AcDbHatch
 10
0.0
 20
0.0
 30
0.0
210
0.0
220
0.0
230
1.0
  2
SOLID
 70
     1
 71
     0
 91
        1
 92
        1
 93
        1
 72
     4
 94
        3
 73
     0
 74
     0
 95
       11
 96
        7
 40
0.0
 40
0.0
 40
0.0
 40
0.0
 40
1.0
 40
1.0
 40
1.0
 40
2.0
 40
2.0
 40
2.0
 40
2.0
 10
40.72824870116411
 20
22.97313325191502
 10
40.72824870116411
 20
22.95074013125529
 10
40.70709581487939
 20
22.95790592986641
 10
40.70709581487939
 20
22.9757170735296
 10
40.70709581487939
 20
22.98973861215807
 10
40.72824870116411
 20
22.9876715548664
 10
40.72824870116411
 20
22.97313325191502
 97
        0
 75
     2
 76
     1
 98
        1
 10
29.78810682833425
 20
10.02563759219279
  0
HATCH
  5
31D8
330
768
100
AcDbEntity
  8
0
100
AcDbHatch
 10
0.0
 20
0.0
 30
0.0
210
0.0
220
0.0
230
1.0
  2
SOLID
 70
     1
 71
     0
 91
        1
 92
        1
 93
        1
 72
     4
 94
        3
 73
     0
 74
     0
 95
       11
 96
        7
 40
0.0
 40
0.0
 40
0.0
 40
0.0
 40
1.0
 40
1.0
 40
1.0
 40
2.0
 40
2.0
 40
2.0
 40
2.0
 10
40.70799153970578
 20
22.93944021806085
 10
40.70799153970578
 20
22.91701264644626
 10
40.6868042024662
 20
22.92414399410252
 10
40.6868042024662
 20
22.94198958872057
 10
40.6868042024662
 20
22.95597667639418
 10
40.70799153970578
 20
22.95390961910251
 10
40.70799153970578
 20
22.93944021806085
 97
        0
 75
     2
 76
     1
 98
        1
 10
29.78810682833425
 20
10.02563759219279
  0
HATCH
  5
31DB
330
768
100
AcDbEntity
  8
0
100
AcDbHatch
 10
0.0
 20
0.0
 30
0.0
210
0.0
220
0.0
230
1.0
  2
SOLID
 70
     1
 71
     0
 91
        1
 92
        1
 93
        1
 72
     4
 94
        3
 73
     0
 74
     0
 95
       11
 96
        7
 40
0.0
 40
0.0
 40
0.0
 40
0.0
 40
1.0
 40
1.0
 40
1.0
 40
2.0
 40
2.0
 40
2.0
 40
2.0
 10
38.54550510307384
 20
23.51490896806085
 10
38.54550510307384
 20
23.49251584740113
 10
38.52428331487939
 20
23.49968164601224
 10
38.52428331487939
 20
23.51745833872057
 10
38.52428331487939
 20
23.53151432830391
 10
38.54550510307384
 20
23.52937836910251
 10
38.54550510307384
 20
23.51490896806085
 97
        0
 75
     2
 76
     1
 98
        1
 10
29.78810682833425
 20
10.02563759219279
  0
HATCH
  5
31DD
330
768
100
AcDbEntity
  8
0
100
AcDbHatch
 10
0.0
 20
0.0
 30
0.0
210
0.0
220
0.0
230
1.0
  2
SOLID
 70
     1
 71
     0
 91
        1
 92
        1
 93
        1
 72
     4
 94
        3
 73
     0
 74
     0
 95
       11
 96
        7
 40
0.0
 40
0.0
 40
0.0
 40
0.0
 40
1.0
 40
1.0
 40
1.0
 40
2.0
 40
2.0
 40
2.0
 40
2.0
 10
38.22094265732731
 20
22.70999685868585
 10
38.22094265732731
 20
22.68753483611641
 10
38.19978977104259
 20
22.69470063472751
 10
38.19978977104259
 20
22.71247732743585
 10
38.19978977104259
 20
22.72653331701918
 10
38.22094265732731
 20
22.72439735781779
 10
38.22094265732731
 20
22.70999685868585
 97
        0
 75
     2
 76
     1
 98
        1
 10
29.78810682833425
 20
10.02563759219279
  0
HATCH
  5
31DE
330
768
100
AcDbEntity
  8
0
100
AcDbHatch
 10
0.0
 20
0.0
 30
0.0
210
0.0
220
0.0
230
1.0
  2
SOLID
 70
     1
 71
     0
 91
        1
 92
        1
 93
        1
 72
     4
 94
        3
 73
     0
 74
     0
 95
       11
 96
        7
 40
0.0
 40
0.0
 40
0.0
 40
0.0
 40
1.0
 40
1.0
 40
1.0
 40
2.0
 40
2.0
 40
2.0
 40
2.0
 10
37.96452420029605
 20
22.82134234479696
 10
37.96452420029605
 20
22.79888032222751
 10
37.94326796114675
 20
22.80604612083863
 10
37.94326796114675
 20
22.82382281354696
 10
37.94326796114675
 20
22.83787880313029
 10
37.96452420029605
 20
22.83581174583863
 10
37.96452420029605
 20
22.82134234479696
 97
        0
 75
     2
 76
     1
 98
        1
 10
29.78810682833425
 20
10.02563759219279
  0
HATCH
  5
31DF
330
768
100
AcDbEntity
  8
0
100
AcDbHatch
 10
0.0
 20
0.0
 30
0.0
210
0.0
220
0.0
230
1.0
  2
SOLID
 70
     1
 71
     0
 91
        1
 92
        1
 93
        1
 72
     4
 94
        3
 73
     0
 74
     0
 95
       11
 96
        7
 40
0.0
 40
0.0
 40
0.0
 40
0.0
 40
1.0
 40
1.0
 40
1.0
 40
2.0
 40
2.0
 40
2.0
 40
2.0
 10
37.94089084526134
 20
22.65594331050876
 10
37.94089084526134
 20
22.63351573889418
 10
37.91968628254432
 20
22.64068153750529
 10
37.91968628254432
 20
22.65852713212335
 10
37.91968628254432
 20
22.67251421979696
 10
37.94089084526134
 20
22.67044716250529
 10
37.94089084526134
 20
22.65594331050876
 97
        0
 75
     2
 76
     1
 98
        1
 10
29.78810682833425
 20
10.02563759219279
  0
HATCH
  5
31E2
330
768
100
AcDbEntity
  8
0
100
AcDbHatch
 10
0.0
 20
0.0
 30
0.0
210
0.0
220
0.0
230
1.0
  2
SOLID
 70
     1
 71
     0
 91
        1
 92
        1
 93
        1
 72
     4
 94
        3
 73
     0
 74
     0
 95
       11
 96
        7
 40
0.0
 40
0.0
 40
0.0
 40
0.0
 40
1.0
 40
1.0
 40
1.0
 40
2.0
 40
2.0
 40
2.0
 40
2.0
 10
40.26936198241411
 20
22.0349993000921
 10
40.26936198241411
 20
22.01257172847751
 10
40.24817464517453
 20
22.01973752708863
 10
40.24817464517453
 20
22.03758312170668
 10
40.24817464517453
 20
22.05163911129002
 10
40.26936198241411
 20
22.04946870113377
 10
40.26936198241411
 20
22.0349993000921
 97
        0
 75
     2
 76
     1
 98
        1
 10
29.78810682833425
 20
10.02563759219279
  0
HATCH
  5
31E3
330
768
100
AcDbEntity
  8
0
100
AcDbHatch
 10
0.0
 20
0.0
 30
0.0
210
0.0
220
0.0
230
1.0
  2
SOLID
 70
     1
 71
     0
 91
        1
 92
        1
 93
        1
 72
     4
 94
        3
 73
     0
 74
     0
 95
       11
 96
        7
 40
0.0
 40
0.0
 40
0.0
 40
0.0
 40
1.0
 40
1.0
 40
1.0
 40
2.0
 40
2.0
 40
2.0
 40
2.0
 10
39.28396132052176
 20
22.30161523976224
 10
39.28396132052176
 20
22.27915321719279
 10
39.26277398328217
 20
22.28638791771363
 10
39.26277398328217
 20
22.30416461042196
 10
39.26277398328217
 20
22.31818614905043
 10
39.28396132052176
 20
22.31601573889418
 10
39.28396132052176
 20
22.30161523976224
 97
        0
 75
     2
 76
     1
 98
        1
 10
29.78810682833425
 20
10.02563759219279
  0
HATCH
  5
31E5
330
768
100
AcDbEntity
  8
0
100
AcDbHatch
 10
0.0
 20
0.0
 30
0.0
210
0.0
220
0.0
230
1.0
  2
SOLID
 70
     1
 71
     0
 91
        1
 92
        1
 93
        1
 72
     4
 94
        3
 73
     0
 74
     0
 95
       11
 96
        7
 40
0.0
 40
0.0
 40
0.0
 40
0.0
 40
1.0
 40
1.0
 40
1.0
 40
2.0
 40
2.0
 40
2.0
 40
2.0
 10
38.70353163302175
 20
22.25441743160252
 10
38.70353163302175
 20
22.23195540903307
 10
38.68237874673703
 20
22.23912120764418
 10
38.68237874673703
 20
22.25689790035252
 10
38.68237874673703
 20
22.27095388993585
 10
38.70353163302175
 20
22.26881793073446
 10
38.70353163302175
 20
22.25441743160252
 97
        0
 75
     2
 76
     1
 98
        1
 10
29.78810682833425
 20
10.02563759219279
  0
HATCH
  5
31FA
330
768
100
AcDbEntity
  8
0
100
AcDbHatch
 10
0.0
 20
0.0
 30
0.0
210
0.0
220
0.0
230
1.0
  2
SOLID
 70
     1
 71
     0
 91
        1
 92
        1
 93
        1
 72
     4
 94
        3
 73
     0
 74
     0
 95
       11
 96
        7
 40
0.0
 40
0.0
 40
0.0
 40
0.0
 40
1.0
 40
1.0
 40
1.0
 40
2.0
 40
2.0
 40
2.0
 40
2.0
 10
38.55842421114675
 20
21.09018186302613
 10
38.55842421114675
 20
21.06771984045668
 10
38.53723687390717
 20
21.07488563906779
 10
38.53723687390717
 20
21.09266233177613
 10
38.53723687390717
 20
21.1066838704046
 10
38.55842421114675
 20
21.10458236215807
 10
38.55842421114675
 20
21.09018186302613
 97
        0
 75
     2
 76
     1
 98
        1
 10
29.78810682833425
 20
10.02563759219279
  0
HATCH
  5
31FC
330
768
100
AcDbEntity
  8
0
100
AcDbHatch
 10
0.0
 20
0.0
 30
0.0
210
0.0
220
0.0
230
1.0
  2
SOLID
 70
     1
 71
     0
 91
        1
 92
        1
 93
        1
 72
     4
 94
        3
 73
     0
 74
     0
 95
       11
 96
        7
 40
0.0
 40
0.0
 40
0.0
 40
0.0
 40
1.0
 40
1.0
 40
1.0
 40
2.0
 40
2.0
 40
2.0
 40
2.0
 10
38.49427653319536
 20
21.20490354271363
 10
38.49427653319536
 20
21.18244152014418
 10
38.47312364691064
 20
21.18967622066501
 10
38.47312364691064
 20
21.20738401146363
 10
38.47312364691064
 20
21.22144000104696
 10
38.49427653319536
 20
21.21933849280043
 10
38.49427653319536
 20
21.20490354271363
 97
        0
 75
     2
 76
     1
 98
        1
 10
29.78810682833425
 20
10.02563759219279
  0
HATCH
  5
31FE
330
768
100
AcDbEntity
  8
0
100
AcDbHatch
 10
0.0
 20
0.0
 30
0.0
210
0.0
220
0.0
230
1.0
  2
SOLID
 70
     1
 71
     0
 91
        1
 92
        1
 93
        1
 72
     4
 94
        3
 73
     0
 74
     0
 95
       11
 96
        7
 40
0.0
 40
0.0
 40
0.0
 40
0.0
 40
1.0
 40
1.0
 40
1.0
 40
2.0
 40
2.0
 40
2.0
 40
2.0
 10
38.38630724066064
 20
21.60308767899835
 10
38.38630724066064
 20
21.5806256564289
 10
38.36511990342106
 20
21.58779145504002
 10
38.36511990342106
 20
21.60556814774835
 10
38.36511990342106
 20
21.61962413733168
 10
38.38630724066064
 20
21.61755708004002
 10
38.38630724066064
 20
21.60308767899835
 97
        0
 75
     2
 76
     1
 98
        1
 10
29.78810682833425
 20
10.02563759219279
  0
HATCH
  5
3200
330
768
100
AcDbEntity
  8
0
100
AcDbHatch
 10
0.0
 20
0.0
 30
0.0
210
0.0
220
0.0
230
1.0
  2
SOLID
 70
     1
 71
     0
 91
        1
 92
        1
 93
        1
 72
     4
 94
        3
 73
     0
 74
     0
 95
       11
 96
        7
 40
0.0
 40
0.0
 40
0.0
 40
0.0
 40
1.0
 40
1.0
 40
1.0
 40
2.0
 40
2.0
 40
2.0
 40
2.0
 10
38.12647813909814
 20
21.71780935868585
 10
38.12647813909814
 20
21.69538178707127
 10
38.10525635090369
 20
21.70251313472751
 10
38.10525635090369
 20
21.72035872934557
 10
38.10525635090369
 20
21.73434581701918
 10
38.12647813909814
 20
21.73227875972751
 10
38.12647813909814
 20
21.71780935868585
 97
        0
 75
     2
 76
     1
 98
        1
 10
29.78810682833425
 20
10.02563759219279
  0
HATCH
  5
3206
330
768
100
AcDbEntity
  8
0
100
AcDbHatch
 10
0.0
 20
0.0
 30
0.0
210
0.0
220
0.0
230
1.0
  2
SOLID
 70
     1
 71
     0
 91
        1
 92
        1
 93
        1
 72
     4
 94
        3
 73
     0
 74
     0
 95
       11
 96
        7
 40
0.0
 40
0.0
 40
0.0
 40
0.0
 40
1.0
 40
1.0
 40
1.0
 40
2.0
 40
2.0
 40
2.0
 40
2.0
 10
38.07245904187592
 20
21.61993419592543
 10
38.07245904187592
 20
21.59750662431085
 10
38.05127170463634
 20
21.60467242292196
 10
38.05127170463634
 20
21.62251801754002
 10
38.05127170463634
 20
21.63650510521363
 10
38.07245904187592
 20
21.63436914601224
 10
38.07245904187592
 20
21.61993419592543
 97
        0
 75
     2
 76
     1
 98
        1
 10
29.78810682833425
 20
10.02563759219279
  0
HATCH
  5
3209
330
768
100
AcDbEntity
  8
0
100
AcDbHatch
 10
0.0
 20
0.0
 30
0.0
210
0.0
220
0.0
230
1.0
  2
SOLID
 70
     1
 71
     0
 91
        1
 92
        1
 93
        1
 72
     4
 94
        3
 73
     0
 74
     0
 95
       11
 96
        7
 40
0.0
 40
0.0
 40
0.0
 40
0.0
 40
1.0
 40
1.0
 40
1.0
 40
2.0
 40
2.0
 40
2.0
 40
2.0
 10
37.51104628145925
 20
21.84272852101224
 10
37.50866916557384
 20
21.82040430226224
 10
37.48836032768321
 20
21.82977496198446
 10
37.49023790472314
 20
21.84748275278307
 10
37.4917365212596
 20
21.86146984045668
 10
37.51257934895057
 20
21.85706011823446
 10
37.51104628145925
 20
21.84272852101224
 97
        0
 75
     2
 76
     1
 98
        1
 10
29.78810682833425
 20
10.02563759219279
  0
HATCH
  5
320A
330
768
100
AcDbEntity
  8
0
100
AcDbHatch
 10
0.0
 20
0.0
 30
0.0
210
0.0
220
0.0
230
1.0
  2
SOLID
 70
     1
 71
     0
 91
        1
 92
        1
 93
        1
 72
     4
 94
        3
 73
     0
 74
     0
 95
       11
 96
        7
 40
0.0
 40
0.0
 40
0.0
 40
0.0
 40
1.0
 40
1.0
 40
1.0
 40
2.0
 40
2.0
 40
2.0
 40
2.0
 10
37.09778985242279
 20
21.86463932830391
 10
37.09541273653738
 20
21.84238401146363
 10
37.07508667316932
 20
21.85168576927613
 10
37.07696425020925
 20
21.86946246198446
 10
37.07844564126828
 20
21.88338064774835
 10
37.09932291991412
 20
21.87903982743585
 10
37.09778985242279
 20
21.86463932830391
 97
        0
 75
     2
 76
     1
 98
        1
 10
29.78810682833425
 20
10.02563759219279
  0
HATCH
  5
5117
330
768
100
AcDbEntity
  8
0
100
AcDbHatch
 10
0.0
 20
0.0
 30
0.0
210
0.0
220
0.0
230
1.0
  2
SOLID
 70
     1
 71
     0
 91
        1
 92
        1
 93
        1
 72
     4
 94
        3
 73
     0
 74
     0
 95
       11
 96
        7
 40
0.0
 40
0.0
 40
0.0
 40
0.0
 40
1.0
 40
1.0
 40
1.0
 40
2.0
 40
2.0
 40
2.0
 40
2.0
 10
45.58971593831699
 20
8.869129510137743
 10
45.56732281765726
 20
8.870783155971077
 10
45.57600445828227
 20
8.8913159250683
 10
45.5937811509906
 20
8.890006788783577
 10
45.60773378770935
 20
8.889042162047465
 10
45.60411643744894
 20
8.868164883401633
 10
45.58971593831699
 20
8.869129510137743
 97
        0
 75
     2
 76
     1
 98
        1
 10
34.25645421956699
 20
0.1963083295821892
  0
HATCH
  5
5118
330
768
100
AcDbEntity
  8
0
100
AcDbHatch
 10
0.0
 20
0.0
 30
0.0
210
0.0
220
0.0
230
1.0
  2
SOLID
 70
     1
 71
     0
 91
        1
 92
        1
 93
        1
 72
     4
 94
        3
 73
     0
 74
     0
 95
       11
 96
        7
 40
0.0
 40
0.0
 40
0.0
 40
0.0
 40
1.0
 40
1.0
 40
1.0
 40
2.0
 40
2.0
 40
2.0
 40
2.0
 10
45.74402176513991
 20
8.851283915519689
 10
45.72162864448018
 20
8.852868659443299
 10
45.73027583415032
 20
8.873470330450243
 10
45.74805252685866
 20
8.872230096075244
 10
45.76207406548713
 20
8.871265469339132
 10
45.75845671522671
 20
8.850250386873855
 10
45.74402176513991
 20
8.851283915519689
 97
        0
 75
     2
 76
     1
 98
        1
 10
34.25645421956699
 20
0.1963083295821892
  0
HATCH
  5
5119
330
768
100
AcDbEntity
  8
0
100
AcDbHatch
 10
0.0
 20
0.0
 30
0.0
210
0.0
220
0.0
230
1.0
  2
SOLID
 70
     1
 71
     0
 91
        1
 92
        1
 93
        1
 72
     4
 94
        3
 73
     0
 74
     0
 95
       11
 96
        7
 40
0.0
 40
0.0
 40
0.0
 40
0.0
 40
1.0
 40
1.0
 40
1.0
 40
2.0
 40
2.0
 40
2.0
 40
2.0
 10
45.8474090806781
 20
8.640995287047465
 10
45.82501596001838
 20
8.642580030971077
 10
45.83362869873366
 20
8.663181701978022
 10
45.85140539144199
 20
8.662010369512744
 10
45.8653924791156
 20
8.66097684086691
 10
45.86180957981004
 20
8.639961758401633
 10
45.8474090806781
 20
8.640995287047465
 97
        0
 75
     2
 76
     1
 98
        1
 10
34.25645421956699
 20
0.1963083295821892
  0
HATCH
  5
511A
330
768
100
AcDbEntity
  8
0
100
AcDbHatch
 10
0.0
 20
0.0
 30
0.0
210
0.0
220
0.0
230
1.0
  2
SOLID
 70
     1
 71
     0
 91
        1
 92
        1
 93
        1
 72
     4
 94
        3
 73
     0
 74
     0
 95
       11
 96
        7
 40
0.0
 40
0.0
 40
0.0
 40
0.0
 40
1.0
 40
1.0
 40
1.0
 40
2.0
 40
2.0
 40
2.0
 40
2.0
 10
46.31687224257046
 20
8.536126580450244
 10
46.2945135728656
 20
8.537780226283577
 10
46.3031952134906
 20
8.558312995380799
 10
46.32097190619894
 20
8.557141662915521
 10
46.33495899387255
 20
8.556108134269689
 10
46.33130719265726
 20
8.535093051804411
 10
46.31687224257046
 20
8.536126580450244
 97
        0
 75
     2
 76
     1
 98
        1
 10
34.25645421956699
 20
0.1963083295821892
  0
HATCH
  5
511B
330
768
100
AcDbEntity
  8
0
100
AcDbHatch
 10
0.0
 20
0.0
 30
0.0
210
0.0
220
0.0
230
1.0
  2
SOLID
 70
     1
 71
     0
 91
        1
 92
        1
 93
        1
 72
     4
 94
        3
 73
     0
 74
     0
 95
       11
 96
        7
 40
0.0
 40
0.0
 40
0.0
 40
0.0
 40
1.0
 40
1.0
 40
1.0
 40
2.0
 40
2.0
 40
2.0
 40
2.0
 10
45.95799664578227
 20
8.673585890346077
 10
45.93560352512255
 20
8.675170634269687
 10
45.94421626383782
 20
8.695772305276632
 10
45.96199295654616
 20
8.694532070901634
 10
45.97598004421977
 20
8.693498542255799
 10
45.97243159586908
 20
8.672552361700245
 10
45.95799664578227
 20
8.673585890346077
 97
        0
 75
     2
 76
     1
 98
        1
 10
34.25645421956699
 20
0.1963083295821892
  0
HATCH
  5
511C
330
768
100
AcDbEntity
  8
0
100
AcDbHatch
 10
0.0
 20
0.0
 30
0.0
210
0.0
220
0.0
230
1.0
  2
SOLID
 70
     1
 71
     0
 91
        1
 92
        1
 93
        1
 72
     4
 94
        3
 73
     0
 74
     0
 95
       11
 96
        7
 40
0.0
 40
0.0
 40
0.0
 40
0.0
 40
1.0
 40
1.0
 40
1.0
 40
2.0
 40
2.0
 40
2.0
 40
2.0
 10
46.07054791531352
 20
8.827857266214133
 10
46.04812034369893
 20
8.829510912047466
 10
46.0568364352788
 20
8.850112583054409
 10
46.07457867703226
 20
8.848803446769688
 10
46.08856576470588
 20
8.847769918123856
 10
46.08505176731005
 20
8.826823737568299
 10
46.07054791531352
 20
8.827857266214133
 97
        0
 75
     2
 76
     1
 98
        1
 10
34.25645421956699
 20
0.1963083295821892
  0
HATCH
  5
511F
330
768
100
AcDbEntity
  8
0
100
AcDbHatch
 10
0.0
 20
0.0
 30
0.0
210
0.0
220
0.0
230
1.0
  2
SOLID
 70
     1
 71
     0
 91
        1
 92
        1
 93
        1
 72
     4
 94
        3
 73
     0
 74
     0
 95
       11
 96
        7
 40
0.0
 40
0.0
 40
0.0
 40
0.0
 40
1.0
 40
1.0
 40
1.0
 40
2.0
 40
2.0
 40
2.0
 40
2.0
 10
46.39366342095588
 20
8.662699388609966
 10
46.37133920220588
 20
8.664284132533577
 10
46.37988303901143
 20
8.684954705450243
 10
46.39769418267463
 20
8.683645569165522
 10
46.41164681939338
 20
8.682612040519688
 10
46.40806392008783
 20
8.66159695805441
 10
46.39366342095588
 20
8.662699388609966
 97
        0
 75
     2
 76
     1
 98
        1
 10
34.25645421956699
 20
0.1963083295821892
  0
HATCH
  5
5120
330
768
100
AcDbEntity
  8
0
100
AcDbHatch
 10
0.0
 20
0.0
 30
0.0
210
0.0
220
0.0
230
1.0
  2
SOLID
 70
     1
 71
     0
 91
        1
 92
        1
 93
        1
 72
     4
 94
        3
 73
     0
 74
     0
 95
       11
 96
        7
 40
0.0
 40
0.0
 40
0.0
 40
0.0
 40
1.0
 40
1.0
 40
1.0
 40
2.0
 40
2.0
 40
2.0
 40
2.0
 10
46.5003924791156
 20
8.641477600415522
 10
46.47799935845588
 20
8.643062344339132
 10
46.48668099908088
 20
8.663664015346077
 10
46.50442324083435
 20
8.662423780971077
 10
46.51844477946283
 20
8.661390252325244
 10
46.51482742920241
 20
8.640444071769689
 10
46.5003924791156
 20
8.641477600415522
 97
        0
 75
     2
 76
     1
 98
        1
 10
34.25645421956699
 20
0.1963083295821892
  0
HATCH
  5
5121
330
768
100
AcDbEntity
  8
0
100
AcDbHatch
 10
0.0
 20
0.0
 30
0.0
210
0.0
220
0.0
230
1.0
  2
SOLID
 70
     1
 71
     0
 91
        1
 92
        1
 93
        1
 72
     4
 94
        3
 73
     0
 74
     0
 95
       11
 96
        7
 40
0.0
 40
0.0
 40
0.0
 40
0.0
 40
1.0
 40
1.0
 40
1.0
 40
2.0
 40
2.0
 40
2.0
 40
2.0
 10
46.54242264404616
 20
8.567408047464133
 10
46.52002952338643
 20
8.568992791387744
 10
46.52871116401143
 20
8.589594462394688
 10
46.54648785671976
 20
8.588285326109965
 10
46.56047494439338
 20
8.587251797464132
 10
46.55689204508782
 20
8.566374518818298
 10
46.54242264404616
 20
8.567408047464133
 97
        0
 75
     2
 76
     1
 98
        1
 10
34.25645421956699
 20
0.1963083295821892
  0
HATCH
  5
5122
330
768
100
AcDbEntity
  8
0
100
AcDbHatch
 10
0.0
 20
0.0
 30
0.0
210
0.0
220
0.0
230
1.0
  2
SOLID
 70
     1
 71
     0
 91
        1
 92
        1
 93
        1
 72
     4
 94
        3
 73
     0
 74
     0
 95
       11
 96
        7
 40
0.0
 40
0.0
 40
0.0
 40
0.0
 40
1.0
 40
1.0
 40
1.0
 40
2.0
 40
2.0
 40
2.0
 40
2.0
 10
47.07765267876838
 20
8.529029683748856
 10
47.05525955810866
 20
8.530614427672466
 10
47.06387229682393
 20
8.55121609867941
 10
47.08164898953227
 20
8.549906962394688
 10
47.09567052816074
 20
8.548873433748856
 10
47.09208762885518
 20
8.527996155103022
 10
47.07765267876838
 20
8.529029683748856
 97
        0
 75
     2
 76
     1
 98
        1
 10
34.25645421956699
 20
0.1963083295821892
  0
HATCH
  5
5123
330
768
100
AcDbEntity
  8
0
100
AcDbHatch
 10
0.0
 20
0.0
 30
0.0
210
0.0
220
0.0
230
1.0
  2
SOLID
 70
     1
 71
     0
 91
        1
 92
        1
 93
        1
 72
     4
 94
        3
 73
     0
 74
     0
 95
       11
 96
        7
 40
0.0
 40
0.0
 40
0.0
 40
0.0
 40
1.0
 40
1.0
 40
1.0
 40
2.0
 40
2.0
 40
2.0
 40
2.0
 10
47.69921680637255
 20
8.656980530103022
 10
47.67678923475796
 20
8.658634175936355
 10
47.68550532633782
 20
8.6792358469433
 10
47.70321311713644
 20
8.677926710658577
 10
47.71723465576491
 20
8.676962083922465
 10
47.71354840359476
 20
8.655947001457189
 10
47.69921680637255
 20
8.656980530103022
 97
        0
 75
     2
 76
     1
 98
        1
 10
34.25645421956699
 20
0.1963083295821892
  0
HATCH
  5
5137
330
768
100
AcDbEntity
  8
0
100
AcDbHatch
 10
0.0
 20
0.0
 30
0.0
210
0.0
220
0.0
230
1.0
  2
SOLID
 70
     1
 71
     0
 91
        1
 92
        1
 93
        1
 72
     4
 94
        3
 73
     0
 74
     0
 95
       11
 96
        7
 40
0.0
 40
0.0
 40
0.0
 40
0.0
 40
1.0
 40
1.0
 40
1.0
 40
2.0
 40
2.0
 40
2.0
 40
2.0
 10
48.4331254977788
 20
9.542163364304411
 10
48.41073237711908
 20
9.543334696769687
 10
48.4190350572406
 20
9.564074171596078
 10
48.43681174994893
 20
9.563178446769687
 10
48.45083328857741
 20
9.562420525762743
 10
48.44759489882046
 20
9.541405443297466
 10
48.4331254977788
 20
9.542163364304411
 97
        0
 75
     2
 76
     1
 98
        1
 10
34.25645421956699
 20
0.1963083295821892
  0
HATCH
  5
5138
330
768
100
AcDbEntity
  8
0
100
AcDbHatch
 10
0.0
 20
0.0
 30
0.0
210
0.0
220
0.0
230
1.0
  2
SOLID
 70
     1
 71
     0
 91
        1
 92
        1
 93
        1
 72
     4
 94
        3
 73
     0
 74
     0
 95
       11
 96
        7
 40
0.0
 40
0.0
 40
0.0
 40
0.0
 40
1.0
 40
1.0
 40
1.0
 40
2.0
 40
2.0
 40
2.0
 40
2.0
 10
48.07170053033088
 20
9.672801385137744
 10
48.04930740967116
 20
9.673972717603022
 10
48.05754118788296
 20
9.694781094339133
 10
48.07531788059129
 20
9.693816467603021
 10
48.08933941921977
 20
9.6931274485058
 10
48.08616993137255
 20
9.672043464130798
 10
48.07170053033088
 20
9.672801385137744
 97
        0
 75
     2
 76
     1
 98
        1
 10
34.25645421956699
 20
0.1963083295821892
  0
HATCH
  5
513C
330
768
100
AcDbEntity
  8
0
100
AcDbHatch
 10
0.0
 20
0.0
 30
0.0
210
0.0
220
0.0
230
1.0
  2
SOLID
 70
     1
 71
     0
 91
        1
 92
        1
 93
        1
 72
     4
 94
        3
 73
     0
 74
     0
 95
       11
 96
        7
 40
0.0
 40
0.0
 40
0.0
 40
0.0
 40
1.0
 40
1.0
 40
1.0
 40
2.0
 40
2.0
 40
2.0
 40
2.0
 10
48.50750510932393
 20
9.670114210658577
 10
48.48514643961907
 20
9.671285543123855
 10
48.49334576687602
 20
9.692093919859966
 10
48.51115691053921
 20
9.691129293123854
 10
48.52510954725796
 20
9.690440274026631
 10
48.52194005941074
 20
9.669356289651633
 10
48.50750510932393
 20
9.670114210658577
 97
        0
 75
     2
 76
     1
 98
        1
 10
34.25645421956699
 20
0.1963083295821892
  0
HATCH
  5
513D
330
768
100
AcDbEntity
  8
0
100
AcDbHatch
 10
0.0
 20
0.0
 30
0.0
210
0.0
220
0.0
230
1.0
  2
SOLID
 70
     1
 71
     0
 91
        1
 92
        1
 93
        1
 72
     4
 94
        3
 73
     0
 74
     0
 95
       11
 96
        7
 40
0.0
 40
0.0
 40
0.0
 40
0.0
 40
1.0
 40
1.0
 40
1.0
 40
2.0
 40
2.0
 40
2.0
 40
2.0
 10
48.61464757894199
 20
9.650890577846077
 10
48.59222000732741
 20
9.652130812221078
 10
48.60052268744893
 20
9.672870287047466
 10
48.6182649292024
 20
9.671905660311355
 10
48.63232091878574
 20
9.671147739304411
 10
48.62908252902879
 20
9.650132656839132
 10
48.61464757894199
 20
9.650890577846077
 97
        0
 75
     2
 76
     1
 98
        1
 10
34.25645421956699
 20
0.1963083295821892
  0
HATCH
  5
5172
330
768
100
AcDbEntity
  8
0
100
AcDbHatch
 10
0.0
 20
0.0
 30
0.0
210
0.0
220
0.0
230
1.0
  2
SOLID
 70
     1
 71
     0
 91
        1
 92
        1
 93
        1
 72
     4
 94
        3
 73
     0
 74
     0
 95
       11
 96
        7
 40
0.0
 40
0.0
 40
0.0
 40
0.0
 40
1.0
 40
1.0
 40
1.0
 40
2.0
 40
2.0
 40
2.0
 40
2.0
 10
49.08945063883783
 20
10.27162788253358
 10
49.06726422390727
 20
10.27507297801969
 10
49.07766841227532
 20
10.29491672801969
 10
49.09520394829963
 20
10.2921606516308
 10
49.10912213406352
 20
10.28995579051969
 10
49.10371333415032
 20
10.26942302142247
 10
49.08945063883783
 20
10.27162788253358
 97
        0
 75
     2
 76
     1
 98
        1
 10
34.25645421956699
 20
0.1963083295821892
  0
HATCH
  5
5176
330
768
100
AcDbEntity
  8
0
100
AcDbHatch
 10
0.0
 20
0.0
 30
0.0
210
0.0
220
0.0
230
1.0
  2
SOLID
 70
     1
 71
     0
 91
        1
 92
        1
 93
        1
 72
     4
 94
        3
 73
     0
 74
     0
 95
       11
 96
        7
 40
0.0
 40
0.0
 40
0.0
 40
0.0
 40
1.0
 40
1.0
 40
1.0
 40
2.0
 40
2.0
 40
2.0
 40
2.0
 10
49.83028397217116
 20
10.94190566031135
 10
49.8080975572406
 20
10.94535075579747
 10
49.81850174560866
 20
10.96519450579747
 10
49.83603728163296
 20
10.96243842940858
 10
49.84995546739685
 20
10.96023356829747
 10
49.84454666748366
 20
10.93970079920024
 10
49.83028397217116
 20
10.94190566031135
 97
        0
 75
     2
 76
     1
 98
        1
 10
34.25645421956699
 20
0.1963083295821892
  0
HATCH
  5
517A
330
768
100
AcDbEntity
  8
0
100
AcDbHatch
 10
0.0
 20
0.0
 30
0.0
210
0.0
220
0.0
230
1.0
  2
SOLID
 70
     1
 71
     0
 91
        1
 92
        1
 93
        1
 72
     4
 94
        3
 73
     0
 74
     0
 95
       11
 96
        7
 40
0.0
 40
0.0
 40
0.0
 40
0.0
 40
1.0
 40
1.0
 40
1.0
 40
2.0
 40
2.0
 40
2.0
 40
2.0
 10
50.61514562581699
 20
10.73451091204747
 10
50.59295921088643
 20
10.73795600753358
 10
50.60336339925449
 20
10.75779975753358
 10
50.6208989352788
 20
10.75504368114469
 10
50.63481712104269
 20
10.75283882003358
 10
50.62940832112949
 20
10.73230605093636
 10
50.61514562581699
 20
10.73451091204747
 97
        0
 75
     2
 76
     1
 98
        1
 10
34.25645421956699
 20
0.1963083295821892
  0
HATCH
  5
5199
330
768
100
AcDbEntity
  8
0
100
AcDbHatch
 10
0.0
 20
0.0
 30
0.0
210
0.0
220
0.0
230
1.0
  2
SOLID
 70
     1
 71
     0
 91
        1
 92
        1
 93
        1
 72
     4
 94
        3
 73
     0
 74
     0
 95
       11
 96
        7
 40
0.0
 40
0.0
 40
0.0
 40
0.0
 40
1.0
 40
1.0
 40
1.0
 40
2.0
 40
2.0
 40
2.0
 40
2.0
 10
45.77382184109477
 20
9.742185608228022
 10
45.75139426948019
 20
9.743425842603021
 10
45.75969694960171
 20
9.764096415519688
 10
45.77747364231004
 20
9.763131788783577
 10
45.79146072998366
 20
9.762373867776633
 10
45.78822234022671
 20
9.741427687221076
 10
45.77382184109477
 20
9.742185608228022
 97
        0
 75
     2
 76
     1
 98
        1
 10
34.25645421956699
 20
0.1963083295821892
  0
HATCH
  5
519B
330
768
100
AcDbEntity
  8
0
100
AcDbHatch
 10
0.0
 20
0.0
 30
0.0
210
0.0
220
0.0
230
1.0
  2
SOLID
 70
     1
 71
     0
 91
        1
 92
        1
 93
        1
 72
     4
 94
        3
 73
     0
 74
     0
 95
       11
 96
        7
 40
0.0
 40
0.0
 40
0.0
 40
0.0
 40
1.0
 40
1.0
 40
1.0
 40
2.0
 40
2.0
 40
2.0
 40
2.0
 10
46.03575245090379
 20
9.518874518818299
 10
46.01332487928922
 20
9.520045851283577
 10
46.02155865750102
 20
9.540854228019688
 10
46.03933535020935
 20
9.539958503193299
 10
46.05335688883783
 20
9.539200582186355
 10
46.05015295003574
 20
9.518116597811353
 10
46.03575245090379
 20
9.518874518818299
 97
        0
 75
     2
 76
     1
 98
        1
 10
34.25645421956699
 20
0.1963083295821892
  0
HATCH
  5
519C
330
768
100
AcDbEntity
  8
0
100
AcDbHatch
 10
0.0
 20
0.0
 30
0.0
210
0.0
220
0.0
230
1.0
  2
SOLID
 70
     1
 71
     0
 91
        1
 92
        1
 93
        1
 72
     4
 94
        3
 73
     0
 74
     0
 95
       11
 96
        7
 40
0.0
 40
0.0
 40
0.0
 40
0.0
 40
1.0
 40
1.0
 40
1.0
 40
2.0
 40
2.0
 40
2.0
 40
2.0
 10
46.50711041531352
 20
9.422894158575243
 10
46.4847172946538
 20
9.424065491040521
 10
46.49301997477532
 20
9.444804965866911
 10
46.51079666748366
 20
9.443909241040521
 10
46.52481820611213
 20
9.443151320033577
 10
46.52157981635519
 20
9.422136237568299
 10
46.50711041531352
 20
9.422894158575243
 97
        0
 75
     2
 76
     1
 98
        1
 10
34.25645421956699
 20
0.1963083295821892
  0
HATCH
  5
519D
330
768
100
AcDbEntity
  8
0
100
AcDbHatch
 10
0.0
 20
0.0
 30
0.0
210
0.0
220
0.0
230
1.0
  2
SOLID
 70
     1
 71
     0
 91
        1
 92
        1
 93
        1
 72
     4
 94
        3
 73
     0
 74
     0
 95
       11
 96
        7
 40
0.0
 40
0.0
 40
0.0
 40
0.0
 40
1.0
 40
1.0
 40
1.0
 40
2.0
 40
2.0
 40
2.0
 40
2.0
 10
46.1456854478656
 20
9.553532179408578
 10
46.12329232720588
 20
9.554703511873855
 10
46.13152610541768
 20
9.575511888609965
 10
46.14930279812602
 20
9.574547261873855
 10
46.16332433675449
 20
9.573858242776634
 10
46.16015484890727
 20
9.552774258401632
 10
46.1456854478656
 20
9.553532179408578
 97
        0
 75
     2
 76
     1
 98
        1
 10
34.25645421956699
 20
0.1963083295821892
  0
HATCH
  5
51A1
330
768
100
AcDbEntity
  8
0
100
AcDbHatch
 10
0.0
 20
0.0
 30
0.0
210
0.0
220
0.0
230
1.0
  2
SOLID
 70
     1
 71
     0
 91
        1
 92
        1
 93
        1
 72
     4
 94
        3
 73
     0
 74
     0
 95
       11
 96
        7
 40
0.0
 40
0.0
 40
0.0
 40
0.0
 40
1.0
 40
1.0
 40
1.0
 40
2.0
 40
2.0
 40
2.0
 40
2.0
 10
46.58149002685866
 20
9.550845004929411
 10
46.5591313571538
 20
9.552016337394688
 10
46.56733068441074
 20
9.5728247141308
 10
46.58514182807394
 20
9.571860087394688
 10
46.59909446479269
 20
9.571171068297465
 10
46.59592497694546
 20
9.550087083922467
 10
46.58149002685866
 20
9.550845004929411
 97
        0
 75
     2
 76
     1
 98
        1
 10
34.25645421956699
 20
0.1963083295821892
  0
HATCH
  5
51A2
330
768
100
AcDbEntity
  8
0
100
AcDbHatch
 10
0.0
 20
0.0
 30
0.0
210
0.0
220
0.0
230
1.0
  2
SOLID
 70
     1
 71
     0
 91
        1
 92
        1
 93
        1
 72
     4
 94
        3
 73
     0
 74
     0
 95
       11
 96
        7
 40
0.0
 40
0.0
 40
0.0
 40
0.0
 40
1.0
 40
1.0
 40
1.0
 40
2.0
 40
2.0
 40
2.0
 40
2.0
 10
46.68863249647671
 20
9.531621372116911
 10
46.66620492486213
 20
9.53286160649191
 10
46.67450760498366
 20
9.5536010813183
 10
46.69224984673713
 20
9.552636454582189
 10
46.70630583632046
 20
9.551878533575245
 10
46.70306744656352
 20
9.530863451109966
 10
46.68863249647671
 20
9.531621372116911
 97
        0
 75
     2
 76
     1
 98
        1
 10
34.25645421956699
 20
0.1963083295821892
  0
HATCH
  5
51A4
330
768
100
AcDbEntity
  8
0
100
AcDbHatch
 10
0.0
 20
0.0
 30
0.0
210
0.0
220
0.0
230
1.0
  2
SOLID
 70
     1
 71
     0
 91
        1
 92
        1
 93
        1
 72
     4
 94
        3
 73
     0
 74
     0
 95
       11
 96
        7
 40
0.0
 40
0.0
 40
0.0
 40
0.0
 40
1.0
 40
1.0
 40
1.0
 40
2.0
 40
2.0
 40
2.0
 40
2.0
 10
46.88207460802185
 20
9.355852600415521
 10
46.85968148736213
 20
9.357023932880798
 10
46.8679497165288
 20
9.377763407707189
 10
46.88572640923713
 20
9.376798780971077
 10
46.89967904595588
 20
9.376040859964132
 10
46.89650955810865
 20
9.355094679408577
 10
46.88207460802185
 20
9.355852600415521
 97
        0
 75
     2
 76
     1
 98
        1
 10
34.25645421956699
 20
0.1963083295821892
  0
HATCH
  5
51A5
330
768
100
AcDbEntity
  8
0
100
AcDbHatch
 10
0.0
 20
0.0
 30
0.0
210
0.0
220
0.0
230
1.0
  2
SOLID
 70
     1
 71
     0
 91
        1
 92
        1
 93
        1
 72
     4
 94
        3
 73
     0
 74
     0
 95
       11
 96
        7
 40
0.0
 40
0.0
 40
0.0
 40
0.0
 40
1.0
 40
1.0
 40
1.0
 40
2.0
 40
2.0
 40
2.0
 40
2.0
 10
46.90798172607741
 20
9.334217400762743
 10
46.88555415446282
 20
9.335457635137743
 10
46.89385683458436
 20
9.356197109964132
 10
46.91163352729269
 20
9.355232483228022
 10
46.92562061496629
 20
9.354543464130799
 10
46.92241667616421
 20
9.333459479755799
 10
46.90798172607741
 20
9.334217400762743
 97
        0
 75
     2
 76
     1
 98
        1
 10
34.25645421956699
 20
0.1963083295821892
  0
HATCH
  5
51A6
330
768
100
AcDbEntity
  8
0
100
AcDbHatch
 10
0.0
 20
0.0
 30
0.0
210
0.0
220
0.0
230
1.0
  2
SOLID
 70
     1
 71
     0
 91
        1
 92
        1
 93
        1
 72
     4
 94
        3
 73
     0
 74
     0
 95
       11
 96
        7
 40
0.0
 40
0.0
 40
0.0
 40
0.0
 40
1.0
 40
1.0
 40
1.0
 40
2.0
 40
2.0
 40
2.0
 40
2.0
 10
47.32780106201491
 20
9.284952535311355
 10
47.30537349040032
 20
9.286123867776633
 10
47.31371062147671
 20
9.306863342603021
 10
47.33145286323018
 20
9.305967617776632
 10
47.3454399509038
 20
9.305209696769689
 10
47.34220156114685
 20
9.284194614304409
 10
47.32780106201491
 20
9.284952535311355
 97
        0
 75
     2
 76
     1
 98
        1
 10
34.25645421956699
 20
0.1963083295821892
  0
HATCH
  5
51A9
330
768
100
AcDbEntity
  8
0
100
AcDbHatch
 10
0.0
 20
0.0
 30
0.0
210
0.0
220
0.0
230
1.0
  2
SOLID
 70
     1
 71
     0
 91
        1
 92
        1
 93
        1
 72
     4
 94
        3
 73
     0
 74
     0
 95
       11
 96
        7
 40
0.0
 40
0.0
 40
0.0
 40
0.0
 40
1.0
 40
1.0
 40
1.0
 40
2.0
 40
2.0
 40
2.0
 40
2.0
 10
47.95622092963643
 20
9.346275234964132
 10
47.93379335802185
 20
9.347446567429412
 10
47.94209603814338
 20
9.368254944165521
 10
47.95987273085171
 20
9.367290317429411
 10
47.97385981852532
 20
9.366532396422466
 10
47.97065587972324
 20
9.345517313957188
 10
47.95622092963643
 20
9.346275234964132
 97
        0
 75
     2
 76
     1
 98
        1
 10
34.25645421956699
 20
0.1963083295821892
  0
HATCH
  5
51AC
330
768
100
AcDbEntity
  8
0
100
AcDbHatch
 10
0.0
 20
0.0
 30
0.0
210
0.0
220
0.0
230
1.0
  2
SOLID
 70
     1
 71
     0
 91
        1
 92
        1
 93
        1
 72
     4
 94
        3
 73
     0
 74
     0
 95
       11
 96
        7
 40
0.0
 40
0.0
 40
0.0
 40
0.0
 40
1.0
 40
1.0
 40
1.0
 40
2.0
 40
2.0
 40
2.0
 40
2.0
 10
48.02501948649407
 20
9.241337626457188
 10
48.00262636583435
 20
9.242508958922466
 10
48.01089459500102
 20
9.263317335658577
 10
48.02870573866422
 20
9.262352708922466
 10
48.04269282633782
 20
9.261663689825245
 10
48.03948888753574
 20
9.240579705450244
 10
48.02501948649407
 20
9.241337626457188
 97
        0
 75
     2
 76
     1
 98
        1
 10
34.25645421956699
 20
0.1963083295821892
  0
HATCH
  5
51AF
330
768
100
AcDbEntity
  8
0
100
AcDbHatch
 10
0.0
 20
0.0
 30
0.0
210
0.0
220
0.0
230
1.0
  2
SOLID
 70
     1
 71
     0
 91
        1
 92
        1
 93
        1
 72
     4
 94
        3
 73
     0
 74
     0
 95
       11
 96
        7
 40
0.0
 40
0.0
 40
0.0
 40
0.0
 40
1.0
 40
1.0
 40
1.0
 40
2.0
 40
2.0
 40
2.0
 40
2.0
 10
48.37883079291768
 20
9.094232049200244
 10
48.35643767225796
 20
9.095403381665522
 10
48.36470590142463
 20
9.11614285649191
 10
48.38248259413296
 20
9.115178229755799
 10
48.39646968180657
 20
9.114489210658578
 10
48.39326574300449
 20
9.093474128193298
 10
48.37883079291768
 20
9.094232049200244
 97
        0
 75
     2
 76
     1
 98
        1
 10
34.25645421956699
 20
0.1963083295821892
  0
HATCH
  5
51B3
330
768
100
AcDbEntity
  8
0
100
AcDbHatch
 10
0.0
 20
0.0
 30
0.0
210
0.0
220
0.0
230
1.0
  2
SOLID
 70
     1
 71
     0
 91
        1
 92
        1
 93
        1
 72
     4
 94
        3
 73
     0
 74
     0
 95
       11
 96
        7
 40
0.0
 40
0.0
 40
0.0
 40
0.0
 40
1.0
 40
1.0
 40
1.0
 40
2.0
 40
2.0
 40
2.0
 40
2.0
 10
45.03019798041768
 20
10.37966607697802
 10
45.00780485975796
 20
10.3808374094433
 10
45.01610753987949
 20
10.40164578617941
 10
45.03384978163296
 20
10.4006811594433
 10
45.04790577121629
 20
10.39992323843635
 10
45.04463293050449
 20
10.37890815597108
 10
45.03019798041768
 20
10.37966607697802
 97
        0
 75
     2
 76
     1
 98
        1
 10
34.25645421956699
 20
0.1963083295821892
  0
HATCH
  5
51B5
330
768
100
AcDbEntity
  8
0
100
AcDbHatch
 10
0.0
 20
0.0
 30
0.0
210
0.0
220
0.0
230
1.0
  2
SOLID
 70
     1
 71
     0
 91
        1
 92
        1
 93
        1
 72
     4
 94
        3
 73
     0
 74
     0
 95
       11
 96
        7
 40
0.0
 40
0.0
 40
0.0
 40
0.0
 40
1.0
 40
1.0
 40
1.0
 40
2.0
 40
2.0
 40
2.0
 40
2.0
 10
48.09547168918505
 20
10.25488471847108
 10
48.07304411757046
 20
10.25605605093636
 10
48.08134679769199
 20
10.27679552576274
 10
48.09912349040032
 20
10.27583089902663
 10
48.11314502902879
 20
10.27514187992941
 10
48.10987218831699
 20
10.25412679746413
 10
48.09547168918505
 20
10.25488471847108
 97
        0
 75
     2
 76
     1
 98
        1
 10
34.25645421956699
 20
0.1963083295821892
  0
HATCH
  5
51B8
330
768
100
AcDbEntity
  8
0
100
AcDbHatch
 10
0.0
 20
0.0
 30
0.0
210
0.0
220
0.0
230
1.0
  2
SOLID
 70
     1
 71
     0
 91
        1
 92
        1
 93
        1
 72
     4
 94
        3
 73
     0
 74
     0
 95
       11
 96
        7
 40
0.0
 40
0.0
 40
0.0
 40
0.0
 40
1.0
 40
1.0
 40
1.0
 40
2.0
 40
2.0
 40
2.0
 40
2.0
 10
48.31885168050449
 20
10.41287679746413
 10
48.29645855984477
 20
10.41404812992941
 10
48.30472678901143
 20
10.43485650666552
 10
48.32253793267463
 20
10.43396078183913
 10
48.33652502034824
 20
10.43320286083219
 10
48.33332108154615
 20
10.41211887645719
 10
48.31885168050449
 20
10.41287679746413
 97
        0
 75
     2
 76
     1
 98
        1
 10
34.25645421956699
 20
0.1963083295821892
  0
HATCH
  5
51B9
330
768
100
AcDbEntity
  8
0
100
AcDbHatch
 10
0.0
 20
0.0
 30
0.0
210
0.0
220
0.0
230
1.0
  2
SOLID
 70
     1
 71
     0
 91
        1
 92
        1
 93
        1
 72
     4
 94
        3
 73
     0
 74
     0
 95
       11
 96
        7
 40
0.0
 40
0.0
 40
0.0
 40
0.0
 40
1.0
 40
1.0
 40
1.0
 40
2.0
 40
2.0
 40
2.0
 40
2.0
 10
48.09023514404615
 20
10.43520101621413
 10
48.06784202338643
 20
10.43637234867941
 10
48.0761102525531
 20
10.45718072541552
 10
48.0939213962163
 20
10.45621609867941
 10
48.10790848388991
 20
10.45552707958219
 10
48.10467009413296
 20
10.43444309520719
 10
48.09023514404615
 20
10.43520101621413
 97
        0
 75
     2
 76
     1
 98
        1
 10
34.25645421956699
 20
0.1963083295821892
  0
HATCH
  5
51BA
330
768
100
AcDbEntity
  8
0
100
AcDbHatch
 10
0.0
 20
0.0
 30
0.0
210
0.0
220
0.0
230
1.0
  2
SOLID
 70
     1
 71
     0
 91
        1
 92
        1
 93
        1
 72
     4
 94
        3
 73
     0
 74
     0
 95
       11
 96
        7
 40
0.0
 40
0.0
 40
0.0
 40
0.0
 40
1.0
 40
1.0
 40
1.0
 40
2.0
 40
2.0
 40
2.0
 40
2.0
 10
48.0581268541156
 20
10.5315258860058
 10
48.03573373345588
 20
10.53269721847108
 10
48.04400196262255
 20
10.55343669329747
 10
48.06181310628574
 20
10.55247206656135
 10
48.07583464491421
 20
10.55178304746413
 10
48.07259625515727
 20
10.53076796499886
 10
48.0581268541156
 20
10.5315258860058
 97
        0
 75
     2
 76
     1
 98
        1
 10
34.25645421956699
 20
0.1963083295821892
  0
HATCH
  5
51BD
330
768
100
AcDbEntity
  8
0
100
AcDbHatch
 10
0.0
 20
0.0
 30
0.0
210
0.0
220
0.0
230
1.0
  2
SOLID
 70
     1
 71
     0
 91
        1
 92
        1
 93
        1
 72
     4
 94
        3
 73
     0
 74
     0
 95
       11
 96
        7
 40
0.0
 40
0.0
 40
0.0
 40
0.0
 40
1.0
 40
1.0
 40
1.0
 40
2.0
 40
2.0
 40
2.0
 40
2.0
 10
49.90635168050449
 20
10.08366347281136
 10
49.88395855984476
 20
10.08483480527663
 10
49.89222678901143
 20
10.10564318201274
 10
49.91003793267463
 20
10.10467855527663
 10
49.92402502034824
 20
10.10398953617941
 10
49.92082108154615
 20
10.08290555180441
 10
49.90635168050449
 20
10.08366347281136
 97
        0
 75
     2
 76
     1
 98
        1
 10
34.25645421956699
 20
0.1963083295821892
  0
HATCH
  5
51BE
330
768
100
AcDbEntity
  8
0
100
AcDbHatch
 10
0.0
 20
0.0
 30
0.0
210
0.0
220
0.0
230
1.0
  2
SOLID
 70
     1
 71
     0
 91
        1
 92
        1
 93
        1
 72
     4
 94
        3
 73
     0
 74
     0
 95
       11
 96
        7
 40
0.0
 40
0.0
 40
0.0
 40
0.0
 40
1.0
 40
1.0
 40
1.0
 40
2.0
 40
2.0
 40
2.0
 40
2.0
 10
49.67773514404615
 20
10.10591878965163
 10
49.65534202338643
 20
10.10715902402663
 10
49.6636102525531
 20
10.12796740076274
 10
49.68142139621629
 20
10.12700277402663
 10
49.69540848388991
 20
10.12624485301969
 10
49.69217009413296
 20
10.10516086864469
 10
49.67773514404615
 20
10.10591878965163
 97
        0
 75
     2
 76
     1
 98
        1
 10
34.25645421956699
 20
0.1963083295821892
  0
HATCH
  5
51BF
330
768
100
AcDbEntity
  8
0
100
AcDbHatch
 10
0.0
 20
0.0
 30
0.0
210
0.0
220
0.0
230
1.0
  2
SOLID
 70
     1
 71
     0
 91
        1
 92
        1
 93
        1
 72
     4
 94
        3
 73
     0
 74
     0
 95
       11
 96
        7
 40
0.0
 40
0.0
 40
0.0
 40
0.0
 40
1.0
 40
1.0
 40
1.0
 40
2.0
 40
2.0
 40
2.0
 40
2.0
 10
49.6456268541156
 20
10.2022436594433
 10
49.62323373345588
 20
10.2034838938183
 10
49.63150196262254
 20
10.22422336864469
 10
49.64931310628574
 20
10.22325874190858
 10
49.66333464491421
 20
10.22250082090163
 10
49.66009625515727
 20
10.20148573843636
 10
49.6456268541156
 20
10.2022436594433
 97
        0
 75
     2
 76
     1
 98
        1
 10
34.25645421956699
 20
0.1963083295821892
  0
HATCH
  5
51C2
330
768
100
AcDbEntity
  8
0
100
AcDbHatch
 10
0.0
 20
0.0
 30
0.0
210
0.0
220
0.0
230
1.0
  2
SOLID
 70
     1
 71
     0
 91
        1
 92
        1
 93
        1
 72
     4
 94
        3
 73
     0
 74
     0
 95
       11
 96
        7
 40
0.0
 40
0.0
 40
0.0
 40
0.0
 40
1.0
 40
1.0
 40
1.0
 40
2.0
 40
2.0
 40
2.0
 40
2.0
 10
47.46081619873365
 20
10.1396118235058
 10
47.43842307807393
 20
10.14078315597108
 10
47.4466913072406
 20
10.16159153270719
 10
47.46450245090379
 20
10.1606958078808
 10
47.47848953857741
 20
10.15993788687385
 10
47.47528559977532
 20
10.13885390249886
 10
47.46081619873365
 20
10.1396118235058
 97
        0
 75
     2
 76
     1
 98
        1
 10
34.25645421956699
 20
0.1963083295821892
  0
HATCH
  5
51C3
330
768
100
AcDbEntity
  8
0
100
AcDbHatch
 10
0.0
 20
0.0
 30
0.0
210
0.0
220
0.0
230
1.0
  2
SOLID
 70
     1
 71
     0
 91
        1
 92
        1
 93
        1
 72
     4
 94
        3
 73
     0
 74
     0
 95
       11
 96
        7
 40
0.0
 40
0.0
 40
0.0
 40
0.0
 40
1.0
 40
1.0
 40
1.0
 40
2.0
 40
2.0
 40
2.0
 40
2.0
 10
47.23219966227532
 20
10.1619360422558
 10
47.2098065416156
 20
10.16310737472108
 10
47.21807477078227
 20
10.18391575145719
 10
47.23588591444546
 20
10.18295112472108
 10
47.24987300211907
 20
10.18226210562385
 10
47.24663461236213
 20
10.16117812124886
 10
47.23219966227532
 20
10.1619360422558
 97
        0
 75
     2
 76
     1
 98
        1
 10
34.25645421956699
 20
0.1963083295821892
  0
HATCH
  5
51C4
330
768
100
AcDbEntity
  8
0
100
AcDbHatch
 10
0.0
 20
0.0
 30
0.0
210
0.0
220
0.0
230
1.0
  2
SOLID
 70
     1
 71
     0
 91
        1
 92
        1
 93
        1
 72
     4
 94
        3
 73
     0
 74
     0
 95
       11
 96
        7
 40
0.0
 40
0.0
 40
0.0
 40
0.0
 40
1.0
 40
1.0
 40
1.0
 40
2.0
 40
2.0
 40
2.0
 40
2.0
 10
47.20009137234477
 20
10.25826091204747
 10
47.17769825168504
 20
10.25943224451274
 10
47.18596648085171
 20
10.28017171933913
 10
47.20377762451491
 20
10.27920709260302
 10
47.21779916314338
 20
10.2785180735058
 10
47.21456077338643
 20
10.25750299104052
 10
47.20009137234477
 20
10.25826091204747
 97
        0
 75
     2
 76
     1
 98
        1
 10
34.25645421956699
 20
0.1963083295821892
  0
HATCH
  5
51FC
330
768
100
AcDbEntity
  8
0
100
AcDbHatch
 10
0.0
 20
0.0
 30
0.0
210
0.0
220
0.0
230
1.0
  2
SOLID
 70
     1
 71
     0
 91
        1
 92
        1
 93
        1
 72
     4
 94
        3
 73
     0
 74
     0
 95
       11
 96
        7
 40
0.0
 40
0.0
 40
0.0
 40
0.0
 40
1.0
 40
1.0
 40
1.0
 40
2.0
 40
2.0
 40
2.0
 40
2.0
 10
43.16719369439338
 20
9.567519267082188
 10
43.16719369439338
 20
9.545057244512744
 10
43.14610971001838
 20
9.552291945033577
 10
43.14610971001838
 20
9.57006863774191
 10
43.14610971001838
 20
9.584055725415521
 10
43.16719369439338
 20
9.581988668123854
 10
43.16719369439338
 20
9.567519267082188
 97
        0
 75
     2
 76
     1
 98
        1
 10
34.25645421956699
 20
0.1963083295821892
  0
HATCH
  5
5200
330
768
100
AcDbEntity
  8
0
100
AcDbHatch
 10
0.0
 20
0.0
 30
0.0
210
0.0
220
0.0
230
1.0
  2
SOLID
 70
     1
 71
     0
 91
        1
 92
        1
 93
        1
 72
     4
 94
        3
 73
     0
 74
     0
 95
       11
 96
        7
 40
0.0
 40
0.0
 40
0.0
 40
0.0
 40
1.0
 40
1.0
 40
1.0
 40
2.0
 40
2.0
 40
2.0
 40
2.0
 10
43.33596892225796
 20
9.948822435484967
 10
43.33596892225796
 20
9.926429314825244
 10
43.31478158501838
 20
9.933526211526631
 10
43.31478158501838
 20
9.951371806144689
 10
43.31478158501838
 20
9.9653588938183
 10
43.33596892225796
 20
9.963291836526633
 10
43.33596892225796
 20
9.948822435484967
 97
        0
 75
     2
 76
     1
 98
        1
 10
34.25645421956699
 20
0.1963083295821892
  0
HATCH
  5
5204
330
768
100
AcDbEntity
  8
0
100
AcDbHatch
 10
0.0
 20
0.0
 30
0.0
210
0.0
220
0.0
230
1.0
  2
SOLID
 70
     1
 71
     0
 91
        1
 92
        1
 93
        1
 72
     4
 94
        3
 73
     0
 74
     0
 95
       11
 96
        7
 40
0.0
 40
0.0
 40
0.0
 40
0.0
 40
1.0
 40
1.0
 40
1.0
 40
2.0
 40
2.0
 40
2.0
 40
2.0
 10
43.31567730984477
 20
10.38414470110997
 10
43.31567730984477
 20
10.36175158045024
 10
43.29445552165032
 20
10.36891737906135
 10
43.29445552165032
 20
10.38669407176969
 10
43.29445552165032
 20
10.4006811594433
 10
43.31567730984477
 20
10.39861410215163
 10
43.31567730984477
 20
10.38414470110997
 97
        0
 75
     2
 76
     1
 98
        1
 10
34.25645421956699
 20
0.1963083295821892
  0
HATCH
  5
5205
330
768
100
AcDbEntity
  8
0
100
AcDbHatch
 10
0.0
 20
0.0
 30
0.0
210
0.0
220
0.0
230
1.0
  2
SOLID
 70
     1
 71
     0
 91
        1
 92
        1
 93
        1
 72
     4
 94
        3
 73
     0
 74
     0
 95
       11
 96
        7
 40
0.0
 40
0.0
 40
0.0
 40
0.0
 40
1.0
 40
1.0
 40
1.0
 40
2.0
 40
2.0
 40
2.0
 40
2.0
 10
43.32918208415033
 20
10.49218289555441
 10
43.32918208415033
 20
10.46972087298497
 10
43.3080291978656
 20
10.47688667159608
 10
43.3080291978656
 20
10.49466336430441
 10
43.3080291978656
 20
10.50871935388774
 10
43.32918208415033
 20
10.50665229659608
 10
43.32918208415033
 20
10.49218289555441
 97
        0
 75
     2
 76
     1
 98
        1
 10
34.25645421956699
 20
0.1963083295821892
  0
HATCH
  5
5208
330
768
100
AcDbEntity
  8
0
100
AcDbHatch
 10
0.0
 20
0.0
 30
0.0
210
0.0
220
0.0
230
1.0
  2
SOLID
 70
     1
 71
     0
 91
        1
 92
        1
 93
        1
 72
     4
 94
        3
 73
     0
 74
     0
 95
       11
 96
        7
 40
0.0
 40
0.0
 40
0.0
 40
0.0
 40
1.0
 40
1.0
 40
1.0
 40
2.0
 40
2.0
 40
2.0
 40
2.0
 10
42.33702903510518
 20
9.375145135137744
 10
42.33702903510518
 20
9.352752014478021
 10
42.31580724691074
 20
9.359848911179411
 10
42.31580724691074
 20
9.377694505797466
 10
42.31580724691074
 20
9.3917504953808
 10
42.33702903510518
 20
9.38961453617941
 10
42.33702903510518
 20
9.375145135137744
 97
        0
 75
     2
 76
     1
 98
        1
 10
34.25645421956699
 20
0.1963083295821892
  0
HATCH
  5
520C
330
768
100
AcDbEntity
  8
0
100
AcDbHatch
 10
0.0
 20
0.0
 30
0.0
210
0.0
220
0.0
230
1.0
  2
SOLID
 70
     1
 71
     0
 91
        1
 92
        1
 93
        1
 72
     4
 94
        3
 73
     0
 74
     0
 95
       11
 96
        7
 40
0.0
 40
0.0
 40
0.0
 40
0.0
 40
1.0
 40
1.0
 40
1.0
 40
2.0
 40
2.0
 40
2.0
 40
2.0
 10
42.43152800428921
 20
9.493243008401633
 10
42.43152800428921
 20
9.47084988774191
 10
42.4102717651399
 20
9.477946784443299
 10
42.4102717651399
 20
9.495792379061355
 10
42.4102717651399
 20
9.509779466734965
 10
42.43152800428921
 20
9.507712409443299
 10
42.43152800428921
 20
9.493243008401633
 97
        0
 75
     2
 76
     1
 98
        1
 10
34.25645421956699
 20
0.1963083295821892
  0
HATCH
  5
520E
330
768
100
AcDbEntity
  8
0
100
AcDbHatch
 10
0.0
 20
0.0
 30
0.0
210
0.0
220
0.0
230
1.0
  2
SOLID
 70
     1
 71
     0
 91
        1
 92
        1
 93
        1
 72
     4
 94
        3
 73
     0
 74
     0
 95
       11
 96
        7
 40
0.0
 40
0.0
 40
0.0
 40
0.0
 40
1.0
 40
1.0
 40
1.0
 40
2.0
 40
2.0
 40
2.0
 40
2.0
 10
42.26953961453227
 20
10.20196805180441
 10
42.26953961453227
 20
10.17950602923497
 10
42.24838672824755
 20
10.18667182784608
 10
42.24838672824755
 20
10.20444852055441
 10
42.24838672824755
 20
10.21850451013775
 10
42.26953961453227
 20
10.21643745284608
 10
42.26953961453227
 20
10.20196805180441
 97
        0
 75
     2
 76
     1
 98
        1
 10
34.25645421956699
 20
0.1963083295821892
  0
HATCH
  5
522A
330
768
100
AcDbEntity
  8
0
100
AcDbHatch
 10
0.0
 20
0.0
 30
0.0
210
0.0
220
0.0
230
1.0
  2
SOLID
 70
     1
 71
     0
 91
        1
 92
        1
 93
        1
 72
     4
 94
        3
 73
     0
 74
     0
 95
       11
 96
        7
 40
0.0
 40
0.0
 40
0.0
 40
0.0
 40
1.0
 40
1.0
 40
1.0
 40
2.0
 40
2.0
 40
2.0
 40
2.0
 10
49.21051129421977
 20
12.56778402402663
 10
49.21051129421977
 20
12.54532200145719
 10
49.18942730984477
 20
12.55255670197802
 10
49.18942730984477
 20
12.57033339468635
 10
49.18942730984477
 20
12.58432048235997
 10
49.21051129421977
 20
12.5822534250683
 10
49.21051129421977
 20
12.56778402402663
 97
        0
 75
     2
 76
     1
 98
        1
 10
34.25645421956699
 20
0.1963083295821892
  0
HATCH
  5
522C
330
768
100
AcDbEntity
  8
0
100
AcDbHatch
 10
0.0
 20
0.0
 30
0.0
210
0.0
220
0.0
230
1.0
  2
SOLID
 70
     1
 71
     0
 91
        1
 92
        1
 93
        1
 72
     4
 94
        3
 73
     0
 74
     0
 95
       11
 96
        7
 40
0.0
 40
0.0
 40
0.0
 40
0.0
 40
1.0
 40
1.0
 40
1.0
 40
2.0
 40
2.0
 40
2.0
 40
2.0
 10
49.37928652208435
 20
12.94912164338427
 10
49.37928652208435
 20
12.92669407176969
 10
49.35809918484477
 20
12.93382541942594
 10
49.35809918484477
 20
12.95163656308913
 10
49.35809918484477
 20
12.9656581017176
 10
49.37928652208435
 20
12.96355659347108
 10
49.37928652208435
 20
12.94912164338427
 97
        0
 75
     2
 76
     1
 98
        1
 10
34.25645421956699
 20
0.1963083295821892
  0
HATCH
  5
5230
330
768
100
AcDbEntity
  8
0
100
AcDbHatch
 10
0.0
 20
0.0
 30
0.0
210
0.0
220
0.0
230
1.0
  2
SOLID
 70
     1
 71
     0
 91
        1
 92
        1
 93
        1
 72
     4
 94
        3
 73
     0
 74
     0
 95
       11
 96
        7
 40
0.0
 40
0.0
 40
0.0
 40
0.0
 40
1.0
 40
1.0
 40
1.0
 40
2.0
 40
2.0
 40
2.0
 40
2.0
 10
49.35899490967115
 20
13.38444390900927
 10
49.35899490967115
 20
13.36201633739469
 10
49.33777312147671
 20
13.3691821360058
 10
49.33777312147671
 20
13.38695882871413
 10
49.33777312147671
 20
13.40098036734261
 10
49.35899490967115
 20
13.39891331005094
 10
49.35899490967115
 20
13.38444390900927
 97
        0
 75
     2
 76
     1
 98
        1
 10
34.25645421956699
 20
0.1963083295821892
  0
HATCH
  5
5231
330
768
100
AcDbEntity
  8
0
100
AcDbHatch
 10
0.0
 20
0.0
 30
0.0
210
0.0
220
0.0
230
1.0
  2
SOLID
 70
     1
 71
     0
 91
        1
 92
        1
 93
        1
 72
     4
 94
        3
 73
     0
 74
     0
 95
       11
 96
        7
 40
0.0
 40
0.0
 40
0.0
 40
0.0
 40
1.0
 40
1.0
 40
1.0
 40
2.0
 40
2.0
 40
2.0
 40
2.0
 10
49.37249968397671
 20
13.49244765249885
 10
49.37249968397671
 20
13.46998562992941
 10
49.35134679769199
 20
13.47715142854052
 10
49.35134679769199
 20
13.49492812124886
 10
49.35134679769199
 20
13.50898411083219
 10
49.37249968397671
 20
13.50691705354052
 10
49.37249968397671
 20
13.49244765249885
 97
        0
 75
     2
 76
     1
 98
        1
 10
34.25645421956699
 20
0.1963083295821892
  0
HATCH
  5
524C
330
768
100
AcDbEntity
  8
0
100
AcDbHatch
 10
0.0
 20
0.0
 30
0.0
210
0.0
220
0.0
230
1.0
  2
SOLID
 70
     1
 71
     0
 91
        1
 92
        1
 93
        1
 72
     4
 94
        3
 73
     0
 74
     0
 95
       11
 96
        7
 40
0.0
 40
0.0
 40
0.0
 40
0.0
 40
1.0
 40
1.0
 40
1.0
 40
2.0
 40
2.0
 40
2.0
 40
2.0
 10
41.65741504856005
 20
12.90009793461691
 10
41.65741504856005
 20
12.87767036300233
 10
41.63629661323019
 20
12.8848706125683
 10
41.63629661323019
 20
12.90257840336691
 10
41.63629661323019
 20
12.91673774581483
 10
41.65741504856005
 20
12.91456733565858
 10
41.65741504856005
 20
12.90009793461691
 97
        0
 75
     2
 76
     1
 98
        1
 10
34.25645421956699
 20
0.1963083295821892
  0
HATCH
  5
524F
330
768
100
AcDbEntity
  8
0
100
AcDbHatch
 10
0.0
 20
0.0
 30
0.0
210
0.0
220
0.0
230
1.0
  2
SOLID
 70
     1
 71
     0
 91
        1
 92
        1
 93
        1
 72
     4
 94
        3
 73
     0
 74
     0
 95
       11
 96
        7
 40
0.0
 40
0.0
 40
0.0
 40
0.0
 40
1.0
 40
1.0
 40
1.0
 40
2.0
 40
2.0
 40
2.0
 40
2.0
 10
41.75870085585171
 20
13.03170058218636
 10
41.75870085585171
 20
13.00930746152663
 10
41.73747906765727
 20
13.01647326013774
 10
41.73747906765727
 20
13.0343188547558
 10
41.73747906765727
 20
13.04830594242941
 10
41.75870085585171
 20
13.04623888513774
 10
41.75870085585171
 20
13.03170058218636
 97
        0
 75
     2
 76
     1
 98
        1
 10
34.25645421956699
 20
0.1963083295821892
  0
HATCH
  5
5251
330
768
100
AcDbEntity
  8
0
100
AcDbHatch
 10
0.0
 20
0.0
 30
0.0
210
0.0
220
0.0
230
1.0
  2
SOLID
 70
     1
 71
     0
 91
        1
 92
        1
 93
        1
 72
     4
 94
        3
 73
     0
 74
     0
 95
       11
 96
        7
 40
0.0
 40
0.0
 40
0.0
 40
0.0
 40
1.0
 40
1.0
 40
1.0
 40
2.0
 40
2.0
 40
2.0
 40
2.0
 10
41.57986594916768
 20
13.23082710128358
 10
41.57986594916768
 20
13.20843398062386
 10
41.55864416097324
 20
13.21553087732525
 10
41.55864416097324
 20
13.2333764719433
 10
41.55864416097324
 20
13.24743246152663
 10
41.57986594916768
 20
13.24529650232524
 10
41.57986594916768
 20
13.23082710128358
 97
        0
 75
     2
 76
     1
 98
        1
 10
34.25645421956699
 20
0.1963083295821892
  0
HATCH
  5
5252
330
768
100
AcDbEntity
  8
0
100
AcDbHatch
 10
0.0
 20
0.0
 30
0.0
210
0.0
220
0.0
230
1.0
  2
SOLID
 70
     1
 71
     0
 91
        1
 92
        1
 93
        1
 72
     4
 94
        3
 73
     0
 74
     0
 95
       11
 96
        7
 40
0.0
 40
0.0
 40
0.0
 40
0.0
 40
1.0
 40
1.0
 40
1.0
 40
2.0
 40
2.0
 40
2.0
 40
2.0
 10
41.53266814100796
 20
13.06553141985997
 10
41.53266814100796
 20
13.04303494633566
 10
41.51148080376838
 20
13.05026964685649
 10
41.51148080376838
 20
13.06801188860997
 10
41.51148080376838
 20
13.08199897628358
 10
41.53266814100796
 20
13.07993191899191
 10
41.53266814100796
 20
13.06553141985997
 97
        0
 75
     2
 76
     1
 98
        1
 10
34.25645421956699
 20
0.1963083295821892
  0
HATCH
  5
5255
330
768
100
AcDbEntity
  8
0
100
AcDbHatch
 10
0.0
 20
0.0
 30
0.0
210
0.0
220
0.0
230
1.0
  2
SOLID
 70
     1
 71
     0
 91
        1
 92
        1
 93
        1
 72
     4
 94
        3
 73
     0
 74
     0
 95
       11
 96
        7
 40
0.0
 40
0.0
 40
0.0
 40
0.0
 40
1.0
 40
1.0
 40
1.0
 40
2.0
 40
2.0
 40
2.0
 40
2.0
 10
41.67436491835171
 20
13.34892497454747
 10
41.67436491835171
 20
13.32653185388774
 10
41.6531086792024
 20
13.33362875058914
 10
41.6531086792024
 20
13.35147434520719
 10
41.6531086792024
 20
13.36549588383566
 10
41.67436491835171
 20
13.36339437558913
 10
41.67436491835171
 20
13.34892497454747
 97
        0
 75
     2
 76
     1
 98
        1
 10
34.25645421956699
 20
0.1963083295821892
  0
HATCH
  5
5257
330
768
100
AcDbEntity
  8
0
100
AcDbHatch
 10
0.0
 20
0.0
 30
0.0
210
0.0
220
0.0
230
1.0
  2
SOLID
 70
     1
 71
     0
 91
        1
 92
        1
 93
        1
 72
     4
 94
        3
 73
     0
 74
     0
 95
       11
 96
        7
 40
0.0
 40
0.0
 40
0.0
 40
0.0
 40
1.0
 40
1.0
 40
1.0
 40
2.0
 40
2.0
 40
2.0
 40
2.0
 10
41.46066564534824
 20
14.78725233999885
 10
41.46066564534824
 20
14.76479031742941
 10
41.43951275906352
 20
14.77195611604052
 10
41.43951275906352
 20
14.78973280874886
 10
41.43951275906352
 20
14.80378879833219
 10
41.46066564534824
 20
14.80172174104052
 10
41.46066564534824
 20
14.78725233999885
 97
        0
 75
     2
 76
     1
 98
        1
 10
34.25645421956699
 20
0.1963083295821892
  0
HATCH
  5
5259
330
768
100
AcDbEntity
  8
0
100
AcDbHatch
 10
0.0
 20
0.0
 30
0.0
210
0.0
220
0.0
230
1.0
  2
SOLID
 70
     1
 71
     0
 91
        1
 92
        1
 93
        1
 72
     4
 94
        3
 73
     0
 74
     0
 95
       11
 96
        7
 40
0.0
 40
0.0
 40
0.0
 40
0.0
 40
1.0
 40
1.0
 40
1.0
 40
2.0
 40
2.0
 40
2.0
 40
2.0
 10
41.43479297824754
 20
14.16222589143115
 10
41.43479297824754
 20
14.13979831981656
 10
41.41353673909824
 20
14.14694689295024
 10
41.41353673909824
 20
14.16477526209087
 10
41.41353673909824
 20
14.17879680071934
 10
41.43479297824754
 20
14.17669529247281
 10
41.43479297824754
 20
14.16222589143115
 97
        0
 75
     2
 76
     1
 98
        1
 10
34.25645421956699
 20
0.1963083295821892
  0
HATCH
  5
525B
330
768
100
AcDbEntity
  8
0
100
AcDbHatch
 10
0.0
 20
0.0
 30
0.0
210
0.0
220
0.0
230
1.0
  2
SOLID
 70
     1
 71
     0
 91
        1
 92
        1
 93
        1
 72
     4
 94
        3
 73
     0
 74
     0
 95
       11
 96
        7
 40
0.0
 40
0.0
 40
0.0
 40
0.0
 40
1.0
 40
1.0
 40
1.0
 40
2.0
 40
2.0
 40
2.0
 40
2.0
 10
41.91393685845588
 20
14.85741170957351
 10
41.91393685845588
 20
14.83498413795892
 10
41.89271507026143
 20
14.84214993657004
 10
41.89271507026143
 20
14.85997830571066
 10
41.89271507026143
 20
14.8739826188617
 10
41.91393685845588
 20
14.87188111061517
 10
41.91393685845588
 20
14.85741170957351
 97
        0
 75
     2
 76
     1
 98
        1
 10
34.25645421956699
 20
0.1963083295821892
  0
HATCH
  5
525C
330
768
100
AcDbEntity
  8
0
100
AcDbHatch
 10
0.0
 20
0.0
 30
0.0
210
0.0
220
0.0
230
1.0
  2
SOLID
 70
     1
 71
     0
 91
        1
 92
        1
 93
        1
 72
     4
 94
        3
 73
     0
 74
     0
 95
       11
 96
        7
 40
0.0
 40
0.0
 40
0.0
 40
0.0
 40
1.0
 40
1.0
 40
1.0
 40
2.0
 40
2.0
 40
2.0
 40
2.0
 10
41.81943788927185
 20
14.82029080571066
 10
41.81943788927185
 20
14.79784600861865
 10
41.79828500298713
 20
14.80499458175233
 10
41.79828500298713
 20
14.82282295089295
 10
41.79828500298713
 20
14.83687894047629
 10
41.81943788927185
 20
14.83476020675233
 10
41.81943788927185
 20
14.82029080571066
 97
        0
 75
     2
 76
     1
 98
        1
 10
34.25645421956699
 20
0.1963083295821892
  0
HATCH
  5
5260
330
768
100
AcDbEntity
  8
0
100
AcDbHatch
 10
0.0
 20
0.0
 30
0.0
210
0.0
220
0.0
230
1.0
  2
SOLID
 70
     1
 71
     0
 91
        1
 92
        1
 93
        1
 72
     4
 94
        3
 73
     0
 74
     0
 95
       11
 96
        7
 40
0.0
 40
0.0
 40
0.0
 40
0.0
 40
1.0
 40
1.0
 40
1.0
 40
2.0
 40
2.0
 40
2.0
 40
2.0
 10
41.19735699734477
 20
14.31623888513775
 10
41.19735699734477
 20
14.2937768625683
 10
41.17620411106005
 20
14.30101156308913
 10
41.17620411106005
 20
14.31878825579747
 10
41.17620411106005
 20
14.33279256894851
 10
41.19735699734477
 20
14.33072551165684
 10
41.19735699734477
 20
14.31623888513775
 97
        0
 75
     2
 76
     1
 98
        1
 10
34.25645421956699
 20
0.1963083295821892
  0
HATCH
  5
5261
330
768
100
AcDbEntity
  8
0
100
AcDbHatch
 10
0.0
 20
0.0
 30
0.0
210
0.0
220
0.0
230
1.0
  2
SOLID
 70
     1
 71
     0
 91
        1
 92
        1
 93
        1
 72
     4
 94
        3
 73
     0
 74
     0
 95
       11
 96
        7
 40
0.0
 40
0.0
 40
0.0
 40
0.0
 40
1.0
 40
1.0
 40
1.0
 40
2.0
 40
2.0
 40
2.0
 40
2.0
 10
41.17709983588643
 20
14.28251140032872
 10
41.17709983588643
 20
14.26008382871413
 10
41.15591249864685
 20
14.26724962732524
 10
41.15591249864685
 20
14.28502632003358
 10
41.15591249864685
 20
14.29908230961691
 10
41.17709983588643
 20
14.29698080137038
 10
41.17709983588643
 20
14.28251140032872
 97
        0
 75
     2
 76
     1
 98
        1
 10
34.25645421956699
 20
0.1963083295821892
  0
HATCH
  5
5273
330
768
100
AcDbEntity
  8
0
100
AcDbHatch
 10
0.0
 20
0.0
 30
0.0
210
0.0
220
0.0
230
1.0
  2
SOLID
 70
     1
 71
     0
 91
        1
 92
        1
 93
        1
 72
     4
 94
        3
 73
     0
 74
     0
 95
       11
 96
        7
 40
0.0
 40
0.0
 40
0.0
 40
0.0
 40
1.0
 40
1.0
 40
1.0
 40
2.0
 40
2.0
 40
2.0
 40
2.0
 10
49.09661643744893
 20
9.324019918123856
 10
49.09661643744893
 20
9.30155789555441
 10
49.07546355116421
 20
9.308723694165522
 10
49.07546355116421
 20
9.326500386873855
 10
49.07546355116421
 20
9.340556376457188
 10
49.09661643744893
 20
9.338489319165522
 10
49.09661643744893
 20
9.324019918123856
 97
        0
 75
     2
 76
     1
 98
        1
 10
34.25645421956699
 20
0.1963083295821892
  0
HATCH
  5
5279
330
768
100
AcDbEntity
  8
0
100
AcDbHatch
 10
0.0
 20
0.0
 30
0.0
210
0.0
220
0.0
230
1.0
  2
SOLID
 70
     1
 71
     0
 91
        1
 92
        1
 93
        1
 72
     4
 94
        3
 73
     0
 74
     0
 95
       11
 96
        7
 40
0.0
 40
0.0
 40
0.0
 40
0.0
 40
1.0
 40
1.0
 40
1.0
 40
2.0
 40
2.0
 40
2.0
 40
2.0
 10
48.89745546739685
 20
9.394851081318299
 10
48.89745546739685
 20
9.372389058748855
 10
48.87630258111213
 20
9.379623759269688
 10
48.87630258111213
 20
9.397400451978021
 10
48.87630258111213
 20
9.411387539651631
 10
48.89745546739685
 20
9.409320482359966
 10
48.89745546739685
 20
9.394851081318299
 97
        0
 75
     2
 76
     1
 98
        1
 10
34.25645421956699
 20
0.1963083295821892
  0
HATCH
  5
527A
330
768
100
AcDbEntity
  8
0
100
AcDbHatch
 10
0.0
 20
0.0
 30
0.0
210
0.0
220
0.0
230
1.0
  2
SOLID
 70
     1
 71
     0
 91
        1
 92
        1
 93
        1
 72
     4
 94
        3
 73
     0
 74
     0
 95
       11
 96
        7
 40
0.0
 40
0.0
 40
0.0
 40
0.0
 40
1.0
 40
1.0
 40
1.0
 40
2.0
 40
2.0
 40
2.0
 40
2.0
 10
48.87719830593852
 20
9.361158047464134
 10
48.87719830593852
 20
9.338696024894688
 10
48.85601096869893
 20
9.3458618235058
 10
48.85601096869893
 20
9.363638516214133
 10
48.85601096869893
 20
9.377694505797466
 10
48.87719830593852
 20
9.375627448505799
 10
48.87719830593852
 20
9.361158047464134
 97
        0
 75
     2
 76
     1
 98
        1
 10
34.25645421956699
 20
0.1963083295821892
  0
HATCH
  5
5293
330
768
100
AcDbEntity
  8
0
100
AcDbHatch
 10
0.0
 20
0.0
 30
0.0
210
0.0
220
0.0
230
1.0
  2
SOLID
 70
     1
 71
     0
 91
        1
 92
        1
 93
        1
 72
     4
 94
        3
 73
     0
 74
     0
 95
       11
 96
        7
 40
0.0
 40
0.0
 40
0.0
 40
0.0
 40
1.0
 40
1.0
 40
1.0
 40
2.0
 40
2.0
 40
2.0
 40
2.0
 10
47.30754390055657
 20
12.12974013296761
 10
47.30754390055657
 20
12.1072436594433
 10
47.28904373779616
 20
12.11447835996413
 10
47.28904373779616
 20
12.1322206017176
 10
47.28904373779616
 20
12.1463110422558
 10
47.30754390055657
 20
12.14417508305441
 10
47.30754390055657
 20
12.12974013296761
 97
        0
 75
     2
 76
     1
 98
        1
 10
34.25645421956699
 20
0.1963083295821892
  0
HATCH
  5
5294
330
768
100
AcDbEntity
  8
0
100
AcDbHatch
 10
0.0
 20
0.0
 30
0.0
210
0.0
220
0.0
230
1.0
  2
SOLID
 70
     1
 71
     0
 91
        1
 92
        1
 93
        1
 72
     4
 94
        3
 73
     0
 74
     0
 95
       11
 96
        7
 40
0.0
 40
0.0
 40
0.0
 40
0.0
 40
1.0
 40
1.0
 40
1.0
 40
2.0
 40
2.0
 40
2.0
 40
2.0
 10
47.43408225776143
 20
12.24787245718635
 10
47.43408225776143
 20
12.22541043461691
 10
47.41554764404616
 20
12.23254178227316
 10
47.41554764404616
 20
12.25035292593636
 10
47.41554764404616
 20
12.26444336647455
 10
47.43408225776143
 20
12.26230740727316
 10
47.43408225776143
 20
12.24787245718635
 97
        0
 75
     2
 76
     1
 98
        1
 10
34.25645421956699
 20
0.1963083295821892
  0
HATCH
  5
5295
330
768
100
AcDbEntity
  8
0
100
AcDbHatch
 10
0.0
 20
0.0
 30
0.0
210
0.0
220
0.0
230
1.0
  2
SOLID
 70
     1
 71
     0
 91
        1
 92
        1
 93
        1
 72
     4
 94
        3
 73
     0
 74
     0
 95
       11
 96
        7
 40
0.0
 40
0.0
 40
0.0
 40
0.0
 40
1.0
 40
1.0
 40
1.0
 40
2.0
 40
2.0
 40
2.0
 40
2.0
 10
47.45757780897671
 20
12.27481310388774
 10
47.45757780897671
 20
12.2523510813183
 10
47.43907764621629
 20
12.25955133088427
 10
47.43907764621629
 20
12.2773280235926
 10
47.43907764621629
 20
12.2914184641308
 10
47.45757780897671
 20
12.28928250492941
 10
47.45757780897671
 20
12.27481310388774
 97
        0
 75
     2
 76
     1
 98
        1
 10
34.25645421956699
 20
0.1963083295821892
  0
HATCH
  5
5297
330
768
100
AcDbEntity
  8
0
100
AcDbHatch
 10
0.0
 20
0.0
 30
0.0
210
0.0
220
0.0
230
1.0
  2
SOLID
 70
     1
 71
     0
 91
        1
 92
        1
 93
        1
 72
     4
 94
        3
 73
     0
 74
     0
 95
       11
 96
        7
 40
0.0
 40
0.0
 40
0.0
 40
0.0
 40
1.0
 40
1.0
 40
1.0
 40
2.0
 40
2.0
 40
2.0
 40
2.0
 10
47.32211665446283
 20
12.52792426925233
 10
47.32211665446283
 20
12.50549669763774
 10
47.30371984456699
 20
12.51269694720372
 10
47.30371984456699
 20
12.53040473800233
 10
47.30371984456699
 20
12.54456408045024
 10
47.32211665446283
 20
12.54239367029399
 10
47.32211665446283
 20
12.52792426925233
 97
        0
 75
     2
 76
     1
 98
        1
 10
34.25645421956699
 20
0.1963083295821892
  0
HATCH
  5
5298
330
768
100
AcDbEntity
  8
0
100
AcDbHatch
 10
0.0
 20
0.0
 30
0.0
210
0.0
220
0.0
230
1.0
  2
SOLID
 70
     1
 71
     0
 91
        1
 92
        1
 93
        1
 72
     4
 94
        3
 73
     0
 74
     0
 95
       11
 96
        7
 40
0.0
 40
0.0
 40
0.0
 40
0.0
 40
1.0
 40
1.0
 40
1.0
 40
2.0
 40
2.0
 40
2.0
 40
2.0
 10
47.35164112277879
 20
12.57856717289816
 10
47.35164112277879
 20
12.55610515032872
 10
47.33310650906352
 20
12.56327094893983
 10
47.33310650906352
 20
12.58108209260302
 10
47.33310650906352
 20
12.59510363123149
 10
47.35164112277879
 20
12.59300212298497
 10
47.35164112277879
 20
12.57856717289816
 97
        0
 75
     2
 76
     1
 98
        1
 10
34.25645421956699
 20
0.1963083295821892
  0
HATCH
  5
529A
330
768
100
AcDbEntity
  8
0
100
AcDbHatch
 10
0.0
 20
0.0
 30
0.0
210
0.0
220
0.0
230
1.0
  2
SOLID
 70
     1
 71
     0
 91
        1
 92
        1
 93
        1
 72
     4
 94
        3
 73
     0
 74
     0
 95
       11
 96
        7
 40
0.0
 40
0.0
 40
0.0
 40
0.0
 40
1.0
 40
1.0
 40
1.0
 40
2.0
 40
2.0
 40
2.0
 40
2.0
 10
47.41044890272671
 20
12.65952691682177
 10
47.41044890272671
 20
12.63713379616205
 10
47.3919487399663
 20
12.6442651438183
 10
47.3919487399663
 20
12.66211073843635
 10
47.3919487399663
 20
12.67609782610997
 10
47.41044890272671
 20
12.6740307688183
 10
47.41044890272671
 20
12.65952691682177
 97
        0
 75
     2
 76
     1
 98
        1
 10
34.25645421956699
 20
0.1963083295821892
  0
HATCH
  5
529C
330
768
100
AcDbEntity
  8
0
100
AcDbHatch
 10
0.0
 20
0.0
 30
0.0
210
0.0
220
0.0
230
1.0
  2
SOLID
 70
     1
 71
     0
 91
        1
 92
        1
 93
        1
 72
     4
 94
        3
 73
     0
 74
     0
 95
       11
 96
        7
 40
0.0
 40
0.0
 40
0.0
 40
0.0
 40
1.0
 40
1.0
 40
1.0
 40
2.0
 40
2.0
 40
2.0
 40
2.0
 10
47.25452388102532
 20
12.85861898496413
 10
47.25452388102532
 20
12.83622586430441
 10
47.23598926731005
 20
12.84335721196066
 10
47.23598926731005
 20
12.86120280657872
 10
47.23598926731005
 20
12.87522434520719
 10
47.25452388102532
 20
12.87312283696066
 10
47.25452388102532
 20
12.85861898496413
 97
        0
 75
     2
 76
     1
 98
        1
 10
34.25645421956699
 20
0.1963083295821892
  0
HATCH
  5
529D
330
768
100
AcDbEntity
  8
0
100
AcDbHatch
 10
0.0
 20
0.0
 30
0.0
210
0.0
220
0.0
230
1.0
  2
SOLID
 70
     1
 71
     0
 91
        1
 92
        1
 93
        1
 72
     4
 94
        3
 73
     0
 74
     0
 95
       11
 96
        7
 40
0.0
 40
0.0
 40
0.0
 40
0.0
 40
1.0
 40
1.0
 40
1.0
 40
2.0
 40
2.0
 40
2.0
 40
2.0
 10
47.21335498996629
 20
12.69332330354052
 10
47.21335498996629
 20
12.67086128097108
 10
47.19488927816074
 20
12.67809598149191
 10
47.19488927816074
 20
12.69583822324538
 10
47.19488927816074
 20
12.70982531091899
 10
47.21335498996629
 20
12.70772380267247
 10
47.21335498996629
 20
12.69332330354052
 97
        0
 75
     2
 76
     1
 98
        1
 10
34.25645421956699
 20
0.1963083295821892
  0
HATCH
  5
52A0
330
768
100
AcDbEntity
  8
0
100
AcDbHatch
 10
0.0
 20
0.0
 30
0.0
210
0.0
220
0.0
230
1.0
  2
SOLID
 70
     1
 71
     0
 91
        1
 92
        1
 93
        1
 72
     4
 94
        3
 73
     0
 74
     0
 95
       11
 96
        7
 40
0.0
 40
0.0
 40
0.0
 40
0.0
 40
1.0
 40
1.0
 40
1.0
 40
2.0
 40
2.0
 40
2.0
 40
2.0
 10
47.3369305650531
 20
12.97675130918288
 10
47.3369305650531
 20
12.9543237375683
 10
47.31839595133782
 20
12.96145508522455
 10
47.31839595133782
 20
12.97926622888775
 10
47.31839595133782
 20
12.99332221847108
 10
47.3369305650531
 20
12.99118625926969
 10
47.3369305650531
 20
12.97675130918288
 97
        0
 75
     2
 76
     1
 98
        1
 10
34.25645421956699
 20
0.1963083295821892
  0
HATCH
  5
52A1
330
768
100
AcDbEntity
  8
0
100
AcDbHatch
 10
0.0
 20
0.0
 30
0.0
210
0.0
220
0.0
230
1.0
  2
SOLID
 70
     1
 71
     0
 91
        1
 92
        1
 93
        1
 72
     4
 94
        3
 73
     0
 74
     0
 95
       11
 96
        7
 40
0.0
 40
0.0
 40
0.0
 40
0.0
 40
1.0
 40
1.0
 40
1.0
 40
2.0
 40
2.0
 40
2.0
 40
2.0
 10
47.41351503770935
 20
13.00038466421761
 10
47.41351503770935
 20
12.97792264164816
 10
47.39498042399407
 20
12.98508844025927
 10
47.39498042399407
 20
13.00289958392247
 10
47.39498042399407
 20
13.0169555735058
 10
47.41351503770935
 20
13.01481961430441
 10
47.41351503770935
 20
13.00038466421761
 97
        0
 75
     2
 76
     1
 98
        1
 10
34.25645421956699
 20
0.1963083295821892
  0
HATCH
  5
52A2
330
768
100
AcDbEntity
  8
0
100
AcDbHatch
 10
0.0
 20
0.0
 30
0.0
210
0.0
220
0.0
230
1.0
  2
SOLID
 70
     1
 71
     0
 91
        1
 92
        1
 93
        1
 72
     4
 94
        3
 73
     0
 74
     0
 95
       11
 96
        7
 40
0.0
 40
0.0
 40
0.0
 40
0.0
 40
1.0
 40
1.0
 40
1.0
 40
2.0
 40
2.0
 40
2.0
 40
2.0
 10
47.56220535888991
 20
13.4373950266308
 10
47.56220535888991
 20
13.41493300406135
 10
47.54373964708435
 20
13.42209880267247
 10
47.54373964708435
 20
13.43990994633566
 10
47.54373964708435
 20
13.45393148496413
 10
47.56220535888991
 20
13.45186442767247
 10
47.56220535888991
 20
13.4373950266308
 97
        0
 75
     2
 76
     1
 98
        1
 10
34.25645421956699
 20
0.1963083295821892
  0
HATCH
  5
52A3
330
768
100
AcDbEntity
  8
0
100
AcDbHatch
 10
0.0
 20
0.0
 30
0.0
210
0.0
220
0.0
230
1.0
  2
SOLID
 70
     1
 71
     0
 91
        1
 92
        1
 93
        1
 72
     4
 94
        3
 73
     0
 74
     0
 95
       11
 96
        7
 40
0.0
 40
0.0
 40
0.0
 40
0.0
 40
1.0
 40
1.0
 40
1.0
 40
2.0
 40
2.0
 40
2.0
 40
2.0
 10
47.57099035237949
 20
13.47790934954747
 10
47.57099035237949
 20
13.45548177793288
 10
47.55255909152879
 20
13.46261312558913
 10
47.55255909152879
 20
13.48045872020719
 10
47.55255909152879
 20
13.4944458078808
 10
47.57099035237949
 20
13.49237875058913
 10
47.57099035237949
 20
13.47790934954747
 97
        0
 75
     2
 76
     1
 98
        1
 10
34.25645421956699
 20
0.1963083295821892
  0
HATCH
  5
52A4
330
768
100
AcDbEntity
  8
0
100
AcDbHatch
 10
0.0
 20
0.0
 30
0.0
210
0.0
220
0.0
230
1.0
  2
SOLID
 70
     1
 71
     0
 91
        1
 92
        1
 93
        1
 72
     4
 94
        3
 73
     0
 74
     0
 95
       11
 96
        7
 40
0.0
 40
0.0
 40
0.0
 40
0.0
 40
1.0
 40
1.0
 40
1.0
 40
2.0
 40
2.0
 40
2.0
 40
2.0
 10
47.47986757677185
 20
13.86072835996414
 10
47.47986757677185
 20
13.83826633739469
 10
47.46140186496629
 20
13.8454321360058
 10
47.46140186496629
 20
13.86324327966899
 10
47.46140186496629
 20
13.87726481829747
 10
47.47986757677185
 20
13.8751977610058
 10
47.47986757677185
 20
13.86072835996414
 97
        0
 75
     2
 76
     1
 98
        1
 10
34.25645421956699
 20
0.1963083295821892
  0
HATCH
  5
52A5
330
768
100
AcDbEntity
  8
0
100
AcDbHatch
 10
0.0
 20
0.0
 30
0.0
210
0.0
220
0.0
230
1.0
  2
SOLID
 70
     1
 71
     0
 91
        1
 92
        1
 93
        1
 72
     4
 94
        3
 73
     0
 74
     0
 95
       11
 96
        7
 40
0.0
 40
0.0
 40
0.0
 40
0.0
 40
1.0
 40
1.0
 40
1.0
 40
2.0
 40
2.0
 40
2.0
 40
2.0
 10
47.48865257026144
 20
13.9012426828808
 10
47.48865257026144
 20
13.87881511126622
 10
47.47022130941074
 20
13.88594645892247
 10
47.47022130941074
 20
13.90379205354052
 10
47.47022130941074
 20
13.91777914121413
 10
47.48865257026144
 20
13.91571208392247
 10
47.48865257026144
 20
13.9012426828808
 97
        0
 75
     2
 76
     1
 98
        1
 10
34.25645421956699
 20
0.1963083295821892
  0
HATCH
  5
52A6
330
768
100
AcDbEntity
  8
0
100
AcDbHatch
 10
0.0
 20
0.0
 30
0.0
210
0.0
220
0.0
230
1.0
  2
SOLID
 70
     1
 71
     0
 91
        1
 92
        1
 93
        1
 72
     4
 94
        3
 73
     0
 74
     0
 95
       11
 96
        7
 40
0.0
 40
0.0
 40
0.0
 40
0.0
 40
1.0
 40
1.0
 40
1.0
 40
2.0
 40
2.0
 40
2.0
 40
2.0
 10
47.19568165012255
 20
13.6854419016308
 10
47.19568165012255
 20
13.66297987906135
 10
47.17721593831699
 20
13.67014567767247
 10
47.17721593831699
 20
13.68795682133566
 10
47.17721593831699
 20
13.70197835996413
 10
47.19568165012255
 20
13.69991130267247
 10
47.19568165012255
 20
13.6854419016308
 97
        0
 75
     2
 76
     1
 98
        1
 10
34.25645421956699
 20
0.1963083295821892
  0
HATCH
  5
52A7
330
768
100
AcDbEntity
  8
0
100
AcDbHatch
 10
0.0
 20
0.0
 30
0.0
210
0.0
220
0.0
230
1.0
  2
SOLID
 70
     1
 71
     0
 91
        1
 92
        1
 93
        1
 72
     4
 94
        3
 73
     0
 74
     0
 95
       11
 96
        7
 40
0.0
 40
0.0
 40
0.0
 40
0.0
 40
1.0
 40
1.0
 40
1.0
 40
2.0
 40
2.0
 40
2.0
 40
2.0
 10
47.20446664361213
 20
13.72595622454747
 10
47.20446664361213
 20
13.70352865293288
 10
47.18603538276143
 20
13.71066000058913
 10
47.18603538276143
 20
13.72850559520719
 10
47.18603538276143
 20
13.7424926828808
 10
47.20446664361213
 20
13.74042562558913
 10
47.20446664361213
 20
13.72595622454747
 97
        0
 75
     2
 76
     1
 98
        1
 10
34.25645421956699
 20
0.1963083295821892
  0
HATCH
  5
52A9
330
768
100
AcDbEntity
  8
0
100
AcDbHatch
 10
0.0
 20
0.0
 30
0.0
210
0.0
220
0.0
230
1.0
  2
SOLID
 70
     1
 71
     0
 91
        1
 92
        1
 93
        1
 72
     4
 94
        3
 73
     0
 74
     0
 95
       11
 96
        7
 40
0.0
 40
0.0
 40
0.0
 40
0.0
 40
1.0
 40
1.0
 40
1.0
 40
2.0
 40
2.0
 40
2.0
 40
2.0
 10
47.42512500949754
 20
15.3423950266308
 10
47.42512500949754
 20
15.31993300406136
 10
47.40669374864685
 20
15.32709880267247
 10
47.40669374864685
 20
15.34490994633566
 10
47.40669374864685
 20
15.35894871044156
 10
47.42512500949754
 20
15.3568299767176
 10
47.42512500949754
 20
15.3423950266308
 97
        0
 75
     2
 76
     1
 98
        1
 10
34.25645421956699
 20
0.1963083295821892
  0
HATCH
  5
52AC
330
768
100
AcDbEntity
  8
0
100
AcDbHatch
 10
0.0
 20
0.0
 30
0.0
210
0.0
220
0.0
230
1.0
  2
SOLID
 70
     1
 71
     0
 91
        1
 92
        1
 93
        1
 72
     4
 94
        3
 73
     0
 74
     0
 95
       11
 96
        7
 40
0.0
 40
0.0
 40
0.0
 40
0.0
 40
1.0
 40
1.0
 40
1.0
 40
2.0
 40
2.0
 40
2.0
 40
2.0
 10
47.28105111626838
 20
14.88681559954747
 10
47.28105111626838
 20
14.86435357697802
 10
47.2625165025531
 20
14.87153660106656
 10
47.2625165025531
 20
14.88933051925233
 10
47.2625165025531
 20
14.90336928335823
 10
47.28105111626838
 20
14.90125054963427
 10
47.28105111626838
 20
14.88681559954747
 97
        0
 75
     2
 76
     1
 98
        1
 10
34.25645421956699
 20
0.1963083295821892
  0
HATCH
  5
52AD
330
768
100
AcDbEntity
  8
0
100
AcDbHatch
 10
0.0
 20
0.0
 30
0.0
210
0.0
220
0.0
230
1.0
  2
SOLID
 70
     1
 71
     0
 91
        1
 92
        1
 93
        1
 72
     4
 94
        3
 73
     0
 74
     0
 95
       11
 96
        7
 40
0.0
 40
0.0
 40
0.0
 40
0.0
 40
1.0
 40
1.0
 40
1.0
 40
2.0
 40
2.0
 40
2.0
 40
2.0
 10
47.28105111626838
 20
14.96104018179573
 10
47.28105111626838
 20
14.93861261018115
 10
47.2625165025531
 20
14.94576118331483
 10
47.2625165025531
 20
14.96357232697802
 10
47.2625165025531
 20
14.97762831656135
 10
47.28105111626838
 20
14.9755095828374
 10
47.28105111626838
 20
14.96104018179573
 97
        0
 75
     2
 76
     1
 98
        1
 10
34.25645421956699
 20
0.1963083295821892
  0
HATCH
  5
52AE
330
768
100
AcDbEntity
  8
0
100
AcDbHatch
 10
0.0
 20
0.0
 30
0.0
210
0.0
220
0.0
230
1.0
  2
SOLID
 70
     1
 71
     0
 91
        1
 92
        1
 93
        1
 72
     4
 94
        3
 73
     0
 74
     0
 95
       11
 96
        7
 40
0.0
 40
0.0
 40
0.0
 40
0.0
 40
1.0
 40
1.0
 40
1.0
 40
2.0
 40
2.0
 40
2.0
 40
2.0
 10
47.37806500515727
 20
14.89019179312385
 10
47.37806500515727
 20
14.86772977055441
 10
47.35959929335171
 20
14.87493002012038
 10
47.35959929335171
 20
14.89272393830614
 10
47.35959929335171
 20
14.90677992788948
 10
47.37806500515727
 20
14.90462674321066
 10
47.37806500515727
 20
14.89019179312385
 97
        0
 75
     2
 76
     1
 98
        1
 10
34.25645421956699
 20
0.1963083295821892
  0
HATCH
  5
52AF
330
768
100
AcDbEntity
  8
0
100
AcDbHatch
 10
0.0
 20
0.0
 30
0.0
210
0.0
220
0.0
230
1.0
  2
SOLID
 70
     1
 71
     0
 91
        1
 92
        1
 93
        1
 72
     4
 94
        3
 73
     0
 74
     0
 95
       11
 96
        7
 40
0.0
 40
0.0
 40
0.0
 40
0.0
 40
1.0
 40
1.0
 40
1.0
 40
2.0
 40
2.0
 40
2.0
 40
2.0
 10
47.37806500515727
 20
14.85305366378358
 10
47.37806500515727
 20
14.83060886669156
 10
47.35959929335171
 20
14.83779189078011
 10
47.35959929335171
 20
14.8556030344433
 10
47.35959929335171
 20
14.86962457307177
 10
47.37806500515727
 20
14.86752306482524
 10
47.37806500515727
 20
14.85305366378358
 97
        0
 75
     2
 76
     1
 98
        1
 10
34.25645421956699
 20
0.1963083295821892
  0
HATCH
  5
52B1
330
768
100
AcDbEntity
  8
0
100
AcDbHatch
 10
0.0
 20
0.0
 30
0.0
210
0.0
220
0.0
230
1.0
  2
SOLID
 70
     1
 71
     0
 91
        1
 92
        1
 93
        1
 72
     4
 94
        3
 73
     0
 74
     0
 95
       11
 96
        7
 40
0.0
 40
0.0
 40
0.0
 40
0.0
 40
1.0
 40
1.0
 40
1.0
 40
2.0
 40
2.0
 40
2.0
 40
2.0
 10
47.55472950168505
 20
14.71469862906135
 10
47.55472950168505
 20
14.69227105744677
 10
47.53619488796977
 20
14.69943685605788
 10
47.53619488796977
 20
14.71728245067594
 10
47.53619488796977
 20
14.73126953834955
 10
47.55472950168505
 20
14.72916803010302
 10
47.55472950168505
 20
14.71469862906135
 97
        0
 75
     2
 76
     1
 98
        1
 10
34.25645421956699
 20
0.1963083295821892
  0
HATCH
  5
52B2
330
768
100
AcDbEntity
  8
0
100
AcDbHatch
 10
0.0
 20
0.0
 30
0.0
210
0.0
220
0.0
230
1.0
  2
SOLID
 70
     1
 71
     0
 91
        1
 92
        1
 93
        1
 72
     4
 94
        3
 73
     0
 74
     0
 95
       11
 96
        7
 40
0.0
 40
0.0
 40
0.0
 40
0.0
 40
1.0
 40
1.0
 40
1.0
 40
2.0
 40
2.0
 40
2.0
 40
2.0
 10
47.54584115533088
 20
14.4852208187315
 10
47.54584115533088
 20
14.46279324711691
 10
47.5273065416156
 20
14.46995904572802
 10
47.5273065416156
 20
14.48778741486865
 10
47.5273065416156
 20
14.50179172801969
 10
47.54584115533088
 20
14.49969021977316
 10
47.54584115533088
 20
14.4852208187315
 97
        0
 75
     2
 76
     1
 98
        1
 10
34.25645421956699
 20
0.1963083295821892
  0
HATCH
  5
52B3
330
768
100
AcDbEntity
  8
0
100
AcDbHatch
 10
0.0
 20
0.0
 30
0.0
210
0.0
220
0.0
230
1.0
  2
SOLID
 70
     1
 71
     0
 91
        1
 92
        1
 93
        1
 72
     4
 94
        3
 73
     0
 74
     0
 95
       11
 96
        7
 40
0.0
 40
0.0
 40
0.0
 40
0.0
 40
1.0
 40
1.0
 40
1.0
 40
2.0
 40
2.0
 40
2.0
 40
2.0
 10
47.4634344713031
 20
14.44809991486865
 10
47.4634344713031
 20
14.42565511777663
 10
47.44496875949754
 20
14.43280369091031
 10
47.44496875949754
 20
14.45063206005094
 10
47.44496875949754
 20
14.46468804963427
 10
47.4634344713031
 20
14.46256931591031
 10
47.4634344713031
 20
14.44809991486865
 97
        0
 75
     2
 76
     1
 98
        1
 10
34.25645421956699
 20
0.1963083295821892
  0
HATCH
  5
52BD
330
768
100
AcDbEntity
  8
0
100
AcDbHatch
 10
0.0
 20
0.0
 30
0.0
210
0.0
220
0.0
230
1.0
  2
SOLID
 70
     1
 71
     0
 91
        1
 92
        1
 93
        1
 72
     4
 94
        3
 73
     0
 74
     0
 95
       11
 96
        7
 40
0.0
 40
0.0
 40
0.0
 40
0.0
 40
1.0
 40
1.0
 40
1.0
 40
2.0
 40
2.0
 40
2.0
 40
2.0
 10
51.01691266140727
 20
10.20823812558913
 10
51.0266278306781
 20
10.18804986604052
 10
51.00444141574754
 20
10.18536269156136
 10
50.99672440185866
 20
10.20141683652663
 10
50.9906610338031
 20
10.2140258860058
 10
51.01060813666769
 20
10.22132948843636
 10
51.01691266140727
 20
10.20823812558913
 97
        0
 75
     2
 76
     1
 98
        1
 10
34.25645421956699
 20
0.1963083295821892
  0
HATCH
  5
52BE
330
768
100
AcDbEntity
  8
0
100
AcDbHatch
 10
0.0
 20
0.0
 30
0.0
210
0.0
220
0.0
230
1.0
  2
SOLID
 70
     1
 71
     0
 91
        1
 92
        1
 93
        1
 72
     4
 94
        3
 73
     0
 74
     0
 95
       11
 96
        7
 40
0.0
 40
0.0
 40
0.0
 40
0.0
 40
1.0
 40
1.0
 40
1.0
 40
2.0
 40
2.0
 40
2.0
 40
2.0
 10
51.01326086019199
 20
10.16910184086691
 10
51.02297602946283
 20
10.1489135813183
 10
51.00078961453227
 20
10.14615750492941
 10
50.99307260064338
 20
10.16221164989469
 10
50.98700923258782
 20
10.17482069937386
 10
51.00699078640727
 20
10.18219320371413
 10
51.01326086019199
 20
10.16910184086691
 97
        0
 75
     2
 76
     1
 98
        1
 10
34.25645421956699
 20
0.1963083295821892
  0
HATCH
  5
52C8
330
768
100
AcDbEntity
  8
0
100
AcDbHatch
 10
0.0
 20
0.0
 30
0.0
210
0.0
220
0.0
230
1.0
  2
SOLID
 70
     1
 71
     0
 91
        1
 92
        1
 93
        1
 72
     4
 94
        3
 73
     0
 74
     0
 95
       11
 96
        7
 40
0.0
 40
0.0
 40
0.0
 40
0.0
 40
1.0
 40
1.0
 40
1.0
 40
2.0
 40
2.0
 40
2.0
 40
2.0
 10
51.39322044135518
 20
9.513913581318299
 10
51.40293561062602
 20
9.493656419859965
 10
51.38081809760519
 20
9.491038147290521
 10
51.37310108371629
 20
9.507023390346078
 10
51.36703771566074
 20
9.519632439825243
 10
51.38695036757046
 20
9.5269360422558
 10
51.39322044135518
 20
9.513913581318299
 97
        0
 75
     2
 76
     1
 98
        1
 10
34.25645421956699
 20
0.1963083295821892
  0
HATCH
  5
52CA
330
768
100
AcDbEntity
  8
0
100
AcDbHatch
 10
0.0
 20
0.0
 30
0.0
210
0.0
220
0.0
230
1.0
  2
SOLID
 70
     1
 71
     0
 91
        1
 92
        1
 93
        1
 72
     4
 94
        3
 73
     0
 74
     0
 95
       11
 96
        7
 40
0.0
 40
0.0
 40
0.0
 40
0.0
 40
1.0
 40
1.0
 40
1.0
 40
2.0
 40
2.0
 40
2.0
 40
2.0
 10
51.19020096435865
 20
9.9517163156933
 10
51.19991613362949
 20
9.931459154234966
 10
51.17772971869893
 20
9.928840881665522
 10
51.17001270481005
 20
9.9448950266308
 10
51.16394933675448
 20
9.957504076109967
 10
51.18389643961908
 20
9.96480767854052
 10
51.19020096435865
 20
9.9517163156933
 97
        0
 75
     2
 76
     1
 98
        1
 10
34.25645421956699
 20
0.1963083295821892
  0
HATCH
  5
52CB
330
768
100
AcDbEntity
  8
0
100
AcDbHatch
 10
0.0
 20
0.0
 30
0.0
210
0.0
220
0.0
230
1.0
  2
SOLID
 70
     1
 71
     0
 91
        1
 92
        1
 93
        1
 72
     4
 94
        3
 73
     0
 74
     0
 95
       11
 96
        7
 40
0.0
 40
0.0
 40
0.0
 40
0.0
 40
1.0
 40
1.0
 40
1.0
 40
2.0
 40
2.0
 40
2.0
 40
2.0
 10
50.97588157416769
 20
8.878775777498856
 10
50.98559674343851
 20
8.858656419859965
 10
50.9633758775531
 20
8.855831441561355
 10
50.95565886366421
 20
8.871954488436355
 10
50.94959549560866
 20
8.884563537915522
 10
50.96961150038296
 20
8.891867140346076
 10
50.97588157416769
 20
8.878775777498856
 97
        0
 75
     2
 76
     1
 98
        1
 10
34.25645421956699
 20
0.1963083295821892
  0
HATCH
  5
52CD
330
768
100
AcDbEntity
  8
0
100
AcDbHatch
 10
0.0
 20
0.0
 30
0.0
210
0.0
220
0.0
230
1.0
  2
SOLID
 70
     1
 71
     0
 91
        1
 92
        1
 93
        1
 72
     4
 94
        3
 73
     0
 74
     0
 95
       11
 96
        7
 40
0.0
 40
0.0
 40
0.0
 40
0.0
 40
1.0
 40
1.0
 40
1.0
 40
2.0
 40
2.0
 40
2.0
 40
2.0
 10
50.72845481635518
 20
8.980750603887744
 10
50.73813553467116
 20
8.960562344339133
 10
50.71591466878574
 20
8.957806267950243
 10
50.70819765489685
 20
8.973860412915522
 10
50.70209983588643
 20
8.986469462394688
 10
50.7221502916156
 20
8.993773064825245
 10
50.72845481635518
 20
8.980750603887744
 97
        0
 75
     2
 76
     1
 98
        1
 10
34.25645421956699
 20
0.1963083295821892
  0
HATCH
  5
52CE
330
768
100
AcDbEntity
  8
0
100
AcDbHatch
 10
0.0
 20
0.0
 30
0.0
210
0.0
220
0.0
230
1.0
  2
SOLID
 70
     1
 71
     0
 91
        1
 92
        1
 93
        1
 72
     4
 94
        3
 73
     0
 74
     0
 95
       11
 96
        7
 40
0.0
 40
0.0
 40
0.0
 40
0.0
 40
1.0
 40
1.0
 40
1.0
 40
2.0
 40
2.0
 40
2.0
 40
2.0
 10
50.75753142225796
 20
8.811320807880799
 10
50.76728104248365
 20
8.791063646422465
 10
50.74502572564338
 20
8.788376471943298
 10
50.73734316270935
 20
8.804361714998855
 10
50.73127979465379
 20
8.816970764478022
 10
50.7512957994281
 20
8.824274366908577
 10
50.75753142225796
 20
8.811320807880799
 97
        0
 75
     2
 76
     1
 98
        1
 10
34.25645421956699
 20
0.1963083295821892
  0
HATCH
  5
52D2
330
768
100
AcDbEntity
  8
0
100
AcDbHatch
 10
0.0
 20
0.0
 30
0.0
210
0.0
220
0.0
230
1.0
  2
SOLID
 70
     1
 71
     0
 91
        1
 92
        1
 93
        1
 72
     4
 94
        3
 73
     0
 74
     0
 95
       11
 96
        7
 40
0.0
 40
0.0
 40
0.0
 40
0.0
 40
1.0
 40
1.0
 40
1.0
 40
2.0
 40
2.0
 40
2.0
 40
2.0
 10
50.49188010932393
 20
9.9560571360058
 10
50.50162972954963
 20
9.935868876457189
 10
50.47937441270935
 20
9.933043898158577
 10
50.47165739882046
 20
9.949098043123854
 10
50.46555957981005
 20
9.961775994512744
 10
50.48564448649407
 20
9.969079596943299
 10
50.49188010932393
 20
9.9560571360058
 97
        0
 75
     2
 76
     1
 98
        1
 10
34.25645421956699
 20
0.1963083295821892
  0
HATCH
  5
52D4
330
768
100
AcDbEntity
  8
0
100
AcDbHatch
 10
0.0
 20
0.0
 30
0.0
210
0.0
220
0.0
230
1.0
  2
SOLID
 70
     1
 71
     0
 91
        1
 92
        1
 93
        1
 72
     4
 94
        3
 73
     0
 74
     0
 95
       11
 96
        7
 40
0.0
 40
0.0
 40
0.0
 40
0.0
 40
1.0
 40
1.0
 40
1.0
 40
2.0
 40
2.0
 40
2.0
 40
2.0
 10
50.76238900689338
 20
9.128131788783577
 10
50.77213862711907
 20
9.107943529234966
 10
50.7498833102788
 20
9.105118550936355
 10
50.7421662963899
 20
9.121172695901633
 10
50.73606847737949
 20
9.133850647290521
 10
50.75615338406352
 20
9.141154249721078
 10
50.76238900689338
 20
9.128131788783577
 97
        0
 75
     2
 76
     1
 98
        1
 10
34.25645421956699
 20
0.1963083295821892
  0
HATCH
  5
52D6
330
768
100
AcDbEntity
  8
0
100
AcDbHatch
 10
0.0
 20
0.0
 30
0.0
210
0.0
220
0.0
230
1.0
  2
SOLID
 70
     1
 71
     0
 91
        1
 92
        1
 93
        1
 72
     4
 94
        3
 73
     0
 74
     0
 95
       11
 96
        7
 40
0.0
 40
0.0
 40
0.0
 40
0.0
 40
1.0
 40
1.0
 40
1.0
 40
2.0
 40
2.0
 40
2.0
 40
2.0
 10
50.30929004856004
 20
9.696641445901632
 10
50.31900521783088
 20
9.676384284443298
 10
50.29685325385518
 20
9.67362820805441
 10
50.2891362399663
 20
9.689682353019688
 10
50.28307287191074
 20
9.702360304408577
 10
50.30301997477532
 20
9.709663906839133
 10
50.30929004856004
 20
9.696641445901632
 97
        0
 75
     2
 76
     1
 98
        1
 10
34.25645421956699
 20
0.1963083295821892
  0
HATCH
  5
52D7
330
768
100
AcDbEntity
  8
0
100
AcDbHatch
 10
0.0
 20
0.0
 30
0.0
210
0.0
220
0.0
230
1.0
  2
SOLID
 70
     1
 71
     0
 91
        1
 92
        1
 93
        1
 72
     4
 94
        3
 73
     0
 74
     0
 95
       11
 96
        7
 40
0.0
 40
0.0
 40
0.0
 40
0.0
 40
1.0
 40
1.0
 40
1.0
 40
2.0
 40
2.0
 40
2.0
 40
2.0
 10
50.30081511366421
 20
9.737500278366911
 10
50.31053028293505
 20
9.7173120188183
 10
50.28841276991421
 20
9.71455594242941
 10
50.28069575602532
 20
9.73067898930441
 10
50.27463238796977
 20
9.743288038783577
 10
50.29454503987949
 20
9.750522739304412
 10
50.30081511366421
 20
9.737500278366911
 97
        0
 75
     2
 76
     1
 98
        1
 10
34.25645421956699
 20
0.1963083295821892
  0
HATCH
  5
52D8
330
768
100
AcDbEntity
  8
0
100
AcDbHatch
 10
0.0
 20
0.0
 30
0.0
210
0.0
220
0.0
230
1.0
  2
SOLID
 70
     1
 71
     0
 91
        1
 92
        1
 93
        1
 72
     4
 94
        3
 73
     0
 74
     0
 95
       11
 96
        7
 40
0.0
 40
0.0
 40
0.0
 40
0.0
 40
1.0
 40
1.0
 40
1.0
 40
2.0
 40
2.0
 40
2.0
 40
2.0
 10
50.19405160454963
 20
9.757275126457188
 10
50.20376677382046
 20
9.737017964998854
 10
50.18151145698018
 20
9.734261888609966
 10
50.1737944430913
 20
9.750316033575244
 10
50.16769662408088
 20
9.762993984964131
 10
50.18778153076491
 20
9.770297587394689
 10
50.19405160454963
 20
9.757275126457188
 97
        0
 75
     2
 76
     1
 98
        1
 10
34.25645421956699
 20
0.1963083295821892
  0
HATCH
  5
52D9
330
768
100
AcDbEntity
  8
0
100
AcDbHatch
 10
0.0
 20
0.0
 30
0.0
210
0.0
220
0.0
230
1.0
  2
SOLID
 70
     1
 71
     0
 91
        1
 92
        1
 93
        1
 72
     4
 94
        3
 73
     0
 74
     0
 95
       11
 96
        7
 40
0.0
 40
0.0
 40
0.0
 40
0.0
 40
1.0
 40
1.0
 40
1.0
 40
2.0
 40
2.0
 40
2.0
 40
2.0
 10
50.01738710802185
 20
9.126409241040522
 10
50.02710227729268
 20
9.10622098149191
 10
50.00491586236213
 20
9.103533807012743
 10
49.99719884847324
 20
9.119587951978023
 10
49.99113548041768
 20
9.132197001457188
 10
50.01108258328227
 20
9.139500603887743
 10
50.01738710802185
 20
9.126409241040522
 97
        0
 75
     2
 76
     1
 98
        1
 10
34.25645421956699
 20
0.1963083295821892
  0
HATCH
  5
52DA
330
768
100
AcDbEntity
  8
0
100
AcDbHatch
 10
0.0
 20
0.0
 30
0.0
210
0.0
220
0.0
230
1.0
  2
SOLID
 70
     1
 71
     0
 91
        1
 92
        1
 93
        1
 72
     4
 94
        3
 73
     0
 74
     0
 95
       11
 96
        7
 40
0.0
 40
0.0
 40
0.0
 40
0.0
 40
1.0
 40
1.0
 40
1.0
 40
2.0
 40
2.0
 40
2.0
 40
2.0
 10
50.01373530680657
 20
9.087272956318298
 10
50.02345047607741
 20
9.067084696769687
 10
50.00126406114685
 20
9.064328620380799
 10
49.99354704725796
 20
9.080382765346077
 10
49.98748367920241
 20
9.092991814825243
 10
50.00746523302185
 20
9.100364319165522
 10
50.01373530680657
 20
9.087272956318298
 97
        0
 75
     2
 76
     1
 98
        1
 10
34.25645421956699
 20
0.1963083295821892
  0
HATCH
  5
52F7
330
768
100
AcDbEntity
  8
0
100
AcDbHatch
 10
0.0
 20
0.0
 30
0.0
210
0.0
220
0.0
230
1.0
  2
SOLID
 70
     1
 71
     0
 91
        1
 92
        1
 93
        1
 72
     4
 94
        3
 73
     0
 74
     0
 95
       11
 96
        7
 40
0.0
 40
0.0
 40
0.0
 40
0.0
 40
1.0
 40
1.0
 40
1.0
 40
2.0
 40
2.0
 40
2.0
 40
2.0
 10
41.96526878119894
 20
10.52766737906135
 10
41.96289166531352
 20
10.50534316031136
 10
41.94258282742289
 20
10.51471382003358
 10
41.94446040446282
 20
10.53242161083219
 10
41.94594179552185
 20
10.54633979659608
 10
41.96678462321282
 20
10.5420678781933
 10
41.96526878119894
 20
10.52766737906135
 97
        0
 75
     2
 76
     1
 98
        1
 10
34.25645421956699
 20
0.1963083295821892
  0
HATCH
  5
52F8
330
768
100
AcDbEntity
  8
0
100
AcDbHatch
 10
0.0
 20
0.0
 30
0.0
210
0.0
220
0.0
230
1.0
  2
SOLID
 70
     1
 71
     0
 91
        1
 92
        1
 93
        1
 72
     4
 94
        3
 73
     0
 74
     0
 95
       11
 96
        7
 40
0.0
 40
0.0
 40
0.0
 40
0.0
 40
1.0
 40
1.0
 40
1.0
 40
2.0
 40
2.0
 40
2.0
 40
2.0
 10
41.94921463623366
 20
10.37663439295024
 10
41.94683752034824
 20
10.35431017420024
 10
41.92652868245762
 20
10.36368083392247
 10
41.92840625949754
 20
10.38138862472108
 10
41.929904876034
 20
10.39544461430441
 10
41.95074770372498
 20
10.39103489208219
 10
41.94921463623366
 20
10.37663439295024
 97
        0
 75
     2
 76
     1
 98
        1
 10
34.25645421956699
 20
0.1963083295821892
  0
HATCH
  5
52FC
330
768
100
AcDbEntity
  8
0
100
AcDbHatch
 10
0.0
 20
0.0
 30
0.0
210
0.0
220
0.0
230
1.0
  2
SOLID
 70
     1
 71
     0
 91
        1
 92
        1
 93
        1
 72
     4
 94
        3
 73
     0
 74
     0
 95
       11
 96
        7
 40
0.0
 40
0.0
 40
0.0
 40
0.0
 40
1.0
 40
1.0
 40
1.0
 40
2.0
 40
2.0
 40
2.0
 40
2.0
 10
41.6903157104524
 20
11.5212329172558
 10
41.6903157104524
 20
11.49883979659608
 10
41.66909392225796
 20
11.50600559520719
 10
41.66909392225796
 20
11.52385118982524
 10
41.66909392225796
 20
11.53783827749886
 10
41.6903157104524
 20
11.53577122020719
 10
41.6903157104524
 20
11.5212329172558
 97
        0
 75
     2
 76
     1
 98
        1
 10
34.25645421956699
 20
0.1963083295821892
  0
HATCH
  5
52FD
330
768
100
AcDbEntity
  8
0
100
AcDbHatch
 10
0.0
 20
0.0
 30
0.0
210
0.0
220
0.0
230
1.0
  2
SOLID
 70
     1
 71
     0
 91
        1
 92
        1
 93
        1
 72
     4
 94
        3
 73
     0
 74
     0
 95
       11
 96
        7
 40
0.0
 40
0.0
 40
0.0
 40
0.0
 40
1.0
 40
1.0
 40
1.0
 40
2.0
 40
2.0
 40
2.0
 40
2.0
 10
41.64311790229269
 20
11.35593723583219
 10
41.64311790229269
 20
11.33347521326274
 10
41.6219305650531
 20
11.34070991378358
 10
41.6219305650531
 20
11.35848660649191
 10
41.6219305650531
 20
11.37247369416552
 10
41.64311790229269
 20
11.37037218591899
 10
41.64311790229269
 20
11.35593723583219
 97
        0
 75
     2
 76
     1
 98
        1
 10
34.25645421956699
 20
0.1963083295821892
  0
HATCH
  5
52FE
330
768
100
AcDbEntity
  8
0
100
AcDbHatch
 10
0.0
 20
0.0
 30
0.0
210
0.0
220
0.0
230
1.0
  2
SOLID
 70
     1
 71
     0
 91
        1
 92
        1
 93
        1
 72
     4
 94
        3
 73
     0
 74
     0
 95
       11
 96
        7
 40
0.0
 40
0.0
 40
0.0
 40
0.0
 40
1.0
 40
1.0
 40
1.0
 40
2.0
 40
2.0
 40
2.0
 40
2.0
 10
41.70044429118158
 20
11.51792562558913
 10
41.70044429118158
 20
11.49542915206483
 10
41.67929140489685
 20
11.5026294016308
 10
41.67929140489685
 20
11.52040609433913
 10
41.67929140489685
 20
11.53446208392247
 10
41.70044429118158
 20
11.5323950266308
 10
41.70044429118158
 20
11.51792562558913
 97
        0
 75
     2
 76
     1
 98
        1
 10
34.25645421956699
 20
0.1963083295821892
  0
HATCH
  5
52FF
330
768
100
AcDbEntity
  8
0
100
AcDbHatch
 10
0.0
 20
0.0
 30
0.0
210
0.0
220
0.0
230
1.0
  2
SOLID
 70
     1
 71
     0
 91
        1
 92
        1
 93
        1
 72
     4
 94
        3
 73
     0
 74
     0
 95
       11
 96
        7
 40
0.0
 40
0.0
 40
0.0
 40
0.0
 40
1.0
 40
1.0
 40
1.0
 40
2.0
 40
2.0
 40
2.0
 40
2.0
 10
41.78481467963643
 20
11.63939969242941
 10
41.78481467963643
 20
11.61693766985997
 10
41.76355844048713
 20
11.62410346847108
 10
41.76355844048713
 20
11.64188016117941
 10
41.76355844048713
 20
11.65593615076274
 10
41.78481467963643
 20
11.65380019156136
 10
41.78481467963643
 20
11.63939969242941
 97
        0
 75
     2
 76
     1
 98
        1
 10
34.25645421956699
 20
0.1963083295821892
  0
HATCH
  5
5300
330
768
100
AcDbEntity
  8
0
100
AcDbHatch
 10
0.0
 20
0.0
 30
0.0
210
0.0
220
0.0
230
1.0
  2
SOLID
 70
     1
 71
     0
 91
        1
 92
        1
 93
        1
 72
     4
 94
        3
 73
     0
 74
     0
 95
       11
 96
        7
 40
0.0
 40
0.0
 40
0.0
 40
0.0
 40
1.0
 40
1.0
 40
1.0
 40
2.0
 40
2.0
 40
2.0
 40
2.0
 10
41.87266461453227
 20
11.66303304746413
 10
41.87266461453227
 20
11.64057102489469
 10
41.85140837538296
 20
11.6477368235058
 10
41.85140837538296
 20
11.66554796716899
 10
41.85140837538296
 20
11.67956950579747
 10
41.87266461453227
 20
11.67743354659608
 10
41.87266461453227
 20
11.66303304746413
 97
        0
 75
     2
 76
     1
 98
        1
 10
34.25645421956699
 20
0.1963083295821892
  0
HATCH
  5
5305
330
768
100
AcDbEntity
  8
0
100
AcDbHatch
 10
0.0
 20
0.0
 30
0.0
210
0.0
220
0.0
230
1.0
  2
SOLID
 70
     1
 71
     0
 91
        1
 92
        1
 93
        1
 72
     4
 94
        3
 73
     0
 74
     0
 95
       11
 96
        7
 40
0.0
 40
0.0
 40
0.0
 40
0.0
 40
1.0
 40
1.0
 40
1.0
 40
2.0
 40
2.0
 40
2.0
 40
2.0
 10
41.44337126600797
 20
12.42081625058913
 10
41.44337126600797
 20
12.39842312992941
 10
41.42214947781352
 20
12.40558892854052
 10
41.42214947781352
 20
12.42343452315858
 10
41.42214947781352
 20
12.43742161083219
 10
41.44337126600797
 20
12.43535455354052
 10
41.44337126600797
 20
12.42081625058913
 97
        0
 75
     2
 76
     1
 98
        1
 10
34.25645421956699
 20
0.1963083295821892
  0
HATCH
  5
5306
330
768
100
AcDbEntity
  8
0
100
AcDbHatch
 10
0.0
 20
0.0
 30
0.0
210
0.0
220
0.0
230
1.0
  2
SOLID
 70
     1
 71
     0
 91
        1
 92
        1
 93
        1
 72
     4
 94
        3
 73
     0
 74
     0
 95
       11
 96
        7
 40
0.0
 40
0.0
 40
0.0
 40
0.0
 40
1.0
 40
1.0
 40
1.0
 40
2.0
 40
2.0
 40
2.0
 40
2.0
 10
41.39617345784824
 20
12.25552056916552
 10
41.39617345784824
 20
12.23305854659608
 10
41.37498612060865
 20
12.24029324711691
 10
41.37498612060865
 20
12.25806993982524
 10
41.37498612060865
 20
12.27205702749886
 10
41.39617345784824
 20
12.26995551925233
 10
41.39617345784824
 20
12.25552056916552
 97
        0
 75
     2
 76
     1
 98
        1
 10
34.25645421956699
 20
0.1963083295821892
  0
HATCH
  5
5307
330
768
100
AcDbEntity
  8
0
100
AcDbHatch
 10
0.0
 20
0.0
 30
0.0
210
0.0
220
0.0
230
1.0
  2
SOLID
 70
     1
 71
     0
 91
        1
 92
        1
 93
        1
 72
     4
 94
        3
 73
     0
 74
     0
 95
       11
 96
        7
 40
0.0
 40
0.0
 40
0.0
 40
0.0
 40
1.0
 40
1.0
 40
1.0
 40
2.0
 40
2.0
 40
2.0
 40
2.0
 10
41.45349984673713
 20
12.41750895892247
 10
41.45349984673713
 20
12.39501248539816
 10
41.43234696045241
 20
12.40221273496413
 10
41.43234696045241
 20
12.41998942767247
 10
41.43234696045241
 20
12.4340454172558
 10
41.45349984673713
 20
12.43197835996413
 10
41.45349984673713
 20
12.41750895892247
 97
        0
 75
     2
 76
     1
 98
        1
 10
34.25645421956699
 20
0.1963083295821892
  0
HATCH
  5
5308
330
768
100
AcDbEntity
  8
0
100
AcDbHatch
 10
0.0
 20
0.0
 30
0.0
210
0.0
220
0.0
230
1.0
  2
SOLID
 70
     1
 71
     0
 91
        1
 92
        1
 93
        1
 72
     4
 94
        3
 73
     0
 74
     0
 95
       11
 96
        7
 40
0.0
 40
0.0
 40
0.0
 40
0.0
 40
1.0
 40
1.0
 40
1.0
 40
2.0
 40
2.0
 40
2.0
 40
2.0
 10
41.53787023519199
 20
12.53898302576274
 10
41.53787023519199
 20
12.5165210031933
 10
41.51661399604269
 20
12.52368680180441
 10
41.51661399604269
 20
12.54146349451274
 10
41.51661399604269
 20
12.55551948409608
 10
41.53787023519199
 20
12.55338352489469
 10
41.53787023519199
 20
12.53898302576274
 97
        0
 75
     2
 76
     1
 98
        1
 10
34.25645421956699
 20
0.1963083295821892
  0
HATCH
  5
5309
330
768
100
AcDbEntity
  8
0
100
AcDbHatch
 10
0.0
 20
0.0
 30
0.0
210
0.0
220
0.0
230
1.0
  2
SOLID
 70
     1
 71
     0
 91
        1
 92
        1
 93
        1
 72
     4
 94
        3
 73
     0
 74
     0
 95
       11
 96
        7
 40
0.0
 40
0.0
 40
0.0
 40
0.0
 40
1.0
 40
1.0
 40
1.0
 40
2.0
 40
2.0
 40
2.0
 40
2.0
 10
41.62572017008782
 20
12.56261638079747
 10
41.62572017008782
 20
12.54015435822802
 10
41.60446393093852
 20
12.54732015683913
 10
41.60446393093852
 20
12.56513130050233
 10
41.60446393093852
 20
12.5791528391308
 10
41.62572017008782
 20
12.57701687992941
 10
41.62572017008782
 20
12.56261638079747
 97
        0
 75
     2
 76
     1
 98
        1
 10
34.25645421956699
 20
0.1963083295821892
  0
HATCH
  5
530E
330
768
100
AcDbEntity
  8
0
100
AcDbHatch
 10
0.0
 20
0.0
 30
0.0
210
0.0
220
0.0
230
1.0
  2
SOLID
 70
     1
 71
     0
 91
        1
 92
        1
 93
        1
 72
     4
 94
        3
 73
     0
 74
     0
 95
       11
 96
        7
 40
0.0
 40
0.0
 40
0.0
 40
0.0
 40
1.0
 40
1.0
 40
1.0
 40
2.0
 40
2.0
 40
2.0
 40
2.0
 10
42.30767682156352
 20
12.43845513947802
 10
42.30767682156352
 20
12.4160620188183
 10
42.28645503336907
 20
12.42322781742941
 10
42.28645503336907
 20
12.44107341204747
 10
42.28645503336907
 20
12.45506049972108
 10
42.30767682156352
 20
12.45299344242941
 10
42.30767682156352
 20
12.43845513947802
 97
        0
 75
     2
 76
     1
 98
        1
 10
34.25645421956699
 20
0.1963083295821892
  0
HATCH
  5
531C
330
768
100
AcDbEntity
  8
0
100
AcDbHatch
 10
0.0
 20
0.0
 30
0.0
210
0.0
220
0.0
230
1.0
  2
SOLID
 70
     1
 71
     0
 91
        1
 92
        1
 93
        1
 72
     4
 94
        3
 73
     0
 74
     0
 95
       11
 96
        7
 40
0.0
 40
0.0
 40
0.0
 40
0.0
 40
1.0
 40
1.0
 40
1.0
 40
2.0
 40
2.0
 40
2.0
 40
2.0
 10
43.65539817573018
 20
8.78872098149191
 10
43.65539817573018
 20
8.766258958922466
 10
43.63417638753574
 20
8.773424757533578
 10
43.63417638753574
 20
8.791201450241911
 10
43.63417638753574
 20
8.805257439825244
 10
43.65539817573018
 20
8.803190382533577
 10
43.65539817573018
 20
8.78872098149191
 97
        0
 75
     2
 76
     1
 98
        1
 10
34.25645421956699
 20
0.1963083295821892
  0
HATCH
  5
5320
330
768
100
AcDbEntity
  8
0
100
AcDbHatch
 10
0.0
 20
0.0
 30
0.0
210
0.0
220
0.0
230
1.0
  2
SOLID
 70
     1
 71
     0
 91
        1
 92
        1
 93
        1
 72
     4
 94
        3
 73
     0
 74
     0
 95
       11
 96
        7
 40
0.0
 40
0.0
 40
0.0
 40
0.0
 40
1.0
 40
1.0
 40
1.0
 40
2.0
 40
2.0
 40
2.0
 40
2.0
 10
42.67468284369893
 20
9.034218485832188
 10
42.67230572781352
 20
9.011894267082187
 10
42.65201411540032
 20
9.02126492680441
 10
42.65387446696283
 20
9.038972717603022
 10
42.65535585802185
 20
9.052890903366912
 10
42.67619868571282
 20
9.048618984964133
 10
42.67468284369893
 20
9.034218485832188
 97
        0
 75
     2
 76
     1
 98
        1
 10
34.25645421956699
 20
0.1963083295821892
  0
HATCH
  5
5321
330
768
100
AcDbEntity
  8
0
100
AcDbHatch
 10
0.0
 20
0.0
 30
0.0
210
0.0
220
0.0
230
1.0
  2
SOLID
 70
     1
 71
     0
 91
        1
 92
        1
 93
        1
 72
     4
 94
        3
 73
     0
 74
     0
 95
       11
 96
        7
 40
0.0
 40
0.0
 40
0.0
 40
0.0
 40
1.0
 40
1.0
 40
1.0
 40
2.0
 40
2.0
 40
2.0
 40
2.0
 10
42.65862869873366
 20
8.883185499721076
 10
42.65625158284824
 20
8.860861280971076
 10
42.63595997043505
 20
8.870231940693298
 10
42.63782032199755
 20
8.88793973149191
 10
42.63933616401143
 20
8.901995721075243
 10
42.66014454074755
 20
8.897585998853021
 10
42.65862869873366
 20
8.883185499721076
 97
        0
 75
     2
 76
     1
 98
        1
 10
34.25645421956699
 20
0.1963083295821892
  0
HATCH
  5
5322
330
768
100
AcDbEntity
  8
0
100
AcDbHatch
 10
0.0
 20
0.0
 30
0.0
210
0.0
220
0.0
230
1.0
  2
SOLID
 70
     1
 71
     0
 91
        1
 92
        1
 93
        1
 72
     4
 94
        3
 73
     0
 74
     0
 95
       11
 96
        7
 40
0.0
 40
0.0
 40
0.0
 40
0.0
 40
1.0
 40
1.0
 40
1.0
 40
2.0
 40
2.0
 40
2.0
 40
2.0
 10
42.2604790134038
 20
12.27315945805441
 10
42.2604790134038
 20
12.25069743548497
 10
42.23929167616421
 20
12.2579321360058
 10
42.23929167616421
 20
12.27570882871413
 10
42.23929167616421
 20
12.28969591638774
 10
42.2604790134038
 20
12.28759440814122
 10
42.2604790134038
 20
12.27315945805441
 97
        0
 75
     2
 76
     1
 98
        1
 10
34.25645421956699
 20
0.1963083295821892
  0
HATCH
  5
5323
330
768
100
AcDbEntity
  8
0
100
AcDbHatch
 10
0.0
 20
0.0
 30
0.0
210
0.0
220
0.0
230
1.0
  2
SOLID
 70
     1
 71
     0
 91
        1
 92
        1
 93
        1
 72
     4
 94
        3
 73
     0
 74
     0
 95
       11
 96
        7
 40
0.0
 40
0.0
 40
0.0
 40
0.0
 40
1.0
 40
1.0
 40
1.0
 40
2.0
 40
2.0
 40
2.0
 40
2.0
 10
42.31780540229268
 20
12.43514784781135
 10
42.31780540229268
 20
12.41265137428705
 10
42.29665251600796
 20
12.41985162385302
 10
42.29665251600796
 20
12.43762831656136
 10
42.29665251600796
 20
12.45168430614469
 10
42.31780540229268
 20
12.44961724885302
 10
42.31780540229268
 20
12.43514784781135
 97
        0
 75
     2
 76
     1
 98
        1
 10
34.25645421956699
 20
0.1963083295821892
  0
HATCH
  5
5324
330
768
100
AcDbEntity
  8
0
100
AcDbHatch
 10
0.0
 20
0.0
 30
0.0
210
0.0
220
0.0
230
1.0
  2
SOLID
 70
     1
 71
     0
 91
        1
 92
        1
 93
        1
 72
     4
 94
        3
 73
     0
 74
     0
 95
       11
 96
        7
 40
0.0
 40
0.0
 40
0.0
 40
0.0
 40
1.0
 40
1.0
 40
1.0
 40
2.0
 40
2.0
 40
2.0
 40
2.0
 10
42.40217579074754
 20
12.55662191465163
 10
42.40217579074754
 20
12.53415989208219
 10
42.38091955159824
 20
12.5413256906933
 10
42.38091955159824
 20
12.55910238340163
 10
42.38091955159824
 20
12.57315837298497
 10
42.40217579074754
 20
12.57102241378358
 10
42.40217579074754
 20
12.55662191465163
 97
        0
 75
     2
 76
     1
 98
        1
 10
34.25645421956699
 20
0.1963083295821892
  0
HATCH
  5
5325
330
768
100
AcDbEntity
  8
0
100
AcDbHatch
 10
0.0
 20
0.0
 30
0.0
210
0.0
220
0.0
230
1.0
  2
SOLID
 70
     1
 71
     0
 91
        1
 92
        1
 93
        1
 72
     4
 94
        3
 73
     0
 74
     0
 95
       11
 96
        7
 40
0.0
 40
0.0
 40
0.0
 40
0.0
 40
1.0
 40
1.0
 40
1.0
 40
2.0
 40
2.0
 40
2.0
 40
2.0
 10
42.49002572564338
 20
12.58025526968635
 10
42.49002572564338
 20
12.55779324711691
 10
42.46876948649408
 20
12.56495904572802
 10
42.46876948649408
 20
12.58277018939122
 10
42.46876948649408
 20
12.59679172801969
 10
42.49002572564338
 20
12.5946557688183
 10
42.49002572564338
 20
12.58025526968635
 97
        0
 75
     2
 76
     1
 98
        1
 10
34.25645421956699
 20
0.1963083295821892
  0
HATCH
  5
5361
330
768
100
AcDbEntity
  8
0
100
AcDbHatch
 10
0.0
 20
0.0
 30
0.0
210
0.0
220
0.0
230
1.0
  2
SOLID
 70
     1
 71
     0
 91
        1
 92
        1
 93
        1
 72
     4
 94
        3
 73
     0
 74
     0
 95
       11
 96
        7
 40
0.0
 40
0.0
 40
0.0
 40
0.0
 40
1.0
 40
1.0
 40
1.0
 40
2.0
 40
2.0
 40
2.0
 40
2.0
 10
41.21403125949755
 20
12.82630398930441
 10
41.21403125949755
 20
12.80384196673497
 10
41.1928094713031
 20
12.81104221630094
 10
41.1928094713031
 20
12.82878445805441
 10
41.1928094713031
 20
12.84287489859261
 10
41.21403125949755
 20
12.84073893939122
 10
41.21403125949755
 20
12.82630398930441
 97
        0
 75
     2
 76
     1
 98
        1
 10
34.25645421956699
 20
0.1963083295821892
  0
HATCH
  5
5363
330
768
100
AcDbEntity
  8
0
100
AcDbHatch
 10
0.0
 20
0.0
 30
0.0
210
0.0
220
0.0
230
1.0
  2
SOLID
 70
     1
 71
     0
 91
        1
 92
        1
 93
        1
 72
     4
 94
        3
 73
     0
 74
     0
 95
       11
 96
        7
 40
0.0
 40
0.0
 40
0.0
 40
0.0
 40
1.0
 40
1.0
 40
1.0
 40
2.0
 40
2.0
 40
2.0
 40
2.0
 10
41.38607932807393
 20
12.97137696022455
 10
41.38607932807393
 20
12.94894938860996
 10
41.36489199083435
 20
12.95611518722108
 10
41.36489199083435
 20
12.97389187992941
 10
41.36489199083435
 20
12.98798232046761
 10
41.38607932807393
 20
12.98584636126622
 10
41.38607932807393
 20
12.97137696022455
 97
        0
 75
     2
 76
     1
 98
        1
 10
34.25645421956699
 20
0.1963083295821892
  0
HATCH
  5
5365
330
768
100
AcDbEntity
  8
0
100
AcDbHatch
 10
0.0
 20
0.0
 30
0.0
210
0.0
220
0.0
230
1.0
  2
SOLID
 70
     1
 71
     0
 91
        1
 92
        1
 93
        1
 72
     4
 94
        3
 73
     0
 74
     0
 95
       11
 96
        7
 40
0.0
 40
0.0
 40
0.0
 40
0.0
 40
1.0
 40
1.0
 40
1.0
 40
2.0
 40
2.0
 40
2.0
 40
2.0
 10
41.23077442356004
 20
13.22448812558913
 10
41.23077442356004
 20
13.20202610301969
 10
41.20965598823018
 20
13.20926080354052
 10
41.20965598823018
 20
13.22696859433913
 10
41.20965598823018
 20
13.24109348583219
 10
41.23077442356004
 20
13.2389575266308
 10
41.23077442356004
 20
13.22448812558913
 97
        0
 75
     2
 76
     1
 98
        1
 10
34.25645421956699
 20
0.1963083295821892
  0
HATCH
  5
5366
330
768
100
AcDbEntity
  8
0
100
AcDbHatch
 10
0.0
 20
0.0
 30
0.0
210
0.0
220
0.0
230
1.0
  2
SOLID
 70
     1
 71
     0
 91
        1
 92
        1
 93
        1
 72
     4
 94
        3
 73
     0
 74
     0
 95
       11
 96
        7
 40
0.0
 40
0.0
 40
0.0
 40
0.0
 40
1.0
 40
1.0
 40
1.0
 40
2.0
 40
2.0
 40
2.0
 40
2.0
 10
41.26460526123366
 20
13.27513102923497
 10
41.26460526123366
 20
13.25266900666552
 10
41.24334902208435
 20
13.25983480527663
 10
41.24334902208435
 20
13.27764594893983
 10
41.24334902208435
 20
13.2916674875683
 10
41.26460526123366
 20
13.28960043027663
 10
41.26460526123366
 20
13.27513102923497
 97
        0
 75
     2
 76
     1
 98
        1
 10
34.25645421956699
 20
0.1963083295821892
  0
HATCH
  5
5368
330
768
100
AcDbEntity
  8
0
100
AcDbHatch
 10
0.0
 20
0.0
 30
0.0
210
0.0
220
0.0
230
1.0
  2
SOLID
 70
     1
 71
     0
 91
        1
 92
        1
 93
        1
 72
     4
 94
        3
 73
     0
 74
     0
 95
       11
 96
        7
 40
0.0
 40
0.0
 40
0.0
 40
0.0
 40
1.0
 40
1.0
 40
1.0
 40
2.0
 40
2.0
 40
2.0
 40
2.0
 10
41.33206023085171
 20
13.35609077315858
 10
41.33206023085171
 20
13.33369765249886
 10
41.31083844265726
 20
13.34082900015511
 10
41.31083844265726
 20
13.35867459477316
 10
41.31083844265726
 20
13.37269613340163
 10
41.33206023085171
 20
13.3705946251551
 10
41.33206023085171
 20
13.35609077315858
 97
        0
 75
     2
 76
     1
 98
        1
 10
34.25645421956699
 20
0.1963083295821892
  0
HATCH
  5
5369
330
768
100
AcDbEntity
  8
0
100
AcDbHatch
 10
0.0
 20
0.0
 30
0.0
210
0.0
220
0.0
230
1.0
  2
SOLID
 70
     1
 71
     0
 91
        1
 92
        1
 93
        1
 72
     4
 94
        3
 73
     0
 74
     0
 95
       11
 96
        7
 40
0.0
 40
0.0
 40
0.0
 40
0.0
 40
1.0
 40
1.0
 40
1.0
 40
2.0
 40
2.0
 40
2.0
 40
2.0
 10
41.10602751600796
 20
13.38988715987733
 10
41.10602751600796
 20
13.36739068635302
 10
41.08484017876838
 20
13.37462538687385
 10
41.08484017876838
 20
13.39240207958219
 10
41.08484017876838
 20
13.4063891672558
 10
41.10602751600796
 20
13.40432210996413
 10
41.10602751600796
 20
13.38988715987733
 97
        0
 75
     2
 76
     1
 98
        1
 10
34.25645421956699
 20
0.1963083295821892
  0
HATCH
  5
5386
330
768
100
AcDbEntity
  8
0
100
AcDbHatch
 10
0.0
 20
0.0
 30
0.0
210
0.0
220
0.0
230
1.0
  2
SOLID
 70
     1
 71
     0
 91
        1
 92
        1
 93
        1
 72
     4
 94
        3
 73
     0
 74
     0
 95
       11
 96
        7
 40
0.0
 40
0.0
 40
0.0
 40
0.0
 40
1.0
 40
1.0
 40
1.0
 40
2.0
 40
2.0
 40
2.0
 40
2.0
 10
45.96736730550449
 20
10.33398411083219
 10
45.96736730550449
 20
10.31152208826275
 10
45.94614551731004
 20
10.31868788687386
 10
45.94614551731004
 20
10.33646457958219
 10
45.94614551731004
 20
10.35052056916552
 10
45.96736730550449
 20
10.34838460996413
 10
45.96736730550449
 20
10.33398411083219
 97
        0
 75
     2
 76
     1
 98
        1
 10
34.25645421956699
 20
0.1963083295821892
  0
HATCH
  5
5387
330
768
100
AcDbEntity
  8
0
100
AcDbHatch
 10
0.0
 20
0.0
 30
0.0
210
0.0
220
0.0
230
1.0
  2
SOLID
 70
     1
 71
     0
 91
        1
 92
        1
 93
        1
 72
     4
 94
        3
 73
     0
 74
     0
 95
       11
 96
        7
 40
0.0
 40
0.0
 40
0.0
 40
0.0
 40
1.0
 40
1.0
 40
1.0
 40
2.0
 40
2.0
 40
2.0
 40
2.0
 10
46.11247472737949
 20
10.45208198409608
 10
46.11247472737949
 20
10.42961996152663
 10
46.09125293918505
 20
10.43678576013774
 10
46.09125293918505
 20
10.45456245284608
 10
46.09125293918505
 20
10.46868734433913
 10
46.11247472737949
 20
10.46655138513775
 10
46.11247472737949
 20
10.45208198409608
 97
        0
 75
     2
 76
     1
 98
        1
 10
34.25645421956699
 20
0.1963083295821892
  0
HATCH
  5
5388
330
768
100
AcDbEntity
  8
0
100
AcDbHatch
 10
0.0
 20
0.0
 30
0.0
210
0.0
220
0.0
230
1.0
  2
SOLID
 70
     1
 71
     0
 91
        1
 92
        1
 93
        1
 72
     4
 94
        3
 73
     0
 74
     0
 95
       11
 96
        7
 40
0.0
 40
0.0
 40
0.0
 40
0.0
 40
1.0
 40
1.0
 40
1.0
 40
2.0
 40
2.0
 40
2.0
 40
2.0
 10
46.13941537408088
 20
10.47902263079747
 10
46.13941537408088
 20
10.45662951013774
 10
46.1182280368413
 20
10.46379530874885
 10
46.1182280368413
 20
10.48157200145719
 10
46.1182280368413
 20
10.49562799104052
 10
46.13941537408088
 20
10.49349203183913
 10
46.13941537408088
 20
10.47902263079747
 97
        0
 75
     2
 76
     1
 98
        1
 10
34.25645421956699
 20
0.1963083295821892
  0
HATCH
  5
539F
330
768
100
AcDbEntity
  8
0
100
AcDbHatch
 10
0.0
 20
0.0
 30
0.0
210
0.0
220
0.0
230
1.0
  2
SOLID
 70
     1
 71
     0
 91
        1
 92
        1
 93
        1
 72
     4
 94
        3
 73
     0
 74
     0
 95
       11
 96
        7
 40
0.0
 40
0.0
 40
0.0
 40
0.0
 40
1.0
 40
1.0
 40
1.0
 40
2.0
 40
2.0
 40
2.0
 40
2.0
 10
46.29341114231005
 20
12.43859294329747
 10
46.29341114231005
 20
12.41613092072802
 10
46.27232715793505
 20
12.42329671933913
 10
46.27232715793505
 20
12.44107341204747
 10
46.27232715793505
 20
12.4551294016308
 10
46.29341114231005
 20
12.45299344242941
 10
46.29341114231005
 20
12.43859294329747
 97
        0
 75
     2
 76
     1
 98
        1
 10
34.25645421956699
 20
0.1963083295821892
  0
HATCH
  5
53A1
330
768
100
AcDbEntity
  8
0
100
AcDbHatch
 10
0.0
 20
0.0
 30
0.0
210
0.0
220
0.0
230
1.0
  2
SOLID
 70
     1
 71
     0
 91
        1
 92
        1
 93
        1
 72
     4
 94
        3
 73
     0
 74
     0
 95
       11
 96
        7
 40
0.0
 40
0.0
 40
0.0
 40
0.0
 40
1.0
 40
1.0
 40
1.0
 40
2.0
 40
2.0
 40
2.0
 40
2.0
 10
46.50259734022671
 20
12.71192681916552
 10
46.50259734022671
 20
12.68946479659608
 10
46.48137555203227
 20
12.69663059520719
 10
46.48137555203227
 20
12.71440728791552
 10
46.48137555203227
 20
12.72846327749885
 10
46.50259734022671
 20
12.72632731829747
 10
46.50259734022671
 20
12.71192681916552
 97
        0
 75
     2
 76
     1
 98
        1
 10
34.25645421956699
 20
0.1963083295821892
  0
HATCH
  5
53A2
330
768
100
AcDbEntity
  8
0
100
AcDbHatch
 10
0.0
 20
0.0
 30
0.0
210
0.0
220
0.0
230
1.0
  2
SOLID
 70
     1
 71
     0
 91
        1
 92
        1
 93
        1
 72
     4
 94
        3
 73
     0
 74
     0
 95
       11
 96
        7
 40
0.0
 40
0.0
 40
0.0
 40
0.0
 40
1.0
 40
1.0
 40
1.0
 40
2.0
 40
2.0
 40
2.0
 40
2.0
 10
46.57360075819546
 20
13.18769450579747
 10
46.57360075819546
 20
13.16530138513775
 10
46.55241342095588
 20
13.17243273279399
 10
46.55241342095588
 20
13.19024387645719
 10
46.55241342095588
 20
13.20429986604052
 10
46.57360075819546
 20
13.20216390683913
 10
46.57360075819546
 20
13.18769450579747
 97
        0
 75
     2
 76
     1
 98
        1
 10
34.25645421956699
 20
0.1963083295821892
  0
HATCH
  5
53A3
330
768
100
AcDbEntity
  8
0
100
AcDbHatch
 10
0.0
 20
0.0
 30
0.0
210
0.0
220
0.0
230
1.0
  2
SOLID
 70
     1
 71
     0
 91
        1
 92
        1
 93
        1
 72
     4
 94
        3
 73
     0
 74
     0
 95
       11
 96
        7
 40
0.0
 40
0.0
 40
0.0
 40
0.0
 40
1.0
 40
1.0
 40
1.0
 40
2.0
 40
2.0
 40
2.0
 40
2.0
 10
46.46218637017463
 20
12.81989611170024
 10
46.46218637017463
 20
12.7974340891308
 10
46.44099903293505
 20
12.80459988774191
 10
46.44099903293505
 20
12.82237658045024
 10
46.44099903293505
 20
12.83643257003358
 10
46.46218637017463
 20
12.83436551274191
 10
46.46218637017463
 20
12.81989611170024
 97
        0
 75
     2
 76
     1
 98
        1
 10
34.25645421956699
 20
0.1963083295821892
  0
HATCH
  5
53A4
330
768
100
AcDbEntity
  8
0
100
AcDbHatch
 10
0.0
 20
0.0
 30
0.0
210
0.0
220
0.0
230
1.0
  2
SOLID
 70
     1
 71
     0
 91
        1
 92
        1
 93
        1
 72
     4
 94
        3
 73
     0
 74
     0
 95
       11
 96
        7
 40
0.0
 40
0.0
 40
0.0
 40
0.0
 40
1.0
 40
1.0
 40
1.0
 40
2.0
 40
2.0
 40
2.0
 40
2.0
 10
46.30019798041769
 20
12.92111301708219
 10
46.30019798041769
 20
12.89865099451274
 10
46.27904509413296
 20
12.90588569503358
 10
46.27904509413296
 20
12.92366238774191
 10
46.27904509413296
 20
12.93771837732524
 10
46.30019798041769
 20
12.93565132003358
 10
46.30019798041769
 20
12.92111301708219
 97
        0
 75
     2
 76
     1
 98
        1
 10
34.25645421956699
 20
0.1963083295821892
  0
HATCH
  5
53A7
330
768
100
AcDbEntity
  8
0
100
AcDbHatch
 10
0.0
 20
0.0
 30
0.0
210
0.0
220
0.0
230
1.0
  2
SOLID
 70
     1
 71
     0
 91
        1
 92
        1
 93
        1
 72
     4
 94
        3
 73
     0
 74
     0
 95
       11
 96
        7
 40
0.0
 40
0.0
 40
0.0
 40
0.0
 40
1.0
 40
1.0
 40
1.0
 40
2.0
 40
2.0
 40
2.0
 40
2.0
 10
46.44189475776143
 20
13.25521837732524
 10
46.44189475776143
 20
13.23279080571066
 10
46.42067296956699
 20
13.23992215336691
 10
46.42067296956699
 20
13.25776774798497
 10
46.42067296956699
 20
13.27175483565858
 10
46.44189475776143
 20
13.26968777836691
 10
46.44189475776143
 20
13.25521837732524
 97
        0
 75
     2
 76
     1
 98
        1
 10
34.25645421956699
 20
0.1963083295821892
  0
HATCH
  5
53A8
330
768
100
AcDbEntity
  8
0
100
AcDbHatch
 10
0.0
 20
0.0
 30
0.0
210
0.0
220
0.0
230
1.0
  2
SOLID
 70
     1
 71
     0
 91
        1
 92
        1
 93
        1
 72
     4
 94
        3
 73
     0
 74
     0
 95
       11
 96
        7
 40
0.0
 40
0.0
 40
0.0
 40
0.0
 40
1.0
 40
1.0
 40
1.0
 40
2.0
 40
2.0
 40
2.0
 40
2.0
 10
46.45539953206699
 20
13.36322212081483
 10
46.45539953206699
 20
13.34079454920024
 10
46.43424664578227
 20
13.34792589685649
 10
46.43424664578227
 20
13.36573704051969
 10
46.43424664578227
 20
13.37979303010302
 10
46.45539953206699
 20
13.37765707090163
 10
46.45539953206699
 20
13.36322212081483
 97
        0
 75
     2
 76
     1
 98
        1
 10
34.25645421956699
 20
0.1963083295821892
  0
HATCH
  5
53AC
330
768
100
AcDbEntity
  8
0
100
AcDbHatch
 10
0.0
 20
0.0
 30
0.0
210
0.0
220
0.0
230
1.0
  2
SOLID
 70
     1
 71
     0
 91
        1
 92
        1
 93
        1
 72
     4
 94
        3
 73
     0
 74
     0
 95
       11
 96
        7
 40
0.0
 40
0.0
 40
0.0
 40
0.0
 40
1.0
 40
1.0
 40
1.0
 40
2.0
 40
2.0
 40
2.0
 40
2.0
 10
46.66799637451491
 20
14.01451742246413
 10
46.66799637451491
 20
13.99205539989469
 10
46.64684348823018
 20
13.99925564946066
 10
46.64684348823018
 20
14.017032342169
 10
46.64684348823018
 20
14.03105388079747
 10
46.66799637451491
 20
14.0289868235058
 10
46.66799637451491
 20
14.01451742246413
 97
        0
 75
     2
 76
     1
 98
        1
 10
34.25645421956699
 20
0.1963083295821892
  0
HATCH
  5
53AF
330
768
100
AcDbEntity
  8
0
100
AcDbHatch
 10
0.0
 20
0.0
 30
0.0
210
0.0
220
0.0
230
1.0
  2
SOLID
 70
     1
 71
     0
 91
        1
 92
        1
 93
        1
 72
     4
 94
        3
 73
     0
 74
     0
 95
       11
 96
        7
 40
0.0
 40
0.0
 40
0.0
 40
0.0
 40
1.0
 40
1.0
 40
1.0
 40
2.0
 40
2.0
 40
2.0
 40
2.0
 10
46.57360075819546
 20
14.63882040097976
 10
46.57360075819546
 20
14.61635837841032
 10
46.55241342095588
 20
14.62355862797629
 10
46.55241342095588
 20
14.64133532068462
 10
46.55241342095588
 20
14.65535685931309
 10
46.57360075819546
 20
14.65327257654399
 10
46.57360075819546
 20
14.63882040097976
 97
        0
 75
     2
 76
     1
 98
        1
 10
34.25645421956699
 20
0.1963083295821892
  0
HATCH
  5
53B2
330
768
100
AcDbEntity
  8
0
100
AcDbHatch
 10
0.0
 20
0.0
 30
0.0
210
0.0
220
0.0
230
1.0
  2
SOLID
 70
     1
 71
     0
 91
        1
 92
        1
 93
        1
 72
     4
 94
        3
 73
     0
 74
     0
 95
       11
 96
        7
 40
0.0
 40
0.0
 40
0.0
 40
0.0
 40
1.0
 40
1.0
 40
1.0
 40
2.0
 40
2.0
 40
2.0
 40
2.0
 10
46.67474876166769
 20
14.71306220870545
 10
46.67474876166769
 20
14.69063463709087
 10
46.65356142442811
 20
14.69780043570198
 10
46.65356142442811
 20
14.71561157936517
 10
46.65356142442811
 20
14.72965034347108
 10
46.67474876166769
 20
14.72756606070198
 10
46.67474876166769
 20
14.71306220870545
 97
        0
 75
     2
 76
     1
 98
        1
 10
34.25645421956699
 20
0.1963083295821892
  0
HATCH
  5
53B5
330
768
100
AcDbEntity
  8
0
100
AcDbHatch
 10
0.0
 20
0.0
 30
0.0
210
0.0
220
0.0
230
1.0
  2
SOLID
 70
     1
 71
     0
 91
        1
 92
        1
 93
        1
 72
     4
 94
        3
 73
     0
 74
     0
 95
       11
 96
        7
 40
0.0
 40
0.0
 40
0.0
 40
0.0
 40
1.0
 40
1.0
 40
1.0
 40
2.0
 40
2.0
 40
2.0
 40
2.0
 10
46.80297521566074
 20
15.07414266660476
 10
46.80297521566074
 20
15.05171509499018
 10
46.78185678033088
 20
15.05888089360128
 10
46.78185678033088
 20
15.07669203726448
 10
46.78185678033088
 20
15.09071357589295
 10
46.80297521566074
 20
15.088594842169
 10
46.80297521566074
 20
15.07414266660476
 97
        0
 75
     2
 76
     1
 98
        1
 10
34.25645421956699
 20
0.1963083295821892
  0
HATCH
  5
53B6
330
768
100
AcDbEntity
  8
0
100
AcDbHatch
 10
0.0
 20
0.0
 30
0.0
210
0.0
220
0.0
230
1.0
  2
SOLID
 70
     1
 71
     0
 91
        1
 92
        1
 93
        1
 72
     4
 94
        3
 73
     0
 74
     0
 95
       11
 96
        7
 40
0.0
 40
0.0
 40
0.0
 40
0.0
 40
1.0
 40
1.0
 40
1.0
 40
2.0
 40
2.0
 40
2.0
 40
2.0
 10
46.78264915229268
 20
15.30362047693462
 10
46.78264915229268
 20
15.28115845436518
 10
46.76159961887255
 20
15.28835870393115
 10
46.76159961887255
 20
15.30616984759434
 10
46.76159961887255
 20
15.32020861170025
 10
46.78264915229268
 20
15.31808987797629
 10
46.78264915229268
 20
15.30362047693462
 97
        0
 75
     2
 76
     1
 98
        1
 10
34.25645421956699
 20
0.1963083295821892
  0
HATCH
  5
53BA
330
768
100
AcDbEntity
  8
0
100
AcDbHatch
 10
0.0
 20
0.0
 30
0.0
210
0.0
220
0.0
230
1.0
  2
SOLID
 70
     1
 71
     0
 91
        1
 92
        1
 93
        1
 72
     4
 94
        3
 73
     0
 74
     0
 95
       11
 96
        7
 40
0.0
 40
0.0
 40
0.0
 40
0.0
 40
1.0
 40
1.0
 40
1.0
 40
2.0
 40
2.0
 40
2.0
 40
2.0
 10
44.8490204088031
 20
11.63195828617941
 10
44.8490204088031
 20
11.60956516551969
 10
44.8279364244281
 20
11.6167309641308
 10
44.8279364244281
 20
11.63450765683913
 10
44.8279364244281
 20
11.64859809737733
 10
44.8490204088031
 20
11.64642768722108
 10
44.8490204088031
 20
11.63195828617941
 97
        0
 75
     2
 76
     1
 98
        1
 10
34.25645421956699
 20
0.1963083295821892
  0
HATCH
  5
53BC
330
768
100
AcDbEntity
  8
0
100
AcDbHatch
 10
0.0
 20
0.0
 30
0.0
210
0.0
220
0.0
230
1.0
  2
SOLID
 70
     1
 71
     0
 91
        1
 92
        1
 93
        1
 72
     4
 94
        3
 73
     0
 74
     0
 95
       11
 96
        7
 40
0.0
 40
0.0
 40
0.0
 40
0.0
 40
1.0
 40
1.0
 40
1.0
 40
2.0
 40
2.0
 40
2.0
 40
2.0
 10
42.57622201470588
 20
13.34858046499886
 10
42.57622201470588
 20
13.32611844242941
 10
42.55496577555658
 20
13.33335314295024
 10
42.55496577555658
 20
13.35112983565858
 10
42.55496577555658
 20
13.36518582524191
 10
42.57622201470588
 20
13.36304986604052
 10
42.57622201470588
 20
13.34858046499886
 97
        0
 75
     2
 76
     1
 98
        1
 10
34.25645421956699
 20
0.1963083295821892
  0
HATCH
  5
53BD
330
768
100
AcDbEntity
  8
0
100
AcDbHatch
 10
0.0
 20
0.0
 30
0.0
210
0.0
220
0.0
230
1.0
  2
SOLID
 70
     1
 71
     0
 91
        1
 92
        1
 93
        1
 72
     4
 94
        3
 73
     0
 74
     0
 95
       11
 96
        7
 40
0.0
 40
0.0
 40
0.0
 40
0.0
 40
1.0
 40
1.0
 40
1.0
 40
2.0
 40
2.0
 40
2.0
 40
2.0
 10
42.79560569526144
 20
13.34858046499886
 10
42.79560569526144
 20
13.32611844242941
 10
42.77434945611213
 20
13.33335314295024
 10
42.77434945611213
 20
13.35112983565858
 10
42.77434945611213
 20
13.36518582524191
 10
42.79560569526144
 20
13.36304986604052
 10
42.79560569526144
 20
13.34858046499886
 97
        0
 75
     2
 76
     1
 98
        1
 10
34.25645421956699
 20
0.1963083295821892
  0
HATCH
  5
53BE
330
768
100
AcDbEntity
  8
0
100
AcDbHatch
 10
0.0
 20
0.0
 30
0.0
210
0.0
220
0.0
230
1.0
  2
SOLID
 70
     1
 71
     0
 91
        1
 92
        1
 93
        1
 72
     4
 94
        3
 73
     0
 74
     0
 95
       11
 96
        7
 40
0.0
 40
0.0
 40
0.0
 40
0.0
 40
1.0
 40
1.0
 40
1.0
 40
2.0
 40
2.0
 40
2.0
 40
2.0
 10
43.14659202338643
 20
13.28450168895719
 10
43.14659202338643
 20
13.26203966638775
 10
43.12537023519199
 20
13.26920546499886
 10
43.12537023519199
 20
13.28698215770719
 10
43.12537023519199
 20
13.30110704920024
 10
43.14659202338643
 20
13.29897108999885
 10
43.14659202338643
 20
13.28450168895719
 97
        0
 75
     2
 76
     1
 98
        1
 10
34.25645421956699
 20
0.1963083295821892
  0
HATCH
  5
53BF
330
768
100
AcDbEntity
  8
0
100
AcDbHatch
 10
0.0
 20
0.0
 30
0.0
210
0.0
220
0.0
230
1.0
  2
SOLID
 70
     1
 71
     0
 91
        1
 92
        1
 93
        1
 72
     4
 94
        3
 73
     0
 74
     0
 95
       11
 96
        7
 40
0.0
 40
0.0
 40
0.0
 40
0.0
 40
1.0
 40
1.0
 40
1.0
 40
2.0
 40
2.0
 40
2.0
 40
2.0
 10
43.17353267008782
 20
13.31144233565858
 10
43.17353267008782
 20
13.28901476404399
 10
43.15234533284824
 20
13.29621501360997
 10
43.15234533284824
 20
13.3139917063183
 10
43.15234533284824
 20
13.32804769590163
 10
43.17353267008782
 20
13.32591173670024
 10
43.17353267008782
 20
13.31144233565858
 97
        0
 75
     2
 76
     1
 98
        1
 10
34.25645421956699
 20
0.1963083295821892
  0
HATCH
  5
53C1
330
768
100
AcDbEntity
  8
0
100
AcDbHatch
 10
0.0
 20
0.0
 30
0.0
210
0.0
220
0.0
230
1.0
  2
SOLID
 70
     1
 71
     0
 91
        1
 92
        1
 93
        1
 72
     4
 94
        3
 73
     0
 74
     0
 95
       11
 96
        7
 40
0.0
 40
0.0
 40
0.0
 40
0.0
 40
1.0
 40
1.0
 40
1.0
 40
2.0
 40
2.0
 40
2.0
 40
2.0
 10
43.01822776557393
 20
13.56458795197802
 10
43.01822776557393
 20
13.54212592940858
 10
42.99710933024407
 20
13.54936062992941
 10
42.99710933024407
 20
13.56706842072802
 10
42.99710933024407
 20
13.58119331222108
 10
43.01822776557393
 20
13.57905735301969
 10
43.01822776557393
 20
13.56458795197802
 97
        0
 75
     2
 76
     1
 98
        1
 10
34.25645421956699
 20
0.1963083295821892
  0
HATCH
  5
53C2
330
768
100
AcDbEntity
  8
0
100
AcDbHatch
 10
0.0
 20
0.0
 30
0.0
210
0.0
220
0.0
230
1.0
  2
SOLID
 70
     1
 71
     0
 91
        1
 92
        1
 93
        1
 72
     4
 94
        3
 73
     0
 74
     0
 95
       11
 96
        7
 40
0.0
 40
0.0
 40
0.0
 40
0.0
 40
1.0
 40
1.0
 40
1.0
 40
2.0
 40
2.0
 40
2.0
 40
2.0
 10
43.05205860324755
 20
13.61523085562386
 10
43.05205860324755
 20
13.59276883305441
 10
43.03080236409824
 20
13.59993463166552
 10
43.03080236409824
 20
13.61771132437385
 10
43.03080236409824
 20
13.63176731395719
 10
43.05205860324755
 20
13.62966580571066
 10
43.05205860324755
 20
13.61523085562386
 97
        0
 75
     2
 76
     1
 98
        1
 10
34.25645421956699
 20
0.1963083295821892
  0
HATCH
  5
53C4
330
768
100
AcDbEntity
  8
0
100
AcDbHatch
 10
0.0
 20
0.0
 30
0.0
210
0.0
220
0.0
230
1.0
  2
SOLID
 70
     1
 71
     0
 91
        1
 92
        1
 93
        1
 72
     4
 94
        3
 73
     0
 74
     0
 95
       11
 96
        7
 40
0.0
 40
0.0
 40
0.0
 40
0.0
 40
1.0
 40
1.0
 40
1.0
 40
2.0
 40
2.0
 40
2.0
 40
2.0
 10
43.1195135728656
 20
13.69619059954747
 10
43.1195135728656
 20
13.67379747888774
 10
43.09829178467115
 20
13.68089437558913
 10
43.09829178467115
 20
13.69873997020719
 10
43.09829178467115
 20
13.71276150883566
 10
43.1195135728656
 20
13.71066000058913
 10
43.1195135728656
 20
13.69619059954747
 97
        0
 75
     2
 76
     1
 98
        1
 10
34.25645421956699
 20
0.1963083295821892
  0
HATCH
  5
53C6
330
768
100
AcDbEntity
  8
0
100
AcDbHatch
 10
0.0
 20
0.0
 30
0.0
210
0.0
220
0.0
230
1.0
  2
SOLID
 70
     1
 71
     0
 91
        1
 92
        1
 93
        1
 72
     4
 94
        3
 73
     0
 74
     0
 95
       11
 96
        7
 40
0.0
 40
0.0
 40
0.0
 40
0.0
 40
1.0
 40
1.0
 40
1.0
 40
2.0
 40
2.0
 40
2.0
 40
2.0
 10
42.94067866618158
 20
13.89524821673497
 10
42.94067866618158
 20
13.87285509607525
 10
42.91945687798713
 20
13.88002089468635
 10
42.91945687798713
 20
13.89786648930441
 10
42.91945687798713
 20
13.91185357697802
 10
42.94067866618158
 20
13.90978651968636
 10
42.94067866618158
 20
13.89524821673497
 97
        0
 75
     2
 76
     1
 98
        1
 10
34.25645421956699
 20
0.1963083295821892
  0
HATCH
  5
53C7
330
768
100
AcDbEntity
  8
0
100
AcDbHatch
 10
0.0
 20
0.0
 30
0.0
210
0.0
220
0.0
230
1.0
  2
SOLID
 70
     1
 71
     0
 91
        1
 92
        1
 93
        1
 72
     4
 94
        3
 73
     0
 74
     0
 95
       11
 96
        7
 40
0.0
 40
0.0
 40
0.0
 40
0.0
 40
1.0
 40
1.0
 40
1.0
 40
2.0
 40
2.0
 40
2.0
 40
2.0
 10
42.89348085802185
 20
13.72995253531136
 10
42.89348085802185
 20
13.70749051274191
 10
42.87229352078226
 20
13.71472521326275
 10
42.87229352078226
 20
13.73250190597108
 10
42.87229352078226
 20
13.74648899364469
 10
42.89348085802185
 20
13.74438748539816
 10
42.89348085802185
 20
13.72995253531136
 97
        0
 75
     2
 76
     1
 98
        1
 10
34.25645421956699
 20
0.1963083295821892
  0
HATCH
  5
53CB
330
768
100
AcDbEntity
  8
0
100
AcDbHatch
 10
0.0
 20
0.0
 30
0.0
210
0.0
220
0.0
230
1.0
  2
SOLID
 70
     1
 71
     0
 91
        1
 92
        1
 93
        1
 72
     4
 94
        3
 73
     0
 74
     0
 95
       11
 96
        7
 40
0.0
 40
0.0
 40
0.0
 40
0.0
 40
1.0
 40
1.0
 40
1.0
 40
2.0
 40
2.0
 40
2.0
 40
2.0
 10
42.95080724691074
 20
13.8919409250683
 10
42.95080724691074
 20
13.86944445154399
 10
42.92965436062602
 20
13.87664470110996
 10
42.92965436062602
 20
13.8944213938183
 10
42.92965436062602
 20
13.90847738340163
 10
42.95080724691074
 20
13.90641032610997
 10
42.95080724691074
 20
13.8919409250683
 97
        0
 75
     2
 76
     1
 98
        1
 10
34.25645421956699
 20
0.1963083295821892
  0
HATCH
  5
53CC
330
768
100
AcDbEntity
  8
0
100
AcDbHatch
 10
0.0
 20
0.0
 30
0.0
210
0.0
220
0.0
230
1.0
  2
SOLID
 70
     1
 71
     0
 91
        1
 92
        1
 93
        1
 72
     4
 94
        3
 73
     0
 74
     0
 95
       11
 96
        7
 40
0.0
 40
0.0
 40
0.0
 40
0.0
 40
1.0
 40
1.0
 40
1.0
 40
2.0
 40
2.0
 40
2.0
 40
2.0
 10
43.0351776353656
 20
14.01341499190858
 10
43.0351776353656
 20
13.99095296933913
 10
43.0139213962163
 20
13.99811876795024
 10
43.0139213962163
 20
14.01589546065858
 10
43.0139213962163
 20
14.02995145024191
 10
43.0351776353656
 20
14.02781549104052
 10
43.0351776353656
 20
14.01341499190858
 97
        0
 75
     2
 76
     1
 98
        1
 10
34.25645421956699
 20
0.1963083295821892
  0
HATCH
  5
53CD
330
768
100
AcDbEntity
  8
0
100
AcDbHatch
 10
0.0
 20
0.0
 30
0.0
210
0.0
220
0.0
230
1.0
  2
SOLID
 70
     1
 71
     0
 91
        1
 92
        1
 93
        1
 72
     4
 94
        3
 73
     0
 74
     0
 95
       11
 96
        7
 40
0.0
 40
0.0
 40
0.0
 40
0.0
 40
1.0
 40
1.0
 40
1.0
 40
2.0
 40
2.0
 40
2.0
 40
2.0
 10
43.12302757026144
 20
14.0370483469433
 10
43.12302757026144
 20
14.01458632437386
 10
43.10177133111213
 20
14.02175212298497
 10
43.10177133111213
 20
14.03956326664816
 10
43.10177133111213
 20
14.05358480527663
 10
43.12302757026144
 20
14.05144884607524
 10
43.12302757026144
 20
14.0370483469433
 97
        0
 75
     2
 76
     1
 98
        1
 10
34.25645421956699
 20
0.1963083295821892
  0
HATCH
  5
53CF
330
768
100
AcDbEntity
  8
0
100
AcDbHatch
 10
0.0
 20
0.0
 30
0.0
210
0.0
220
0.0
230
1.0
  2
SOLID
 70
     1
 71
     0
 91
        1
 92
        1
 93
        1
 72
     4
 94
        3
 73
     0
 74
     0
 95
       11
 96
        7
 40
0.0
 40
0.0
 40
0.0
 40
0.0
 40
1.0
 40
1.0
 40
1.0
 40
2.0
 40
2.0
 40
2.0
 40
2.0
 10
45.09878983154616
 20
11.69948215770719
 10
45.09878983154616
 20
11.67702013513774
 10
45.07753359239685
 20
11.68425483565858
 10
45.07753359239685
 20
11.70203152836691
 10
45.07753359239685
 20
11.71608751795024
 10
45.09878983154616
 20
11.71395155874886
 10
45.09878983154616
 20
11.69948215770719
 97
        0
 75
     2
 76
     1
 98
        1
 10
34.25645421956699
 20
0.1963083295821892
  0
HATCH
  5
53D0
330
768
100
AcDbEntity
  8
0
100
AcDbHatch
 10
0.0
 20
0.0
 30
0.0
210
0.0
220
0.0
230
1.0
  2
SOLID
 70
     1
 71
     0
 91
        1
 92
        1
 93
        1
 72
     4
 94
        3
 73
     0
 74
     0
 95
       11
 96
        7
 40
0.0
 40
0.0
 40
0.0
 40
0.0
 40
1.0
 40
1.0
 40
1.0
 40
2.0
 40
2.0
 40
2.0
 40
2.0
 10
45.31817351210171
 20
11.69948215770719
 10
45.31817351210171
 20
11.67702013513774
 10
45.29691727295241
 20
11.68425483565858
 10
45.29691727295241
 20
11.70203152836691
 10
45.29691727295241
 20
11.71608751795024
 10
45.31817351210171
 20
11.71395155874886
 10
45.31817351210171
 20
11.69948215770719
 97
        0
 75
     2
 76
     1
 98
        1
 10
34.25645421956699
 20
0.1963083295821892
  0
HATCH
  5
53D1
330
768
100
AcDbEntity
  8
0
100
AcDbHatch
 10
0.0
 20
0.0
 30
0.0
210
0.0
220
0.0
230
1.0
  2
SOLID
 70
     1
 71
     0
 91
        1
 92
        1
 93
        1
 72
     4
 94
        3
 73
     0
 74
     0
 95
       11
 96
        7
 40
0.0
 40
0.0
 40
0.0
 40
0.0
 40
1.0
 40
1.0
 40
1.0
 40
2.0
 40
2.0
 40
2.0
 40
2.0
 10
45.52405241835171
 20
11.51730550840163
 10
45.52405241835171
 20
11.49480903487733
 10
45.50283063015727
 20
11.5020092844433
 10
45.50283063015727
 20
11.51978597715163
 10
45.50283063015727
 20
11.53384196673497
 10
45.52405241835171
 20
11.53170600753358
 10
45.52405241835171
 20
11.51730550840163
 97
        0
 75
     2
 76
     1
 98
        1
 10
34.25645421956699
 20
0.1963083295821892
  0
HATCH
  5
53D2
330
768
100
AcDbEntity
  8
0
100
AcDbHatch
 10
0.0
 20
0.0
 30
0.0
210
0.0
220
0.0
230
1.0
  2
SOLID
 70
     1
 71
     0
 91
        1
 92
        1
 93
        1
 72
     4
 94
        3
 73
     0
 74
     0
 95
       11
 96
        7
 40
0.0
 40
0.0
 40
0.0
 40
0.0
 40
1.0
 40
1.0
 40
1.0
 40
2.0
 40
2.0
 40
2.0
 40
2.0
 10
45.66915984022671
 20
11.63540338166552
 10
45.66915984022671
 20
11.61294135909608
 10
45.64793805203227
 20
11.62010715770719
 10
45.64793805203227
 20
11.63788385041552
 10
45.64793805203227
 20
11.65200874190858
 10
45.66915984022671
 20
11.64987278270719
 10
45.66915984022671
 20
11.63540338166552
 97
        0
 75
     2
 76
     1
 98
        1
 10
34.25645421956699
 20
0.1963083295821892
  0
HATCH
  5
53D3
330
768
100
AcDbEntity
  8
0
100
AcDbHatch
 10
0.0
 20
0.0
 30
0.0
210
0.0
220
0.0
230
1.0
  2
SOLID
 70
     1
 71
     0
 91
        1
 92
        1
 93
        1
 72
     4
 94
        3
 73
     0
 74
     0
 95
       11
 96
        7
 40
0.0
 40
0.0
 40
0.0
 40
0.0
 40
1.0
 40
1.0
 40
1.0
 40
2.0
 40
2.0
 40
2.0
 40
2.0
 10
45.6961004869281
 20
11.66234402836691
 10
45.6961004869281
 20
11.63991645675233
 10
45.67491314968851
 20
11.6471167063183
 10
45.67491314968851
 20
11.66489339902663
 10
45.67491314968851
 20
11.67894938860997
 10
45.6961004869281
 20
11.67681342940858
 10
45.6961004869281
 20
11.66234402836691
 97
        0
 75
     2
 76
     1
 98
        1
 10
34.25645421956699
 20
0.1963083295821892
  0
HATCH
  5
53D5
330
768
100
AcDbEntity
  8
0
100
AcDbHatch
 10
0.0
 20
0.0
 30
0.0
210
0.0
220
0.0
230
1.0
  2
SOLID
 70
     1
 71
     0
 91
        1
 92
        1
 93
        1
 72
     4
 94
        3
 73
     0
 74
     0
 95
       11
 96
        7
 40
0.0
 40
0.0
 40
0.0
 40
0.0
 40
1.0
 40
1.0
 40
1.0
 40
2.0
 40
2.0
 40
2.0
 40
2.0
 10
45.54079558241421
 20
11.91548964468636
 10
45.54079558241421
 20
11.89302762211691
 10
45.51967714708435
 20
11.90026232263774
 10
45.51967714708435
 20
11.91797011343635
 10
45.51967714708435
 20
11.93209500492941
 10
45.54079558241421
 20
11.92995904572802
 10
45.54079558241421
 20
11.91548964468636
 97
        0
 75
     2
 76
     1
 98
        1
 10
34.25645421956699
 20
0.1963083295821892
  0
HATCH
  5
53D6
330
768
100
AcDbEntity
  8
0
100
AcDbHatch
 10
0.0
 20
0.0
 30
0.0
210
0.0
220
0.0
230
1.0
  2
SOLID
 70
     1
 71
     0
 91
        1
 92
        1
 93
        1
 72
     4
 94
        3
 73
     0
 74
     0
 95
       11
 96
        7
 40
0.0
 40
0.0
 40
0.0
 40
0.0
 40
1.0
 40
1.0
 40
1.0
 40
2.0
 40
2.0
 40
2.0
 40
2.0
 10
45.57462642008782
 20
11.96613254833219
 10
45.57462642008782
 20
11.94367052576274
 10
45.55337018093852
 20
11.95083632437386
 10
45.55337018093852
 20
11.96861301708219
 10
45.55337018093852
 20
11.98266900666552
 10
45.57462642008782
 20
11.98056749841899
 10
45.57462642008782
 20
11.96613254833219
 97
        0
 75
     2
 76
     1
 98
        1
 10
34.25645421956699
 20
0.1963083295821892
  0
HATCH
  5
53D8
330
768
100
AcDbEntity
  8
0
100
AcDbHatch
 10
0.0
 20
0.0
 30
0.0
210
0.0
220
0.0
230
1.0
  2
SOLID
 70
     1
 71
     0
 91
        1
 92
        1
 93
        1
 72
     4
 94
        3
 73
     0
 74
     0
 95
       11
 96
        7
 40
0.0
 40
0.0
 40
0.0
 40
0.0
 40
1.0
 40
1.0
 40
1.0
 40
2.0
 40
2.0
 40
2.0
 40
2.0
 10
45.64208138970588
 20
12.0470922922558
 10
45.64208138970588
 20
12.02469917159608
 10
45.62085960151143
 20
12.03179606829747
 10
45.62085960151143
 20
12.04964166291552
 10
45.62085960151143
 20
12.06366320154399
 10
45.64208138970588
 20
12.06156169329747
 10
45.64208138970588
 20
12.0470922922558
 97
        0
 75
     2
 76
     1
 98
        1
 10
34.25645421956699
 20
0.1963083295821892
  0
HATCH
  5
53DA
330
768
100
AcDbEntity
  8
0
100
AcDbHatch
 10
0.0
 20
0.0
 30
0.0
210
0.0
220
0.0
230
1.0
  2
SOLID
 70
     1
 71
     0
 91
        1
 92
        1
 93
        1
 72
     4
 94
        3
 73
     0
 74
     0
 95
       11
 96
        7
 40
0.0
 40
0.0
 40
0.0
 40
0.0
 40
1.0
 40
1.0
 40
1.0
 40
2.0
 40
2.0
 40
2.0
 40
2.0
 10
45.46324648302185
 20
12.2461499094433
 10
45.46324648302185
 20
12.22375678878358
 10
45.4420246948274
 20
12.23092258739469
 10
45.4420246948274
 20
12.24876818201274
 10
45.4420246948274
 20
12.26275526968636
 10
45.46324648302185
 20
12.26068821239469
 10
45.46324648302185
 20
12.2461499094433
 97
        0
 75
     2
 76
     1
 98
        1
 10
34.25645421956699
 20
0.1963083295821892
  0
HATCH
  5
53DB
330
768
100
AcDbEntity
  8
0
100
AcDbHatch
 10
0.0
 20
0.0
 30
0.0
210
0.0
220
0.0
230
1.0
  2
SOLID
 70
     1
 71
     0
 91
        1
 92
        1
 93
        1
 72
     4
 94
        3
 73
     0
 74
     0
 95
       11
 96
        7
 40
0.0
 40
0.0
 40
0.0
 40
0.0
 40
1.0
 40
1.0
 40
1.0
 40
2.0
 40
2.0
 40
2.0
 40
2.0
 10
45.41604867486213
 20
12.08085422801969
 10
45.41604867486213
 20
12.05839220545024
 10
45.39486133762254
 20
12.06562690597108
 10
45.39486133762254
 20
12.08340359867941
 10
45.39486133762254
 20
12.09739068635302
 10
45.41604867486213
 20
12.09528917810649
 10
45.41604867486213
 20
12.08085422801969
 97
        0
 75
     2
 76
     1
 98
        1
 10
34.25645421956699
 20
0.1963083295821892
  0
HATCH
  5
53DF
330
768
100
AcDbEntity
  8
0
100
AcDbHatch
 10
0.0
 20
0.0
 30
0.0
210
0.0
220
0.0
230
1.0
  2
SOLID
 70
     1
 71
     0
 91
        1
 92
        1
 93
        1
 72
     4
 94
        3
 73
     0
 74
     0
 95
       11
 96
        7
 40
0.0
 40
0.0
 40
0.0
 40
0.0
 40
1.0
 40
1.0
 40
1.0
 40
2.0
 40
2.0
 40
2.0
 40
2.0
 10
45.47337506375101
 20
12.24284261777663
 10
45.47337506375101
 20
12.22034614425233
 10
45.4522221774663
 20
12.2275463938183
 10
45.4522221774663
 20
12.24532308652663
 10
45.4522221774663
 20
12.25937907610997
 10
45.47337506375101
 20
12.2573120188183
 10
45.47337506375101
 20
12.24284261777663
 97
        0
 75
     2
 76
     1
 98
        1
 10
34.25645421956699
 20
0.1963083295821892
  0
HATCH
  5
53E0
330
768
100
AcDbEntity
  8
0
100
AcDbHatch
 10
0.0
 20
0.0
 30
0.0
210
0.0
220
0.0
230
1.0
  2
SOLID
 70
     1
 71
     0
 91
        1
 92
        1
 93
        1
 72
     4
 94
        3
 73
     0
 74
     0
 95
       11
 96
        7
 40
0.0
 40
0.0
 40
0.0
 40
0.0
 40
1.0
 40
1.0
 40
1.0
 40
2.0
 40
2.0
 40
2.0
 40
2.0
 10
45.55774545220588
 20
12.36431668461691
 10
45.55774545220588
 20
12.34185466204747
 10
45.53648921305657
 20
12.34902046065858
 10
45.53648921305657
 20
12.36679715336691
 10
45.53648921305657
 20
12.38085314295024
 10
45.55774545220588
 20
12.37871718374885
 10
45.55774545220588
 20
12.36431668461691
 97
        0
 75
     2
 76
     1
 98
        1
 10
34.25645421956699
 20
0.1963083295821892
  0
HATCH
  5
53E1
330
768
100
AcDbEntity
  8
0
100
AcDbHatch
 10
0.0
 20
0.0
 30
0.0
210
0.0
220
0.0
230
1.0
  2
SOLID
 70
     1
 71
     0
 91
        1
 92
        1
 93
        1
 72
     4
 94
        3
 73
     0
 74
     0
 95
       11
 96
        7
 40
0.0
 40
0.0
 40
0.0
 40
0.0
 40
1.0
 40
1.0
 40
1.0
 40
2.0
 40
2.0
 40
2.0
 40
2.0
 10
45.64559538710171
 20
12.38795003965163
 10
45.64559538710171
 20
12.36548801708219
 10
45.62433914795241
 20
12.3726538156933
 10
45.62433914795241
 20
12.39046495935649
 10
45.62433914795241
 20
12.40448649798497
 10
45.64559538710171
 20
12.40235053878358
 10
45.64559538710171
 20
12.38795003965163
 97
        0
 75
     2
 76
     1
 98
        1
 10
34.25645421956699
 20
0.1963083295821892
  0
HATCH
  5
53E3
330
768
100
AcDbEntity
  8
0
100
AcDbHatch
 10
0.0
 20
0.0
 30
0.0
210
0.0
220
0.0
230
1.0
  2
SOLID
 70
     1
 71
     0
 91
        1
 92
        1
 93
        1
 72
     4
 94
        3
 73
     0
 74
     0
 95
       11
 96
        7
 40
0.0
 40
0.0
 40
0.0
 40
0.0
 40
1.0
 40
1.0
 40
1.0
 40
2.0
 40
2.0
 40
2.0
 40
2.0
 10
45.40585119222324
 20
13.11348714902663
 10
45.40585119222324
 20
13.09109402836691
 10
45.38473275689338
 20
13.0981909250683
 10
45.38473275689338
 20
13.11603651968636
 10
45.38473275689338
 20
13.13005805831483
 10
45.40585119222324
 20
13.1279565500683
 10
45.40585119222324
 20
13.11348714902663
 97
        0
 75
     2
 76
     1
 98
        1
 10
34.25645421956699
 20
0.1963083295821892
  0
HATCH
  5
53E4
330
768
100
AcDbEntity
  8
0
100
AcDbHatch
 10
0.0
 20
0.0
 30
0.0
210
0.0
220
0.0
230
1.0
  2
SOLID
 70
     1
 71
     0
 91
        1
 92
        1
 93
        1
 72
     4
 94
        3
 73
     0
 74
     0
 95
       11
 96
        7
 40
0.0
 40
0.0
 40
0.0
 40
0.0
 40
1.0
 40
1.0
 40
1.0
 40
2.0
 40
2.0
 40
2.0
 40
2.0
 10
45.31817351210171
 20
13.1775659250683
 10
45.31817351210171
 20
13.15517280440858
 10
45.29691727295241
 20
13.16230415206483
 10
45.29691727295241
 20
13.18011529572802
 10
45.29691727295241
 20
13.19417128531136
 10
45.31817351210171
 20
13.19203532610997
 10
45.31817351210171
 20
13.1775659250683
 97
        0
 75
     2
 76
     1
 98
        1
 10
34.25645421956699
 20
0.1963083295821892
  0
HATCH
  5
53E7
330
768
100
AcDbEntity
  8
0
100
AcDbHatch
 10
0.0
 20
0.0
 30
0.0
210
0.0
220
0.0
230
1.0
  2
SOLID
 70
     1
 71
     0
 91
        1
 92
        1
 93
        1
 72
     4
 94
        3
 73
     0
 74
     0
 95
       11
 96
        7
 40
0.0
 40
0.0
 40
0.0
 40
0.0
 40
1.0
 40
1.0
 40
1.0
 40
2.0
 40
2.0
 40
2.0
 40
2.0
 10
45.6588934556781
 20
14.72994317658739
 10
45.6588934556781
 20
14.70748115401795
 10
45.63777502034824
 20
14.71464695262906
 10
45.63777502034824
 20
14.73245809629226
 10
45.63777502034824
 20
14.74649686039816
 10
45.6588934556781
 20
14.7443781266742
 10
45.6588934556781
 20
14.72994317658739
 97
        0
 75
     2
 76
     1
 98
        1
 10
34.25645421956699
 20
0.1963083295821892
  0
HATCH
  5
53EA
330
768
100
AcDbEntity
  8
0
100
AcDbHatch
 10
0.0
 20
0.0
 30
0.0
210
0.0
220
0.0
230
1.0
  2
SOLID
 70
     1
 71
     0
 91
        1
 92
        1
 93
        1
 72
     4
 94
        3
 73
     0
 74
     0
 95
       11
 96
        7
 40
0.0
 40
0.0
 40
0.0
 40
0.0
 40
1.0
 40
1.0
 40
1.0
 40
2.0
 40
2.0
 40
2.0
 40
2.0
 10
45.37546545003574
 20
14.29796265358392
 10
45.37546545003574
 20
14.27551785649191
 10
45.35431256375102
 20
14.28270088058045
 10
45.35431256375102
 20
14.30052924972108
 10
45.35431256375102
 20
14.31449911191726
 10
45.37546545003574
 20
14.31246650558045
 10
45.37546545003574
 20
14.29796265358392
 97
        0
 75
     2
 76
     1
 98
        1
 10
34.25645421956699
 20
0.1963083295821892
  0
HATCH
  5
53EB
330
768
100
AcDbEntity
  8
0
100
AcDbHatch
 10
0.0
 20
0.0
 30
0.0
210
0.0
220
0.0
230
1.0
  2
SOLID
 70
     1
 71
     0
 91
        1
 92
        1
 93
        1
 72
     4
 94
        3
 73
     0
 74
     0
 95
       11
 96
        7
 40
0.0
 40
0.0
 40
0.0
 40
0.0
 40
1.0
 40
1.0
 40
1.0
 40
2.0
 40
2.0
 40
2.0
 40
2.0
 10
45.34855925428921
 20
14.29796265358392
 10
45.34855925428921
 20
14.27551785649191
 10
45.3273030151399
 20
14.28270088058045
 10
45.3273030151399
 20
14.30052924972108
 10
45.3273030151399
 20
14.31449911191726
 10
45.34855925428921
 20
14.31246650558045
 10
45.34855925428921
 20
14.29796265358392
 97
        0
 75
     2
 76
     1
 98
        1
 10
34.25645421956699
 20
0.1963083295821892
  0
HATCH
  5
53EC
330
768
100
AcDbEntity
  8
0
100
AcDbHatch
 10
0.0
 20
0.0
 30
0.0
210
0.0
220
0.0
230
1.0
  2
SOLID
 70
     1
 71
     0
 91
        1
 92
        1
 93
        1
 72
     4
 94
        3
 73
     0
 74
     0
 95
       11
 96
        7
 40
0.0
 40
0.0
 40
0.0
 40
0.0
 40
1.0
 40
1.0
 40
1.0
 40
2.0
 40
2.0
 40
2.0
 40
2.0
 10
45.49366667616421
 20
14.27436374950406
 10
45.49366667616421
 20
14.25190172693462
 10
45.47244488796977
 20
14.25908475102316
 10
45.47244488796977
 20
14.27687866920892
 10
45.47244488796977
 20
14.29091743331483
 10
45.49366667616421
 20
14.28879869959087
 10
45.49366667616421
 20
14.27436374950406
 97
        0
 75
     2
 76
     1
 98
        1
 10
34.25645421956699
 20
0.1963083295821892
  0
HATCH
  5
53ED
330
768
100
AcDbEntity
  8
0
100
AcDbHatch
 10
0.0
 20
0.0
 30
0.0
210
0.0
220
0.0
230
1.0
  2
SOLID
 70
     1
 71
     0
 91
        1
 92
        1
 93
        1
 72
     4
 94
        3
 73
     0
 74
     0
 95
       11
 96
        7
 40
0.0
 40
0.0
 40
0.0
 40
0.0
 40
1.0
 40
1.0
 40
1.0
 40
2.0
 40
2.0
 40
2.0
 40
2.0
 10
45.49366667616421
 20
14.34858833175233
 10
45.49366667616421
 20
14.32616076013774
 10
45.47244488796977
 20
14.33330933327143
 10
45.47244488796977
 20
14.35112047693462
 10
45.47244488796977
 20
14.36517646651795
 10
45.49366667616421
 20
14.36305773279399
 10
45.49366667616421
 20
14.34858833175233
 97
        0
 75
     2
 76
     1
 98
        1
 10
34.25645421956699
 20
0.1963083295821892
  0
HATCH
  5
53EE
330
768
100
AcDbEntity
  8
0
100
AcDbHatch
 10
0.0
 20
0.0
 30
0.0
210
0.0
220
0.0
230
1.0
  2
SOLID
 70
     1
 71
     0
 91
        1
 92
        1
 93
        1
 72
     4
 94
        3
 73
     0
 74
     0
 95
       11
 96
        7
 40
0.0
 40
0.0
 40
0.0
 40
0.0
 40
1.0
 40
1.0
 40
1.0
 40
2.0
 40
2.0
 40
2.0
 40
2.0
 10
45.6049432603656
 20
14.27773994308045
 10
45.6049432603656
 20
14.25527792051101
 10
45.58375592312602
 20
14.26247817007698
 10
45.58375592312602
 20
14.28027208826274
 10
45.58375592312602
 20
14.29432807784608
 10
45.6049432603656
 20
14.29217489316726
 10
45.6049432603656
 20
14.27773994308045
 97
        0
 75
     2
 76
     1
 98
        1
 10
34.25645421956699
 20
0.1963083295821892
  0
HATCH
  5
53EF
330
768
100
AcDbEntity
  8
0
100
AcDbHatch
 10
0.0
 20
0.0
 30
0.0
210
0.0
220
0.0
230
1.0
  2
SOLID
 70
     1
 71
     0
 91
        1
 92
        1
 93
        1
 72
     4
 94
        3
 73
     0
 74
     0
 95
       11
 96
        7
 40
0.0
 40
0.0
 40
0.0
 40
0.0
 40
1.0
 40
1.0
 40
1.0
 40
2.0
 40
2.0
 40
2.0
 40
2.0
 10
45.6049432603656
 20
14.24060181374017
 10
45.6049432603656
 20
14.21815701664816
 10
45.58375592312602
 20
14.2253400407367
 10
45.58375592312602
 20
14.2431511843999
 10
45.58375592312602
 20
14.25717272302837
 10
45.6049432603656
 20
14.25507121478184
 10
45.6049432603656
 20
14.24060181374017
 97
        0
 75
     2
 76
     1
 98
        1
 10
34.25645421956699
 20
0.1963083295821892
  0
HATCH
  5
53F1
330
768
100
AcDbEntity
  8
0
100
AcDbHatch
 10
0.0
 20
0.0
 30
0.0
210
0.0
220
0.0
230
1.0
  2
SOLID
 70
     1
 71
     0
 91
        1
 92
        1
 93
        1
 72
     4
 94
        3
 73
     0
 74
     0
 95
       11
 96
        7
 40
0.0
 40
0.0
 40
0.0
 40
0.0
 40
1.0
 40
1.0
 40
1.0
 40
2.0
 40
2.0
 40
2.0
 40
2.0
 10
45.80751487494894
 20
14.10222955354052
 10
45.80751487494894
 20
14.0798364328808
 10
45.78629308675449
 20
14.08700223149191
 10
45.78629308675449
 20
14.10484782610997
 10
45.78629308675449
 20
14.11883491378358
 10
45.80751487494894
 20
14.11669895458219
 10
45.80751487494894
 20
14.10222955354052
 97
        0
 75
     2
 76
     1
 98
        1
 10
34.25645421956699
 20
0.1963083295821892
  0
HATCH
  5
53F8
330
768
100
AcDbEntity
  8
0
100
AcDbHatch
 10
0.0
 20
0.0
 30
0.0
210
0.0
220
0.0
230
1.0
  2
SOLID
 70
     1
 71
     0
 91
        1
 92
        1
 93
        1
 72
     4
 94
        3
 73
     0
 74
     0
 95
       11
 96
        7
 40
0.0
 40
0.0
 40
0.0
 40
0.0
 40
1.0
 40
1.0
 40
1.0
 40
2.0
 40
2.0
 40
2.0
 40
2.0
 10
44.85587614882046
 20
13.58594754399191
 10
44.85587614882046
 20
13.56348552142246
 10
44.83461990967115
 20
13.57065132003358
 10
44.83461990967115
 20
13.58842801274191
 10
44.83461990967115
 20
13.60248400232524
 10
44.85587614882046
 20
13.60041694503358
 10
44.85587614882046
 20
13.58594754399191
 97
        0
 75
     2
 76
     1
 98
        1
 10
34.25645421956699
 20
0.1963083295821892
  0
HATCH
  5
53FA
330
768
100
AcDbEntity
  8
0
100
AcDbHatch
 10
0.0
 20
0.0
 30
0.0
210
0.0
220
0.0
230
1.0
  2
SOLID
 70
     1
 71
     0
 91
        1
 92
        1
 93
        1
 72
     4
 94
        3
 73
     0
 74
     0
 95
       11
 96
        7
 40
0.0
 40
0.0
 40
0.0
 40
0.0
 40
1.0
 40
1.0
 40
1.0
 40
2.0
 40
2.0
 40
2.0
 40
2.0
 10
44.73092253553921
 20
13.34630670197802
 10
44.73092253553921
 20
13.32384467940858
 10
44.70976964925449
 20
13.33107937992941
 10
44.70976964925449
 20
13.34885607263774
 10
44.70976964925449
 20
13.36291206222108
 10
44.73092253553921
 20
13.36077610301969
 10
44.73092253553921
 20
13.34630670197802
 97
        0
 75
     2
 76
     1
 98
        1
 10
34.25645421956699
 20
0.1963083295821892
  0
HATCH
  5
53FB
330
768
100
AcDbEntity
  8
0
100
AcDbHatch
 10
0.0
 20
0.0
 30
0.0
210
0.0
220
0.0
230
1.0
  2
SOLID
 70
     1
 71
     0
 91
        1
 92
        1
 93
        1
 72
     4
 94
        3
 73
     0
 74
     0
 95
       11
 96
        7
 40
0.0
 40
0.0
 40
0.0
 40
0.0
 40
1.0
 40
1.0
 40
1.0
 40
2.0
 40
2.0
 40
2.0
 40
2.0
 10
45.19659609239685
 20
13.14380398930441
 10
45.19659609239685
 20
13.12141086864469
 10
45.17544320611213
 20
13.1285766672558
 10
45.17544320611213
 20
13.14638781091899
 10
45.17544320611213
 20
13.16040934954746
 10
45.19659609239685
 20
13.1583422922558
 10
45.19659609239685
 20
13.14380398930441
 97
        0
 75
     2
 76
     1
 98
        1
 10
34.25645421956699
 20
0.1963083295821892
  0
HATCH
  5
53FC
330
768
100
AcDbEntity
  8
0
100
AcDbHatch
 10
0.0
 20
0.0
 30
0.0
210
0.0
220
0.0
230
1.0
  2
SOLID
 70
     1
 71
     0
 91
        1
 92
        1
 93
        1
 72
     4
 94
        3
 73
     0
 74
     0
 95
       11
 96
        7
 40
0.0
 40
0.0
 40
0.0
 40
0.0
 40
1.0
 40
1.0
 40
1.0
 40
2.0
 40
2.0
 40
2.0
 40
2.0
 10
45.17633893093852
 20
13.11011095545025
 10
45.17633893093852
 20
13.08768338383566
 10
45.15515159369893
 20
13.09481473149191
 10
45.15515159369893
 20
13.11266032610997
 10
45.15515159369893
 20
13.12664741378358
 10
45.17633893093852
 20
13.12458035649191
 10
45.17633893093852
 20
13.11011095545025
 97
        0
 75
     2
 76
     1
 98
        1
 10
34.25645421956699
 20
0.1963083295821892
  0
HATCH
  5
53FF
330
768
100
AcDbEntity
  8
0
100
AcDbHatch
 10
0.0
 20
0.0
 30
0.0
210
0.0
220
0.0
230
1.0
  2
SOLID
 70
     1
 71
     0
 91
        1
 92
        1
 93
        1
 72
     4
 94
        3
 73
     0
 74
     0
 95
       11
 96
        7
 40
0.0
 40
0.0
 40
0.0
 40
0.0
 40
1.0
 40
1.0
 40
1.0
 40
2.0
 40
2.0
 40
2.0
 40
2.0
 10
43.01385249430658
 20
13.68557970545025
 10
43.01385249430658
 20
13.66318658479052
 10
42.99263070611213
 20
13.67035238340163
 10
42.99263070611213
 20
13.68812907610997
 10
42.99263070611213
 20
13.7021850656933
 10
43.01385249430658
 20
13.70004910649191
 10
43.01385249430658
 20
13.68557970545025
 97
        0
 75
     2
 76
     1
 98
        1
 10
34.25645421956699
 20
0.1963083295821892
  0
HATCH
  5
5401
330
768
100
AcDbEntity
  8
0
100
AcDbHatch
 10
0.0
 20
0.0
 30
0.0
210
0.0
220
0.0
230
1.0
  2
SOLID
 70
     1
 71
     0
 91
        1
 92
        1
 93
        1
 72
     4
 94
        3
 73
     0
 74
     0
 95
       11
 96
        7
 40
0.0
 40
0.0
 40
0.0
 40
0.0
 40
1.0
 40
1.0
 40
1.0
 40
2.0
 40
2.0
 40
2.0
 40
2.0
 10
42.68929004856005
 20
12.88066759607524
 10
42.68929004856005
 20
12.8582055735058
 10
42.66813716227532
 20
12.86537137211691
 10
42.66813716227532
 20
12.88314806482524
 10
42.66813716227532
 20
12.89720405440858
 10
42.68929004856005
 20
12.89506809520719
 10
42.68929004856005
 20
12.88066759607524
 97
        0
 75
     2
 76
     1
 98
        1
 10
34.25645421956699
 20
0.1963083295821892
  0
HATCH
  5
5402
330
768
100
AcDbEntity
  8
0
100
AcDbHatch
 10
0.0
 20
0.0
 30
0.0
210
0.0
220
0.0
230
1.0
  2
SOLID
 70
     1
 71
     0
 91
        1
 92
        1
 93
        1
 72
     4
 94
        3
 73
     0
 74
     0
 95
       11
 96
        7
 40
0.0
 40
0.0
 40
0.0
 40
0.0
 40
1.0
 40
1.0
 40
1.0
 40
2.0
 40
2.0
 40
2.0
 40
2.0
 10
42.43287159152879
 20
12.99201308218635
 10
42.43287159152879
 20
12.96955105961691
 10
42.41161535237949
 20
12.97671685822802
 10
42.41161535237949
 20
12.99449355093636
 10
42.41161535237949
 20
13.00854954051969
 10
42.43287159152879
 20
13.00648248322802
 10
42.43287159152879
 20
12.99201308218635
 97
        0
 75
     2
 76
     1
 98
        1
 10
34.25645421956699
 20
0.1963083295821892
  0
HATCH
  5
5403
330
768
100
AcDbEntity
  8
0
100
AcDbHatch
 10
0.0
 20
0.0
 30
0.0
210
0.0
220
0.0
230
1.0
  2
SOLID
 70
     1
 71
     0
 91
        1
 92
        1
 93
        1
 72
     4
 94
        3
 73
     0
 74
     0
 95
       11
 96
        7
 40
0.0
 40
0.0
 40
0.0
 40
0.0
 40
1.0
 40
1.0
 40
1.0
 40
2.0
 40
2.0
 40
2.0
 40
2.0
 10
42.40923823649408
 20
12.82661404789816
 10
42.40923823649408
 20
12.80418647628358
 10
42.38803367377706
 20
12.81135227489469
 10
42.38803367377706
 20
12.82919786951274
 10
42.38803367377706
 20
12.84318495718635
 10
42.40923823649408
 20
12.84111789989469
 10
42.40923823649408
 20
12.82661404789816
 97
        0
 75
     2
 76
     1
 98
        1
 10
34.25645421956699
 20
0.1963083295821892
  0
HATCH
  5
5406
330
768
100
AcDbEntity
  8
0
100
AcDbHatch
 10
0.0
 20
0.0
 30
0.0
210
0.0
220
0.0
230
1.0
  2
SOLID
 70
     1
 71
     0
 91
        1
 92
        1
 93
        1
 72
     4
 94
        3
 73
     0
 74
     0
 95
       11
 96
        7
 40
0.0
 40
0.0
 40
0.0
 40
0.0
 40
1.0
 40
1.0
 40
1.0
 40
2.0
 40
2.0
 40
2.0
 40
2.0
 10
44.73770937364685
 20
12.20567003748149
 10
44.73770937364685
 20
12.18324246586691
 10
44.71652203640727
 20
12.19040826447802
 10
44.71652203640727
 20
12.20825385909608
 10
44.71652203640727
 20
12.22230984867941
 10
44.73770937364685
 20
12.22013943852316
 10
44.73770937364685
 20
12.20567003748149
 97
        0
 75
     2
 76
     1
 98
        1
 10
34.25645421956699
 20
0.1963083295821892
  0
HATCH
  5
5408
330
768
100
AcDbEntity
  8
0
100
AcDbHatch
 10
0.0
 20
0.0
 30
0.0
210
0.0
220
0.0
230
1.0
  2
SOLID
 70
     1
 71
     0
 91
        1
 92
        1
 93
        1
 72
     4
 94
        3
 73
     0
 74
     0
 95
       11
 96
        7
 40
0.0
 40
0.0
 40
0.0
 40
0.0
 40
1.0
 40
1.0
 40
1.0
 40
2.0
 40
2.0
 40
2.0
 40
2.0
 10
43.17187902425449
 20
12.42508816899191
 10
43.17187902425449
 20
12.40262614642247
 10
43.15072613796977
 20
12.40979194503358
 10
43.15072613796977
 20
12.42756863774191
 10
43.15072613796977
 20
12.44162462732524
 10
43.17187902425449
 20
12.43948866812385
 10
43.17187902425449
 20
12.42508816899191
 97
        0
 75
     2
 76
     1
 98
        1
 10
34.25645421956699
 20
0.1963083295821892
  0
HATCH
  5
541D
330
768
100
AcDbEntity
  8
0
100
AcDbHatch
 10
0.0
 20
0.0
 30
0.0
210
0.0
220
0.0
230
1.0
  2
SOLID
 70
     1
 71
     0
 91
        1
 92
        1
 93
        1
 72
     4
 94
        3
 73
     0
 74
     0
 95
       11
 96
        7
 40
0.0
 40
0.0
 40
0.0
 40
0.0
 40
1.0
 40
1.0
 40
1.0
 40
2.0
 40
2.0
 40
2.0
 40
2.0
 10
43.02677160237949
 20
11.26085260041552
 10
43.02677160237949
 20
11.23839057784608
 10
43.00558426513991
 20
11.24555637645719
 10
43.00558426513991
 20
11.26333306916552
 10
43.00558426513991
 20
11.27735460779399
 10
43.02677160237949
 20
11.27525309954747
 10
43.02677160237949
 20
11.26085260041552
 97
        0
 75
     2
 76
     1
 98
        1
 10
34.25645421956699
 20
0.1963083295821892
  0
HATCH
  5
541F
330
768
100
AcDbEntity
  8
0
100
AcDbHatch
 10
0.0
 20
0.0
 30
0.0
210
0.0
220
0.0
230
1.0
  2
SOLID
 70
     1
 71
     0
 91
        1
 92
        1
 93
        1
 72
     4
 94
        3
 73
     0
 74
     0
 95
       11
 96
        7
 40
0.0
 40
0.0
 40
0.0
 40
0.0
 40
1.0
 40
1.0
 40
1.0
 40
2.0
 40
2.0
 40
2.0
 40
2.0
 10
42.9626239244281
 20
11.37557428010302
 10
42.9626239244281
 20
11.35311225753358
 10
42.94147103814338
 20
11.36034695805441
 10
42.94147103814338
 20
11.37805474885302
 10
42.94147103814338
 20
11.39211073843635
 10
42.9626239244281
 20
11.39000923018983
 10
42.9626239244281
 20
11.37557428010302
 97
        0
 75
     2
 76
     1
 98
        1
 10
34.25645421956699
 20
0.1963083295821892
  0
HATCH
  5
5421
330
768
100
AcDbEntity
  8
0
100
AcDbHatch
 10
0.0
 20
0.0
 30
0.0
210
0.0
220
0.0
230
1.0
  2
SOLID
 70
     1
 71
     0
 91
        1
 92
        1
 93
        1
 72
     4
 94
        3
 73
     0
 74
     0
 95
       11
 96
        7
 40
0.0
 40
0.0
 40
0.0
 40
0.0
 40
1.0
 40
1.0
 40
1.0
 40
2.0
 40
2.0
 40
2.0
 40
2.0
 10
42.85465463189338
 20
11.77375841638774
 10
42.85465463189338
 20
11.7512963938183
 10
42.83346729465379
 20
11.75846219242941
 10
42.83346729465379
 20
11.77623888513774
 10
42.83346729465379
 20
11.79029487472108
 10
42.85465463189338
 20
11.78822781742941
 10
42.85465463189338
 20
11.77375841638774
 97
        0
 75
     2
 76
     1
 98
        1
 10
34.25645421956699
 20
0.1963083295821892
  0
HATCH
  5
5423
330
768
100
AcDbEntity
  8
0
100
AcDbHatch
 10
0.0
 20
0.0
 30
0.0
210
0.0
220
0.0
230
1.0
  2
SOLID
 70
     1
 71
     0
 91
        1
 92
        1
 93
        1
 72
     4
 94
        3
 73
     0
 74
     0
 95
       11
 96
        7
 40
0.0
 40
0.0
 40
0.0
 40
0.0
 40
1.0
 40
1.0
 40
1.0
 40
2.0
 40
2.0
 40
2.0
 40
2.0
 10
42.59482553033088
 20
11.88848009607524
 10
42.59482553033088
 20
11.86605252446066
 10
42.57360374213643
 20
11.87318387211691
 10
42.57360374213643
 20
11.89102946673497
 10
42.57360374213643
 20
11.90501655440858
 10
42.59482553033088
 20
11.90294949711691
 10
42.59482553033088
 20
11.88848009607524
 97
        0
 75
     2
 76
     1
 98
        1
 10
34.25645421956699
 20
0.1963083295821892
  0
HATCH
  5
5429
330
768
100
AcDbEntity
  8
0
100
AcDbHatch
 10
0.0
 20
0.0
 30
0.0
210
0.0
220
0.0
230
1.0
  2
SOLID
 70
     1
 71
     0
 91
        1
 92
        1
 93
        1
 72
     4
 94
        3
 73
     0
 74
     0
 95
       11
 96
        7
 40
0.0
 40
0.0
 40
0.0
 40
0.0
 40
1.0
 40
1.0
 40
1.0
 40
2.0
 40
2.0
 40
2.0
 40
2.0
 10
42.54080643310866
 20
11.79060493331483
 10
42.54080643310866
 20
11.76817736170024
 10
42.51961909586908
 20
11.77534316031136
 10
42.51961909586908
 20
11.79318875492941
 10
42.51961909586908
 20
11.80717584260302
 10
42.54080643310866
 20
11.80503988340163
 10
42.54080643310866
 20
11.79060493331483
 97
        0
 75
     2
 76
     1
 98
        1
 10
34.25645421956699
 20
0.1963083295821892
  0
HATCH
  5
542C
330
768
100
AcDbEntity
  8
0
100
AcDbHatch
 10
0.0
 20
0.0
 30
0.0
210
0.0
220
0.0
230
1.0
  2
SOLID
 70
     1
 71
     0
 91
        1
 92
        1
 93
        1
 72
     4
 94
        3
 73
     0
 74
     0
 95
       11
 96
        7
 40
0.0
 40
0.0
 40
0.0
 40
0.0
 40
1.0
 40
1.0
 40
1.0
 40
2.0
 40
2.0
 40
2.0
 40
2.0
 10
41.97939367269199
 20
12.01339925840163
 10
41.97701655680658
 20
11.99107503965163
 10
41.95670771891595
 20
12.00044569937385
 10
41.95858529595588
 20
12.01815349017247
 10
41.96008391249234
 20
12.03214057784608
 10
41.98092674018331
 20
12.02773085562385
 10
41.97939367269199
 20
12.01339925840163
 97
        0
 75
     2
 76
     1
 98
        1
 10
34.25645421956699
 20
0.1963083295821892
  0
HATCH
  5
542D
330
768
100
AcDbEntity
  8
0
100
AcDbHatch
 10
0.0
 20
0.0
 30
0.0
210
0.0
220
0.0
230
1.0
  2
SOLID
 70
     1
 71
     0
 91
        1
 92
        1
 93
        1
 72
     4
 94
        3
 73
     0
 74
     0
 95
       11
 96
        7
 40
0.0
 40
0.0
 40
0.0
 40
0.0
 40
1.0
 40
1.0
 40
1.0
 40
2.0
 40
2.0
 40
2.0
 40
2.0
 10
41.56613724365553
 20
12.0353100656933
 10
41.56376012777012
 20
12.01305474885302
 10
41.54343406440206
 20
12.02235650666552
 10
41.54531164144199
 20
12.04013319937386
 10
41.54679303250101
 20
12.05405138513774
 10
41.56767031114685
 20
12.04971056482524
 10
41.56613724365553
 20
12.0353100656933
 97
        0
 75
     2
 76
     1
 98
        1
 10
34.25645421956699
 20
0.1963083295821892
  0
LINE
  5
6CDE
330
768
100
AcDbEntity
  8
0
100
AcDbLine
 10
0.0
 20
0.0
 30
0.0
 11
-3.375000000000199
 21
0.0
 31
0.0
  0
LINE
  5
6CDF
330
768
100
AcDbEntity
  8
0
100
AcDbLine
 10
0.0
 20
0.0937499999999893
 30
0.0
 11
-1.018175879037322
 21
0.0937500000000711
 31
0.0
  0
LINE
  5
6CE0
330
768
100
AcDbEntity
  8
0
100
AcDbLine
 10
0.0
 20
0.0937499999999893
 30
0.0
 11
0.0
 21
0.0
 31
0.0
  0
LINE
  5
6CE1
330
768
100
AcDbEntity
  8
0
100
AcDbLine
 10
-3.433750000000103
 20
5.46875
 30
0.0
 11
-3.435179421810428
 21
0.2932619150096354
 31
0.0
  0
LINE
  5
6CE2
330
768
100
AcDbEntity
  8
0
100
AcDbLine
 10
-3.433750000000103
 20
0.205004070980797
 30
0.0
 11
-3.433750000000103
 21
0.1806270354903932
 31
0.0
  0
LINE
  5
6CE3
330
768
100
AcDbEntity
  8
0
100
AcDbLine
 10
-3.535000000000096
 20
5.46875
 30
0.0
 11
-3.535000000000068
 21
0.1862499999998875
 31
0.0
  0
LINE
  5
6CE4
330
768
100
AcDbEntity
  8
0
100
AcDbLine
 10
-1.10706689151538
 20
4.509645965783193
 30
0.0
 11
-0.9976093446116252
 21
4.509645965783196
 31
0.0
  0
LINE
  5
6CE5
330
768
100
AcDbEntity
  8
0
100
AcDbLine
 10
-1.10706689151538
 20
4.665645965783199
 30
0.0
 11
-0.9976093446116252
 21
4.665645965783192
 31
0.0
  0
ARC
  5
6CE6
330
768
100
AcDbEntity
  8
0
100
AcDbCircle
 10
-1.107066891515387
 20
4.587645965783192
 30
0.0
 40
0.078
100
AcDbArc
 50
90.0
 51
270.0
  0
LINE
  5
6CE7
330
768
100
AcDbEntity
  8
0
100
AcDbLine
 10
-3.327773942782056
 20
0.09375
 30
0.0
 11
-3.343750000000203
 21
0.09375
 31
0.0
  0
ARC
  5
6CE8
330
768
100
AcDbEntity
  8
0
100
AcDbCircle
 10
-0.9723217519948122
 20
0.1249655661829632
 30
0.0
 40
0.1256480924395436
100
AcDbArc
 50
90.98791854488897
 51
264.0252993543438
  0
ARC
  5
6CE9
330
768
100
AcDbEntity
  8
0
100
AcDbCircle
 10
-1.018175879037315
 20
0.171750000000074
 30
0.0
 40
0.078
100
AcDbArc
 50
192.4469253486766
 51
270.0
  0
ARC
  5
6CEA
330
768
100
AcDbEntity
  8
0
100
AcDbCircle
 10
-0.6020878413159494
 20
0.0073325067783667
 30
0.0
 40
0.0546562447390256
100
AcDbArc
 50
187.7098644334745
 51
277.3470285137406
  0
ARC
  5
6CEB
330
768
100
AcDbEntity
  8
0
100
AcDbCircle
 10
-0.3979121586840435
 20
0.0073325067783667
 30
0.0
 40
0.0546562447390256
100
AcDbArc
 50
262.6529714862593
 51
352.2901355665255
  0
LINE
  5
6CEC
330
768
100
AcDbEntity
  8
0
100
AcDbLine
 10
-0.4049015290309086
 20
-0.046875
 30
0.0
 11
-0.5950984709690914
 21
-0.046875
 31
0.0
  0
ARC
  5
6CED
330
768
100
AcDbEntity
  8
0
100
AcDbCircle
 10
-1.352087841315949
 20
0.0073325067783667
 30
0.0
 40
0.0546562447390256
100
AcDbArc
 50
187.7098644334745
 51
277.3470285137406
  0
ARC
  5
6CEE
330
768
100
AcDbEntity
  8
0
100
AcDbCircle
 10
-1.147912158684044
 20
0.0073325067783667
 30
0.0
 40
0.0546562447390256
100
AcDbArc
 50
262.6529714862593
 51
352.2901355665255
  0
LINE
  5
6CEF
330
768
100
AcDbEntity
  8
0
100
AcDbLine
 10
-1.154901529030909
 20
-0.046875
 30
0.0
 11
-1.345098470969091
 21
-0.046875
 31
0.0
  0
ARC
  5
6CF0
330
768
100
AcDbEntity
  8
0
100
AcDbCircle
 10
-2.102087841315949
 20
0.0073325067783667
 30
0.0
 40
0.0546562447390256
100
AcDbArc
 50
187.7098644334745
 51
277.3470285137406
  0
ARC
  5
6CF1
330
768
100
AcDbEntity
  8
0
100
AcDbCircle
 10
-1.897912158684044
 20
0.0073325067783667
 30
0.0
 40
0.0546562447390256
100
AcDbArc
 50
262.6529714862593
 51
352.2901355665255
  0
LINE
  5
6CF2
330
768
100
AcDbEntity
  8
0
100
AcDbLine
 10
-1.904901529030909
 20
-0.046875
 30
0.0
 11
-2.095098470969091
 21
-0.046875
 31
0.0
  0
ARC
  5
6CF3
330
768
100
AcDbEntity
  8
0
100
AcDbCircle
 10
-2.852087841315949
 20
0.0073325067783667
 30
0.0
 40
0.0546562447390256
100
AcDbArc
 50
187.7098644334745
 51
277.3470285137406
  0
ARC
  5
6CF4
330
768
100
AcDbEntity
  8
0
100
AcDbCircle
 10
-2.647912158684051
 20
0.0073325067783667
 30
0.0
 40
0.0546562447390256
100
AcDbArc
 50
262.6529714862593
 51
352.2901355665255
  0
LINE
  5
6CF5
330
768
100
AcDbEntity
  8
0
100
AcDbLine
 10
-2.654901529030909
 20
-0.046875
 30
0.0
 11
-2.845098470969091
 21
-0.046875
 31
0.0
  0
LINE
  5
6CF6
330
768
100
AcDbEntity
  8
0
100
AcDbLine
 10
-0.7669820811315589
 20
4.618345965783185
 30
0.0
 11
-0.7676638358583858
 21
0.9167678611585748
 31
0.0
  0
LINE
  5
6CF7
330
768
100
AcDbEntity
  8
0
100
AcDbLine
 10
-0.7148782723509299
 20
4.618345965783185
 30
0.0
 11
-0.7141965325070458
 21
0.9167678611585748
 31
0.0
  0
LINE
  5
6CF8
330
768
100
AcDbEntity
  8
0
100
AcDbLine
 10
-0.7148782723509299
 20
4.618345965783188
 30
0.0
 11
-0.7669933896281336
 21
4.618345965783188
 31
0.0
  0
LINE
  5
6CF9
330
768
100
AcDbEntity
  8
0
  6
DASHED
100
AcDbLine
 10
-1.051738866903747
 20
4.819938821166492
 30
0.0
 11
-1.05173886690374
 21
0.274074329184284
 31
0.0
  0
ARC
  5
6CFA
330
768
100
AcDbEntity
  8
0
100
AcDbCircle
 10
-1.107066891515387
 20
3.962645965783192
 30
0.0
 40
0.078
100
AcDbArc
 50
90.0
 51
270.0
  0
ARC
  5
6CFB
330
768
100
AcDbEntity
  8
0
100
AcDbCircle
 10
-1.107066891515387
 20
3.337645965783192
 30
0.0
 40
0.078
100
AcDbArc
 50
90.0
 51
270.0
  0
ARC
  5
6CFC
330
768
100
AcDbEntity
  8
0
100
AcDbCircle
 10
-1.107066891515387
 20
2.712645965783192
 30
0.0
 40
0.078
100
AcDbArc
 50
90.0
 51
270.0
  0
ARC
  5
6CFD
330
768
100
AcDbEntity
  8
0
100
AcDbCircle
 10
-1.107066891515387
 20
2.087645965783192
 30
0.0
 40
0.078
100
AcDbArc
 50
90.0
 51
270.0
  0
ARC
  5
6CFE
330
768
100
AcDbEntity
  8
0
100
AcDbCircle
 10
-1.107066891515387
 20
1.462645965783192
 30
0.0
 40
0.078
100
AcDbArc
 50
90.0
 51
270.0
  0
ARC
  5
6CFF
330
768
100
AcDbEntity
  8
0
100
AcDbCircle
 10
-1.107066891515387
 20
0.8376459657831923
 30
0.0
 40
0.078
100
AcDbArc
 50
90.0
 51
270.0
  0
ARC
  5
6D00
330
768
100
AcDbEntity
  8
0
100
AcDbCircle
 10
-3.344726057218587
 20
0.1828879850702592
 30
0.0
 40
0.0891433288029974
100
AcDbArc
 50
177.0343600214621
 51
270.6273613226686
  0
ARC
  5
6D01
330
768
100
AcDbEntity
  8
0
100
AcDbCircle
 10
-3.348083407975786
 20
0.1849728105980226
 30
0.0
 40
0.1869209554510696
100
AcDbArc
 50
179.6085076089724
 51
261.7206322193348
  0
ARC
  5
6D02
330
768
100
AcDbEntity
  8
0
100
AcDbCircle
 10
-3.50960518033618
 20
0.0224686037697275
 30
0.0
 40
0.1976694340908125
100
AcDbArc
 50
353.4732216384376
 51
67.43398532308933
  0
LINE
  5
6D03
330
768
100
AcDbEntity
  8
0
100
AcDbLine
 10
-3.433750000000103
 20
0.9201384035151428
 30
0.0
 11
-3.535000000000096
 21
0.9201384035151428
 31
0.0
  0
ARC
  5
6D04
330
768
100
AcDbEntity
  8
0
100
AcDbCircle
 10
-3.402383574698504
 20
0.3435716206320123
 30
0.0
 40
0.1420732854992197
100
AcDbArc
 50
200.3772918533131
 51
257.2453625430168
  0
ARC
  5
6D05
330
768
100
AcDbEntity
  8
0
100
AcDbCircle
 10
-3.293442710327369
 20
0.2834883245480651
 30
0.0
 40
0.1420732854992197
100
AcDbArc
 50
176.0553589884404
 51
232.9234296781441
  0
LINE
  5
6D06
330
768
100
AcDbEntity
  8
0
100
AcDbLine
 10
-3.433750000000103
 20
0.6701384035151357
 30
0.0
 11
-3.535000000000096
 21
0.6701384035151357
 31
0.0
  0
LINE
  5
6D07
330
768
100
AcDbEntity
  8
0
100
AcDbLine
 10
-1.196292216405325
 20
4.900145965783189
 30
0.0
 11
-1.764896250622186
 21
5.468750000000036
 31
0.0
  0
LINE
  5
6D08
330
768
100
AcDbEntity
  8
0
100
AcDbLine
 10
-3.535000000000096
 20
5.46875
 30
0.0
 11
-1.764896250622186
 21
5.468750000000036
 31
0.0
  0
LINE
  5
6D09
330
768
100
AcDbEntity
  8
0
100
AcDbLine
 10
-1.196292216405325
 20
4.900145965783189
 30
0.0
 11
-0.9172494042119226
 21
4.900145965783189
 31
0.0
  0
LINE
  5
6D0A
330
768
100
AcDbEntity
  8
0
100
AcDbLine
 10
-0.7669820811315589
 20
4.618345965783185
 30
0.0
 11
-0.9721361138310272
 21
4.900145965783189
 31
0.0
  0
LINE
  5
6D0B
330
768
100
AcDbEntity
  8
0
100
AcDbLine
 10
-0.7676638358583858
 20
0.9167678611585748
 30
0.0
 11
-1.032534582097121
 21
0.2352463814899171
 31
0.0
  0
LINE
  5
6D0C
330
768
100
AcDbEntity
  8
0
100
AcDbLine
 10
-0.7141965325070458
 20
0.9167678611585748
 30
0.0
 11
-0.974488123255
 21
0.2505949814059081
 31
0.0
  0
LINE
  5
6D0D
330
768
100
AcDbEntity
  8
0
100
AcDbLine
 10
-0.7141965325070458
 20
0.9167678611585748
 30
0.0
 11
-0.7676638358583858
 21
0.9167678611585748
 31
0.0
  0
LINE
  5
6D0E
330
768
100
AcDbEntity
  8
0
100
AcDbLine
 10
-0.7148782723509299
 20
4.618345965783185
 30
0.0
 11
-0.9200209965538306
 21
4.900145965783189
 31
0.0
  0
ARC
  5
6D0F
330
768
100
AcDbEntity
  8
0
100
AcDbCircle
 10
-1.045383653371559
 20
4.587645965783194
 30
0.0
 40
0.0914679428952521
100
AcDbArc
 50
301.4871001260359
 51
58.51289987396414
  0
LINE
  5
6D10
330
768
100
AcDbEntity
  8
0
100
AcDbLine
 10
-1.10706689151538
 20
3.884645965783193
 30
0.0
 11
-0.9976093446116252
 21
3.884645965783196
 31
0.0
  0
LINE
  5
6D11
330
768
100
AcDbEntity
  8
0
100
AcDbLine
 10
-1.10706689151538
 20
4.040645965783199
 30
0.0
 11
-0.9976093446116252
 21
4.040645965783192
 31
0.0
  0
ARC
  5
6D12
330
768
100
AcDbEntity
  8
0
100
AcDbCircle
 10
-1.045383653371559
 20
3.962645965783194
 30
0.0
 40
0.0914679428952521
100
AcDbArc
 50
301.4871001260359
 51
58.51289987396414
  0
LINE
  5
6D13
330
768
100
AcDbEntity
  8
0
100
AcDbLine
 10
-1.10706689151538
 20
3.259645965783193
 30
0.0
 11
-0.9976093446116252
 21
3.259645965783196
 31
0.0
  0
LINE
  5
6D14
330
768
100
AcDbEntity
  8
0
100
AcDbLine
 10
-1.10706689151538
 20
3.415645965783199
 30
0.0
 11
-0.9976093446116252
 21
3.415645965783192
 31
0.0
  0
ARC
  5
6D15
330
768
100
AcDbEntity
  8
0
100
AcDbCircle
 10
-1.045383653371559
 20
3.337645965783194
 30
0.0
 40
0.0914679428952521
100
AcDbArc
 50
301.4871001260359
 51
58.51289987396414
  0
LINE
  5
6D16
330
768
100
AcDbEntity
  8
0
100
AcDbLine
 10
-1.10706689151538
 20
2.634645965783193
 30
0.0
 11
-0.9976093446116252
 21
2.634645965783196
 31
0.0
  0
LINE
  5
6D17
330
768
100
AcDbEntity
  8
0
100
AcDbLine
 10
-1.10706689151538
 20
2.790645965783199
 30
0.0
 11
-0.9976093446116252
 21
2.790645965783192
 31
0.0
  0
ARC
  5
6D18
330
768
100
AcDbEntity
  8
0
100
AcDbCircle
 10
-1.045383653371559
 20
2.712645965783194
 30
0.0
 40
0.0914679428952521
100
AcDbArc
 50
301.4871001260359
 51
58.51289987396414
  0
LINE
  5
6D19
330
768
100
AcDbEntity
  8
0
100
AcDbLine
 10
-1.10706689151538
 20
2.009645965783193
 30
0.0
 11
-0.9976093446116252
 21
2.009645965783196
 31
0.0
  0
LINE
  5
6D1A
330
768
100
AcDbEntity
  8
0
100
AcDbLine
 10
-1.10706689151538
 20
2.165645965783199
 30
0.0
 11
-0.9976093446116252
 21
2.165645965783192
 31
0.0
  0
ARC
  5
6D1B
330
768
100
AcDbEntity
  8
0
100
AcDbCircle
 10
-1.045383653371559
 20
2.087645965783194
 30
0.0
 40
0.0914679428952521
100
AcDbArc
 50
301.4871001260359
 51
58.51289987396414
  0
LINE
  5
6D1C
330
768
100
AcDbEntity
  8
0
100
AcDbLine
 10
-1.10706689151538
 20
1.384645965783193
 30
0.0
 11
-0.9976093446116252
 21
1.384645965783196
 31
0.0
  0
LINE
  5
6D1D
330
768
100
AcDbEntity
  8
0
100
AcDbLine
 10
-1.10706689151538
 20
1.540645965783199
 30
0.0
 11
-0.9976093446116252
 21
1.540645965783192
 31
0.0
  0
ARC
  5
6D1E
330
768
100
AcDbEntity
  8
0
100
AcDbCircle
 10
-1.045383653371559
 20
1.462645965783194
 30
0.0
 40
0.0914679428952521
100
AcDbArc
 50
301.4871001260359
 51
58.51289987396414
  0
LINE
  5
6D1F
330
768
100
AcDbEntity
  8
0
100
AcDbLine
 10
-1.10706689151538
 20
0.7596459657831929
 30
0.0
 11
-0.9976093446116252
 21
0.7596459657831964
 31
0.0
  0
LINE
  5
6D20
330
768
100
AcDbEntity
  8
0
100
AcDbLine
 10
-1.10706689151538
 20
0.9156459657831988
 30
0.0
 11
-0.9976093446116252
 21
0.9156459657831917
 31
0.0
  0
ARC
  5
6D21
330
768
100
AcDbEntity
  8
0
100
AcDbCircle
 10
-1.045383653371559
 20
0.8376459657831941
 30
0.0
 40
0.0914679428952521
100
AcDbArc
 50
301.4871001260359
 51
58.51289987396414
  0
ENDSEC
  0
SECTION
  2
OBJECTS
  0
DICTIONARY
  5
75D
330
0
100
AcDbDictionary
281
     1
  3
ACAD_COLOR
350
9E7
  3
ACAD_GROUP
350
75E
  3
ACAD_LAYOUT
350
7C6
  3
ACAD_MATERIAL
350
9E6
  3
ACAD_MLINESTYLE
350
76B
  3
ACAD_PLOTSETTINGS
350
7C7
  3
ACAD_PLOTSTYLENAME
350
7C4
  3
ACAD_TABLESTYLE
350
9E8
  3
ACDBHEADERROUNDTRIPXREC
350
6D53
  3
ACDBVARIABLEDICTIONARY
350
7B3
  3
ASE_INDEX_DICTIONARY
350
6D22
  0
DICTIONARY
  5
9F9
330
753
100
AcDbDictionary
280
     1
281
     1
  3
ACAD_LAYERFILTERS
360
6CDD
  3
ACAD_LAYERSTATES
360
9FA
  3
ACLYDICTIONARY
360
6CDC
  0
DICTIONARY
  5
2103
330
2102
100
AcDbDictionary
280
     1
281
     1
  3
ACAD_XREC_ROUNDTRIP
360
2104
  0
DICTIONARY
  5
7F5
330
768
100
AcDbDictionary
280
     1
281
     1
  3
ACAD_SORTENTS
360
1265
  0
DICTIONARY
  5
9E7
102
{ACAD_REACTORS
330
75D
102
}
330
75D
100
AcDbDictionary
281
     1
  0
DICTIONARY
  5
75E
102
{ACAD_REACTORS
330
75D
102
}
330
75D
100
AcDbDictionary
281
     1
  0
DICTIONARY
  5
7C6
102
{ACAD_REACTORS
330
75D
102
}
330
75D
100
AcDbDictionary
281
     1
  3
Layout1
350
7C9
  3
Model
350
7C8
  0
DICTIONARY
  5
9E6
102
{ACAD_REACTORS
330
75D
102
}
330
75D
100
AcDbDictionary
281
     1
  3
Global
350
2117
  0
DICTIONARY
  5
76B
102
{ACAD_REACTORS
330
75D
102
}
330
75D
100
AcDbDictionary
281
     1
  3
STANDARD
350
76C
  0
DICTIONARY
  5
7C7
102
{ACAD_REACTORS
330
75D
102
}
330
75D
100
AcDbDictionary
281
     1
  0
ACDBDICTIONARYWDFLT
  5
7C4
102
{ACAD_REACTORS
330
75D
102
}
330
75D
100
AcDbDictionary
281
     1
  3
Normal
350
7C5
100
AcDbDictionaryWithDefault
340
7C5
  0
DICTIONARY
  5
9E8
102
{ACAD_REACTORS
330
75D
102
}
330
75D
100
AcDbDictionary
281
     1
  3
Standard
350
9E9
  0
DICTIONARY
  5
6D53
102
{ACAD_REACTORS
330
75D
102
}
330
75D
100
AcDbDictionary
281
     1
  3
COLORDICT
350
6D54
  3
MATERIALDICT
350
6D55
  0
DICTIONARY
  5
7B3
102
{ACAD_REACTORS
330
75D
102
}
330
75D
100
AcDbDictionary
281
     1
  3
CTABLESTYLE
350
A1C
  3
DIMADEC
350
7B4
  0
DICTIONARY
  5
6D22
102
{ACAD_REACTORS
330
75D
102
}
330
75D
100
AcDbDictionary
281
     1
  3
ASEBlockHierarchyIndexRecord
350
6D23
1001
DCO15
1040
1616226394.741
  0
DICTIONARY
  5
6CDD
102
{ACAD_REACTORS
330
9F9
102
}
330
9F9
100
AcDbDictionary
281
     1
  0
DICTIONARY
  5
9FA
102
{ACAD_REACTORS
330
9F9
102
}
330
9F9
100
AcDbDictionary
281
     1
  0
DICTIONARY
  5
6CDC
102
{ACAD_REACTORS
330
9F9
102
}
330
9F9
100
AcDbDictionary
281
     1
1001
ACAD
1000
<All
  0
XRECORD
  5
2104
102
{ACAD_REACTORS
330
2103
102
}
330
2103
100
AcDbXrecord
280
     1
102
MATERIAL
340
2117
  0
SORTENTSTABLE
  5
1265
102
{ACAD_REACTORS
330
7F5
102
}
330
7F5
100
AcDbSortentsTable
330
768
331
0
  5
1D11
331
53B2
  5
53B3
331
53B5
  5
53B6
331
53B6
  5
53B7
331
53BA
  5
53BB
331
52CE
  5
52CF
331
52D2
  5
52D3
331
52B2
  5
52B3
331
52B3
  5
52B4
331
52BD
  5
52BE
331
53C1
  5
53C2
331
53C2
  5
53C3
331
53C4
  5
53C5
331
53C6
  5
53C7
331
53C7
  5
53C8
331
5298
  5
5299
331
529A
  5
529B
331
3164
  5
3165
331
522A
  5
522B
331
522C
  5
522D
331
31AF
  5
31B0
331
31FE
  5
31FF
331
3200
  5
3201
331
31BC
  5
31BD
331
3162
  5
3163
331
31B1
  5
31B2
331
3198
  5
3199
331
31B4
  5
31B5
331
31B6
  5
31B7
331
53A8
  5
53A9
331
53AC
  5
53AD
331
53AF
  5
53B0
331
3142
  5
3143
331
5279
  5
527A
331
527A
  5
527B
331
320A
  5
320B
331
5117
  5
5118
331
52D8
  5
52D9
331
52D9
  5
52DA
331
52DA
  5
52DB
331
52F7
  5
52F8
331
52F8
  5
52F9
331
52FC
  5
52FD
331
5387
  5
5388
331
5388
  5
5389
331
539F
  5
53A0
331
53A1
  5
53A2
331
5361
  5
5362
331
5363
  5
5364
331
5365
  5
5366
331
5366
  5
5367
331
5429
  5
542A
331
542C
  5
542D
331
542D
  5
542E
331
541D
  5
541E
331
541F
  5
5420
331
5421
  5
5422
331
5423
  5
5424
331
5402
  5
5403
331
5403
  5
5404
331
5406
  5
5407
331
5408
  5
5409
331
53FB
  5
53FC
331
53FC
  5
53FD
331
53FF
  5
5400
331
5401
  5
5402
331
53EF
  5
53F0
331
53F1
  5
53F2
331
53F8
  5
53F9
331
53FA
  5
53FB
331
318B
  5
318C
331
53EB
  5
53EC
331
53EC
  5
53ED
331
53ED
  5
53EE
331
53EE
  5
53EF
331
5368
  5
5369
331
5369
  5
536A
331
5386
  5
5387
331
31D4
  5
31D5
331
D9
  5
D9
331
51A1
  5
51A2
331
3192
  5
3193
331
31AD
  5
31AE
331
31D6
  5
31D7
331
31D7
  5
31D8
331
319D
  5
319E
331
5176
  5
5177
331
5123
  5
5124
331
31E3
  5
31E4
331
31E5
  5
31E6
331
5119
  5
511A
331
53A2
  5
53A3
331
53A3
  5
53A4
331
53A4
  5
53A5
331
53A7
  5
53A8
331
3163
  5
3164
331
5295
  5
5296
331
5297
  5
5298
331
5118
  5
5119
331
5322
  5
5323
331
5323
  5
5324
331
5324
  5
5325
331
5325
  5
5326
331
52AD
  5
52AE
331
52AE
  5
52AF
331
31C0
  5
31C1
331
31C6
  5
31C7
331
5255
  5
5256
331
5257
  5
5258
331
51AC
  5
51AD
331
31FA
  5
31FB
331
31BD
  5
31BE
331
318E
  5
318F
331
5230
  5
5231
331
5231
  5
5232
331
5261
  5
5262
331
5273
  5
5274
331
53BC
  5
53BD
331
53BD
  5
53BE
331
53BE
  5
53BF
331
53BF
  5
53C0
331
317E
  5
317F
331
519C
  5
519D
331
519D
  5
519E
331
5208
  5
5209
331
520C
  5
520D
331
52A0
  5
52A1
331
52A1
  5
52A2
331
52A2
  5
52A3
331
51AF
  5
51B0
331
51B3
  5
51B4
331
31A2
  5
31A3
331
5293
  5
5294
331
5294
  5
5295
331
5259
  5
525A
331
525B
  5
525C
331
520E
  5
520F
331
31AB
  5
31AC
331
31BF
  5
31C0
331
31A0
  5
31A1
331
319A
  5
319B
331
513D
  5
513E
331
5172
  5
5173
331
525C
  5
525D
331
5260
  5
5261
331
31AE
  5
31AF
331
31A7
  5
31A8
331
5121
  5
5122
331
5122
  5
5123
331
52CA
  5
52CB
331
52CB
  5
52CC
331
52CD
  5
52CE
331
5308
  5
5309
331
5309
  5
530A
331
530E
  5
530F
331
511A
  5
511B
331
511B
  5
511C
331
51B8
  5
51B9
331
51B9
  5
51BA
331
3145
  5
3146
331
3206
  5
3207
331
51A2
  5
51A3
331
51A4
  5
51A5
331
531C
  5
531D
331
5320
  5
5321
331
5321
  5
5322
331
31C3
  5
31C4
331
31FC
  5
31FD
331
51C4
  5
51C5
331
51FC
  5
51FD
331
31DF
  5
31E0
331
52A7
  5
52A8
331
52A9
  5
52AA
331
52AC
  5
52AD
331
31DB
  5
31DC
331
51B5
  5
51B6
331
31CD
  5
31CE
331
519B
  5
519C
331
31A3
  5
31A4
331
517A
  5
517B
331
5199
  5
519A
331
3209
  5
320A
331
3144
  5
3145
331
31B2
  5
31B3
331
31A9
  5
31AA
331
319B
  5
319C
331
2EF3
  5
2EF4
331
2EF4
  5
2EF5
331
2EF5
  5
2EF6
331
2EF6
  5
2EF7
331
2EF7
  5
2EF8
331
2EF8
  5
2EF9
331
2EFB
  5
2EFC
331
2EFC
  5
2EFD
331
2EFD
  5
2EFE
331
2EFE
  5
2EFF
331
2EFF
  5
2F00
331
2F13
  5
2F14
331
2F14
  5
2F15
331
2F18
  5
2F19
331
2F19
  5
2F1A
331
2F4E
  5
2F4F
331
2F52
  5
2F53
331
2F56
  5
2F57
331
2F75
  5
2F76
331
2F77
  5
2F78
331
2F78
  5
2F79
331
2F79
  5
2F7A
331
2F7D
  5
2F7E
331
2F7E
  5
2F7F
331
2F80
  5
2F81
331
2F81
  5
2F82
331
2F82
  5
2F83
331
2F85
  5
2F86
331
2F88
  5
2F89
331
2F8B
  5
2F8C
331
2F8F
  5
2F90
331
2F91
  5
2F92
331
2F94
  5
2F95
331
2F95
  5
2F96
331
2F96
  5
2F97
331
2F99
  5
2F9A
331
2F9A
  5
2F9B
331
2F9B
  5
2F9C
331
2F9E
  5
2F9F
331
2F9F
  5
2FA0
331
2FA0
  5
2FA1
331
2FD8
  5
2FD9
331
2FDC
  5
2FDD
331
2FE0
  5
2FE1
331
2FE1
  5
2FE2
331
2FE4
  5
2FE5
331
2FE8
  5
2FE9
331
2FEA
  5
2FEB
331
3006
  5
3007
331
3008
  5
3009
331
300C
  5
300D
331
300D
  5
300E
331
3028
  5
3029
331
302B
  5
302C
331
302D
  5
302E
331
302E
  5
302F
331
3031
  5
3032
331
3033
  5
3034
331
3035
  5
3036
331
3037
  5
3038
331
3038
  5
3039
331
303C
  5
303D
331
303D
  5
303E
331
304F
  5
3050
331
3055
  5
3056
331
3056
  5
3057
331
306F
  5
3070
331
3070
  5
3071
331
3071
  5
3072
331
3073
  5
3074
331
3074
  5
3075
331
3076
  5
3077
331
3078
  5
3079
331
3079
  5
307A
331
307C
  5
307D
331
307D
  5
307E
331
307E
  5
307F
331
307F
  5
3080
331
3080
  5
3081
331
3081
  5
3082
331
3082
  5
3083
331
3083
  5
3084
331
3085
  5
3086
331
3088
  5
3089
331
3089
  5
308A
331
308A
  5
308B
331
308B
  5
308C
331
308D
  5
308E
331
308E
  5
308F
331
308F
  5
3090
331
3099
  5
309A
331
309A
  5
309B
331
30A4
  5
30A5
331
30A6
  5
30A7
331
30A7
  5
30A8
331
30A9
  5
30AA
331
30AA
  5
30AB
331
30AE
  5
30AF
331
30B0
  5
30B1
331
30B2
  5
30B3
331
30B3
  5
30B4
331
30B4
  5
30B5
331
30B5
  5
30B6
331
30B6
  5
30B7
331
30D3
  5
30D4
331
30D4
  5
30D5
331
30D8
  5
30D9
331
30D9
  5
30DA
331
30DA
  5
30DB
331
30DB
  5
30DC
331
30DC
  5
30DD
331
30E1
  5
30E2
331
30E2
  5
30E3
331
30E3
  5
30E4
331
30E4
  5
30E5
331
30E5
  5
30E6
331
30EA
  5
30EB
331
30F8
  5
30F9
331
30FC
  5
30FD
331
30FD
  5
30FE
331
30FE
  5
30FF
331
30FF
  5
3100
331
313D
  5
313E
331
313F
  5
3140
331
317F
  5
3180
331
52A5
  5
52A6
331
52A6
  5
52A7
331
317B
  5
317C
331
5305
  5
5306
331
5306
  5
5307
331
5307
  5
5308
331
53E3
  5
53E4
331
53E4
  5
53E5
331
53E7
  5
53E8
331
53EA
  5
53EB
331
3188
  5
3189
331
53DB
  5
53DC
331
53DF
  5
53E0
331
53E0
  5
53E1
331
53E1
  5
53E2
331
3184
  5
3185
331
53D5
  5
53D6
331
53D6
  5
53D7
331
53D8
  5
53D9
331
53DA
  5
53DB
331
53D0
  5
53D1
331
53D1
  5
53D2
331
53D2
  5
53D3
331
53D3
  5
53D4
331
3183
  5
3184
331
319E
  5
319F
331
513C
  5
513D
331
31D8
  5
31D9
331
31E2
  5
31E3
331
5204
  5
5205
331
5205
  5
5206
331
3191
  5
3192
331
31B7
  5
31B8
331
53CB
  5
53CC
331
53CC
  5
53CD
331
53CD
  5
53CE
331
53CF
  5
53D0
331
3180
  5
3181
331
3199
  5
319A
331
51BA
  5
51BB
331
5120
  5
5121
331
31CA
  5
31CB
331
31C8
  5
31C9
331
52BE
  5
52BF
331
52C8
  5
52C9
331
31C7
  5
31C8
331
31C9
  5
31CA
331
511C
  5
511D
331
511F
  5
5120
331
51BD
  5
51BE
331
51BE
  5
51BF
331
31BB
  5
31BC
331
52A3
  5
52A4
331
52A4
  5
52A5
331
3100
  5
3101
331
31DD
  5
31DE
331
31DE
  5
31DF
331
5251
  5
5252
331
5252
  5
5253
331
5137
  5
5138
331
5138
  5
5139
331
31AC
  5
31AD
331
524C
  5
524D
331
524F
  5
5250
331
31A8
  5
31A9
331
51A6
  5
51A7
331
51A9
  5
51AA
331
52D4
  5
52D5
331
52D6
  5
52D7
331
52D7
  5
52D8
331
51A5
  5
51A6
331
3141
  5
3142
331
3101
  5
3102
331
31CB
  5
31CC
331
52AF
  5
52B0
331
52B1
  5
52B2
331
51BF
  5
51C0
331
3196
  5
3197
331
51C2
  5
51C3
331
51C3
  5
51C4
331
52FD
  5
52FE
331
52FE
  5
52FF
331
52FF
  5
5300
331
5300
  5
5301
331
529C
  5
529D
331
529D
  5
529E
331
5200
  5
5201
331
317D
  5
317E
  0
LAYOUT
  5
7C9
102
{ACAD_REACTORS
330
7C6
102
}
102
{ACAD_XDICTIONARY
360
6D56
102
}
330
7C6
100
AcDbPlotSettings
  1

  2
HP LaserJet 2100 Series PS
  4

  6

 40
0.0
 41
0.0
 42
0.0
 43
0.0
 44
0.0
 45
0.0
 46
0.0
 47
0.0
 48
0.0
 49
0.0
140
0.0
141
0.0
142
1.0
143
1.0
 70
   688
 72
     0
 73
     0
 74
     5
  7
monochrome.ctb
 75
    16
147
1.0
148
0.0
149
0.0
100
AcDbLayout
  1
Layout1
 70
     0
 71
     1
 10
0.0
 20
0.0
 11
12.0
 21
9.0
 12
0.0
 22
0.0
 32
0.0
 14
1.000000000000000E+20
 24
1.000000000000000E+20
 34
1.000000000000000E+20
 15
-1.000000000000000E+20
 25
-1.000000000000000E+20
 35
-1.000000000000000E+20
146
0.0
 13
0.0
 23
0.0
 33
0.0
 16
1.0
 26
0.0
 36
0.0
 17
0.0
 27
1.0
 37
0.0
 76
     0
330
765
  0
LAYOUT
  5
7C8
102
{ACAD_REACTORS
330
7C6
102
}
102
{ACAD_XDICTIONARY
360
6D58
102
}
330
7C6
100
AcDbPlotSettings
  1

  2
HP LaserJet 2100 Series PS
  4
Letter
  6

 40
5.365749835968018
 41
5.408073902130127
 42
5.132904052734375
 43
5.090576171875
 44
215.8999938964844
 45
279.3999938964844
 46
0.0
 47
0.0
 48
0.0
 49
0.0
140
0.0
141
0.0
142
1.0
143
2.975440689981091
 70
 11952
 72
     0
 73
     1
 74
     2
  7
monochrome.ctb
 75
     0
147
0.3360846691944497
148
0.0
149
0.0
100
AcDbLayout
  1
Model
 70
     1
 71
     0
 10
0.0
 20
0.0
 11
12.0
 21
9.0
 12
0.0
 22
0.0
 32
0.0
 14
0.0
 24
0.0
 34
0.0
 15
0.0
 25
0.0
 35
0.0
146
0.0
 13
0.0
 23
0.0
 33
0.0
 16
1.0
 26
0.0
 36
0.0
 17
0.0
 27
1.0
 37
0.0
 76
     0
330
768
1001
ACAD_PSEXT
1000
HP LaserJet 2100 Series PS
1000
HP LaserJet 2100 Series PS
1000
LPT1:
1000

1070
     0
  0
ACAD_PROXY_OBJECT
  5
2117
102
{ACAD_REACTORS
330
9E6
102
}
102
{ACAD_XDICTIONARY
360
2118
102
}
330
9E6
100
AcDbProxyObject
 90
      499
 91
      523
 95
   983063
 70
     0
 93
     1324
310
4191DB1BD8985B2004014080404555555555555953FAA155555555555654FEA9AA400014080404555555555555953FAA155555555555654FEA9AA400000000000000E03F4080404555555555555953FAA155555555555654FEA9AA4014080404555555555555953FAA155555555555654FEA9AA40102010115555555555565
310
4FEA8555555555555953FAA6A9005020101155555555555654FEA8555555555555953FAA6A9000
 94
        0
  0
MLINESTYLE
  5
76C
102
{ACAD_REACTORS
330
76B
102
}
330
76B
100
AcDbMlineStyle
  2
STANDARD
 70
     0
  3

 62
   256
 51
90.0
 52
90.0
 71
     2
 49
0.5
 62
   256
  6
BYLAYER
 49
-0.5
 62
   256
  6
BYLAYER
  0
ACDBPLACEHOLDER
  5
7C5
102
{ACAD_REACTORS
330
7C4
102
}
330
7C4
  0
ACAD_PROXY_OBJECT
  5
9E9
102
{ACAD_REACTORS
330
9E8
102
}
330
9E8
100
AcDbProxyObject
 90
      499
 91
      521
 95
   983063
 70
     0
 93
     1841
310
4214DD185B99185C9928B81E85EB51B8AE3F2E07A17AD46E2B8FC02B5E8DC0F42B1CFD028000000C1008070000C3001FDFF8000000C1003FBFF000000182007F7FE00000030400FEFFC00000060801FDFF8000000C1003FBFF00000018200000000000000681FA0B0000001820100E000186003FBFF000000182007F7FE000
310
00030400FEFFC00000060801FDFF8000000C1003FBFF000000182007F7FE000000304000AD7A3703D0AC73F4160000003040201C00030C007F7FE00000030400FEFFC00000060801FDFF8000000C1003FBFF000000182007F7FE00000030400FEFFC000000608000
340
760
340
760
340
760
 94
        0
  0
XRECORD
  5
6D54
102
{ACAD_REACTORS
330
6D53
102
}
330
6D53
100
AcDbXrecord
340
9E7
  0
XRECORD
  5
6D55
102
{ACAD_REACTORS
330
6D53
102
}
330
6D53
100
AcDbXrecord
340
9E6
  0
DICTIONARYVAR
  5
A1C
102
{ACAD_REACTORS
330
7B3
102
}
330
7B3
100
DictionaryVariables
280
     0
  1
STANDARD
  0
DICTIONARYVAR
  5
7B4
102
{ACAD_REACTORS
330
7B3
102
}
330
7B3
100
DictionaryVariables
280
     0
  1
0
  0
XRECORD
  5
6D23
102
{ACAD_REACTORS
330
6D22
102
}
330
6D22
100
AcDbXrecord
280
     1
  0
DICTIONARY
  5
6D56
330
7C9
100
AcDbDictionary
280
     1
281
     1
  3
ACAD_XREC_ROUNDTRIP
360
6D57
  0
DICTIONARY
  5
6D58
330
7C8
100
AcDbDictionary
280
     1
281
     1
  3
ACAD_XREC_ROUNDTRIP
360
6D59
  0
DICTIONARY
  5
2118
330
2117
100
AcDbDictionary
280
     1
281
     1
  3
ACAD_XREC_ROUNDTRIP
360
2119
  3
BUMPTILE
360
211A
  3
DIFFUSETILE
360
211B
  3
OPACITYTILE
360
211C
  3
REFLECTIONTILE
360
211D
  3
REFRACTIONTILE
360
211E
  3
SPECULARTILE
360
211F
  0
XRECORD
  5
6D57
102
{ACAD_REACTORS
330
6D56
102
}
330
6D56
100
AcDbXrecord
102
SHADEPLOT
 70
     0
102
SHADEPLOTRESLEVEL
 70
     2
102
SHADEPLOTCUSTOMDPI
 70
   300
  0
XRECORD
  5
6D59
102
{ACAD_REACTORS
330
6D58
102
}
330
6D58
100
AcDbXrecord
102
SHADEPLOT
 70
     0
102
SHADEPLOTRESLEVEL
 70
     2
102
SHADEPLOTCUSTOMDPI
 70
   300
  0
XRECORD
  5
2119
102
{ACAD_REACTORS
330
2118
102
}
330
2118
100
AcDbXrecord
280
     1
102
MATERIAL
148
0.0
149
0.0
149
0.0
 93
        0
 94
      127
282
     0
 72
     0
 77
     0
171
     0
175
     0
179
     0
273
     0
  0
XRECORD
  5
211A
102
{ACAD_REACTORS
330
2118
102
}
330
2118
100
AcDbXrecord
280
     1
270
     1
271
     1
  0
XRECORD
  5
211B
102
{ACAD_REACTORS
330
2118
102
}
330
2118
100
AcDbXrecord
280
     1
270
     1
271
     1
  0
XRECORD
  5
211C
102
{ACAD_REACTORS
330
2118
102
}
330
2118
100
AcDbXrecord
280
     1
270
     1
271
     1
  0
XRECORD
  5
211D
102
{ACAD_REACTORS
330
2118
102
}
330
2118
100
AcDbXrecord
280
     1
270
     1
271
     1
  0
XRECORD
  5
211E
102
{ACAD_REACTORS
330
2118
102
}
330
2118
100
AcDbXrecord
280
     1
270
     1
271
     1
  0
XRECORD
  5
211F
102
{ACAD_REACTORS
330
2118
102
}
330
2118
100
AcDbXrecord
280
     1
270
     1
271
     1
  0
ENDSEC
  0
EOF
