  0
SECTION
  2
HEADER
  9
$ACADVER
  1
AC1015
  9
$ACADMAINTVER
 70
     6
  9
$DWGCODEPAGE
  3
ANSI_1252
  9
$INSBASE
 10
0.0
 20
0.0
 30
0.0
  9
$EXTMIN
 10
-11.54548136184729
 20
-0.0018041309393126
 30
-0.0000000000000028
  9
$EXTMAX
 10
11.57768737580665
 20
14.76743813065937
 30
0.0000000000000124
  9
$LIMMIN
 10
0.0
 20
0.0
  9
$LIMMAX
 10
31.5
 20
24.0
  9
$ORTHOMODE
 70
     1
  9
$REGENMODE
 70
     1
  9
$FILLMODE
 70
     1
  9
$QTEXTMODE
 70
     0
  9
$MIRRTEXT
 70
     0
  9
$LTSCALE
 40
1.0
  9
$ATTMODE
 70
     1
  9
$TEXTSIZE
 40
0.27
  9
$TRACEWID
 40
0.05
  9
$TEXTSTYLE
  7
STANDARD
  9
$CLAYER
  8
0
  9
$CELTYPE
  6
BYLAYER
  9
$CECOLOR
 62
   256
  9
$CELTSCALE
 40
1.0
  9
$DISPSILH
 70
     0
  9
$DIMSCALE
 40
1.0
  9
$DIMASZ
 40
0.375
  9
$DIMEXO
 40
0.0625
  9
$DIMDLI
 40
0.75
  9
$DIMRND
 40
0.0
  9
$DIMDLE
 40
0.0
  9
$DIMEXE
 40
0.18
  9
$DIMTP
 40
0.0
  9
$DIMTM
 40
0.0
  9
$DIMTXT
 40
0.27
  9
$DIMCEN
 40
-0.06
  9
$DIMTSZ
 40
0.0
  9
$DIMTOL
 70
     0
  9
$DIMLIM
 70
     0
  9
$DIMTIH
 70
     1
  9
$DIMTOH
 70
     1
  9
$DIMSE1
 70
     0
  9
$DIMSE2
 70
     0
  9
$DIMTAD
 70
     0
  9
$DIMZIN
 70
     0
  9
$DIMBLK
  1

  9
$DIMASO
 70
     0
  9
$DIMSHO
 70
     0
  9
$DIMPOST
  1

  9
$DIMAPOST
  1

  9
$DIMALT
 70
     0
  9
$DIMALTD
 70
     2
  9
$DIMALTF
 40
25.4
  9
$DIMLFAC
 40
1.0
  9
$DIMTOFL
 70
     0
  9
$DIMTVP
 40
0.0
  9
$DIMTIX
 70
     0
  9
$DIMSOXD
 70
     0
  9
$DIMSAH
 70
     0
  9
$DIMBLK1
  1

  9
$DIMBLK2
  1

  9
$DIMSTYLE
  2
STANDARD
  9
$DIMCLRD
 70
     0
  9
$DIMCLRE
 70
     0
  9
$DIMCLRT
 70
     0
  9
$DIMTFAC
 40
1.0
  9
$DIMGAP
 40
0.09
  9
$DIMJUST
 70
     0
  9
$DIMSD1
 70
     0
  9
$DIMSD2
 70
     0
  9
$DIMTOLJ
 70
     1
  9
$DIMTZIN
 70
     0
  9
$DIMALTZ
 70
     0
  9
$DIMALTTZ
 70
     0
  9
$DIMUPT
 70
     0
  9
$DIMDEC
 70
     5
  9
$DIMTDEC
 70
     5
  9
$DIMALTU
 70
     2
  9
$DIMALTTD
 70
     2
  9
$DIMTXSTY
  7
STANDARD
  9
$DIMAUNIT
 70
     0
  9
$DIMADEC
 70
     0
  9
$DIMALTRND
 40
0.0
  9
$DIMAZIN
 70
     0
  9
$DIMDSEP
 70
    46
  9
$DIMATFIT
 70
     3
  9
$DIMFRAC
 70
     2
  9
$DIMLDRBLK
  1

  9
$DIMLUNIT
 70
     5
  9
$DIMLWD
 70
    -2
  9
$DIMLWE
 70
    -2
  9
$DIMTMOVE
 70
     2
  9
$LUNITS
 70
     2
  9
$LUPREC
 70
     3
  9
$SKETCHINC
 40
0.1
  9
$FILLETRAD
 40
0.2
  9
$AUNITS
 70
     0
  9
$AUPREC
 70
     0
  9
$MENU
  1
ACAD
  9
$ELEVATION
 40
0.0
  9
$PELEVATION
 40
0.0
  9
$THICKNESS
 40
0.0
  9
$LIMCHECK
 70
     0
  9
$CHAMFERA
 40
0.0
  9
$CHAMFERB
 40
0.0
  9
$CHAMFERC
 40
0.0
  9
$CHAMFERD
 40
0.0
  9
$SKPOLY
 70
     0
  9
$TDCREATE
 40
2450613.848194097
  9
$TDUCREATE
 40
2450614.181527431
  9
$TDUPDATE
 40
2454509.867480162
  9
$TDUUPDATE
 40
2454510.200813496
  9
$TDINDWG
 40
0.4022152546
  9
$TDUSRTIMER
 40
0.4022152546
  9
$USRTIMER
 70
     1
  9
$ANGBASE
 50
0.0
  9
$ANGDIR
 70
     0
  9
$PDMODE
 70
     0
  9
$PDSIZE
 40
0.0
  9
$PLINEWID
 40
0.0
  9
$SPLFRAME
 70
     0
  9
$SPLINETYPE
 70
     6
  9
$SPLINESEGS
 70
     8
  9
$HANDSEED
  5
2E12
  9
$SURFTAB1
 70
     6
  9
$SURFTAB2
 70
     6
  9
$SURFTYPE
 70
     6
  9
$SURFU
 70
     6
  9
$SURFV
 70
     6
  9
$UCSBASE
  2

  9
$UCSNAME
  2

  9
$UCSORG
 10
0.0
 20
0.0
 30
0.0
  9
$UCSXDIR
 10
1.0
 20
0.0
 30
0.0
  9
$UCSYDIR
 10
0.0
 20
1.0
 30
0.0
  9
$UCSORTHOREF
  2

  9
$UCSORTHOVIEW
 70
     0
  9
$UCSORGTOP
 10
0.0
 20
0.0
 30
0.0
  9
$UCSORGBOTTOM
 10
0.0
 20
0.0
 30
0.0
  9
$UCSORGLEFT
 10
0.0
 20
0.0
 30
0.0
  9
$UCSORGRIGHT
 10
0.0
 20
0.0
 30
0.0
  9
$UCSORGFRONT
 10
0.0
 20
0.0
 30
0.0
  9
$UCSORGBACK
 10
0.0
 20
0.0
 30
0.0
  9
$PUCSBASE
  2

  9
$PUCSNAME
  2

  9
$PUCSORG
 10
0.0
 20
0.0
 30
0.0
  9
$PUCSXDIR
 10
1.0
 20
0.0
 30
0.0
  9
$PUCSYDIR
 10
0.0
 20
1.0
 30
0.0
  9
$PUCSORTHOREF
  2

  9
$PUCSORTHOVIEW
 70
     0
  9
$PUCSORGTOP
 10
0.0
 20
0.0
 30
0.0
  9
$PUCSORGBOTTOM
 10
0.0
 20
0.0
 30
0.0
  9
$PUCSORGLEFT
 10
0.0
 20
0.0
 30
0.0
  9
$PUCSORGRIGHT
 10
0.0
 20
0.0
 30
0.0
  9
$PUCSORGFRONT
 10
0.0
 20
0.0
 30
0.0
  9
$PUCSORGBACK
 10
0.0
 20
0.0
 30
0.0
  9
$USERI1
 70
     0
  9
$USERI2
 70
     0
  9
$USERI3
 70
     0
  9
$USERI4
 70
     0
  9
$USERI5
 70
     0
  9
$USERR1
 40
0.0
  9
$USERR2
 40
0.0
  9
$USERR3
 40
0.0
  9
$USERR4
 40
0.0
  9
$USERR5
 40
0.0
  9
$WORLDVIEW
 70
     1
  9
$SHADEDGE
 70
     3
  9
$SHADEDIF
 70
    70
  9
$TILEMODE
 70
     1
  9
$MAXACTVP
 70
    16
  9
$PINSBASE
 10
0.0
 20
0.0
 30
0.0
  9
$PLIMCHECK
 70
     0
  9
$PEXTMIN
 10
1.000000000000000E+20
 20
1.000000000000000E+20
 30
1.000000000000000E+20
  9
$PEXTMAX
 10
-1.000000000000000E+20
 20
-1.000000000000000E+20
 30
-1.000000000000000E+20
  9
$PLIMMIN
 10
0.0
 20
0.0
  9
$PLIMMAX
 10
12.0
 20
9.0
  9
$UNITMODE
 70
     0
  9
$VISRETAIN
 70
     0
  9
$PLINEGEN
 70
     0
  9
$PSLTSCALE
 70
     0
  9
$TREEDEPTH
 70
  3020
  9
$CMLSTYLE
  2
STANDARD
  9
$CMLJUST
 70
     0
  9
$CMLSCALE
 40
1.0
  9
$PROXYGRAPHICS
 70
     1
  9
$MEASUREMENT
 70
     0
  9
$CELWEIGHT
370
    -1
  9
$ENDCAPS
280
     0
  9
$JOINSTYLE
280
     0
  9
$LWDISPLAY
290
     0
  9
$INSUNITS
 70
     0
  9
$HYPERLINKBASE
  1

  9
$STYLESHEET
  1
monochrome.ctb
  9
$XEDIT
290
     1
  9
$CEPSNTYPE
380
     0
  9
$PSTYLEMODE
290
     1
  9
$FINGERPRINTGUID
  2
{81491931-CD26-11D5-BE3F-00508B5FCD51}
  9
$VERSIONGUID
  2
{B3787893-01DE-4A20-B0EB-9BFDF5AB2157}
  9
$EXTNAMES
290
     1
  9
$PSVPSCALE
 40
0.0
  9
$OLESTARTUP
290
     0
  0
ENDSEC
  0
SECTION
  2
CLASSES
  0
CLASS
  1
DICTIONARYVAR
  2
AcDbDictionaryVar
  3
AutoCAD 2000
 90
        0
280
     0
281
     0
  0
CLASS
  1
LWPOLYLINE
  2
AcDbPolyline
  3
AutoCAD 2000
 90
        0
280
     0
281
     1
  0
CLASS
  1
ACDBDICTIONARYWDFLT
  2
AcDbDictionaryWithDefault
  3
AutoCAD 2000
 90
        0
280
     0
281
     0
  0
CLASS
  1
ACDBPLACEHOLDER
  2
AcDbPlaceHolder
  3
ObjectDBX Classes
 90
        0
280
     0
281
     0
  0
CLASS
  1
LAYOUT
  2
AcDbLayout
  3
ObjectDBX Classes
 90
        0
280
     0
281
     0
  0
CLASS
  1
LONG_TRANSACTION
  2
AcDbLongTransaction
  3
ObjectDBX Classes
 90
   -65536
280
     1
281
     0
  0
CLASS
  1
LWPOLYLINE
  2
AcDbPolyline
  3
AutoCAD 2000
 90
        0
280
     0
281
     1
  0
CLASS
  1
HATCH
  2
AcDbHatch
  3
AutoCAD 2000
 90
        0
280
     0
281
     1
  0
CLASS
  1
XRECORD
  2
AcDbXrecord
  3
AutoCAD 2000
 90
        0
280
     0
281
     0
  0
CLASS
  1
LONG_TRANSACTION
  2
AcDbLongTransaction
  3
ObjectDBX Classes
 90
   -65536
280
     1
281
     0
  0
CLASS
  1
LWPOLYLINE
  2
AcDbPolyline
  3
AutoCAD 2000
 90
        0
280
     0
281
     1
  0
CLASS
  1
HATCH
  2
AcDbHatch
  3
AutoCAD 2000
 90
        0
280
     0
281
     1
  0
CLASS
  1
XRECORD
  2
AcDbXrecord
  3
AutoCAD 2000
 90
        0
280
     0
281
     0
  0
CLASS
  1
LONG_TRANSACTION
  2
AcDbLongTransaction
  3
ObjectDBX Classes
 90
   -65536
280
     1
281
     0
  0
CLASS
  1
LWPOLYLINE
  2
AcDbPolyline
  3
AutoCAD 2000
 90
        0
280
     0
281
     1
  0
CLASS
  1
HATCH
  2
AcDbHatch
  3
AutoCAD 2000
 90
        0
280
     0
281
     1
  0
CLASS
  1
XRECORD
  2
AcDbXrecord
  3
AutoCAD 2000
 90
        0
280
     0
281
     0
  0
CLASS
  1
LONG_TRANSACTION
  2
AcDbLongTransaction
  3
ObjectDBX Classes
 90
   -65536
280
     1
281
     0
  0
CLASS
  1
LWPOLYLINE
  2
AcDbPolyline
  3
AutoCAD 2000
 90
        0
280
     0
281
     1
  0
CLASS
  1
HATCH
  2
AcDbHatch
  3
AutoCAD 2000
 90
        0
280
     0
281
     1
  0
CLASS
  1
XRECORD
  2
AcDbXrecord
  3
AutoCAD 2000
 90
        0
280
     0
281
     0
  0
CLASS
  1
TABLESTYLE
  2
AcDbTableStyle
  3
ObjectDBX Classes
 90
     2047
280
     1
281
     0
  0
CLASS
  1
SORTENTSTABLE
  2
AcDbSortentsTable
  3
AutoCAD 2000
 90
        0
280
     0
281
     0
  0
ENDSEC
  0
SECTION
  2
TABLES
  0
TABLE
  2
VPORT
  5
759
330
0
100
AcDbSymbolTable
 70
     5
  0
VPORT
  5
2E02
330
759
100
AcDbSymbolTableRecord
100
AcDbViewportTableRecord
  2
*Active
 70
     0
 10
0.0
 20
0.0
 11
1.0
 21
1.0
 12
2.614573876898795
 22
6.621504544445227
 13
0.0
 23
0.0
 14
0.0625
 24
0.0625
 15
0.5
 25
0.5
 16
0.0
 26
0.0
 36
1.0
 17
0.0
 27
0.0
 37
0.0
 40
22.51176583368487
 41
1.692748091603054
 42
50.0
 43
0.0
 44
0.0
 50
0.0
 51
0.0
 71
     0
 72
   100
 73
     1
 74
     0
 75
     0
 76
     0
 77
     0
 78
     0
281
     0
 65
     1
110
0.0
120
0.0
130
0.0
111
1.0
121
0.0
131
0.0
112
0.0
122
1.0
132
0.0
 79
     0
146
0.0
  0
ENDTAB
  0
TABLE
  2
LTYPE
  5
756
330
0
100
AcDbSymbolTable
 70
     7
  0
LTYPE
  5
762
330
756
100
AcDbSymbolTableRecord
100
AcDbLinetypeTableRecord
  2
BYBLOCK
 70
     0
  3

 72
    65
 73
     0
 40
0.0
  0
LTYPE
  5
763
330
756
100
AcDbSymbolTableRecord
100
AcDbLinetypeTableRecord
  2
BYLAYER
 70
     0
  3

 72
    65
 73
     0
 40
0.0
  0
LTYPE
  5
764
330
756
100
AcDbSymbolTableRecord
100
AcDbLinetypeTableRecord
  2
CONTINUOUS
 70
     0
  3
Solid line
 72
    65
 73
     0
 40
0.0
  0
LTYPE
  5
123B
330
756
100
AcDbSymbolTableRecord
100
AcDbLinetypeTableRecord
  2
HIDDEN2
 70
     0
  3
Hidden (.5x) _ _ _ _ _ _ _ _ _ _ _ _ _ _ _ _ _
 72
    65
 73
     2
 40
0.1875
 49
0.125
 74
     0
 49
-0.0625
 74
     0
  0
ENDTAB
  0
TABLE
  2
LAYER
  5
753
102
{ACAD_XDICTIONARY
360
9F9
102
}
330
0
100
AcDbSymbolTable
 70
    15
  0
LAYER
  5
75F
330
753
100
AcDbSymbolTableRecord
100
AcDbLayerTableRecord
  2
0
 70
     0
 62
     7
  6
CONTINUOUS
370
    -3
390
7C5
  0
LAYER
  5
7A4
330
753
100
AcDbSymbolTableRecord
100
AcDbLayerTableRecord
  2
DIM
 70
     0
 62
     5
  6
CONTINUOUS
370
    -3
390
7C5
  0
LAYER
  5
1C9C
330
753
100
AcDbSymbolTableRecord
100
AcDbLayerTableRecord
  2
Defpoints
 70
     0
 62
     7
  6
CONTINUOUS
290
     0
370
    -3
390
7C5
  0
ENDTAB
  0
TABLE
  2
STYLE
  5
754
330
0
100
AcDbSymbolTable
 70
     6
  0
STYLE
  5
760
330
754
100
AcDbSymbolTableRecord
100
AcDbTextStyleTableRecord
  2
STANDARD
 70
     0
 40
0.0
 41
1.0
 50
0.0
 71
     0
 42
0.27
  3
TXT
  4

  0
ENDTAB
  0
TABLE
  2
VIEW
  5
757
330
0
100
AcDbSymbolTable
 70
     4
  0
VIEW
  5
798
330
757
100
AcDbSymbolTableRecord
100
AcDbViewTableRecord
  2
PLOTTER
 70
     0
 40
23.625
 10
17.01330184198921
 20
11.8125
 41
1.0
 11
0.0
 21
0.0
 31
1.0
 12
0.0
 22
0.0
 32
0.0
 42
50.0
 43
0.0
 44
0.0
 50
0.0
 71
     0
281
     0
 72
     0
  0
VIEW
  5
799
330
757
100
AcDbSymbolTableRecord
100
AcDbViewTableRecord
  2
UPPER
 70
     0
 40
10.92682926829268
 10
12.68329970046198
 20
16.68292682926829
 41
1.0
 11
0.0
 21
0.0
 31
1.0
 12
0.0
 22
0.0
 32
0.0
 42
50.0
 43
0.0
 44
0.0
 50
0.0
 71
     0
281
     0
 72
     0
  0
VIEW
  5
79A
330
757
100
AcDbSymbolTableRecord
100
AcDbViewTableRecord
  2
LEFT
 70
     0
 40
5.446009389671362
 10
10.90014360505218
 20
8.479102255811291
 41
1.0
 11
0.0
 21
0.0
 31
1.0
 12
0.0
 22
0.0
 32
0.0
 42
50.0
 43
0.0
 44
0.0
 50
0.0
 71
     0
281
     0
 72
     0
  0
VIEW
  5
79B
330
757
100
AcDbSymbolTableRecord
100
AcDbViewTableRecord
  2
RIGHT
 70
     0
 40
10.21596244131455
 10
22.88218731978697
 20
10.27871292797435
 41
1.0
 11
0.0
 21
0.0
 31
1.0
 12
0.0
 22
0.0
 32
0.0
 42
50.0
 43
0.0
 44
0.0
 50
0.0
 71
     0
281
     0
 72
     0
  0
ENDTAB
  0
TABLE
  2
UCS
  5
758
330
0
100
AcDbSymbolTable
 70
     0
  0
ENDTAB
  0
TABLE
  2
APPID
  5
75A
330
0
100
AcDbSymbolTable
 70
     5
  0
APPID
  5
761
330
75A
100
AcDbSymbolTableRecord
100
AcDbRegAppTableRecord
  2
ACAD
 70
     0
  0
APPID
  5
1156
330
75A
100
AcDbSymbolTableRecord
100
AcDbRegAppTableRecord
  2
ACAD_DSTYLE_DIMTEXT_FILL
 70
     0
  0
APPID
  5
178C
330
75A
100
AcDbSymbolTableRecord
100
AcDbRegAppTableRecord
  2
ACAD_PSEXT
 70
     0
  0
APPID
  5
1CA0
330
75A
100
AcDbSymbolTableRecord
100
AcDbRegAppTableRecord
  2
AcAecLayerStandard
 70
     0
  0
APPID
  5
2BFE
330
75A
100
AcDbSymbolTableRecord
100
AcDbRegAppTableRecord
  2
DCO15
 70
     0
  0
ENDTAB
  0
TABLE
  2
DIMSTYLE
  5
75B
330
0
100
AcDbSymbolTable
 70
     4
100
AcDbDimStyleTable
  0
DIMSTYLE
105
7B9
330
75B
100
AcDbSymbolTableRecord
100
AcDbDimStyleTableRecord
  2
STANDARD
 70
     0
  3

  4

340
760
  0
ENDTAB
  0
TABLE
  2
BLOCK_RECORD
  5
752
330
0
100
AcDbSymbolTable
 70
    50
  0
BLOCK_RECORD
  5
768
102
{ACAD_XDICTIONARY
360
7F5
102
}
330
752
100
AcDbSymbolTableRecord
100
AcDbBlockTableRecord
  2
*MODEL_SPACE
340
7C8
  0
BLOCK_RECORD
  5
765
330
752
100
AcDbSymbolTableRecord
100
AcDbBlockTableRecord
  2
*PAPER_SPACE
340
7C9
  0
ENDTAB
  0
ENDSEC
  0
SECTION
  2
BLOCKS
  0
BLOCK
  5
7B1
330
768
100
AcDbEntity
  8
0
100
AcDbBlockBegin
  2
*MODEL_SPACE
 70
     0
 10
0.0
 20
0.0
 30
0.0
  3
*MODEL_SPACE
  1

  4

  0
ENDBLK
  5
7B2
330
768
100
AcDbEntity
  8
0
100
AcDbBlockEnd
  0
BLOCK
  5
7AF
330
765
100
AcDbEntity
 67
     1
  8
0
100
AcDbBlockBegin
  2
*PAPER_SPACE
 70
     0
 10
0.0
 20
0.0
 30
0.0
  3
*PAPER_SPACE
  1

  4

  0
ENDBLK
  5
7B0
330
765
100
AcDbEntity
 67
     1
  8
0
100
AcDbBlockEnd
  0
ENDSEC
  0
SECTION
  2
ENTITIES
  0
TEXT
  5
D9
330
768
100
AcDbEntity
  8
DIM
100
AcDbText
 10
9.860040913637929
 20
20.93053558724526
 30
0.0
 40
0.27
  1
   
 11
9.860040913637929
 21
21.06553558724526
 31
0.0
100
AcDbText
 73
     2
  0
ARC
  5
14D9
330
768
100
AcDbEntity
  8
0
  6
HIDDEN2
100
AcDbCircle
 10
-2.943625000000029
 20
1.293749999999918
 30
0.0
 40
0.078
100
AcDbArc
 50
270.0
 51
90.00000000000003
  0
ARC
  5
25A0
330
768
100
AcDbEntity
  8
0
100
AcDbCircle
 10
-1.837499999999976
 20
0.0999999999999517
 30
0.0
 40
0.1
100
AcDbArc
 50
179.999999999998
 51
270.0000000000011
  0
LINE
  5
25A1
330
768
100
AcDbEntity
  8
0
100
AcDbLine
 10
-1.837499999999972
 20
-0.0000000000000426
 30
0.0
 11
1.837499999999972
 21
0.0000000000000426
 31
0.0
  0
ARC
  5
25A2
330
768
100
AcDbEntity
  8
0
100
AcDbCircle
 10
1.837499999999968
 20
0.100000000000037
 30
0.0
 40
0.1
100
AcDbArc
 50
270.0000000000012
 51
0.0000000000020356
  0
LINE
  5
2797
330
768
100
AcDbEntity
  8
0
100
AcDbLine
 10
-2.662500000000023
 20
0.3499999999999517
 30
0.0
 11
-2.662500000000026
 21
0.573890129708218
 31
0.0
  0
LINE
  5
2798
330
768
100
AcDbEntity
  8
0
  6
HIDDEN2
100
AcDbLine
 10
-2.662500000000023
 20
0.6353234594289887
 30
0.0
 11
-2.662500000000037
 21
5.012499999999932
 31
0.0
  0
LINE
  5
2799
330
768
100
AcDbEntity
  8
0
100
AcDbLine
 10
-2.662500000000037
 20
5.012499999999932
 30
0.0
 11
-2.662500000000037
 21
5.574999999999918
 31
0.0
  0
LINE
  5
279A
330
768
100
AcDbEntity
  8
0
100
AcDbLine
 10
-3.881250000000037
 20
1.075000000001168
 30
0.0
 11
-3.881250000000037
 21
4.731249999999946
 31
0.0
  0
LINE
  5
279B
330
768
100
AcDbEntity
  8
0
100
AcDbLine
 10
-2.412500000000023
 20
0.199999999999946
 30
0.0
 11
2.412500000000073
 21
0.2000000000000597
 31
0.0
  0
LINE
  5
279C
330
768
100
AcDbEntity
  8
0
100
AcDbLine
 10
-3.912500000000044
 20
5.574999999999889
 30
0.0
 11
-2.562500000000039
 21
5.574999999999932
 31
0.0
  0
LINE
  5
279D
330
768
100
AcDbEntity
  8
0
100
AcDbLine
 10
-2.661102430216548
 20
0.3236024302171217
 30
0.0
 11
-3.16250000000003
 21
0.8250000000005855
 31
0.0
  0
LINE
  5
279E
330
768
100
AcDbEntity
  8
0
100
AcDbLine
 10
-3.16250000000003
 20
0.8250000000005855
 30
0.0
 11
-3.63124999999944
 21
0.8250000000005713
 31
0.0
  0
LINE
  5
279F
330
768
100
AcDbEntity
  8
0
100
AcDbLine
 10
-3.63124999999944
 20
0.8250000000005713
 30
0.0
 11
-3.881250000000037
 21
1.075000000001168
 31
0.0
  0
LINE
  5
27A0
330
768
100
AcDbEntity
  8
0
100
AcDbLine
 10
-4.162500000000037
 20
5.012499999999932
 30
0.0
 11
-4.162500000000037
 21
5.324999999999889
 31
0.0
  0
LINE
  5
27A1
330
768
100
AcDbEntity
  8
0
100
AcDbLine
 10
-3.912500000000044
 20
5.574999999999889
 30
0.0
 11
-4.162500000000037
 21
5.324999999999889
 31
0.0
  0
LINE
  5
27A2
330
768
100
AcDbEntity
  8
0
100
AcDbLine
 10
-4.162500000000037
 20
5.012499999999932
 30
0.0
 11
-3.881250000000037
 21
4.731249999999946
 31
0.0
  0
LINE
  5
27A3
330
768
100
AcDbEntity
  8
0
100
AcDbLine
 10
-2.562500000000025
 20
0.3499999999999517
 30
0.0
 11
-2.562500000000039
 21
5.574999999999932
 31
0.0
  0
ARC
  5
27A4
330
768
100
AcDbEntity
  8
0
100
AcDbCircle
 10
-2.412500000000026
 20
0.3499999999999517
 30
0.0
 40
0.15
100
AcDbArc
 50
180.0
 51
270.0000000000014
  0
ARC
  5
27A5
330
768
100
AcDbEntity
  8
0
100
AcDbCircle
 10
-2.412500000000026
 20
0.3499999999999517
 30
0.0
 40
0.25
100
AcDbArc
 50
180.0
 51
270.0000000000014
  0
LINE
  5
27A6
330
768
100
AcDbEntity
  8
0
100
AcDbLine
 10
-2.412500000000019
 20
0.0999999999999375
 30
0.0
 11
2.412500000000076
 21
0.1000000000000654
 31
0.0
  0
LINE
  5
27A7
330
768
100
AcDbEntity
  8
0
100
AcDbLine
 10
2.662500000000069
 20
0.3499999999999517
 30
0.0
 11
2.662500000000065
 21
0.5738901297081469
 31
0.0
  0
LINE
  5
27A8
330
768
100
AcDbEntity
  8
0
  6
HIDDEN2
100
AcDbLine
 10
2.662500000000062
 20
0.6353234594289603
 30
0.0
 11
2.662500000000026
 21
5.012499999999932
 31
0.0
  0
LINE
  5
27A9
330
768
100
AcDbEntity
  8
0
100
AcDbLine
 10
2.662500000000026
 20
5.012499999999932
 30
0.0
 11
2.662500000000023
 21
5.574999999999918
 31
0.0
  0
LINE
  5
27AA
330
768
100
AcDbEntity
  8
0
100
AcDbLine
 10
3.881250000000023
 20
1.075000000001168
 30
0.0
 11
3.881250000000023
 21
4.731249999999946
 31
0.0
  0
LINE
  5
27AB
330
768
100
AcDbEntity
  8
0
100
AcDbLine
 10
3.91250000000003
 20
5.574999999999889
 30
0.0
 11
2.562500000000025
 21
5.574999999999932
 31
0.0
  0
LINE
  5
27AC
330
768
100
AcDbEntity
  8
0
100
AcDbLine
 10
2.661102430216598
 20
0.3236024302171927
 30
0.0
 11
3.162500000000016
 21
0.8250000000005855
 31
0.0
  0
LINE
  5
27AD
330
768
100
AcDbEntity
  8
0
100
AcDbLine
 10
3.162500000000016
 20
0.8250000000005855
 30
0.0
 11
3.631249999999426
 21
0.8250000000005713
 31
0.0
  0
LINE
  5
27AE
330
768
100
AcDbEntity
  8
0
100
AcDbLine
 10
3.631249999999426
 20
0.8250000000005713
 30
0.0
 11
3.881250000000023
 21
1.075000000001168
 31
0.0
  0
LINE
  5
27AF
330
768
100
AcDbEntity
  8
0
100
AcDbLine
 10
4.162500000000023
 20
5.012499999999932
 30
0.0
 11
4.162500000000023
 21
5.324999999999889
 31
0.0
  0
LINE
  5
27B0
330
768
100
AcDbEntity
  8
0
100
AcDbLine
 10
3.91250000000003
 20
5.574999999999889
 30
0.0
 11
4.162500000000023
 21
5.324999999999889
 31
0.0
  0
LINE
  5
27B1
330
768
100
AcDbEntity
  8
0
100
AcDbLine
 10
4.162500000000023
 20
5.012499999999932
 30
0.0
 11
3.881250000000023
 21
4.731249999999946
 31
0.0
  0
LINE
  5
27B2
330
768
100
AcDbEntity
  8
0
100
AcDbLine
 10
2.562500000000068
 20
0.3499999999999517
 30
0.0
 11
2.562500000000025
 21
5.574999999999932
 31
0.0
  0
LINE
  5
27B3
330
768
100
AcDbEntity
  8
0
100
AcDbLine
 10
1.937500000006878
 20
0.7000000000000028
 30
0.0
 11
-1.937500000006832
 21
0.6999999999999744
 31
0.0
  0
LINE
  5
27B4
330
768
100
AcDbEntity
  8
0
100
AcDbLine
 10
-2.435695682510975
 20
0.2018043174958706
 30
0.0
 11
-1.937500000006832
 21
0.6999999999999744
 31
0.0
  0
LINE
  5
27B5
330
768
100
AcDbEntity
  8
0
100
AcDbLine
 10
2.435695682511035
 20
0.2018043174958706
 30
0.0
 11
1.937500000006878
 21
0.7000000000000028
 31
0.0
  0
LINE
  5
27C7
330
768
100
AcDbEntity
  8
0
100
AcDbLine
 10
-2.562500000000028
 20
0.9032499999999146
 30
0.0
 11
-2.632390146137347
 21
0.9032499999999288
 31
0.0
  0
LINE
  5
27C8
330
768
100
AcDbEntity
  8
0
100
AcDbLine
 10
-2.562500000000028
 20
1.059249999999921
 30
0.0
 11
-2.632390146137347
 21
1.059249999999935
 31
0.0
  0
LINE
  5
27DA
330
768
100
AcDbEntity
  8
0
100
AcDbLine
 10
-2.562500000000032
 20
1.528249999999915
 30
0.0
 11
-2.632390146137354
 21
1.528249999999929
 31
0.0
  0
LINE
  5
27DB
330
768
100
AcDbEntity
  8
0
100
AcDbLine
 10
-2.562500000000032
 20
1.684249999999949
 30
0.0
 11
-2.632390146137354
 21
1.684249999999935
 31
0.0
  0
LINE
  5
27ED
330
768
100
AcDbEntity
  8
0
100
AcDbLine
 10
-2.562500000000032
 20
2.153249999999929
 30
0.0
 11
-2.632390146137354
 21
2.153249999999929
 31
0.0
  0
LINE
  5
27EE
330
768
100
AcDbEntity
  8
0
100
AcDbLine
 10
-2.562500000000032
 20
2.309249999999921
 30
0.0
 11
-2.632390146137354
 21
2.309249999999935
 31
0.0
  0
LINE
  5
2800
330
768
100
AcDbEntity
  8
0
100
AcDbLine
 10
-2.562500000000032
 20
2.778249999999915
 30
0.0
 11
-2.632390146137354
 21
2.778249999999929
 31
0.0
  0
LINE
  5
2801
330
768
100
AcDbEntity
  8
0
100
AcDbLine
 10
-2.562500000000036
 20
2.934249999999921
 30
0.0
 11
-2.632390146137354
 21
2.934249999999935
 31
0.0
  0
LINE
  5
2813
330
768
100
AcDbEntity
  8
0
100
AcDbLine
 10
-2.562500000000032
 20
3.403249999999915
 30
0.0
 11
-2.632390146137354
 21
3.403249999999929
 31
0.0
  0
LINE
  5
2814
330
768
100
AcDbEntity
  8
0
100
AcDbLine
 10
-2.562500000000032
 20
3.559249999999949
 30
0.0
 11
-2.632390146137354
 21
3.559249999999935
 31
0.0
  0
LINE
  5
2826
330
768
100
AcDbEntity
  8
0
100
AcDbLine
 10
-2.562500000000036
 20
4.028249999999929
 30
0.0
 11
-2.632390146137354
 21
4.028249999999929
 31
0.0
  0
LINE
  5
2827
330
768
100
AcDbEntity
  8
0
100
AcDbLine
 10
-2.562500000000036
 20
4.184249999999921
 30
0.0
 11
-2.632390146137354
 21
4.184249999999935
 31
0.0
  0
LINE
  5
2828
330
768
100
AcDbEntity
  8
0
100
AcDbLine
 10
-2.786755840446631
 20
5.012499999999932
 30
0.0
 11
-3.047526299543542
 21
4.731249999999946
 31
0.0
  0
LINE
  5
2829
330
768
100
AcDbEntity
  8
0
100
AcDbLine
 10
-2.735670846295449
 20
5.012499999999932
 30
0.0
 11
-3.010065640201962
 21
4.7165556815619
 31
0.0
  0
LINE
  5
282A
330
768
100
AcDbEntity
  8
0
100
AcDbLine
 10
-3.047526299543534
 20
1.074337178957308
 30
0.0
 11
-3.047526299543542
 21
4.731249999999946
 31
0.0
  0
LINE
  5
282B
330
768
100
AcDbEntity
  8
0
100
AcDbLine
 10
-3.047526299543534
 20
1.074337178957308
 30
0.0
 11
-2.562500000000025
 21
0.4439127619693153
 31
0.0
  0
LINE
  5
282C
330
768
100
AcDbEntity
  8
0
100
AcDbLine
 10
-3.010065640201955
 20
1.087080129728278
 30
0.0
 11
-2.562500000000028
 21
0.5053460916901145
 31
0.0
  0
LINE
  5
283E
330
768
100
AcDbEntity
  8
0
100
AcDbLine
 10
-2.562500000000036
 20
4.6532499999999
 30
0.0
 11
-2.632390146137354
 21
4.653249999999929
 31
0.0
  0
LINE
  5
283F
330
768
100
AcDbEntity
  8
0
100
AcDbLine
 10
-2.562500000000036
 20
4.809249999999921
 30
0.0
 11
-2.632390146137354
 21
4.809249999999935
 31
0.0
  0
LINE
  5
2840
330
768
100
AcDbEntity
  8
0
100
AcDbLine
 10
-3.010065640201955
 20
1.087080129728278
 30
0.0
 11
-3.010065640201962
 21
4.7165556815619
 31
0.0
  0
LINE
  5
2841
330
768
100
AcDbEntity
  8
0
100
AcDbLine
 10
-3.010065640201962
 20
4.7165556815619
 30
0.0
 11
-3.047526299543542
 21
4.731249999999946
 31
0.0
  0
LINE
  5
2842
330
768
100
AcDbEntity
  8
0
100
AcDbLine
 10
-3.010065640201955
 20
1.087080129728278
 30
0.0
 11
-3.047526299543534
 21
1.074337178957308
 31
0.0
  0
LINE
  5
2843
330
768
100
AcDbEntity
  8
0
100
AcDbLine
 10
-3.818875000000048
 20
5.0907499999999
 30
0.0
 11
-3.693625000000033
 21
5.090749999999915
 31
0.0
  0
LINE
  5
2844
330
768
100
AcDbEntity
  8
0
100
AcDbLine
 10
-3.818875000000048
 20
5.246749999999906
 30
0.0
 11
-3.693625000000033
 21
5.246749999999921
 31
0.0
  0
LINE
  5
2845
330
768
100
AcDbEntity
  8
0
100
AcDbLine
 10
-3.068875000000041
 20
5.090749999999915
 30
0.0
 11
-2.943625000000026
 21
5.090749999999915
 31
0.0
  0
LINE
  5
2846
330
768
100
AcDbEntity
  8
0
100
AcDbLine
 10
-3.068875000000041
 20
5.246749999999921
 30
0.0
 11
-2.943625000000026
 21
5.246749999999921
 31
0.0
  0
ARC
  5
2847
330
768
100
AcDbEntity
  8
0
100
AcDbCircle
 10
-2.943625000000033
 20
5.168749999999918
 30
0.0
 40
0.078
100
AcDbArc
 50
270.0
 51
90.0
  0
ARC
  5
2848
330
768
100
AcDbEntity
  8
0
100
AcDbCircle
 10
-3.068875000000048
 20
5.168749999999918
 30
0.0
 40
0.078
100
AcDbArc
 50
90.0
 51
270.0
  0
ARC
  5
2849
330
768
100
AcDbEntity
  8
0
100
AcDbCircle
 10
-3.69362500000004
 20
5.168749999999918
 30
0.0
 40
0.078
100
AcDbArc
 50
270.0
 51
90.0
  0
LINE
  5
284A
330
768
100
AcDbEntity
  8
0
100
AcDbLine
 10
-3.443875000000048
 20
4.590749999999915
 30
0.0
 11
-3.318625000000033
 21
4.590749999999915
 31
0.0
  0
LINE
  5
284B
330
768
100
AcDbEntity
  8
0
100
AcDbLine
 10
-3.443875000000048
 20
4.746749999999921
 30
0.0
 11
-3.318625000000033
 21
4.746749999999921
 31
0.0
  0
ARC
  5
284C
330
768
100
AcDbEntity
  8
0
100
AcDbCircle
 10
-3.31862500000004
 20
4.668749999999918
 30
0.0
 40
0.078
100
AcDbArc
 50
270.0
 51
90.0
  0
ARC
  5
284D
330
768
100
AcDbEntity
  8
0
100
AcDbCircle
 10
-3.443875000000055
 20
4.668749999999918
 30
0.0
 40
0.078
100
AcDbArc
 50
90.0
 51
270.0
  0
ARC
  5
284E
330
768
100
AcDbEntity
  8
0
100
AcDbCircle
 10
-3.818875000000055
 20
5.168749999999918
 30
0.0
 40
0.078
100
AcDbArc
 50
90.0
 51
270.0
  0
LINE
  5
284F
330
768
100
AcDbEntity
  8
0
100
AcDbLine
 10
-3.068875000000041
 20
4.090749999999915
 30
0.0
 11
-3.047526299543541
 21
4.090749999999915
 31
0.0
  0
LINE
  5
2850
330
768
100
AcDbEntity
  8
0
100
AcDbLine
 10
-3.068875000000041
 20
4.246749999999921
 30
0.0
 11
-3.047526299543542
 21
4.246749999999921
 31
0.0
  0
ARC
  5
2852
330
768
100
AcDbEntity
  8
0
100
AcDbCircle
 10
-3.068875000000045
 20
4.168749999999918
 30
0.0
 40
0.078
100
AcDbArc
 50
90.0
 51
270.0
  0
LINE
  5
2853
330
768
100
AcDbEntity
  8
0
100
AcDbLine
 10
-3.068875000000041
 20
3.090749999999915
 30
0.0
 11
-3.047526299543538
 21
3.090749999999915
 31
0.0
  0
LINE
  5
2854
330
768
100
AcDbEntity
  8
0
100
AcDbLine
 10
-3.068875000000041
 20
3.246749999999921
 30
0.0
 11
-3.04752629954354
 21
3.246749999999921
 31
0.0
  0
ARC
  5
2856
330
768
100
AcDbEntity
  8
0
100
AcDbCircle
 10
-3.068875000000045
 20
3.168749999999918
 30
0.0
 40
0.078
100
AcDbArc
 50
90.0
 51
270.0
  0
LINE
  5
2857
330
768
100
AcDbEntity
  8
0
100
AcDbLine
 10
-3.068875000000041
 20
1.215749999999915
 30
0.0
 11
-3.047526299543534
 21
1.215749999999915
 31
0.0
  0
LINE
  5
2858
330
768
100
AcDbEntity
  8
0
100
AcDbLine
 10
-3.068875000000041
 20
1.371749999999921
 30
0.0
 11
-3.047526299543535
 21
1.371749999999921
 31
0.0
  0
ARC
  5
285A
330
768
100
AcDbEntity
  8
0
100
AcDbCircle
 10
-3.068875000000045
 20
1.293749999999918
 30
0.0
 40
0.078
100
AcDbArc
 50
90.0
 51
270.0
  0
LINE
  5
285B
330
768
100
AcDbEntity
  8
0
100
AcDbLine
 10
-3.443875000000048
 20
3.590749999999915
 30
0.0
 11
-3.318625000000033
 21
3.590749999999915
 31
0.0
  0
LINE
  5
285C
330
768
100
AcDbEntity
  8
0
100
AcDbLine
 10
-3.443875000000048
 20
3.746749999999921
 30
0.0
 11
-3.318625000000033
 21
3.746749999999921
 31
0.0
  0
ARC
  5
285D
330
768
100
AcDbEntity
  8
0
100
AcDbCircle
 10
-3.318625000000036
 20
3.668749999999918
 30
0.0
 40
0.078
100
AcDbArc
 50
270.0
 51
90.0
  0
ARC
  5
285E
330
768
100
AcDbEntity
  8
0
100
AcDbCircle
 10
-3.443875000000052
 20
3.668749999999918
 30
0.0
 40
0.078
100
AcDbArc
 50
90.0
 51
270.0
  0
LINE
  5
285F
330
768
100
AcDbEntity
  8
0
100
AcDbLine
 10
-3.443875000000048
 20
1.809499999999915
 30
0.0
 11
-3.318625000000033
 21
1.809499999999915
 31
0.0
  0
LINE
  5
2860
330
768
100
AcDbEntity
  8
0
100
AcDbLine
 10
-3.443875000000048
 20
1.965499999999921
 30
0.0
 11
-3.318625000000033
 21
1.965499999999921
 31
0.0
  0
ARC
  5
2861
330
768
100
AcDbEntity
  8
0
100
AcDbCircle
 10
-3.318625000000036
 20
1.887499999999918
 30
0.0
 40
0.078
100
AcDbArc
 50
270.0
 51
90.0
  0
ARC
  5
2862
330
768
100
AcDbEntity
  8
0
100
AcDbCircle
 10
-3.443875000000052
 20
1.887499999999918
 30
0.0
 40
0.078
100
AcDbArc
 50
90.0
 51
270.0
  0
LINE
  5
2863
330
768
100
AcDbEntity
  8
0
100
AcDbLine
 10
3.818875000000038
 20
5.0907499999999
 30
0.0
 11
3.693625000000022
 21
5.090749999999915
 31
0.0
  0
LINE
  5
2864
330
768
100
AcDbEntity
  8
0
100
AcDbLine
 10
3.818875000000038
 20
5.246749999999906
 30
0.0
 11
3.693625000000022
 21
5.246749999999921
 31
0.0
  0
LINE
  5
2865
330
768
100
AcDbEntity
  8
0
100
AcDbLine
 10
3.06887500000003
 20
5.090749999999915
 30
0.0
 11
2.943625000000015
 21
5.090749999999915
 31
0.0
  0
LINE
  5
2866
330
768
100
AcDbEntity
  8
0
100
AcDbLine
 10
3.06887500000003
 20
5.246749999999921
 30
0.0
 11
2.943625000000015
 21
5.246749999999921
 31
0.0
  0
ARC
  5
2867
330
768
100
AcDbEntity
  8
0
100
AcDbCircle
 10
2.943625000000022
 20
5.168749999999918
 30
0.0
 40
0.078
100
AcDbArc
 50
90.0
 51
270.0
  0
ARC
  5
2868
330
768
100
AcDbEntity
  8
0
100
AcDbCircle
 10
3.068875000000038
 20
5.168749999999918
 30
0.0
 40
0.078
100
AcDbArc
 50
270.0
 51
90.0
  0
ARC
  5
2869
330
768
100
AcDbEntity
  8
0
100
AcDbCircle
 10
3.693625000000029
 20
5.168749999999918
 30
0.0
 40
0.078
100
AcDbArc
 50
90.0
 51
270.0
  0
LINE
  5
286A
330
768
100
AcDbEntity
  8
0
100
AcDbLine
 10
3.443875000000038
 20
4.590749999999915
 30
0.0
 11
3.318625000000022
 21
4.590749999999915
 31
0.0
  0
LINE
  5
286B
330
768
100
AcDbEntity
  8
0
100
AcDbLine
 10
3.443875000000038
 20
4.746749999999921
 30
0.0
 11
3.318625000000022
 21
4.746749999999921
 31
0.0
  0
ARC
  5
286C
330
768
100
AcDbEntity
  8
0
100
AcDbCircle
 10
3.318625000000029
 20
4.668749999999918
 30
0.0
 40
0.078
100
AcDbArc
 50
90.0
 51
270.0
  0
ARC
  5
286D
330
768
100
AcDbEntity
  8
0
100
AcDbCircle
 10
3.443875000000045
 20
4.668749999999918
 30
0.0
 40
0.078
100
AcDbArc
 50
270.0
 51
90.0
  0
ARC
  5
286E
330
768
100
AcDbEntity
  8
0
100
AcDbCircle
 10
3.818875000000045
 20
5.168749999999918
 30
0.0
 40
0.078
100
AcDbArc
 50
270.0
 51
90.0
  0
LINE
  5
287B
330
768
100
AcDbEntity
  8
0
100
AcDbLine
 10
3.443875000000038
 20
3.590749999999915
 30
0.0
 11
3.318625000000022
 21
3.590749999999915
 31
0.0
  0
LINE
  5
287C
330
768
100
AcDbEntity
  8
0
100
AcDbLine
 10
3.443875000000038
 20
3.746749999999921
 30
0.0
 11
3.318625000000022
 21
3.746749999999921
 31
0.0
  0
ARC
  5
287D
330
768
100
AcDbEntity
  8
0
100
AcDbCircle
 10
3.318625000000026
 20
3.668749999999918
 30
0.0
 40
0.078
100
AcDbArc
 50
90.0
 51
270.0
  0
ARC
  5
287E
330
768
100
AcDbEntity
  8
0
100
AcDbCircle
 10
3.443875000000041
 20
3.668749999999918
 30
0.0
 40
0.078
100
AcDbArc
 50
270.0
 51
90.0
  0
LINE
  5
287F
330
768
100
AcDbEntity
  8
0
100
AcDbLine
 10
3.443875000000038
 20
1.809499999999915
 30
0.0
 11
3.318625000000022
 21
1.809499999999915
 31
0.0
  0
LINE
  5
2880
330
768
100
AcDbEntity
  8
0
100
AcDbLine
 10
3.443875000000038
 20
1.965499999999921
 30
0.0
 11
3.318625000000022
 21
1.965499999999921
 31
0.0
  0
ARC
  5
2881
330
768
100
AcDbEntity
  8
0
100
AcDbCircle
 10
3.318625000000026
 20
1.887499999999918
 30
0.0
 40
0.078
100
AcDbArc
 50
90.0
 51
270.0
  0
ARC
  5
2882
330
768
100
AcDbEntity
  8
0
100
AcDbCircle
 10
3.443875000000041
 20
1.887499999999918
 30
0.0
 40
0.078
100
AcDbArc
 50
270.0
 51
90.0
  0
ARC
  5
2883
330
768
100
AcDbEntity
  8
0
100
AcDbCircle
 10
2.412500000000069
 20
0.3499999999999517
 30
0.0
 40
0.15
100
AcDbArc
 50
269.9999999999986
 51
0.0
  0
ARC
  5
2884
330
768
100
AcDbEntity
  8
0
100
AcDbCircle
 10
2.412500000000069
 20
0.3499999999999517
 30
0.0
 40
0.25
100
AcDbArc
 50
269.9999999999986
 51
0.0
  0
LINE
  5
2885
330
768
100
AcDbEntity
  8
0
100
AcDbLine
 10
2.78675584044672
 20
5.012499999999932
 30
0.0
 11
3.04752629954363
 21
4.731249999999946
 31
0.0
  0
LINE
  5
2886
330
768
100
AcDbEntity
  8
0
100
AcDbLine
 10
2.735670846295538
 20
5.012499999999932
 30
0.0
 11
3.010065640202051
 21
4.7165556815619
 31
0.0
  0
LINE
  5
2887
330
768
100
AcDbEntity
  8
0
100
AcDbLine
 10
3.047526299543623
 20
1.074337178957308
 30
0.0
 11
3.04752629954363
 21
4.731249999999946
 31
0.0
  0
LINE
  5
2888
330
768
100
AcDbEntity
  8
0
100
AcDbLine
 10
3.047526299543623
 20
1.074337178957308
 30
0.0
 11
2.562500000000064
 21
0.4439127619692584
 31
0.0
  0
LINE
  5
2889
330
768
100
AcDbEntity
  8
0
100
AcDbLine
 10
3.010065640202043
 20
1.087080129728278
 30
0.0
 11
2.562500000000064
 21
0.5053460916900576
 31
0.0
  0
LINE
  5
288A
330
768
100
AcDbEntity
  8
0
100
AcDbLine
 10
3.010065640202043
 20
1.087080129728278
 30
0.0
 11
3.010065640202051
 21
4.7165556815619
 31
0.0
  0
LINE
  5
288B
330
768
100
AcDbEntity
  8
0
100
AcDbLine
 10
3.010065640202051
 20
4.7165556815619
 30
0.0
 11
3.04752629954363
 21
4.731249999999946
 31
0.0
  0
LINE
  5
288C
330
768
100
AcDbEntity
  8
0
100
AcDbLine
 10
3.010065640202043
 20
1.087080129728278
 30
0.0
 11
3.047526299543623
 21
1.074337178957308
 31
0.0
  0
LINE
  5
288D
330
768
100
AcDbEntity
  8
0
100
AcDbLine
 10
-2.786755840446642
 20
5.012499999999903
 30
0.0
 11
-2.562500000000039
 21
5.012499999999932
 31
0.0
  0
LINE
  5
288E
330
768
100
AcDbEntity
  8
0
100
AcDbLine
 10
2.786755840446691
 20
5.012499999999903
 30
0.0
 11
2.562500000000089
 21
5.012499999999932
 31
0.0
  0
LINE
  5
28A0
330
768
100
AcDbEntity
  8
0
100
AcDbLine
 10
2.562500000000075
 20
0.9032499999999146
 30
0.0
 11
2.632390146137393
 21
0.9032499999999288
 31
0.0
  0
LINE
  5
28A1
330
768
100
AcDbEntity
  8
0
100
AcDbLine
 10
2.562500000000075
 20
1.059249999999921
 30
0.0
 11
2.632390146137393
 21
1.059249999999935
 31
0.0
  0
LINE
  5
28B3
330
768
100
AcDbEntity
  8
0
100
AcDbLine
 10
2.562500000000078
 20
1.528249999999915
 30
0.0
 11
2.6323901461374
 21
1.528249999999929
 31
0.0
  0
LINE
  5
28B4
330
768
100
AcDbEntity
  8
0
100
AcDbLine
 10
2.562500000000078
 20
1.684249999999949
 30
0.0
 11
2.6323901461374
 21
1.684249999999935
 31
0.0
  0
LINE
  5
28C6
330
768
100
AcDbEntity
  8
0
100
AcDbLine
 10
2.562500000000078
 20
2.153249999999929
 30
0.0
 11
2.6323901461374
 21
2.153249999999929
 31
0.0
  0
LINE
  5
28C7
330
768
100
AcDbEntity
  8
0
100
AcDbLine
 10
2.562500000000078
 20
2.309249999999921
 30
0.0
 11
2.6323901461374
 21
2.309249999999935
 31
0.0
  0
LINE
  5
28D9
330
768
100
AcDbEntity
  8
0
100
AcDbLine
 10
2.562500000000078
 20
2.778249999999915
 30
0.0
 11
2.6323901461374
 21
2.778249999999929
 31
0.0
  0
LINE
  5
28DA
330
768
100
AcDbEntity
  8
0
100
AcDbLine
 10
2.562500000000082
 20
2.934249999999921
 30
0.0
 11
2.6323901461374
 21
2.934249999999935
 31
0.0
  0
LINE
  5
28EC
330
768
100
AcDbEntity
  8
0
100
AcDbLine
 10
2.562500000000078
 20
3.403249999999915
 30
0.0
 11
2.6323901461374
 21
3.403249999999929
 31
0.0
  0
LINE
  5
28ED
330
768
100
AcDbEntity
  8
0
100
AcDbLine
 10
2.562500000000078
 20
3.559249999999949
 30
0.0
 11
2.6323901461374
 21
3.559249999999935
 31
0.0
  0
LINE
  5
28FF
330
768
100
AcDbEntity
  8
0
100
AcDbLine
 10
2.562500000000082
 20
4.028249999999929
 30
0.0
 11
2.6323901461374
 21
4.028249999999929
 31
0.0
  0
LINE
  5
2900
330
768
100
AcDbEntity
  8
0
100
AcDbLine
 10
2.562500000000082
 20
4.184249999999921
 30
0.0
 11
2.6323901461374
 21
4.184249999999935
 31
0.0
  0
LINE
  5
2912
330
768
100
AcDbEntity
  8
0
100
AcDbLine
 10
2.562500000000082
 20
4.6532499999999
 30
0.0
 11
2.6323901461374
 21
4.653249999999929
 31
0.0
  0
LINE
  5
2913
330
768
100
AcDbEntity
  8
0
100
AcDbLine
 10
2.562500000000082
 20
4.809249999999921
 30
0.0
 11
2.6323901461374
 21
4.809249999999935
 31
0.0
  0
LINE
  5
2A4A
330
768
100
AcDbEntity
  8
0
  6
HIDDEN2
100
AcDbLine
 10
-2.943625000000029
 20
1.371749999999918
 30
0.0
 11
-2.995575649771783
 21
1.37174999999992
 31
0.0
  0
LINE
  5
2A4B
330
768
100
AcDbEntity
  8
0
  6
HIDDEN2
100
AcDbLine
 10
-2.943625000000029
 20
1.215749999999917
 30
0.0
 11
-2.995575649771783
 21
1.215749999999919
 31
0.0
  0
ARC
  5
2A55
330
768
100
AcDbEntity
  8
0
  6
HIDDEN2
100
AcDbCircle
 10
-2.943625000000029
 20
3.168749999999918
 30
0.0
 40
0.078
100
AcDbArc
 50
270.0
 51
90.00000000000003
  0
LINE
  5
2A56
330
768
100
AcDbEntity
  8
0
100
AcDbLine
 10
-3.068875000000041
 20
3.090749999999915
 30
0.0
 11
-3.047526299543534
 21
3.090749999999915
 31
0.0
  0
LINE
  5
2A57
330
768
100
AcDbEntity
  8
0
100
AcDbLine
 10
-3.068875000000041
 20
3.246749999999921
 30
0.0
 11
-3.047526299543535
 21
3.246749999999921
 31
0.0
  0
LINE
  5
2A58
330
768
100
AcDbEntity
  8
0
  6
HIDDEN2
100
AcDbLine
 10
-2.943625000000029
 20
3.246749999999917
 30
0.0
 11
-2.995575649771783
 21
3.246749999999921
 31
0.0
  0
LINE
  5
2A59
330
768
100
AcDbEntity
  8
0
  6
HIDDEN2
100
AcDbLine
 10
-2.943625000000029
 20
3.090749999999918
 30
0.0
 11
-2.995575649771783
 21
3.090749999999918
 31
0.0
  0
ARC
  5
2A5A
330
768
100
AcDbEntity
  8
0
  6
HIDDEN2
100
AcDbCircle
 10
-2.943625000000029
 20
4.168749999999918
 30
0.0
 40
0.078
100
AcDbArc
 50
270.0
 51
90.00000000000003
  0
LINE
  5
2A5B
330
768
100
AcDbEntity
  8
0
100
AcDbLine
 10
-3.068875000000041
 20
4.090749999999915
 30
0.0
 11
-3.047526299543534
 21
4.090749999999915
 31
0.0
  0
LINE
  5
2A5C
330
768
100
AcDbEntity
  8
0
100
AcDbLine
 10
-3.068875000000041
 20
4.246749999999921
 30
0.0
 11
-3.047526299543535
 21
4.246749999999921
 31
0.0
  0
LINE
  5
2A5D
330
768
100
AcDbEntity
  8
0
  6
HIDDEN2
100
AcDbLine
 10
-2.943625000000029
 20
4.246749999999917
 30
0.0
 11
-2.995575649771783
 21
4.246749999999921
 31
0.0
  0
LINE
  5
2A5E
330
768
100
AcDbEntity
  8
0
  6
HIDDEN2
100
AcDbLine
 10
-2.943625000000029
 20
4.090749999999918
 30
0.0
 11
-2.995575649771783
 21
4.090749999999918
 31
0.0
  0
ARC
  5
2A5F
330
768
100
AcDbEntity
  8
0
  6
HIDDEN2
100
AcDbCircle
 10
2.943625000000079
 20
1.293749999999918
 30
0.0
 40
0.078
100
AcDbArc
 50
89.99999999999999
 51
270.0
  0
LINE
  5
2A60
330
768
100
AcDbEntity
  8
0
100
AcDbLine
 10
3.068875000000091
 20
4.090749999999915
 30
0.0
 11
3.047526299543589
 21
4.090749999999915
 31
0.0
  0
LINE
  5
2A61
330
768
100
AcDbEntity
  8
0
100
AcDbLine
 10
3.068875000000091
 20
4.246749999999921
 30
0.0
 11
3.047526299543591
 21
4.246749999999921
 31
0.0
  0
ARC
  5
2A62
330
768
100
AcDbEntity
  8
0
100
AcDbCircle
 10
3.068875000000094
 20
4.168749999999918
 30
0.0
 40
0.078
100
AcDbArc
 50
270.0
 51
90.0
  0
LINE
  5
2A63
330
768
100
AcDbEntity
  8
0
100
AcDbLine
 10
3.068875000000091
 20
3.090749999999915
 30
0.0
 11
3.047526299543588
 21
3.090749999999915
 31
0.0
  0
LINE
  5
2A64
330
768
100
AcDbEntity
  8
0
100
AcDbLine
 10
3.068875000000091
 20
3.246749999999921
 30
0.0
 11
3.047526299543589
 21
3.246749999999921
 31
0.0
  0
ARC
  5
2A65
330
768
100
AcDbEntity
  8
0
100
AcDbCircle
 10
3.068875000000094
 20
3.168749999999918
 30
0.0
 40
0.078
100
AcDbArc
 50
270.0
 51
90.0
  0
LINE
  5
2A66
330
768
100
AcDbEntity
  8
0
100
AcDbLine
 10
3.068875000000091
 20
1.215749999999915
 30
0.0
 11
3.047526299543584
 21
1.215749999999915
 31
0.0
  0
LINE
  5
2A67
330
768
100
AcDbEntity
  8
0
100
AcDbLine
 10
3.068875000000091
 20
1.371749999999921
 30
0.0
 11
3.047526299543586
 21
1.371749999999921
 31
0.0
  0
ARC
  5
2A68
330
768
100
AcDbEntity
  8
0
100
AcDbCircle
 10
3.068875000000094
 20
1.293749999999918
 30
0.0
 40
0.078
100
AcDbArc
 50
270.0
 51
90.0
  0
LINE
  5
2A69
330
768
100
AcDbEntity
  8
0
  6
HIDDEN2
100
AcDbLine
 10
2.943625000000079
 20
1.371749999999918
 30
0.0
 11
2.995575649771832
 21
1.37174999999992
 31
0.0
  0
LINE
  5
2A6A
330
768
100
AcDbEntity
  8
0
  6
HIDDEN2
100
AcDbLine
 10
2.943625000000079
 20
1.215749999999917
 30
0.0
 11
2.995575649771832
 21
1.215749999999919
 31
0.0
  0
ARC
  5
2A6B
330
768
100
AcDbEntity
  8
0
  6
HIDDEN2
100
AcDbCircle
 10
2.943625000000079
 20
3.168749999999918
 30
0.0
 40
0.078
100
AcDbArc
 50
89.99999999999999
 51
270.0
  0
LINE
  5
2A6C
330
768
100
AcDbEntity
  8
0
100
AcDbLine
 10
3.068875000000091
 20
3.090749999999915
 30
0.0
 11
3.047526299543584
 21
3.090749999999915
 31
0.0
  0
LINE
  5
2A6D
330
768
100
AcDbEntity
  8
0
100
AcDbLine
 10
3.068875000000091
 20
3.246749999999921
 30
0.0
 11
3.047526299543586
 21
3.246749999999921
 31
0.0
  0
LINE
  5
2A6E
330
768
100
AcDbEntity
  8
0
  6
HIDDEN2
100
AcDbLine
 10
2.943625000000079
 20
3.246749999999917
 30
0.0
 11
2.995575649771832
 21
3.246749999999921
 31
0.0
  0
LINE
  5
2A6F
330
768
100
AcDbEntity
  8
0
  6
HIDDEN2
100
AcDbLine
 10
2.943625000000079
 20
3.090749999999918
 30
0.0
 11
2.995575649771832
 21
3.090749999999918
 31
0.0
  0
ARC
  5
2A70
330
768
100
AcDbEntity
  8
0
  6
HIDDEN2
100
AcDbCircle
 10
2.943625000000079
 20
4.168749999999918
 30
0.0
 40
0.078
100
AcDbArc
 50
89.99999999999999
 51
270.0
  0
LINE
  5
2A71
330
768
100
AcDbEntity
  8
0
100
AcDbLine
 10
3.068875000000091
 20
4.090749999999915
 30
0.0
 11
3.047526299543584
 21
4.090749999999915
 31
0.0
  0
LINE
  5
2A72
330
768
100
AcDbEntity
  8
0
100
AcDbLine
 10
3.068875000000091
 20
4.246749999999921
 30
0.0
 11
3.047526299543586
 21
4.246749999999921
 31
0.0
  0
LINE
  5
2A73
330
768
100
AcDbEntity
  8
0
  6
HIDDEN2
100
AcDbLine
 10
2.943625000000079
 20
4.246749999999917
 30
0.0
 11
2.995575649771832
 21
4.246749999999921
 31
0.0
  0
LINE
  5
2A74
330
768
100
AcDbEntity
  8
0
  6
HIDDEN2
100
AcDbLine
 10
2.943625000000079
 20
4.090749999999918
 30
0.0
 11
2.995575649771832
 21
4.090749999999918
 31
0.0
  0
LINE
  5
2A75
330
768
100
AcDbEntity
  8
0
100
AcDbLine
 10
-2.662500000000038
 20
4.802305176544357
 30
0.0
 11
-2.662500000000037
 21
4.66019482345552
 31
0.0
  0
LINE
  5
2A76
330
768
100
AcDbEntity
  8
0
100
AcDbLine
 10
-2.662500000000034
 20
4.177305176544358
 30
0.0
 11
-2.662500000000034
 21
4.035194823455518
 31
0.0
  0
LINE
  5
2A77
330
768
100
AcDbEntity
  8
0
100
AcDbLine
 10
-2.662500000000034
 20
3.552305176544301
 30
0.0
 11
-2.662500000000034
 21
3.410194823455461
 31
0.0
  0
LINE
  5
2A78
330
768
100
AcDbEntity
  8
0
100
AcDbLine
 10
-2.662500000000034
 20
2.927305176544358
 30
0.0
 11
-2.662500000000034
 21
2.785194823455518
 31
0.0
  0
LINE
  5
2A79
330
768
100
AcDbEntity
  8
0
100
AcDbLine
 10
-2.662500000000034
 20
2.302305176544301
 30
0.0
 11
-2.662500000000034
 21
2.160194823455461
 31
0.0
  0
LINE
  5
2A7A
330
768
100
AcDbEntity
  8
0
100
AcDbLine
 10
-2.662500000000031
 20
1.677305176544301
 30
0.0
 11
-2.662500000000031
 21
1.535194823455461
 31
0.0
  0
LINE
  5
2A7B
330
768
100
AcDbEntity
  8
0
100
AcDbLine
 10
-2.662500000000045
 20
1.052305176544301
 30
0.0
 11
-2.662500000000045
 21
0.9101948234554609
 31
0.0
  0
LINE
  5
2AF4
330
768
100
AcDbEntity
  8
0
100
AcDbLine
 10
2.662500000000085
 20
4.802305176544357
 30
0.0
 11
2.662500000000085
 21
4.66019482345552
 31
0.0
  0
LINE
  5
2AF5
330
768
100
AcDbEntity
  8
0
100
AcDbLine
 10
2.662500000000081
 20
4.177305176544358
 30
0.0
 11
2.662500000000081
 21
4.035194823455518
 31
0.0
  0
LINE
  5
2AF6
330
768
100
AcDbEntity
  8
0
100
AcDbLine
 10
2.662500000000081
 20
3.552305176544301
 30
0.0
 11
2.662500000000081
 21
3.410194823455461
 31
0.0
  0
LINE
  5
2AF7
330
768
100
AcDbEntity
  8
0
100
AcDbLine
 10
2.662500000000081
 20
2.927305176544358
 30
0.0
 11
2.662500000000081
 21
2.785194823455518
 31
0.0
  0
LINE
  5
2AF8
330
768
100
AcDbEntity
  8
0
100
AcDbLine
 10
2.662500000000081
 20
2.302305176544301
 30
0.0
 11
2.662500000000081
 21
2.160194823455461
 31
0.0
  0
LINE
  5
2AF9
330
768
100
AcDbEntity
  8
0
100
AcDbLine
 10
2.662500000000078
 20
1.677305176544301
 30
0.0
 11
2.662500000000078
 21
1.535194823455461
 31
0.0
  0
LINE
  5
2AFA
330
768
100
AcDbEntity
  8
0
100
AcDbLine
 10
2.662500000000092
 20
1.052305176544301
 30
0.0
 11
2.662500000000092
 21
0.9101948234554609
 31
0.0
  0
ARC
  5
2C68
330
768
100
AcDbEntity
  8
0
100
AcDbCircle
 10
2.631555500477517
 20
4.736031584099822
 30
0.0
 40
0.0827857916520875
100
AcDbArc
 50
270.5776653570044
 51
283.8294435204857
  0
ARC
  5
2C69
330
768
100
AcDbEntity
  8
0
100
AcDbCircle
 10
2.641434703020984
 20
4.695899715625576
 30
0.0
 40
0.0414558326619187
100
AcDbArc
 50
283.8294435205185
 51
302.5981485315493
  0
ARC
  5
2C6A
330
768
100
AcDbEntity
  8
0
100
AcDbCircle
 10
2.585327342922851
 20
4.783638595830359
 30
0.0
 40
0.1456006691002705
100
AcDbArc
 50
302.5981485315751
 51
310.698915266733
  0
ARC
  5
2C6B
330
768
100
AcDbEntity
  8
0
100
AcDbCircle
 10
2.643750264254794
 20
4.715713082389708
 30
0.0
 40
0.0560065112933329
100
AcDbArc
 50
310.6989152664553
 51
323.7777809558496
  0
ARC
  5
2C6C
330
768
100
AcDbEntity
  8
0
100
AcDbCircle
 10
2.623181775201802
 20
4.730779193192179
 30
0.0
 40
0.081502597985909
100
AcDbArc
 50
323.7777809558322
 51
335.9388459134512
  0
ARC
  5
2C6D
330
768
100
AcDbEntity
  8
0
100
AcDbCircle
 10
2.623926417895175
 20
4.730446704115247
 30
0.0
 40
0.0806870970802851
100
AcDbArc
 50
335.9388459133451
 51
348.1614449809044
  0
ARC
  5
2C6E
330
768
100
AcDbEntity
  8
0
100
AcDbCircle
 10
2.620094141870674
 20
4.731249999999852
 30
0.0
 40
0.0846026588287692
100
AcDbArc
 50
348.1614449809069
 51
0.0000000000445113
  0
ARC
  5
2C6F
330
768
100
AcDbEntity
  8
0
100
AcDbCircle
 10
2.620094141870752
 20
4.731250000000035
 30
0.0
 40
0.0846026588286914
100
AcDbArc
 50
359.9999999999206
 51
11.83855501909793
  0
ARC
  5
2C70
330
768
100
AcDbEntity
  8
0
100
AcDbCircle
 10
2.623926417895236
 20
4.732053295884629
 30
0.0
 40
0.0806870970802263
100
AcDbArc
 50
11.83855501910566
 51
24.06115408664176
  0
ARC
  5
2C71
330
768
100
AcDbEntity
  8
0
100
AcDbCircle
 10
2.623181775201699
 20
4.731720806807632
 30
0.0
 40
0.0815025979860266
100
AcDbArc
 50
24.06115408653102
 51
36.222219044166
  0
ARC
  5
2C72
330
768
100
AcDbEntity
  8
0
100
AcDbCircle
 10
2.643750264254328
 20
4.74678691760981
 30
0.0
 40
0.0560065112939159
100
AcDbArc
 50
36.22221904416971
 51
49.30108473337097
  0
ARC
  5
2C73
330
768
100
AcDbEntity
  8
0
100
AcDbCircle
 10
2.585327342922048
 20
4.678861404168366
 30
0.0
 40
0.1456006691016742
100
AcDbArc
 50
49.30108473330341
 51
57.40185146840322
  0
ARC
  5
2C74
330
768
100
AcDbEntity
  8
0
100
AcDbCircle
 10
2.641434703021075
 20
4.766600284374405
 30
0.0
 40
0.0414558326617832
100
AcDbArc
 50
57.40185146847952
 51
76.17055647956441
  0
ARC
  5
2C75
330
768
100
AcDbEntity
  8
0
100
AcDbCircle
 10
2.631555500477458
 20
4.726468415900069
 30
0.0
 40
0.0827857916520757
100
AcDbArc
 50
76.17055647947059
 51
89.42233464295498
  0
ARC
  5
2C76
330
768
100
AcDbEntity
  8
0
100
AcDbCircle
 10
2.631555500477508
 20
4.111031584099897
 30
0.0
 40
0.082785791652163
100
AcDbArc
 50
270.5776653570051
 51
283.8294435204791
  0
ARC
  5
2C77
330
768
100
AcDbEntity
  8
0
100
AcDbCircle
 10
2.641434703021009
 20
4.070899715625519
 30
0.0
 40
0.0414558326618576
100
AcDbArc
 50
283.8294435205038
 51
302.5981485315626
  0
ARC
  5
2C78
330
768
100
AcDbEntity
  8
0
100
AcDbCircle
 10
2.58532734292168
 20
4.158638595832189
 30
0.0
 40
0.1456006691024426
100
AcDbArc
 50
302.5981485315753
 51
310.6989152666055
  0
ARC
  5
2C79
330
768
100
AcDbEntity
  8
0
100
AcDbCircle
 10
2.643750264254128
 20
4.090713082390196
 30
0.0
 40
0.0560065112941585
100
AcDbArc
 50
310.6989152666277
 51
323.7777809558498
  0
ARC
  5
2C7A
330
768
100
AcDbEntity
  8
0
100
AcDbCircle
 10
2.623181775201278
 20
4.105779193192561
 30
0.0
 40
0.0815025979865575
100
AcDbArc
 50
323.7777809558334
 51
335.9388459133826
  0
ARC
  5
2C7B
330
768
100
AcDbEntity
  8
0
100
AcDbCircle
 10
2.623926417894555
 20
4.105446704115376
 30
0.0
 40
0.0806870970809185
100
AcDbArc
 50
335.9388459134672
 51
348.1614449809046
  0
ARC
  5
2C7C
330
768
100
AcDbEntity
  8
0
100
AcDbCircle
 10
2.620094141870674
 20
4.106249999999852
 30
0.0
 40
0.0846026588287692
100
AcDbArc
 50
348.1614449809069
 51
0.0000000000830076
  0
ARC
  5
2C7D
330
768
100
AcDbEntity
  8
0
100
AcDbCircle
 10
2.620094141870752
 20
4.106250000000035
 30
0.0
 40
0.0846026588286914
100
AcDbArc
 50
359.9999999999591
 51
11.83855501909793
  0
ARC
  5
2C7E
330
768
100
AcDbEntity
  8
0
100
AcDbCircle
 10
2.623926417894736
 20
4.107053295884525
 30
0.0
 40
0.0806870970807372
100
AcDbArc
 50
11.83855501910565
 51
24.06115408658338
  0
ARC
  5
2C7F
330
768
100
AcDbEntity
  8
0
100
AcDbCircle
 10
2.623181775201282
 20
4.106720806807327
 30
0.0
 40
0.0815025979865427
100
AcDbArc
 50
24.06115408662544
 51
36.22221904416573
  0
ARC
  5
2C80
330
768
100
AcDbEntity
  8
0
100
AcDbCircle
 10
2.643750264253993
 20
4.121786917609564
 30
0.0
 40
0.0560065112943315
100
AcDbArc
 50
36.22221904417033
 51
49.30108473328487
  0
ARC
  5
2C81
330
768
100
AcDbEntity
  8
0
100
AcDbCircle
 10
2.585327342921466
 20
4.053861404167456
 30
0.0
 40
0.1456006691027538
100
AcDbArc
 50
49.30108473336686
 51
57.40185146840317
  0
ARC
  5
2C82
330
768
100
AcDbEntity
  8
0
100
AcDbCircle
 10
2.641434703021069
 20
4.141600284374391
 30
0.0
 40
0.0414558326617985
100
AcDbArc
 50
57.40185146848286
 51
76.17055647956076
  0
ARC
  5
2C83
330
768
100
AcDbEntity
  8
0
100
AcDbCircle
 10
2.631555500477463
 20
4.101468415900108
 30
0.0
 40
0.0827857916520365
100
AcDbArc
 50
76.17055647946741
 51
89.42233464295811
  0
ARC
  5
2C84
330
768
100
AcDbEntity
  8
0
100
AcDbCircle
 10
2.631555500477518
 20
3.486031584099637
 30
0.0
 40
0.0827857916519027
100
AcDbArc
 50
270.5776653570047
 51
283.8294435205009
  0
ARC
  5
2C85
330
768
100
AcDbEntity
  8
0
100
AcDbCircle
 10
2.641434703021048
 20
3.445899715625467
 30
0.0
 40
0.0414558326617931
100
AcDbArc
 50
283.8294435204398
 51
302.5981485315555
  0
ARC
  5
2C86
330
768
100
AcDbEntity
  8
0
100
AcDbCircle
 10
2.585327342921687
 20
3.533638595832179
 30
0.0
 40
0.1456006691024306
100
AcDbArc
 50
302.5981485315751
 51
310.6989152666059
  0
ARC
  5
2C87
330
768
100
AcDbEntity
  8
0
100
AcDbCircle
 10
2.643750264254124
 20
3.4657130823902
 30
0.0
 40
0.0560065112941638
100
AcDbArc
 50
310.6989152666285
 51
323.7777809558493
  0
ARC
  5
2C88
330
768
100
AcDbEntity
  8
0
100
AcDbCircle
 10
2.623181775201336
 20
3.48077919319252
 30
0.0
 40
0.0815025979864868
100
AcDbArc
 50
323.7777809558326
 51
335.93884591337
  0
ARC
  5
2C89
330
768
100
AcDbEntity
  8
0
100
AcDbCircle
 10
2.623926417894615
 20
3.480446704115364
 30
0.0
 40
0.0806870970808571
100
AcDbArc
 50
335.9388459134356
 51
348.1614449809048
  0
ARC
  5
2C8A
330
768
100
AcDbEntity
  8
0
100
AcDbCircle
 10
2.620094141870674
 20
3.481249999999851
 30
0.0
 40
0.0846026588287691
100
AcDbArc
 50
348.1614449809073
 51
0.0000000000448121
  0
ARC
  5
2C8B
330
768
100
AcDbEntity
  8
0
100
AcDbCircle
 10
2.620094141870752
 20
3.481250000000034
 30
0.0
 40
0.0846026588286914
100
AcDbArc
 50
359.9999999999209
 51
11.83855501909823
  0
ARC
  5
2C8C
330
768
100
AcDbEntity
  8
0
100
AcDbCircle
 10
2.623926417894736
 20
3.482053295884525
 30
0.0
 40
0.0806870970807372
100
AcDbArc
 50
11.83855501910565
 51
24.06115408658338
  0
ARC
  5
2C8D
330
768
100
AcDbEntity
  8
0
100
AcDbCircle
 10
2.623181775201282
 20
3.481720806807327
 30
0.0
 40
0.0815025979865427
100
AcDbArc
 50
24.06115408662544
 51
36.22221904416573
  0
ARC
  5
2C8E
330
768
100
AcDbEntity
  8
0
100
AcDbCircle
 10
2.643750264254328
 20
3.49678691760981
 30
0.0
 40
0.0560065112939159
100
AcDbArc
 50
36.22221904416971
 51
49.30108473337097
  0
ARC
  5
2C8F
330
768
100
AcDbEntity
  8
0
100
AcDbCircle
 10
2.585327342922048
 20
3.428861404168365
 30
0.0
 40
0.1456006691016745
100
AcDbArc
 50
49.3010847333035
 51
57.40185146840332
  0
ARC
  5
2C90
330
768
100
AcDbEntity
  8
0
100
AcDbCircle
 10
2.641434703021014
 20
3.51660028437437
 30
0.0
 40
0.0414558326618462
100
AcDbArc
 50
57.40185146843461
 51
76.1705564794986
  0
ARC
  5
2C91
330
768
100
AcDbEntity
  8
0
100
AcDbCircle
 10
2.631555500477516
 20
3.476468415900049
 30
0.0
 40
0.0827857916520946
100
AcDbArc
 50
76.17055647951497
 51
89.42233464299508
  0
ARC
  5
2C92
330
768
100
AcDbEntity
  8
0
100
AcDbCircle
 10
2.631555500477529
 20
2.861031584099494
 30
0.0
 40
0.0827857916517596
100
AcDbArc
 50
270.5776653569931
 51
283.8294435205124
  0
ARC
  5
2C93
330
768
100
AcDbEntity
  8
0
100
AcDbCircle
 10
2.641434703021041
 20
2.820899715625467
 30
0.0
 40
0.0414558326617931
100
AcDbArc
 50
283.8294435204398
 51
302.5981485315555
  0
ARC
  5
2C94
330
768
100
AcDbEntity
  8
0
100
AcDbCircle
 10
2.585327342922593
 20
2.908638595830751
 30
0.0
 40
0.1456006691007352
100
AcDbArc
 50
302.598148531575
 51
310.6989152667092
  0
ARC
  5
2C95
330
768
100
AcDbEntity
  8
0
100
AcDbCircle
 10
2.643750264254642
 20
2.840713082389815
 30
0.0
 40
0.0560065112935121
100
AcDbArc
 50
310.698915266502
 51
323.7777809558492
  0
ARC
  5
2C96
330
768
100
AcDbEntity
  8
0
100
AcDbCircle
 10
2.623181775201512
 20
2.855779193192386
 30
0.0
 40
0.0815025979862599
100
AcDbArc
 50
323.7777809558326
 51
335.9388459134239
  0
ARC
  5
2C97
330
768
100
AcDbEntity
  8
0
100
AcDbCircle
 10
2.623926417894861
 20
2.855446704115307
 30
0.0
 40
0.0806870970805982
100
AcDbArc
 50
335.9388459134195
 51
348.1614449809072
  0
ARC
  5
2C98
330
768
100
AcDbEntity
  8
0
100
AcDbCircle
 10
2.620094141870303
 20
2.856249999999924
 30
0.0
 40
0.08460265882914
100
AcDbArc
 50
348.1614449809098
 51
0.0000000000342858
  0
ARC
  5
2C99
330
768
100
AcDbEntity
  8
0
100
AcDbCircle
 10
2.620094141870314
 20
2.856249999999955
 30
0.0
 40
0.0846026588291293
100
AcDbArc
 50
0.0000000000132331
 51
11.83855501909107
  0
ARC
  5
2C9A
330
768
100
AcDbEntity
  8
0
100
AcDbCircle
 10
2.6239264178946
 20
2.857053295884508
 30
0.0
 40
0.0806870970808666
100
AcDbArc
 50
11.83855501909831
 51
24.06115408657723
  0
ARC
  5
2C9B
330
768
100
AcDbEntity
  8
0
100
AcDbCircle
 10
2.623181775201229
 20
2.856720806807304
 30
0.0
 40
0.0815025979865994
100
AcDbArc
 50
24.0611540866473
 51
36.22221904415669
  0
ARC
  5
2C9C
330
768
100
AcDbEntity
  8
0
100
AcDbCircle
 10
2.643750264254531
 20
2.87178691760997
 30
0.0
 40
0.056006511293657
100
AcDbArc
 50
36.22221904416099
 51
49.30108473349495
  0
ARC
  5
2C9D
330
768
100
AcDbEntity
  8
0
100
AcDbCircle
 10
2.585327342922354
 20
2.803861404168833
 30
0.0
 40
0.145600669101116
100
AcDbArc
 50
49.30108473330282
 51
57.40185146840572
  0
ARC
  5
2C9E
330
768
100
AcDbEntity
  8
0
100
AcDbCircle
 10
2.641434703021015
 20
2.891600284374359
 30
0.0
 40
0.0414558326618547
100
AcDbArc
 50
57.40185146844357
 51
76.17055647951284
  0
ARC
  5
2C9F
330
768
100
AcDbEntity
  8
0
100
AcDbCircle
 10
2.631555500477517
 20
2.851468415900118
 30
0.0
 40
0.0827857916520262
100
AcDbArc
 50
76.17055647950932
 51
89.42233464299552
  0
ARC
  5
2CA0
330
768
100
AcDbEntity
  8
0
100
AcDbCircle
 10
2.631555500477501
 20
2.236031584099888
 30
0.0
 40
0.0827857916521542
100
AcDbArc
 50
270.5776653570097
 51
283.8294435204803
  0
ARC
  5
2CA1
330
768
100
AcDbEntity
  8
0
100
AcDbCircle
 10
2.64143470302099
 20
2.195899715625576
 30
0.0
 40
0.0414558326619156
100
AcDbArc
 50
283.8294435205012
 51
302.5981485315426
  0
ARC
  5
2CA2
330
768
100
AcDbEntity
  8
0
100
AcDbCircle
 10
2.58532734292168
 20
2.283638595832189
 30
0.0
 40
0.1456006691024426
100
AcDbArc
 50
302.5981485315753
 51
310.6989152666055
  0
ARC
  5
2CA3
330
768
100
AcDbEntity
  8
0
100
AcDbCircle
 10
2.643750264254128
 20
2.215713082390196
 30
0.0
 40
0.0560065112941585
100
AcDbArc
 50
310.6989152666277
 51
323.7777809558498
  0
ARC
  5
2CA4
330
768
100
AcDbEntity
  8
0
100
AcDbCircle
 10
2.623181775201278
 20
2.230779193192561
 30
0.0
 40
0.0815025979865577
100
AcDbArc
 50
323.7777809558331
 51
335.9388459133824
  0
ARC
  5
2CA5
330
768
100
AcDbEntity
  8
0
100
AcDbCircle
 10
2.623926417894555
 20
2.230446704115376
 30
0.0
 40
0.0806870970809185
100
AcDbArc
 50
335.9388459134672
 51
348.1614449809046
  0
ARC
  5
2CA6
330
768
100
AcDbEntity
  8
0
100
AcDbCircle
 10
2.620094141870674
 20
2.231249999999851
 30
0.0
 40
0.0846026588287691
100
AcDbArc
 50
348.1614449809073
 51
0.0000000000448121
  0
ARC
  5
2CA7
330
768
100
AcDbEntity
  8
0
100
AcDbCircle
 10
2.620094141870752
 20
2.231250000000034
 30
0.0
 40
0.0846026588286914
100
AcDbArc
 50
359.9999999999209
 51
11.83855501909823
  0
ARC
  5
2CA8
330
768
100
AcDbEntity
  8
0
100
AcDbCircle
 10
2.623926417895356
 20
2.232053295884655
 30
0.0
 40
0.0806870970801037
100
AcDbArc
 50
11.83855501910553
 51
24.06115408670515
  0
ARC
  5
2CA9
330
768
100
AcDbEntity
  8
0
100
AcDbCircle
 10
2.623181775201791
 20
2.231720806807701
 30
0.0
 40
0.0815025979859112
100
AcDbArc
 50
24.06115408655766
 51
36.22221904416508
  0
ARC
  5
2CAA
330
768
100
AcDbEntity
  8
0
100
AcDbCircle
 10
2.643750264254044
 20
2.246786917609602
 30
0.0
 40
0.0560065112942674
100
AcDbArc
 50
36.22221904416931
 51
49.3010847332782
  0
ARC
  5
2CAB
330
768
100
AcDbEntity
  8
0
100
AcDbCircle
 10
2.58532734292154
 20
2.178861404167574
 30
0.0
 40
0.1456006691026151
100
AcDbArc
 50
49.30108473335101
 51
57.4018514684029
  0
ARC
  5
2CAC
330
768
100
AcDbEntity
  8
0
100
AcDbCircle
 10
2.641434703021031
 20
2.266600284374398
 30
0.0
 40
0.0414558326618126
100
AcDbArc
 50
57.40185146843414
 51
76.17055647952257
  0
ARC
  5
2CAD
330
768
100
AcDbEntity
  8
0
100
AcDbCircle
 10
2.631555500477509
 20
2.226468415900049
 30
0.0
 40
0.0827857916520946
100
AcDbArc
 50
76.17055647951497
 51
89.42233464299508
  0
ARC
  5
2CAE
330
768
100
AcDbEntity
  8
0
100
AcDbCircle
 10
2.631555500477522
 20
1.611031584099634
 30
0.0
 40
0.0827857916518996
100
AcDbArc
 50
270.5776653569996
 51
283.8294435205012
  0
ARC
  5
2CAF
330
768
100
AcDbEntity
  8
0
100
AcDbCircle
 10
2.64143470302106
 20
1.570899715625447
 30
0.0
 40
0.0414558326617713
100
AcDbArc
 50
283.8294435204352
 51
302.5981485315609
  0
ARC
  5
2CB0
330
768
100
AcDbEntity
  8
0
100
AcDbCircle
 10
2.585327342920895
 20
1.658638595833432
 30
0.0
 40
0.1456006691039149
100
AcDbArc
 50
302.598148531573
 51
310.6989152665458
  0
ARC
  5
2CB1
330
768
100
AcDbEntity
  8
0
100
AcDbCircle
 10
2.643750264253705
 20
1.590713082390498
 30
0.0
 40
0.0560065112946806
100
AcDbArc
 50
310.6989152668203
 51
323.7777809558587
  0
ARC
  5
2CB2
330
768
100
AcDbEntity
  8
0
100
AcDbCircle
 10
2.623181775202161
 20
1.605779193191901
 30
0.0
 40
0.0815025979854584
100
AcDbArc
 50
323.7777809558421
 51
335.9388459135234
  0
ARC
  5
2CB3
330
768
100
AcDbEntity
  8
0
100
AcDbCircle
 10
2.623926417895576
 20
1.605446704115147
 30
0.0
 40
0.0806870970798691
100
AcDbArc
 50
335.9388459132906
 51
348.1614449809147
  0
ARC
  5
2CB4
330
768
100
AcDbEntity
  8
0
100
AcDbCircle
 10
2.62009414187053
 20
1.606249999999866
 30
0.0
 40
0.0846026588289095
100
AcDbArc
 50
348.1614449809171
 51
0.0000000000348873
  0
ARC
  5
2CB5
330
768
100
AcDbEntity
  8
0
100
AcDbCircle
 10
2.620094141870608
 20
1.60625000000002
 30
0.0
 40
0.0846026588288318
100
AcDbArc
 50
359.9999999999308
 51
11.83855501908844
  0
ARC
  5
2CB6
330
768
100
AcDbEntity
  8
0
100
AcDbCircle
 10
2.623926417894916
 20
1.607053295884577
 30
0.0
 40
0.0806870970805464
100
AcDbArc
 50
11.83855501909571
 51
24.06115408662489
  0
ARC
  5
2CB7
330
768
100
AcDbEntity
  8
0
100
AcDbCircle
 10
2.623181775201458
 20
1.60672080680747
 30
0.0
 40
0.0815025979863192
100
AcDbArc
 50
24.06115408660738
 51
36.22221904415621
  0
ARC
  5
2CB8
330
768
100
AcDbEntity
  8
0
100
AcDbCircle
 10
2.64375026425401
 20
1.621786917609585
 30
0.0
 40
0.0560065112943078
100
AcDbArc
 50
36.22221904416043
 51
49.3010847333012
  0
ARC
  5
2CB9
330
768
100
AcDbEntity
  8
0
100
AcDbCircle
 10
2.585327342921431
 20
1.553861404167386
 30
0.0
 40
0.145600669102834
100
AcDbArc
 50
49.30108473338134
 51
57.40185146840533
  0
ARC
  5
2CBA
330
768
100
AcDbEntity
  8
0
100
AcDbCircle
 10
2.641434703021071
 20
1.641600284374441
 30
0.0
 40
0.0414558326617572
100
AcDbArc
 50
57.40185146844343
 51
76.17055647958463
  0
ARC
  5
2CBB
330
768
100
AcDbEntity
  8
0
100
AcDbCircle
 10
2.631555500477515
 20
1.601468415900245
 30
0.0
 40
0.0827857916518989
100
AcDbArc
 50
76.17055647949873
 51
89.42233464299555
  0
ARC
  5
2CBC
330
768
100
AcDbEntity
  8
0
100
AcDbCircle
 10
2.631555500477518
 20
0.986031584099611
 30
0.0
 40
0.0827857916518769
100
AcDbArc
 50
270.5776653569976
 51
283.8294435205028
  0
ARC
  5
2CBD
330
768
100
AcDbEntity
  8
0
100
AcDbCircle
 10
2.641434703021012
 20
0.945899715625542
 30
0.0
 40
0.0414558326618735
100
AcDbArc
 50
283.8294435204586
 51
302.5981485315375
  0
ARC
  5
2CBE
330
768
100
AcDbEntity
  8
0
100
AcDbCircle
 10
2.58532734292174
 20
1.033638595832086
 30
0.0
 40
0.1456006691023218
100
AcDbArc
 50
302.5981485315759
 51
310.6989152666464
  0
ARC
  5
2CBF
330
768
100
AcDbEntity
  8
0
100
AcDbCircle
 10
2.643750264254164
 20
0.9657130823901676
 30
0.0
 40
0.0560065112941095
100
AcDbArc
 50
310.6989152667032
 51
323.7777809558492
  0
ARC
  5
2CC0
330
768
100
AcDbEntity
  8
0
100
AcDbCircle
 10
2.623181775200631
 20
0.9807791931930332
 30
0.0
 40
0.0815025979873555
100
AcDbArc
 50
323.7777809558325
 51
335.9388459132474
  0
ARC
  5
2CC1
330
768
100
AcDbEntity
  8
0
100
AcDbCircle
 10
2.623926417893777
 20
0.980446704115538
 30
0.0
 40
0.0806870970817104
100
AcDbArc
 50
335.9388459135705
 51
348.1614449809052
  0
ARC
  5
2CC2
330
768
100
AcDbEntity
  8
0
100
AcDbCircle
 10
2.62009414187001
 20
0.9812499999999891
 30
0.0
 40
0.0846026588294433
100
AcDbArc
 50
348.1614449809077
 51
359.9999999999516
  0
ARC
  5
2CC3
330
768
100
AcDbEntity
  8
0
100
AcDbCircle
 10
2.620094141870086
 20
0.9812499999998965
 30
0.0
 40
0.0846026588293678
100
AcDbArc
 50
0.0000000000142857
 51
11.83855501909763
  0
ARC
  5
2CC4
330
768
100
AcDbEntity
  8
0
100
AcDbCircle
 10
2.623926417894679
 20
0.9820532958845145
 30
0.0
 40
0.0806870970807909
100
AcDbArc
 50
11.8385550191049
 51
24.06115408655201
  0
ARC
  5
2CC5
330
768
100
AcDbEntity
  8
0
100
AcDbCircle
 10
2.623181775201231
 20
0.9817208068072916
 30
0.0
 40
0.0815025979866023
100
AcDbArc
 50
24.06115408661204
 51
36.22221904416583
  0
ARC
  5
2CC6
330
768
100
AcDbEntity
  8
0
100
AcDbCircle
 10
2.643750264254158
 20
0.9967869176096931
 30
0.0
 40
0.0560065112941185
100
AcDbArc
 50
36.22221904416578
 51
49.30108473333526
  0
ARC
  5
2CC7
330
768
100
AcDbEntity
  8
0
100
AcDbCircle
 10
2.585327342921762
 20
0.9288614041679124
 30
0.0
 40
0.1456006691022085
100
AcDbArc
 50
49.30108473334112
 51
57.40185146840556
  0
ARC
  5
2CC8
330
768
100
AcDbEntity
  8
0
100
AcDbCircle
 10
2.641434703021009
 20
1.016600284374353
 30
0.0
 40
0.0414558326618607
100
AcDbArc
 50
57.40185146844529
 51
76.17055647951177
  0
ARC
  5
2CC9
330
768
100
AcDbEntity
  8
0
100
AcDbCircle
 10
2.631555500477507
 20
0.9764684159000596
 30
0.0
 40
0.0827857916520842
100
AcDbArc
 50
76.17055647951415
 51
89.42233464299592
  0
ARC
  5
2CCA
330
768
100
AcDbEntity
  8
0
100
AcDbCircle
 10
2.631555500477515
 20
4.736031584099822
 30
0.0
 40
0.0827857916520875
100
AcDbArc
 50
270.5776653570044
 51
283.8294435204857
  0
ARC
  5
2CCB
330
768
100
AcDbEntity
  8
0
100
AcDbCircle
 10
2.641434703020983
 20
4.695899715625576
 30
0.0
 40
0.0414558326619187
100
AcDbArc
 50
283.8294435205185
 51
302.5981485315493
  0
ARC
  5
2CCC
330
768
100
AcDbEntity
  8
0
100
AcDbCircle
 10
2.585327342922849
 20
4.783638595830359
 30
0.0
 40
0.1456006691002705
100
AcDbArc
 50
302.5981485315751
 51
310.698915266733
  0
ARC
  5
2CCD
330
768
100
AcDbEntity
  8
0
100
AcDbCircle
 10
2.643750264254792
 20
4.715713082389708
 30
0.0
 40
0.0560065112933329
100
AcDbArc
 50
310.6989152664553
 51
323.7777809558496
  0
ARC
  5
2CCE
330
768
100
AcDbEntity
  8
0
100
AcDbCircle
 10
2.6231817752018
 20
4.730779193192179
 30
0.0
 40
0.081502597985909
100
AcDbArc
 50
323.7777809558322
 51
335.9388459134512
  0
ARC
  5
2CCF
330
768
100
AcDbEntity
  8
0
100
AcDbCircle
 10
2.623926417895174
 20
4.730446704115247
 30
0.0
 40
0.0806870970802851
100
AcDbArc
 50
335.9388459133451
 51
348.1614449809044
  0
ARC
  5
2CD0
330
768
100
AcDbEntity
  8
0
100
AcDbCircle
 10
2.620094141870672
 20
4.731249999999852
 30
0.0
 40
0.0846026588287692
100
AcDbArc
 50
348.1614449809069
 51
0.0000000000445113
  0
ARC
  5
2CD1
330
768
100
AcDbEntity
  8
0
100
AcDbCircle
 10
2.62009414187075
 20
4.731250000000035
 30
0.0
 40
0.0846026588286914
100
AcDbArc
 50
359.9999999999206
 51
11.83855501909793
  0
ARC
  5
2CD2
330
768
100
AcDbEntity
  8
0
100
AcDbCircle
 10
2.623926417895234
 20
4.732053295884629
 30
0.0
 40
0.0806870970802263
100
AcDbArc
 50
11.83855501910566
 51
24.06115408664176
  0
ARC
  5
2CD3
330
768
100
AcDbEntity
  8
0
100
AcDbCircle
 10
2.623181775201697
 20
4.731720806807632
 30
0.0
 40
0.0815025979860266
100
AcDbArc
 50
24.06115408653102
 51
36.222219044166
  0
ARC
  5
2CD4
330
768
100
AcDbEntity
  8
0
100
AcDbCircle
 10
2.643750264254326
 20
4.74678691760981
 30
0.0
 40
0.0560065112939159
100
AcDbArc
 50
36.22221904416971
 51
49.30108473337097
  0
ARC
  5
2CD5
330
768
100
AcDbEntity
  8
0
100
AcDbCircle
 10
2.585327342922046
 20
4.678861404168366
 30
0.0
 40
0.1456006691016742
100
AcDbArc
 50
49.30108473330341
 51
57.40185146840322
  0
ARC
  5
2CD6
330
768
100
AcDbEntity
  8
0
100
AcDbCircle
 10
2.641434703021073
 20
4.766600284374405
 30
0.0
 40
0.0414558326617832
100
AcDbArc
 50
57.40185146847952
 51
76.17055647956441
  0
ARC
  5
2CD7
330
768
100
AcDbEntity
  8
0
100
AcDbCircle
 10
2.631555500477457
 20
4.726468415900069
 30
0.0
 40
0.0827857916520757
100
AcDbArc
 50
76.17055647947059
 51
89.42233464295498
  0
ARC
  5
2CD8
330
768
100
AcDbEntity
  8
0
100
AcDbCircle
 10
2.631555500477506
 20
4.111031584099897
 30
0.0
 40
0.082785791652163
100
AcDbArc
 50
270.5776653570051
 51
283.8294435204791
  0
ARC
  5
2CD9
330
768
100
AcDbEntity
  8
0
100
AcDbCircle
 10
2.641434703021008
 20
4.070899715625519
 30
0.0
 40
0.0414558326618576
100
AcDbArc
 50
283.8294435205038
 51
302.5981485315626
  0
ARC
  5
2CDA
330
768
100
AcDbEntity
  8
0
100
AcDbCircle
 10
2.585327342921678
 20
4.158638595832189
 30
0.0
 40
0.1456006691024426
100
AcDbArc
 50
302.5981485315753
 51
310.6989152666055
  0
ARC
  5
2CDB
330
768
100
AcDbEntity
  8
0
100
AcDbCircle
 10
2.643750264254126
 20
4.090713082390196
 30
0.0
 40
0.0560065112941585
100
AcDbArc
 50
310.6989152666277
 51
323.7777809558498
  0
ARC
  5
2CDC
330
768
100
AcDbEntity
  8
0
100
AcDbCircle
 10
2.623181775201276
 20
4.105779193192561
 30
0.0
 40
0.0815025979865575
100
AcDbArc
 50
323.7777809558334
 51
335.9388459133826
  0
ARC
  5
2CDD
330
768
100
AcDbEntity
  8
0
100
AcDbCircle
 10
2.623926417894554
 20
4.105446704115376
 30
0.0
 40
0.0806870970809185
100
AcDbArc
 50
335.9388459134672
 51
348.1614449809046
  0
ARC
  5
2CDE
330
768
100
AcDbEntity
  8
0
100
AcDbCircle
 10
2.620094141870672
 20
4.106249999999852
 30
0.0
 40
0.0846026588287692
100
AcDbArc
 50
348.1614449809069
 51
0.0000000000830076
  0
ARC
  5
2CDF
330
768
100
AcDbEntity
  8
0
100
AcDbCircle
 10
2.62009414187075
 20
4.106250000000035
 30
0.0
 40
0.0846026588286914
100
AcDbArc
 50
359.9999999999591
 51
11.83855501909793
  0
ARC
  5
2CE0
330
768
100
AcDbEntity
  8
0
100
AcDbCircle
 10
2.623926417894734
 20
4.107053295884525
 30
0.0
 40
0.0806870970807372
100
AcDbArc
 50
11.83855501910565
 51
24.06115408658338
  0
ARC
  5
2CE1
330
768
100
AcDbEntity
  8
0
100
AcDbCircle
 10
2.62318177520128
 20
4.106720806807327
 30
0.0
 40
0.0815025979865427
100
AcDbArc
 50
24.06115408662544
 51
36.22221904416573
  0
ARC
  5
2CE2
330
768
100
AcDbEntity
  8
0
100
AcDbCircle
 10
2.643750264253991
 20
4.121786917609564
 30
0.0
 40
0.0560065112943315
100
AcDbArc
 50
36.22221904417033
 51
49.30108473328487
  0
ARC
  5
2CE3
330
768
100
AcDbEntity
  8
0
100
AcDbCircle
 10
2.585327342921465
 20
4.053861404167456
 30
0.0
 40
0.1456006691027538
100
AcDbArc
 50
49.30108473336686
 51
57.40185146840317
  0
ARC
  5
2CE4
330
768
100
AcDbEntity
  8
0
100
AcDbCircle
 10
2.641434703021067
 20
4.141600284374391
 30
0.0
 40
0.0414558326617985
100
AcDbArc
 50
57.40185146848286
 51
76.17055647956076
  0
ARC
  5
2CE5
330
768
100
AcDbEntity
  8
0
100
AcDbCircle
 10
2.631555500477461
 20
4.101468415900108
 30
0.0
 40
0.0827857916520365
100
AcDbArc
 50
76.17055647946741
 51
89.42233464295811
  0
ARC
  5
2CE6
330
768
100
AcDbEntity
  8
0
100
AcDbCircle
 10
2.631555500477516
 20
3.486031584099637
 30
0.0
 40
0.0827857916519027
100
AcDbArc
 50
270.5776653570047
 51
283.8294435205009
  0
ARC
  5
2CE7
330
768
100
AcDbEntity
  8
0
100
AcDbCircle
 10
2.641434703021047
 20
3.445899715625467
 30
0.0
 40
0.0414558326617931
100
AcDbArc
 50
283.8294435204398
 51
302.5981485315555
  0
ARC
  5
2CE8
330
768
100
AcDbEntity
  8
0
100
AcDbCircle
 10
2.585327342921685
 20
3.533638595832179
 30
0.0
 40
0.1456006691024306
100
AcDbArc
 50
302.5981485315751
 51
310.6989152666059
  0
ARC
  5
2CE9
330
768
100
AcDbEntity
  8
0
100
AcDbCircle
 10
2.643750264254122
 20
3.4657130823902
 30
0.0
 40
0.0560065112941638
100
AcDbArc
 50
310.6989152666285
 51
323.7777809558493
  0
ARC
  5
2CEA
330
768
100
AcDbEntity
  8
0
100
AcDbCircle
 10
2.623181775201334
 20
3.48077919319252
 30
0.0
 40
0.0815025979864868
100
AcDbArc
 50
323.7777809558326
 51
335.93884591337
  0
ARC
  5
2CEB
330
768
100
AcDbEntity
  8
0
100
AcDbCircle
 10
2.623926417894614
 20
3.480446704115364
 30
0.0
 40
0.0806870970808571
100
AcDbArc
 50
335.9388459134356
 51
348.1614449809048
  0
ARC
  5
2CEC
330
768
100
AcDbEntity
  8
0
100
AcDbCircle
 10
2.620094141870672
 20
3.481249999999851
 30
0.0
 40
0.0846026588287691
100
AcDbArc
 50
348.1614449809073
 51
0.0000000000448121
  0
ARC
  5
2CED
330
768
100
AcDbEntity
  8
0
100
AcDbCircle
 10
2.62009414187075
 20
3.481250000000034
 30
0.0
 40
0.0846026588286914
100
AcDbArc
 50
359.9999999999209
 51
11.83855501909823
  0
ARC
  5
2CEE
330
768
100
AcDbEntity
  8
0
100
AcDbCircle
 10
2.623926417894734
 20
3.482053295884525
 30
0.0
 40
0.0806870970807372
100
AcDbArc
 50
11.83855501910565
 51
24.06115408658338
  0
ARC
  5
2CEF
330
768
100
AcDbEntity
  8
0
100
AcDbCircle
 10
2.62318177520128
 20
3.481720806807327
 30
0.0
 40
0.0815025979865427
100
AcDbArc
 50
24.06115408662544
 51
36.22221904416573
  0
ARC
  5
2CF0
330
768
100
AcDbEntity
  8
0
100
AcDbCircle
 10
2.643750264254326
 20
3.49678691760981
 30
0.0
 40
0.0560065112939159
100
AcDbArc
 50
36.22221904416971
 51
49.30108473337097
  0
ARC
  5
2CF1
330
768
100
AcDbEntity
  8
0
100
AcDbCircle
 10
2.585327342922046
 20
3.428861404168365
 30
0.0
 40
0.1456006691016745
100
AcDbArc
 50
49.3010847333035
 51
57.40185146840332
  0
ARC
  5
2CF2
330
768
100
AcDbEntity
  8
0
100
AcDbCircle
 10
2.641434703021012
 20
3.51660028437437
 30
0.0
 40
0.0414558326618462
100
AcDbArc
 50
57.40185146843461
 51
76.1705564794986
  0
ARC
  5
2CF3
330
768
100
AcDbEntity
  8
0
100
AcDbCircle
 10
2.631555500477514
 20
3.476468415900049
 30
0.0
 40
0.0827857916520946
100
AcDbArc
 50
76.17055647951497
 51
89.42233464299508
  0
ARC
  5
2CF4
330
768
100
AcDbEntity
  8
0
100
AcDbCircle
 10
2.631555500477528
 20
2.861031584099494
 30
0.0
 40
0.0827857916517596
100
AcDbArc
 50
270.5776653569931
 51
283.8294435205124
  0
ARC
  5
2CF5
330
768
100
AcDbEntity
  8
0
100
AcDbCircle
 10
2.641434703021039
 20
2.820899715625467
 30
0.0
 40
0.0414558326617931
100
AcDbArc
 50
283.8294435204398
 51
302.5981485315555
  0
ARC
  5
2CF6
330
768
100
AcDbEntity
  8
0
100
AcDbCircle
 10
2.585327342922592
 20
2.908638595830751
 30
0.0
 40
0.1456006691007352
100
AcDbArc
 50
302.598148531575
 51
310.6989152667092
  0
ARC
  5
2CF7
330
768
100
AcDbEntity
  8
0
100
AcDbCircle
 10
2.643750264254641
 20
2.840713082389815
 30
0.0
 40
0.0560065112935121
100
AcDbArc
 50
310.698915266502
 51
323.7777809558492
  0
ARC
  5
2CF8
330
768
100
AcDbEntity
  8
0
100
AcDbCircle
 10
2.62318177520151
 20
2.855779193192386
 30
0.0
 40
0.0815025979862599
100
AcDbArc
 50
323.7777809558326
 51
335.9388459134239
  0
ARC
  5
2CF9
330
768
100
AcDbEntity
  8
0
100
AcDbCircle
 10
2.623926417894859
 20
2.855446704115307
 30
0.0
 40
0.0806870970805982
100
AcDbArc
 50
335.9388459134195
 51
348.1614449809072
  0
ARC
  5
2CFA
330
768
100
AcDbEntity
  8
0
100
AcDbCircle
 10
2.620094141870301
 20
2.856249999999924
 30
0.0
 40
0.08460265882914
100
AcDbArc
 50
348.1614449809098
 51
0.0000000000342858
  0
ARC
  5
2CFB
330
768
100
AcDbEntity
  8
0
100
AcDbCircle
 10
2.620094141870312
 20
2.856249999999955
 30
0.0
 40
0.0846026588291293
100
AcDbArc
 50
0.0000000000132331
 51
11.83855501909107
  0
ARC
  5
2CFC
330
768
100
AcDbEntity
  8
0
100
AcDbCircle
 10
2.623926417894598
 20
2.857053295884508
 30
0.0
 40
0.0806870970808666
100
AcDbArc
 50
11.83855501909831
 51
24.06115408657723
  0
ARC
  5
2CFD
330
768
100
AcDbEntity
  8
0
100
AcDbCircle
 10
2.623181775201227
 20
2.856720806807304
 30
0.0
 40
0.0815025979865994
100
AcDbArc
 50
24.0611540866473
 51
36.22221904415669
  0
ARC
  5
2CFE
330
768
100
AcDbEntity
  8
0
100
AcDbCircle
 10
2.64375026425453
 20
2.87178691760997
 30
0.0
 40
0.056006511293657
100
AcDbArc
 50
36.22221904416099
 51
49.30108473349495
  0
ARC
  5
2CFF
330
768
100
AcDbEntity
  8
0
100
AcDbCircle
 10
2.585327342922352
 20
2.803861404168833
 30
0.0
 40
0.145600669101116
100
AcDbArc
 50
49.30108473330282
 51
57.40185146840572
  0
ARC
  5
2D00
330
768
100
AcDbEntity
  8
0
100
AcDbCircle
 10
2.641434703021013
 20
2.891600284374359
 30
0.0
 40
0.0414558326618547
100
AcDbArc
 50
57.40185146844357
 51
76.17055647951284
  0
ARC
  5
2D01
330
768
100
AcDbEntity
  8
0
100
AcDbCircle
 10
2.631555500477516
 20
2.851468415900118
 30
0.0
 40
0.0827857916520262
100
AcDbArc
 50
76.17055647950932
 51
89.42233464299552
  0
ARC
  5
2D02
330
768
100
AcDbEntity
  8
0
100
AcDbCircle
 10
2.6315555004775
 20
2.236031584099888
 30
0.0
 40
0.0827857916521542
100
AcDbArc
 50
270.5776653570097
 51
283.8294435204803
  0
ARC
  5
2D03
330
768
100
AcDbEntity
  8
0
100
AcDbCircle
 10
2.641434703020988
 20
2.195899715625576
 30
0.0
 40
0.0414558326619156
100
AcDbArc
 50
283.8294435205012
 51
302.5981485315426
  0
ARC
  5
2D04
330
768
100
AcDbEntity
  8
0
100
AcDbCircle
 10
2.585327342921678
 20
2.283638595832189
 30
0.0
 40
0.1456006691024426
100
AcDbArc
 50
302.5981485315753
 51
310.6989152666055
  0
ARC
  5
2D05
330
768
100
AcDbEntity
  8
0
100
AcDbCircle
 10
2.643750264254126
 20
2.215713082390196
 30
0.0
 40
0.0560065112941585
100
AcDbArc
 50
310.6989152666277
 51
323.7777809558498
  0
ARC
  5
2D06
330
768
100
AcDbEntity
  8
0
100
AcDbCircle
 10
2.623181775201276
 20
2.230779193192561
 30
0.0
 40
0.0815025979865577
100
AcDbArc
 50
323.7777809558331
 51
335.9388459133824
  0
ARC
  5
2D07
330
768
100
AcDbEntity
  8
0
100
AcDbCircle
 10
2.623926417894554
 20
2.230446704115376
 30
0.0
 40
0.0806870970809185
100
AcDbArc
 50
335.9388459134672
 51
348.1614449809046
  0
ARC
  5
2D08
330
768
100
AcDbEntity
  8
0
100
AcDbCircle
 10
2.620094141870672
 20
2.231249999999851
 30
0.0
 40
0.0846026588287691
100
AcDbArc
 50
348.1614449809073
 51
0.0000000000448121
  0
ARC
  5
2D09
330
768
100
AcDbEntity
  8
0
100
AcDbCircle
 10
2.62009414187075
 20
2.231250000000034
 30
0.0
 40
0.0846026588286914
100
AcDbArc
 50
359.9999999999209
 51
11.83855501909823
  0
ARC
  5
2D0A
330
768
100
AcDbEntity
  8
0
100
AcDbCircle
 10
2.623926417895354
 20
2.232053295884655
 30
0.0
 40
0.0806870970801037
100
AcDbArc
 50
11.83855501910553
 51
24.06115408670515
  0
ARC
  5
2D0B
330
768
100
AcDbEntity
  8
0
100
AcDbCircle
 10
2.623181775201789
 20
2.231720806807701
 30
0.0
 40
0.0815025979859112
100
AcDbArc
 50
24.06115408655766
 51
36.22221904416508
  0
ARC
  5
2D0C
330
768
100
AcDbEntity
  8
0
100
AcDbCircle
 10
2.643750264254042
 20
2.246786917609602
 30
0.0
 40
0.0560065112942674
100
AcDbArc
 50
36.22221904416931
 51
49.3010847332782
  0
ARC
  5
2D0D
330
768
100
AcDbEntity
  8
0
100
AcDbCircle
 10
2.585327342921539
 20
2.178861404167574
 30
0.0
 40
0.1456006691026151
100
AcDbArc
 50
49.30108473335101
 51
57.4018514684029
  0
ARC
  5
2D0E
330
768
100
AcDbEntity
  8
0
100
AcDbCircle
 10
2.64143470302103
 20
2.266600284374398
 30
0.0
 40
0.0414558326618126
100
AcDbArc
 50
57.40185146843414
 51
76.17055647952257
  0
ARC
  5
2D0F
330
768
100
AcDbEntity
  8
0
100
AcDbCircle
 10
2.631555500477507
 20
2.226468415900049
 30
0.0
 40
0.0827857916520946
100
AcDbArc
 50
76.17055647951497
 51
89.42233464299508
  0
ARC
  5
2D10
330
768
100
AcDbEntity
  8
0
100
AcDbCircle
 10
2.63155550047752
 20
1.611031584099634
 30
0.0
 40
0.0827857916518996
100
AcDbArc
 50
270.5776653569996
 51
283.8294435205012
  0
ARC
  5
2D11
330
768
100
AcDbEntity
  8
0
100
AcDbCircle
 10
2.641434703021059
 20
1.570899715625447
 30
0.0
 40
0.0414558326617713
100
AcDbArc
 50
283.8294435204352
 51
302.5981485315609
  0
ARC
  5
2D12
330
768
100
AcDbEntity
  8
0
100
AcDbCircle
 10
2.585327342920893
 20
1.658638595833432
 30
0.0
 40
0.1456006691039149
100
AcDbArc
 50
302.598148531573
 51
310.6989152665458
  0
ARC
  5
2D13
330
768
100
AcDbEntity
  8
0
100
AcDbCircle
 10
2.643750264253703
 20
1.590713082390498
 30
0.0
 40
0.0560065112946806
100
AcDbArc
 50
310.6989152668203
 51
323.7777809558587
  0
ARC
  5
2D14
330
768
100
AcDbEntity
  8
0
100
AcDbCircle
 10
2.623181775202159
 20
1.605779193191901
 30
0.0
 40
0.0815025979854584
100
AcDbArc
 50
323.7777809558421
 51
335.9388459135234
  0
ARC
  5
2D15
330
768
100
AcDbEntity
  8
0
100
AcDbCircle
 10
2.623926417895574
 20
1.605446704115147
 30
0.0
 40
0.0806870970798691
100
AcDbArc
 50
335.9388459132906
 51
348.1614449809147
  0
ARC
  5
2D16
330
768
100
AcDbEntity
  8
0
100
AcDbCircle
 10
2.620094141870528
 20
1.606249999999866
 30
0.0
 40
0.0846026588289095
100
AcDbArc
 50
348.1614449809171
 51
0.0000000000348873
  0
ARC
  5
2D17
330
768
100
AcDbEntity
  8
0
100
AcDbCircle
 10
2.620094141870606
 20
1.60625000000002
 30
0.0
 40
0.0846026588288318
100
AcDbArc
 50
359.9999999999308
 51
11.83855501908844
  0
ARC
  5
2D18
330
768
100
AcDbEntity
  8
0
100
AcDbCircle
 10
2.623926417894914
 20
1.607053295884577
 30
0.0
 40
0.0806870970805464
100
AcDbArc
 50
11.83855501909571
 51
24.06115408662489
  0
ARC
  5
2D19
330
768
100
AcDbEntity
  8
0
100
AcDbCircle
 10
2.623181775201456
 20
1.60672080680747
 30
0.0
 40
0.0815025979863192
100
AcDbArc
 50
24.06115408660738
 51
36.22221904415621
  0
ARC
  5
2D1A
330
768
100
AcDbEntity
  8
0
100
AcDbCircle
 10
2.643750264254008
 20
1.621786917609585
 30
0.0
 40
0.0560065112943078
100
AcDbArc
 50
36.22221904416043
 51
49.3010847333012
  0
ARC
  5
2D1B
330
768
100
AcDbEntity
  8
0
100
AcDbCircle
 10
2.585327342921429
 20
1.553861404167386
 30
0.0
 40
0.145600669102834
100
AcDbArc
 50
49.30108473338134
 51
57.40185146840533
  0
ARC
  5
2D1C
330
768
100
AcDbEntity
  8
0
100
AcDbCircle
 10
2.641434703021069
 20
1.641600284374441
 30
0.0
 40
0.0414558326617572
100
AcDbArc
 50
57.40185146844343
 51
76.17055647958463
  0
ARC
  5
2D1D
330
768
100
AcDbEntity
  8
0
100
AcDbCircle
 10
2.631555500477513
 20
1.601468415900245
 30
0.0
 40
0.0827857916518989
100
AcDbArc
 50
76.17055647949873
 51
89.42233464299555
  0
ARC
  5
2D1E
330
768
100
AcDbEntity
  8
0
100
AcDbCircle
 10
2.631555500477516
 20
0.986031584099611
 30
0.0
 40
0.0827857916518769
100
AcDbArc
 50
270.5776653569976
 51
283.8294435205028
  0
ARC
  5
2D1F
330
768
100
AcDbEntity
  8
0
100
AcDbCircle
 10
2.641434703021011
 20
0.945899715625542
 30
0.0
 40
0.0414558326618735
100
AcDbArc
 50
283.8294435204586
 51
302.5981485315375
  0
ARC
  5
2D20
330
768
100
AcDbEntity
  8
0
100
AcDbCircle
 10
2.585327342921739
 20
1.033638595832086
 30
0.0
 40
0.1456006691023218
100
AcDbArc
 50
302.5981485315759
 51
310.6989152666464
  0
ARC
  5
2D21
330
768
100
AcDbEntity
  8
0
100
AcDbCircle
 10
2.643750264254162
 20
0.9657130823901676
 30
0.0
 40
0.0560065112941095
100
AcDbArc
 50
310.6989152667032
 51
323.7777809558492
  0
ARC
  5
2D22
330
768
100
AcDbEntity
  8
0
100
AcDbCircle
 10
2.62318177520063
 20
0.9807791931930332
 30
0.0
 40
0.0815025979873555
100
AcDbArc
 50
323.7777809558325
 51
335.9388459132474
  0
ARC
  5
2D23
330
768
100
AcDbEntity
  8
0
100
AcDbCircle
 10
2.623926417893775
 20
0.980446704115538
 30
0.0
 40
0.0806870970817104
100
AcDbArc
 50
335.9388459135705
 51
348.1614449809052
  0
ARC
  5
2D24
330
768
100
AcDbEntity
  8
0
100
AcDbCircle
 10
2.620094141870009
 20
0.9812499999999891
 30
0.0
 40
0.0846026588294433
100
AcDbArc
 50
348.1614449809077
 51
359.9999999999516
  0
ARC
  5
2D25
330
768
100
AcDbEntity
  8
0
100
AcDbCircle
 10
2.620094141870084
 20
0.9812499999998965
 30
0.0
 40
0.0846026588293678
100
AcDbArc
 50
0.0000000000142857
 51
11.83855501909763
  0
ARC
  5
2D26
330
768
100
AcDbEntity
  8
0
100
AcDbCircle
 10
2.623926417894678
 20
0.9820532958845145
 30
0.0
 40
0.0806870970807909
100
AcDbArc
 50
11.8385550191049
 51
24.06115408655201
  0
ARC
  5
2D27
330
768
100
AcDbEntity
  8
0
100
AcDbCircle
 10
2.623181775201229
 20
0.9817208068072916
 30
0.0
 40
0.0815025979866023
100
AcDbArc
 50
24.06115408661204
 51
36.22221904416583
  0
ARC
  5
2D28
330
768
100
AcDbEntity
  8
0
100
AcDbCircle
 10
2.643750264254157
 20
0.9967869176096931
 30
0.0
 40
0.0560065112941185
100
AcDbArc
 50
36.22221904416578
 51
49.30108473333526
  0
ARC
  5
2D29
330
768
100
AcDbEntity
  8
0
100
AcDbCircle
 10
2.58532734292176
 20
0.9288614041679124
 30
0.0
 40
0.1456006691022085
100
AcDbArc
 50
49.30108473334112
 51
57.40185146840556
  0
ARC
  5
2D2A
330
768
100
AcDbEntity
  8
0
100
AcDbCircle
 10
2.641434703021007
 20
1.016600284374353
 30
0.0
 40
0.0414558326618607
100
AcDbArc
 50
57.40185146844529
 51
76.17055647951177
  0
ARC
  5
2D2B
330
768
100
AcDbEntity
  8
0
100
AcDbCircle
 10
2.631555500477505
 20
0.9764684159000596
 30
0.0
 40
0.0827857916520842
100
AcDbArc
 50
76.17055647951415
 51
89.42233464299592
  0
ARC
  5
2D2C
330
768
100
AcDbEntity
  8
0
100
AcDbCircle
 10
-2.631555500477469
 20
4.736031584099822
 30
0.0
 40
0.0827857916520875
100
AcDbArc
 50
256.1705564795144
 51
269.4223346429956
  0
ARC
  5
2D2D
330
768
100
AcDbEntity
  8
0
100
AcDbCircle
 10
-2.641434703020936
 20
4.695899715625576
 30
0.0
 40
0.0414558326619187
100
AcDbArc
 50
237.4018514684507
 51
256.1705564794816
  0
ARC
  5
2D2E
330
768
100
AcDbEntity
  8
0
100
AcDbCircle
 10
-2.585327342922803
 20
4.783638595830359
 30
0.0
 40
0.1456006691002705
100
AcDbArc
 50
229.301084733267
 51
237.4018514684249
  0
ARC
  5
2D2F
330
768
100
AcDbEntity
  8
0
100
AcDbCircle
 10
-2.643750264254746
 20
4.715713082389708
 30
0.0
 40
0.0560065112933329
100
AcDbArc
 50
216.2222190441504
 51
229.3010847335447
  0
ARC
  5
2D30
330
768
100
AcDbEntity
  8
0
100
AcDbCircle
 10
-2.623181775201754
 20
4.730779193192179
 30
0.0
 40
0.081502597985909
100
AcDbArc
 50
204.0611540865488
 51
216.2222190441678
  0
ARC
  5
2D31
330
768
100
AcDbEntity
  8
0
100
AcDbCircle
 10
-2.623926417895127
 20
4.730446704115247
 30
0.0
 40
0.0806870970802851
100
AcDbArc
 50
191.8385550190956
 51
204.0611540866549
  0
ARC
  5
2D32
330
768
100
AcDbEntity
  8
0
100
AcDbCircle
 10
-2.620094141870626
 20
4.731249999999852
 30
0.0
 40
0.0846026588287692
100
AcDbArc
 50
179.9999999999555
 51
191.838555019093
  0
ARC
  5
2D33
330
768
100
AcDbEntity
  8
0
100
AcDbCircle
 10
-2.620094141870704
 20
4.731250000000035
 30
0.0
 40
0.0846026588286914
100
AcDbArc
 50
168.1614449809021
 51
180.0000000000794
  0
ARC
  5
2D34
330
768
100
AcDbEntity
  8
0
100
AcDbCircle
 10
-2.623926417895188
 20
4.732053295884629
 30
0.0
 40
0.0806870970802263
100
AcDbArc
 50
155.9388459133583
 51
168.1614449808943
  0
ARC
  5
2D35
330
768
100
AcDbEntity
  8
0
100
AcDbCircle
 10
-2.623181775201651
 20
4.731720806807632
 30
0.0
 40
0.0815025979860266
100
AcDbArc
 50
143.777780955834
 51
155.938845913469
  0
ARC
  5
2D36
330
768
100
AcDbEntity
  8
0
100
AcDbCircle
 10
-2.64375026425428
 20
4.74678691760981
 30
0.0
 40
0.0560065112939159
100
AcDbArc
 50
130.698915266629
 51
143.7777809558303
  0
ARC
  5
2D37
330
768
100
AcDbEntity
  8
0
100
AcDbCircle
 10
-2.585327342922
 20
4.678861404168366
 30
0.0
 40
0.1456006691016742
100
AcDbArc
 50
122.5981485315968
 51
130.6989152666966
  0
ARC
  5
2D38
330
768
100
AcDbEntity
  8
0
100
AcDbCircle
 10
-2.641434703021027
 20
4.766600284374405
 30
0.0
 40
0.0414558326617832
100
AcDbArc
 50
103.8294435204356
 51
122.5981485315205
  0
ARC
  5
2D39
330
768
100
AcDbEntity
  8
0
100
AcDbCircle
 10
-2.63155550047741
 20
4.726468415900069
 30
0.0
 40
0.0827857916520757
100
AcDbArc
 50
90.57766535704504
 51
103.8294435205294
  0
ARC
  5
2D3A
330
768
100
AcDbEntity
  8
0
100
AcDbCircle
 10
-2.63155550047746
 20
4.111031584099897
 30
0.0
 40
0.082785791652163
100
AcDbArc
 50
256.1705564795209
 51
269.4223346429949
  0
ARC
  5
2D3B
330
768
100
AcDbEntity
  8
0
100
AcDbCircle
 10
-2.641434703020961
 20
4.070899715625519
 30
0.0
 40
0.0414558326618576
100
AcDbArc
 50
237.4018514684374
 51
256.1705564794962
  0
ARC
  5
2D3C
330
768
100
AcDbEntity
  8
0
100
AcDbCircle
 10
-2.585327342921632
 20
4.158638595832189
 30
0.0
 40
0.1456006691024426
100
AcDbArc
 50
229.3010847333945
 51
237.4018514684247
  0
ARC
  5
2D3D
330
768
100
AcDbEntity
  8
0
100
AcDbCircle
 10
-2.64375026425408
 20
4.090713082390196
 30
0.0
 40
0.0560065112941585
100
AcDbArc
 50
216.2222190441502
 51
229.3010847333723
  0
ARC
  5
2D3E
330
768
100
AcDbEntity
  8
0
100
AcDbCircle
 10
-2.62318177520123
 20
4.105779193192561
 30
0.0
 40
0.0815025979865575
100
AcDbArc
 50
204.0611540866173
 51
216.2222190441667
  0
ARC
  5
2D3F
330
768
100
AcDbEntity
  8
0
100
AcDbCircle
 10
-2.623926417894507
 20
4.105446704115376
 30
0.0
 40
0.0806870970809185
100
AcDbArc
 50
191.8385550190954
 51
204.0611540865329
  0
ARC
  5
2D40
330
768
100
AcDbEntity
  8
0
100
AcDbCircle
 10
-2.620094141870626
 20
4.106249999999852
 30
0.0
 40
0.0846026588287692
100
AcDbArc
 50
179.999999999917
 51
191.838555019093
  0
ARC
  5
2D41
330
768
100
AcDbEntity
  8
0
100
AcDbCircle
 10
-2.620094141870704
 20
4.106250000000035
 30
0.0
 40
0.0846026588286914
100
AcDbArc
 50
168.1614449809021
 51
180.0000000000409
  0
ARC
  5
2D42
330
768
100
AcDbEntity
  8
0
100
AcDbCircle
 10
-2.623926417894688
 20
4.107053295884525
 30
0.0
 40
0.0806870970807372
100
AcDbArc
 50
155.9388459134166
 51
168.1614449808943
  0
ARC
  5
2D43
330
768
100
AcDbEntity
  8
0
100
AcDbCircle
 10
-2.623181775201234
 20
4.106720806807327
 30
0.0
 40
0.0815025979865427
100
AcDbArc
 50
143.7777809558343
 51
155.9388459133746
  0
ARC
  5
2D44
330
768
100
AcDbEntity
  8
0
100
AcDbCircle
 10
-2.643750264253945
 20
4.121786917609564
 30
0.0
 40
0.0560065112943315
100
AcDbArc
 50
130.6989152667151
 51
143.7777809558297
  0
ARC
  5
2D45
330
768
100
AcDbEntity
  8
0
100
AcDbCircle
 10
-2.585327342921418
 20
4.053861404167456
 30
0.0
 40
0.1456006691027538
100
AcDbArc
 50
122.5981485315968
 51
130.6989152666332
  0
ARC
  5
2D46
330
768
100
AcDbEntity
  8
0
100
AcDbCircle
 10
-2.641434703021021
 20
4.141600284374391
 30
0.0
 40
0.0414558326617985
100
AcDbArc
 50
103.8294435204392
 51
122.5981485315171
  0
ARC
  5
2D47
330
768
100
AcDbEntity
  8
0
100
AcDbCircle
 10
-2.631555500477415
 20
4.101468415900108
 30
0.0
 40
0.0827857916520365
100
AcDbArc
 50
90.57766535704191
 51
103.8294435205326
  0
ARC
  5
2D48
330
768
100
AcDbEntity
  8
0
100
AcDbCircle
 10
-2.63155550047747
 20
3.486031584099637
 30
0.0
 40
0.0827857916519027
100
AcDbArc
 50
256.1705564794991
 51
269.4223346429953
  0
ARC
  5
2D49
330
768
100
AcDbEntity
  8
0
100
AcDbCircle
 10
-2.641434703021
 20
3.445899715625467
 30
0.0
 40
0.0414558326617931
100
AcDbArc
 50
237.4018514684445
 51
256.1705564795602
  0
ARC
  5
2D4A
330
768
100
AcDbEntity
  8
0
100
AcDbCircle
 10
-2.585327342921639
 20
3.533638595832179
 30
0.0
 40
0.1456006691024306
100
AcDbArc
 50
229.3010847333942
 51
237.401851468425
  0
ARC
  5
2D4B
330
768
100
AcDbEntity
  8
0
100
AcDbCircle
 10
-2.643750264254076
 20
3.4657130823902
 30
0.0
 40
0.0560065112941638
100
AcDbArc
 50
216.2222190441507
 51
229.3010847333716
  0
ARC
  5
2D4C
330
768
100
AcDbEntity
  8
0
100
AcDbCircle
 10
-2.623181775201288
 20
3.48077919319252
 30
0.0
 40
0.0815025979864868
100
AcDbArc
 50
204.06115408663
 51
216.2222190441675
  0
ARC
  5
2D4D
330
768
100
AcDbEntity
  8
0
100
AcDbCircle
 10
-2.623926417894567
 20
3.480446704115364
 30
0.0
 40
0.0806870970808571
100
AcDbArc
 50
191.8385550190952
 51
204.0611540865644
  0
ARC
  5
2D4E
330
768
100
AcDbEntity
  8
0
100
AcDbCircle
 10
-2.620094141870626
 20
3.481249999999851
 30
0.0
 40
0.0846026588287691
100
AcDbArc
 50
179.9999999999552
 51
191.8385550190927
  0
ARC
  5
2D4F
330
768
100
AcDbEntity
  8
0
100
AcDbCircle
 10
-2.620094141870704
 20
3.481250000000034
 30
0.0
 40
0.0846026588286914
100
AcDbArc
 50
168.1614449809018
 51
180.0000000000791
  0
ARC
  5
2D50
330
768
100
AcDbEntity
  8
0
100
AcDbCircle
 10
-2.623926417894688
 20
3.482053295884525
 30
0.0
 40
0.0806870970807372
100
AcDbArc
 50
155.9388459134166
 51
168.1614449808943
  0
ARC
  5
2D51
330
768
100
AcDbEntity
  8
0
100
AcDbCircle
 10
-2.623181775201234
 20
3.481720806807327
 30
0.0
 40
0.0815025979865427
100
AcDbArc
 50
143.7777809558343
 51
155.9388459133746
  0
ARC
  5
2D52
330
768
100
AcDbEntity
  8
0
100
AcDbCircle
 10
-2.64375026425428
 20
3.49678691760981
 30
0.0
 40
0.0560065112939159
100
AcDbArc
 50
130.698915266629
 51
143.7777809558303
  0
ARC
  5
2D53
330
768
100
AcDbEntity
  8
0
100
AcDbCircle
 10
-2.585327342922
 20
3.428861404168365
 30
0.0
 40
0.1456006691016745
100
AcDbArc
 50
122.5981485315967
 51
130.6989152666965
  0
ARC
  5
2D54
330
768
100
AcDbEntity
  8
0
100
AcDbCircle
 10
-2.641434703020966
 20
3.51660028437437
 30
0.0
 40
0.0414558326618462
100
AcDbArc
 50
103.8294435205014
 51
122.5981485315654
  0
ARC
  5
2D55
330
768
100
AcDbEntity
  8
0
100
AcDbCircle
 10
-2.631555500477468
 20
3.476468415900049
 30
0.0
 40
0.0827857916520946
100
AcDbArc
 50
90.57766535700492
 51
103.829443520485
  0
ARC
  5
2D56
330
768
100
AcDbEntity
  8
0
100
AcDbCircle
 10
-2.631555500477481
 20
2.861031584099494
 30
0.0
 40
0.0827857916517596
100
AcDbArc
 50
256.1705564794876
 51
269.4223346430069
  0
ARC
  5
2D57
330
768
100
AcDbEntity
  8
0
100
AcDbCircle
 10
-2.641434703020993
 20
2.820899715625467
 30
0.0
 40
0.0414558326617931
100
AcDbArc
 50
237.4018514684445
 51
256.1705564795602
  0
ARC
  5
2D58
330
768
100
AcDbEntity
  8
0
100
AcDbCircle
 10
-2.585327342922545
 20
2.908638595830751
 30
0.0
 40
0.1456006691007352
100
AcDbArc
 50
229.3010847332908
 51
237.401851468425
  0
ARC
  5
2D59
330
768
100
AcDbEntity
  8
0
100
AcDbCircle
 10
-2.643750264254595
 20
2.840713082389815
 30
0.0
 40
0.0560065112935121
100
AcDbArc
 50
216.2222190441507
 51
229.301084733498
  0
ARC
  5
2D5A
330
768
100
AcDbEntity
  8
0
100
AcDbCircle
 10
-2.623181775201464
 20
2.855779193192386
 30
0.0
 40
0.0815025979862599
100
AcDbArc
 50
204.0611540865761
 51
216.2222190441674
  0
ARC
  5
2D5B
330
768
100
AcDbEntity
  8
0
100
AcDbCircle
 10
-2.623926417894813
 20
2.855446704115307
 30
0.0
 40
0.0806870970805982
100
AcDbArc
 50
191.8385550190928
 51
204.0611540865805
  0
ARC
  5
2D5C
330
768
100
AcDbEntity
  8
0
100
AcDbCircle
 10
-2.620094141870255
 20
2.856249999999924
 30
0.0
 40
0.08460265882914
100
AcDbArc
 50
179.9999999999657
 51
191.8385550190902
  0
ARC
  5
2D5D
330
768
100
AcDbEntity
  8
0
100
AcDbCircle
 10
-2.620094141870266
 20
2.856249999999955
 30
0.0
 40
0.0846026588291293
100
AcDbArc
 50
168.1614449809089
 51
179.9999999999868
  0
ARC
  5
2D5E
330
768
100
AcDbEntity
  8
0
100
AcDbCircle
 10
-2.623926417894552
 20
2.857053295884508
 30
0.0
 40
0.0806870970808666
100
AcDbArc
 50
155.9388459134228
 51
168.1614449809017
  0
ARC
  5
2D5F
330
768
100
AcDbEntity
  8
0
100
AcDbCircle
 10
-2.623181775201181
 20
2.856720806807304
 30
0.0
 40
0.0815025979865994
100
AcDbArc
 50
143.7777809558433
 51
155.9388459133527
  0
ARC
  5
2D60
330
768
100
AcDbEntity
  8
0
100
AcDbCircle
 10
-2.643750264254484
 20
2.87178691760997
 30
0.0
 40
0.056006511293657
100
AcDbArc
 50
130.6989152665051
 51
143.777780955839
  0
ARC
  5
2D61
330
768
100
AcDbEntity
  8
0
100
AcDbCircle
 10
-2.585327342922306
 20
2.803861404168833
 30
0.0
 40
0.145600669101116
100
AcDbArc
 50
122.5981485315943
 51
130.6989152666972
  0
ARC
  5
2D62
330
768
100
AcDbEntity
  8
0
100
AcDbCircle
 10
-2.641434703020967
 20
2.891600284374359
 30
0.0
 40
0.0414558326618547
100
AcDbArc
 50
103.8294435204872
 51
122.5981485315564
  0
ARC
  5
2D63
330
768
100
AcDbEntity
  8
0
100
AcDbCircle
 10
-2.631555500477469
 20
2.851468415900118
 30
0.0
 40
0.0827857916520262
100
AcDbArc
 50
90.57766535700446
 51
103.8294435204907
  0
ARC
  5
2D64
330
768
100
AcDbEntity
  8
0
100
AcDbCircle
 10
-2.631555500477453
 20
2.236031584099888
 30
0.0
 40
0.0827857916521542
100
AcDbArc
 50
256.1705564795198
 51
269.4223346429902
  0
ARC
  5
2D65
330
768
100
AcDbEntity
  8
0
100
AcDbCircle
 10
-2.641434703020942
 20
2.195899715625576
 30
0.0
 40
0.0414558326619156
100
AcDbArc
 50
237.4018514684574
 51
256.1705564794988
  0
ARC
  5
2D66
330
768
100
AcDbEntity
  8
0
100
AcDbCircle
 10
-2.585327342921632
 20
2.283638595832189
 30
0.0
 40
0.1456006691024426
100
AcDbArc
 50
229.3010847333945
 51
237.4018514684247
  0
ARC
  5
2D67
330
768
100
AcDbEntity
  8
0
100
AcDbCircle
 10
-2.64375026425408
 20
2.215713082390196
 30
0.0
 40
0.0560065112941585
100
AcDbArc
 50
216.2222190441502
 51
229.3010847333723
  0
ARC
  5
2D68
330
768
100
AcDbEntity
  8
0
100
AcDbCircle
 10
-2.62318177520123
 20
2.230779193192561
 30
0.0
 40
0.0815025979865577
100
AcDbArc
 50
204.0611540866176
 51
216.2222190441669
  0
ARC
  5
2D69
330
768
100
AcDbEntity
  8
0
100
AcDbCircle
 10
-2.623926417894507
 20
2.230446704115376
 30
0.0
 40
0.0806870970809185
100
AcDbArc
 50
191.8385550190954
 51
204.0611540865329
  0
ARC
  5
2D6A
330
768
100
AcDbEntity
  8
0
100
AcDbCircle
 10
-2.620094141870626
 20
2.231249999999851
 30
0.0
 40
0.0846026588287691
100
AcDbArc
 50
179.9999999999552
 51
191.8385550190927
  0
ARC
  5
2D6B
330
768
100
AcDbEntity
  8
0
100
AcDbCircle
 10
-2.620094141870704
 20
2.231250000000034
 30
0.0
 40
0.0846026588286914
100
AcDbArc
 50
168.1614449809018
 51
180.0000000000791
  0
ARC
  5
2D6C
330
768
100
AcDbEntity
  8
0
100
AcDbCircle
 10
-2.623926417895308
 20
2.232053295884655
 30
0.0
 40
0.0806870970801037
100
AcDbArc
 50
155.9388459132949
 51
168.1614449808945
  0
ARC
  5
2D6D
330
768
100
AcDbEntity
  8
0
100
AcDbCircle
 10
-2.623181775201743
 20
2.231720806807701
 30
0.0
 40
0.0815025979859112
100
AcDbArc
 50
143.7777809558349
 51
155.9388459134423
  0
ARC
  5
2D6E
330
768
100
AcDbEntity
  8
0
100
AcDbCircle
 10
-2.643750264253996
 20
2.246786917609602
 30
0.0
 40
0.0560065112942674
100
AcDbArc
 50
130.6989152667218
 51
143.7777809558307
  0
ARC
  5
2D6F
330
768
100
AcDbEntity
  8
0
100
AcDbCircle
 10
-2.585327342921493
 20
2.178861404167574
 30
0.0
 40
0.1456006691026151
100
AcDbArc
 50
122.5981485315971
 51
130.698915266649
  0
ARC
  5
2D70
330
768
100
AcDbEntity
  8
0
100
AcDbCircle
 10
-2.641434703020984
 20
2.266600284374398
 30
0.0
 40
0.0414558326618126
100
AcDbArc
 50
103.8294435204774
 51
122.5981485315659
  0
ARC
  5
2D71
330
768
100
AcDbEntity
  8
0
100
AcDbCircle
 10
-2.631555500477461
 20
2.226468415900049
 30
0.0
 40
0.0827857916520946
100
AcDbArc
 50
90.57766535700492
 51
103.829443520485
  0
ARC
  5
2D72
330
768
100
AcDbEntity
  8
0
100
AcDbCircle
 10
-2.631555500477474
 20
1.611031584099634
 30
0.0
 40
0.0827857916518996
100
AcDbArc
 50
256.1705564794988
 51
269.4223346430005
  0
ARC
  5
2D73
330
768
100
AcDbEntity
  8
0
100
AcDbCircle
 10
-2.641434703021012
 20
1.570899715625447
 30
0.0
 40
0.0414558326617713
100
AcDbArc
 50
237.4018514684391
 51
256.1705564795648
  0
ARC
  5
2D74
330
768
100
AcDbEntity
  8
0
100
AcDbCircle
 10
-2.585327342920847
 20
1.658638595833432
 30
0.0
 40
0.1456006691039149
100
AcDbArc
 50
229.3010847334542
 51
237.401851468427
  0
ARC
  5
2D75
330
768
100
AcDbEntity
  8
0
100
AcDbCircle
 10
-2.643750264253657
 20
1.590713082390498
 30
0.0
 40
0.0560065112946806
100
AcDbArc
 50
216.2222190441413
 51
229.3010847331797
  0
ARC
  5
2D76
330
768
100
AcDbEntity
  8
0
100
AcDbCircle
 10
-2.623181775202113
 20
1.605779193191901
 30
0.0
 40
0.0815025979854584
100
AcDbArc
 50
204.0611540864765
 51
216.2222190441579
  0
ARC
  5
2D77
330
768
100
AcDbEntity
  8
0
100
AcDbCircle
 10
-2.623926417895528
 20
1.605446704115147
 30
0.0
 40
0.0806870970798691
100
AcDbArc
 50
191.8385550190854
 51
204.0611540867094
  0
ARC
  5
2D78
330
768
100
AcDbEntity
  8
0
100
AcDbCircle
 10
-2.620094141870482
 20
1.606249999999866
 30
0.0
 40
0.0846026588289095
100
AcDbArc
 50
179.9999999999651
 51
191.838555019083
  0
ARC
  5
2D79
330
768
100
AcDbEntity
  8
0
100
AcDbCircle
 10
-2.62009414187056
 20
1.60625000000002
 30
0.0
 40
0.0846026588288318
100
AcDbArc
 50
168.1614449809115
 51
180.0000000000692
  0
ARC
  5
2D7A
330
768
100
AcDbEntity
  8
0
100
AcDbCircle
 10
-2.623926417894868
 20
1.607053295884577
 30
0.0
 40
0.0806870970805464
100
AcDbArc
 50
155.9388459133751
 51
168.1614449809043
  0
ARC
  5
2D7B
330
768
100
AcDbEntity
  8
0
100
AcDbCircle
 10
-2.62318177520141
 20
1.60672080680747
 30
0.0
 40
0.0815025979863192
100
AcDbArc
 50
143.7777809558438
 51
155.9388459133926
  0
ARC
  5
2D7C
330
768
100
AcDbEntity
  8
0
100
AcDbCircle
 10
-2.643750264253962
 20
1.621786917609585
 30
0.0
 40
0.0560065112943078
100
AcDbArc
 50
130.6989152666988
 51
143.7777809558396
  0
ARC
  5
2D7D
330
768
100
AcDbEntity
  8
0
100
AcDbCircle
 10
-2.585327342921383
 20
1.553861404167386
 30
0.0
 40
0.145600669102834
100
AcDbArc
 50
122.5981485315947
 51
130.6989152666187
  0
ARC
  5
2D7E
330
768
100
AcDbEntity
  8
0
100
AcDbCircle
 10
-2.641434703021023
 20
1.641600284374441
 30
0.0
 40
0.0414558326617572
100
AcDbArc
 50
103.8294435204154
 51
122.5981485315566
  0
ARC
  5
2D7F
330
768
100
AcDbEntity
  8
0
100
AcDbCircle
 10
-2.631555500477467
 20
1.601468415900245
 30
0.0
 40
0.0827857916518989
100
AcDbArc
 50
90.57766535700444
 51
103.8294435205013
  0
ARC
  5
2D80
330
768
100
AcDbEntity
  8
0
100
AcDbCircle
 10
-2.63155550047747
 20
0.986031584099611
 30
0.0
 40
0.0827857916518769
100
AcDbArc
 50
256.1705564794972
 51
269.4223346430024
  0
ARC
  5
2D81
330
768
100
AcDbEntity
  8
0
100
AcDbCircle
 10
-2.641434703020964
 20
0.945899715625542
 30
0.0
 40
0.0414558326618735
100
AcDbArc
 50
237.4018514684625
 51
256.1705564795414
  0
ARC
  5
2D82
330
768
100
AcDbEntity
  8
0
100
AcDbCircle
 10
-2.585327342921692
 20
1.033638595832086
 30
0.0
 40
0.1456006691023218
100
AcDbArc
 50
229.3010847333536
 51
237.4018514684241
  0
ARC
  5
2D83
330
768
100
AcDbEntity
  8
0
100
AcDbCircle
 10
-2.643750264254116
 20
0.9657130823901676
 30
0.0
 40
0.0560065112941095
100
AcDbArc
 50
216.2222190441509
 51
229.3010847332968
  0
ARC
  5
2D84
330
768
100
AcDbEntity
  8
0
100
AcDbCircle
 10
-2.623181775200584
 20
0.9807791931930332
 30
0.0
 40
0.0815025979873555
100
AcDbArc
 50
204.0611540867525
 51
216.2222190441675
  0
ARC
  5
2D85
330
768
100
AcDbEntity
  8
0
100
AcDbCircle
 10
-2.623926417893729
 20
0.980446704115538
 30
0.0
 40
0.0806870970817104
100
AcDbArc
 50
191.8385550190948
 51
204.0611540864295
  0
ARC
  5
2D86
330
768
100
AcDbEntity
  8
0
100
AcDbCircle
 10
-2.620094141869962
 20
0.9812499999999891
 30
0.0
 40
0.0846026588294433
100
AcDbArc
 50
180.0000000000484
 51
191.8385550190923
  0
ARC
  5
2D87
330
768
100
AcDbEntity
  8
0
100
AcDbCircle
 10
-2.620094141870038
 20
0.9812499999998965
 30
0.0
 40
0.0846026588293678
100
AcDbArc
 50
168.1614449809024
 51
179.9999999999857
  0
ARC
  5
2D88
330
768
100
AcDbEntity
  8
0
100
AcDbCircle
 10
-2.623926417894631
 20
0.9820532958845145
 30
0.0
 40
0.0806870970807909
100
AcDbArc
 50
155.938845913448
 51
168.1614449808951
  0
ARC
  5
2D89
330
768
100
AcDbEntity
  8
0
100
AcDbCircle
 10
-2.623181775201183
 20
0.9817208068072916
 30
0.0
 40
0.0815025979866023
100
AcDbArc
 50
143.7777809558342
 51
155.938845913388
  0
ARC
  5
2D8A
330
768
100
AcDbEntity
  8
0
100
AcDbCircle
 10
-2.64375026425411
 20
0.9967869176096931
 30
0.0
 40
0.0560065112941185
100
AcDbArc
 50
130.6989152666648
 51
143.7777809558342
  0
ARC
  5
2D8B
330
768
100
AcDbEntity
  8
0
100
AcDbCircle
 10
-2.585327342921714
 20
0.9288614041679124
 30
0.0
 40
0.1456006691022085
100
AcDbArc
 50
122.5981485315944
 51
130.6989152666589
  0
ARC
  5
2D8C
330
768
100
AcDbEntity
  8
0
100
AcDbCircle
 10
-2.641434703020961
 20
1.016600284374353
 30
0.0
 40
0.0414558326618607
100
AcDbArc
 50
103.8294435204882
 51
122.5981485315547
  0
ARC
  5
2D8D
330
768
100
AcDbEntity
  8
0
100
AcDbCircle
 10
-2.631555500477459
 20
0.9764684159000596
 30
0.0
 40
0.0827857916520842
100
AcDbArc
 50
90.57766535700408
 51
103.8294435204858
  0
ENDSEC
  0
SECTION
  2
OBJECTS
  0
DICTIONARY
  5
75D
330
0
100
AcDbDictionary
281
     1
  3
ACAD_COLOR
350
9E7
  3
ACAD_GROUP
350
75E
  3
ACAD_LAYOUT
350
7C6
  3
ACAD_MATERIAL
350
9E6
  3
ACAD_MLINESTYLE
350
76B
  3
ACAD_PLOTSETTINGS
350
7C7
  3
ACAD_PLOTSTYLENAME
350
7C4
  3
ACAD_TABLESTYLE
350
9E8
  3
ACDBHEADERROUNDTRIPXREC
350
2E0B
  3
ACDBVARIABLEDICTIONARY
350
7B3
  3
ASE_INDEX_DICTIONARY
350
2BFD
  0
DICTIONARY
  5
9F9
330
753
100
AcDbDictionary
280
     1
281
     1
  3
ACAD_LAYERFILTERS
360
2DF1
  3
ACAD_LAYERSTATES
360
9FA
  3
ACLYDICTIONARY
360
2DF0
  0
DICTIONARY
  5
7F5
330
768
100
AcDbDictionary
280
     1
281
     1
  3
ACAD_SORTENTS
360
1265
  0
DICTIONARY
  5
9E7
102
{ACAD_REACTORS
330
75D
102
}
330
75D
100
AcDbDictionary
281
     1
  0
DICTIONARY
  5
75E
102
{ACAD_REACTORS
330
75D
102
}
330
75D
100
AcDbDictionary
281
     1
  0
DICTIONARY
  5
7C6
102
{ACAD_REACTORS
330
75D
102
}
330
75D
100
AcDbDictionary
281
     1
  3
Layout1
350
7C9
  3
Model
350
7C8
  0
DICTIONARY
  5
9E6
102
{ACAD_REACTORS
330
75D
102
}
330
75D
100
AcDbDictionary
281
     1
  0
DICTIONARY
  5
76B
102
{ACAD_REACTORS
330
75D
102
}
330
75D
100
AcDbDictionary
281
     1
  3
STANDARD
350
76C
  0
DICTIONARY
  5
7C7
102
{ACAD_REACTORS
330
75D
102
}
330
75D
100
AcDbDictionary
281
     1
  0
ACDBDICTIONARYWDFLT
  5
7C4
102
{ACAD_REACTORS
330
75D
102
}
330
75D
100
AcDbDictionary
281
     1
  3
Normal
350
7C5
100
AcDbDictionaryWithDefault
340
7C5
  0
DICTIONARY
  5
9E8
102
{ACAD_REACTORS
330
75D
102
}
330
75D
100
AcDbDictionary
281
     1
  3
Standard
350
9E9
  0
DICTIONARY
  5
2E0B
102
{ACAD_REACTORS
330
75D
102
}
330
75D
100
AcDbDictionary
281
     1
  3
COLORDICT
350
2E0C
  3
MATERIALDICT
350
2E0D
  0
DICTIONARY
  5
7B3
102
{ACAD_REACTORS
330
75D
102
}
330
75D
100
AcDbDictionary
281
     1
  3
CTABLESTYLE
350
A1C
  3
DIMADEC
350
7B4
  0
DICTIONARY
  5
2BFD
102
{ACAD_REACTORS
330
75D
102
}
330
75D
100
AcDbDictionary
281
     1
  3
ASEBlockHierarchyIndexRecord
350
2BFF
1001
DCO15
1040
1616226246.286
  0
DICTIONARY
  5
2DF1
102
{ACAD_REACTORS
330
9F9
102
}
330
9F9
100
AcDbDictionary
281
     1
  0
DICTIONARY
  5
9FA
102
{ACAD_REACTORS
330
9F9
102
}
330
9F9
100
AcDbDictionary
281
     1
  0
DICTIONARY
  5
2DF0
102
{ACAD_REACTORS
330
9F9
102
}
330
9F9
100
AcDbDictionary
281
     1
1001
ACAD
1000
<All
  0
SORTENTSTABLE
  5
1265
102
{ACAD_REACTORS
330
7F5
102
}
330
7F5
100
AcDbSortentsTable
330
768
331
0
  5
26C9
331
2D15
  5
2C4F
331
2D16
  5
2C50
331
2D17
  5
2C51
331
2CE6
  5
2C7A
331
2CE7
  5
2C7B
331
2A75
  5
2CCD
331
2A74
  5
2CCC
331
2CEE
  5
2C82
331
2CEF
  5
2C83
331
2C8D
  5
2D15
331
2D55
  5
2B51
331
2D56
  5
2B34
331
2D57
  5
2B35
331
2D46
  5
2B82
331
2D47
  5
2B83
331
2D48
  5
2B44
331
2C75
  5
2D35
331
2D8B
  5
2A5E
331
2D8C
  5
2A5F
331
2D8D
  5
2A60
331
2C81
  5
2D25
331
2CA0
  5
2CF0
331
2C9B
  5
2D07
331
2C98
  5
2D04
331
2CA4
  5
2CF4
331
2CCF
  5
2C9F
331
2A71
  5
2CC9
331
2CDE
  5
2C90
331
2CDF
  5
2C91
331
2D80
  5
2A4A
331
2D81
  5
2A4B
331
2D82
  5
2A55
331
2D83
  5
2A56
331
2CD7
  5
2CA7
331
2C96
  5
2D02
331
2D26
  5
2C42
331
2D27
  5
2C43
331
2CA6
  5
2CF6
331
2CFA
  5
2C70
331
2CFB
  5
2C71
331
2CC5
  5
2CDD
331
2D28
  5
2C44
331
2D29
  5
2C45
331
2C87
  5
2D0F
331
2CB7
  5
2CEB
331
2D2A
  5
2C46
331
2D2B
  5
2C47
331
2D2C
  5
2BCF
331
2D6A
  5
2A79
331
2D6B
  5
2A7A
331
2D6C
  5
2A7B
331
2D11
  5
2C4B
331
2D12
  5
2C4C
331
2CFC
  5
2C72
331
2CFD
  5
2C73
331
2CC2
  5
2CDA
331
2CDB
  5
2C8D
331
2D87
  5
2A5A
331
2D88
  5
2A5B
331
2D89
  5
2A5C
331
2D8A
  5
2A5D
331
2C97
  5
2D03
331
2D49
  5
2B45
331
2D4A
  5
2B46
331
2A6A
  5
2CC2
331
2CCA
  5
2C9A
331
2D0E
  5
2C66
331
2D0F
  5
2C67
331
2D10
  5
2C4A
331
2C69
  5
2D29
331
2C80
  5
2D24
331
2CCC
  5
2C9C
331
2CBD
  5
2CD5
331
2CA2
  5
2CF2
331
2CAC
  5
2CFC
331
2C73
  5
2D33
331
2CB0
  5
2CE4
331
2C88
  5
2D10
331
2D00
  5
2C76
331
2D01
  5
2C77
331
2C8E
  5
2D16
331
279D
  5
2885
331
2CED
  5
2C81
331
2C7E
  5
2D22
331
2C6E
  5
2D2E
331
2CF3
  5
2C87
331
2CF4
  5
2C6A
331
2CB6
  5
2CEA
331
2CBE
  5
2CD6
331
2CE8
  5
2C7C
331
2C8B
  5
2D13
331
2CCD
  5
2C9D
331
2C83
  5
2D27
331
2880
  5
2C2B
331
2CA5
  5
2CF5
331
2CA3
  5
2CF3
331
2C8C
  5
2D14
331
2C95
  5
2D01
331
2AF6
  5
2D38
331
2CDA
  5
2C8C
331
2A73
  5
2CCB
331
2CDC
  5
2C8E
331
2CDD
  5
2C8F
331
2CD0
  5
2CA0
331
2CD1
  5
2CA1
331
2D2D
  5
2BE1
331
2D2E
  5
2BE2
331
2C99
  5
2D05
331
2C94
  5
2D00
331
2C93
  5
2CFF
331
2C72
  5
2D32
331
2D42
  5
2B5C
331
2D43
  5
2B5D
331
2C8F
  5
2D17
331
2CC7
  5
2CDF
331
2D02
  5
2C5A
331
2D03
  5
2C5B
331
27C7
  5
2A61
331
2CB5
  5
2CE9
331
2CF2
  5
2C86
331
2C7F
  5
2D23
331
2C74
  5
2D34
331
2CC9
  5
2CE1
331
2CD4
  5
2CA4
331
2CD5
  5
2CA5
331
2A6F
  5
2CC7
331
2CC8
  5
2CE0
331
2C9F
  5
2D0B
331
2C7B
  5
2D1F
331
2CF0
  5
2C84
331
2CF1
  5
2C85
331
2C7D
  5
2D21
331
2C9A
  5
2D06
331
2A78
  5
2CD0
331
2A77
  5
2CCF
331
2CB2
  5
2CE6
331
2D7D
  5
2A6E
331
2D7E
  5
2A6F
331
2D7F
  5
2A70
331
2C9E
  5
2D0A
331
2D13
  5
2C4D
331
2D14
  5
2C4E
331
2D04
  5
2C5C
331
2D05
  5
2C5D
331
2CF5
  5
2C6B
331
2CF6
  5
2C6C
331
2CBB
  5
2CEF
331
2A6E
  5
2CC6
331
2C7C
  5
2D20
331
2A76
  5
2CCE
331
2CFE
  5
2C74
331
2CFF
  5
2C75
331
2D4E
  5
2B4A
331
2D4F
  5
2B4B
331
2D79
  5
2A6A
331
2D7A
  5
2A6B
331
2D7B
  5
2A6C
331
2D7C
  5
2A6D
331
2C82
  5
2D26
331
2C84
  5
2D0C
331
2CB3
  5
2CE7
331
2C78
  5
2D1C
331
2C8A
  5
2D12
331
2D76
  5
2A67
331
2D77
  5
2A68
331
2D78
  5
2A69
331
2C85
  5
2D0D
331
2CE1
  5
2C93
331
2CE2
  5
2C94
331
D9
  5
D9
331
2D3F
  5
2B59
331
2D40
  5
2B5A
331
2D41
  5
2B5B
331
2D06
  5
2C5E
331
2D07
  5
2C5F
331
2C90
  5
2D18
331
2D08
  5
2C60
331
2D09
  5
2C61
331
2C79
  5
2D1D
331
2D2F
  5
2BE3
331
2D30
  5
2BE4
331
2CCE
  5
2C9E
331
2AF4
  5
2D36
331
2CAF
  5
2CE3
331
2CA9
  5
2CF9
331
2CA8
  5
2CF8
331
2A69
  5
2CC1
331
2A68
  5
2CC0
331
2A67
  5
2CBF
331
2A66
  5
2CBE
331
2A5F
  5
2CB7
331
2A5C
  5
2CB4
331
2A5B
  5
2CB3
331
2A5A
  5
2CB2
331
2A59
  5
2CB1
331
2A58
  5
2CB0
331
2A57
  5
2CAF
331
2A56
  5
2CAE
331
2A4A
  5
2CAB
331
2900
  5
2C99
331
28FF
  5
2C98
331
28ED
  5
2C89
331
28EC
  5
2C88
331
28DA
  5
2C79
331
28D9
  5
2C78
331
28C7
  5
2C69
331
28C6
  5
2C68
331
28B4
  5
2C59
331
28B3
  5
2C58
331
28A1
  5
2C49
331
28A0
  5
2C48
331
288C
  5
2C37
331
288B
  5
2C36
331
2889
  5
2C34
331
2888
  5
2C33
331
2CBC
  5
2CD4
331
2C91
  5
2D19
331
2797
  5
287F
331
279F
  5
2887
331
2CAD
  5
2CFD
331
2CE9
  5
2C7D
331
2CEA
  5
2C7E
331
2CB8
  5
2CEC
331
25A0
  5
27A9
331
2D3D
  5
2B57
331
2D3E
  5
2B58
331
2C92
  5
2CFE
331
2CE0
  5
2C92
331
2C77
  5
2D1B
331
2CE4
  5
2C96
331
2CE5
  5
2C97
331
2C70
  5
2D30
331
2C6D
  5
2D2D
331
2C9C
  5
2D08
331
2A6C
  5
2CC4
331
2C89
  5
2D11
331
2C9D
  5
2D09
331
2D67
  5
2A76
331
2D68
  5
2A77
331
2D69
  5
2A78
331
2C86
  5
2D0E
331
2CC6
  5
2CDE
331
2CD6
  5
2CA6
331
2D0C
  5
2C64
331
2D0D
  5
2C65
331
2D50
  5
2B4C
331
2D51
  5
2B4D
331
2D52
  5
2B4E
331
2D4B
  5
2B47
331
2D4C
  5
2B48
331
2D4D
  5
2B49
331
2CAA
  5
2CFA
331
2CA7
  5
2CF7
331
25A2
  5
27AB
331
2D5E
  5
2B3C
331
2D5F
  5
2B3D
331
2D60
  5
2B3E
331
2CD8
  5
2C8A
331
2CD9
  5
2C8B
331
2CCB
  5
2C9B
331
2D38
  5
2BEC
331
2D39
  5
2BED
331
2D3A
  5
2B54
331
279E
  5
2886
331
2CE3
  5
2C95
331
2CB1
  5
2CE5
331
2C76
  5
2D1A
331
2D0A
  5
2C62
331
2D0B
  5
2C63
331
2A7B
  5
2CD3
331
2D5B
  5
2B39
331
2D5C
  5
2B3A
331
2D5D
  5
2B3B
331
2D31
  5
2BE5
331
2D32
  5
2BE6
331
2D33
  5
2BE7
331
2CEB
  5
2C7F
331
2CEC
  5
2C80
331
2D84
  5
2A57
331
2D85
  5
2A58
331
2D86
  5
2A59
331
2CF7
  5
2C6D
331
2CBA
  5
2CEE
331
2D64
  5
2A73
331
2D65
  5
2A74
331
2D66
  5
2A75
331
2D3B
  5
2B55
331
2D3C
  5
2B56
331
2D44
  5
2B6F
331
2D45
  5
2B70
331
2C7A
  5
2D1E
331
2A72
  5
2CCA
331
2CA1
  5
2CF1
331
2887
  5
2C32
331
2CF8
  5
2C6E
331
2CF9
  5
2C6F
331
2885
  5
2C30
331
2882
  5
2C2D
331
2881
  5
2C2C
331
2CAE
  5
2CE2
331
287F
  5
2C2A
331
287E
  5
2C29
331
286E
  5
2C25
331
286D
  5
2C24
331
286C
  5
2C23
331
286B
  5
2C22
331
286A
  5
2C21
331
2869
  5
2C20
331
2868
  5
2C1F
331
2867
  5
2C1E
331
2866
  5
2C1D
331
2865
  5
2C1C
331
2864
  5
2C1B
331
2863
  5
2C1A
331
2862
  5
2C19
331
2860
  5
2C17
331
285F
  5
2C16
331
285E
  5
2C15
331
285D
  5
2C14
331
285C
  5
2C13
331
285B
  5
2C12
331
285A
  5
2C11
331
2858
  5
2C10
331
2857
  5
2C0F
331
2856
  5
2C0E
331
2854
  5
2C0D
331
2853
  5
2C0C
331
2852
  5
2C0B
331
2850
  5
2C0A
331
284F
  5
2C09
331
284E
  5
2C08
331
284D
  5
2C07
331
284C
  5
2C06
331
284B
  5
2BFB
331
284A
  5
2BFA
331
2849
  5
2BF9
331
2848
  5
2BF8
331
2847
  5
2BF7
331
2846
  5
2BF6
331
2845
  5
2BF5
331
2844
  5
2BF4
331
2843
  5
2BF3
331
2842
  5
2BF2
331
2841
  5
2BF1
331
2840
  5
2BF0
331
283F
  5
2BEF
331
283E
  5
2BEE
331
282C
  5
2BCE
331
282B
  5
2BBC
331
282A
  5
2BBB
331
2829
  5
2BA9
331
2828
  5
2BA8
331
2827
  5
2B96
331
2826
  5
2B95
331
2814
  5
2B53
331
2813
  5
2B52
331
2801
  5
2B43
331
2800
  5
2B42
331
27EE
  5
2AFA
331
27ED
  5
2AF9
331
27DB
  5
2A72
331
27DA
  5
2A71
331
27C8
  5
2A62
331
27B5
  5
294F
331
27B4
  5
2913
331
27B3
  5
2912
331
27B2
  5
2900
331
27B1
  5
28FF
331
27B0
  5
28ED
331
27AF
  5
28EC
331
27AE
  5
28DA
331
27AD
  5
28D9
331
27AC
  5
28C7
331
27AB
  5
28C6
331
27AA
  5
28B4
331
27A9
  5
28B3
331
27A8
  5
28A1
331
27A7
  5
28A0
331
27A6
  5
288E
331
27A5
  5
288D
331
27A4
  5
288C
331
27A3
  5
288B
331
27A2
  5
288A
331
27A1
  5
2889
331
27A0
  5
2888
331
279C
  5
2884
331
279A
  5
2882
331
2799
  5
2881
331
2798
  5
2880
331
2CB9
  5
2CED
331
2CB4
  5
2CE8
331
2A60
  5
2CB8
331
279B
  5
2883
331
2A61
  5
2CB9
331
2A62
  5
2CBA
331
2A63
  5
2CBB
331
2A64
  5
2CBC
331
2A65
  5
2CBD
331
2C6F
  5
2D2F
331
288D
  5
2C38
331
288E
  5
2C39
331
2912
  5
2CA8
331
2A4B
  5
2CAC
331
2913
  5
2CA9
331
2883
  5
2C2E
331
2884
  5
2C2F
331
287B
  5
2C26
331
2A55
  5
2CAD
331
2D73
  5
2A64
331
2D74
  5
2A65
331
2D75
  5
2A66
331
2CAB
  5
2CFB
331
2D36
  5
2BEA
331
2D37
  5
2BEB
331
2AF5
  5
2D37
331
2CC3
  5
2CDB
331
2C71
  5
2D31
331
2D53
  5
2B4F
331
2D54
  5
2B50
331
2D58
  5
2B36
331
2D59
  5
2B37
331
2D5A
  5
2B38
331
2A7A
  5
2CD2
331
2D23
  5
2C3F
331
2D24
  5
2C40
331
2D25
  5
2C41
331
2C6B
  5
2D2B
331
2CD2
  5
2CA2
331
2A70
  5
2CC8
331
2D21
  5
2C3D
331
2D22
  5
2C3E
331
2D1C
  5
2C56
331
2D1D
  5
2C57
331
2D1E
  5
2C3A
331
2A6D
  5
2CC5
331
2A6B
  5
2CC3
331
2CC4
  5
2CDC
331
2D1F
  5
2C3B
331
2D20
  5
2C3C
331
2D1A
  5
2C54
331
2D1B
  5
2C55
331
2D34
  5
2BE8
331
2D35
  5
2BE9
331
2D18
  5
2C52
331
2D19
  5
2C53
331
2CD3
  5
2CA3
331
2CC0
  5
2CD8
331
2CC1
  5
2CD9
331
2A79
  5
2CD1
331
2D61
  5
2B3F
331
2D62
  5
2B40
331
2D63
  5
2B41
331
287C
  5
2C27
331
287D
  5
2C28
331
2861
  5
2C18
331
2886
  5
2C31
331
2C6C
  5
2D2C
331
25A1
  5
27AA
331
14D9
  5
14DA
331
2C68
  5
2D28
331
2C6A
  5
2D2A
331
2A5E
  5
2CB6
331
2A5D
  5
2CB5
331
2AFA
  5
2D3C
331
2AF9
  5
2D3B
331
2AF8
  5
2D3A
331
2AF7
  5
2D39
331
288A
  5
2C35
331
2CBF
  5
2CD7
331
2D70
  5
2AF7
331
2D71
  5
2AF8
331
2D72
  5
2A63
331
2D6D
  5
2AF4
331
2D6E
  5
2AF5
331
2D6F
  5
2AF6
  0
LAYOUT
  5
7C9
102
{ACAD_REACTORS
330
7C6
102
}
102
{ACAD_XDICTIONARY
360
2E0E
102
}
330
7C6
100
AcDbPlotSettings
  1

  2
HP LaserJet 2100 Series PS
  4

  6

 40
0.0
 41
0.0
 42
0.0
 43
0.0
 44
0.0
 45
0.0
 46
0.0
 47
0.0
 48
0.0
 49
0.0
140
0.0
141
0.0
142
1.0
143
1.0
 70
   688
 72
     0
 73
     0
 74
     5
  7
monochrome.ctb
 75
    16
147
1.0
148
0.0
149
0.0
100
AcDbLayout
  1
Layout1
 70
     0
 71
     1
 10
0.0
 20
0.0
 11
12.0
 21
9.0
 12
0.0
 22
0.0
 32
0.0
 14
1.000000000000000E+20
 24
1.000000000000000E+20
 34
1.000000000000000E+20
 15
-1.000000000000000E+20
 25
-1.000000000000000E+20
 35
-1.000000000000000E+20
146
0.0
 13
0.0
 23
0.0
 33
0.0
 16
1.0
 26
0.0
 36
0.0
 17
0.0
 27
1.0
 37
0.0
 76
     0
330
765
  0
LAYOUT
  5
7C8
102
{ACAD_REACTORS
330
7C6
102
}
102
{ACAD_XDICTIONARY
360
2E10
102
}
330
7C6
100
AcDbPlotSettings
  1

  2
HP LaserJet 2100 Series PS
  4
Letter
  6

 40
5.365749835968018
 41
5.408073902130127
 42
5.132904052734375
 43
5.090576171875
 44
215.8999938964844
 45
279.3999938964844
 46
0.0
 47
0.0
 48
0.0
 49
0.0
140
0.0
141
0.0
142
1.0
143
2.976082445509257
 70
 11952
 72
     0
 73
     1
 74
     1
  7
monochrome.ctb
 75
     0
147
0.3360121966745056
148
0.0870080269693517
149
0.0053532330227938
100
AcDbLayout
  1
Model
 70
     1
 71
     0
 10
0.0
 20
0.0
 11
12.0
 21
9.0
 12
0.0
 22
0.0
 32
0.0
 14
0.0
 24
0.0
 34
0.0
 15
0.0
 25
0.0
 35
0.0
146
0.0
 13
0.0
 23
0.0
 33
0.0
 16
1.0
 26
0.0
 36
0.0
 17
0.0
 27
1.0
 37
0.0
 76
     0
330
768
1001
ACAD_PSEXT
1000
HP LaserJet 2100 Series PS
1000
HP LaserJet 2100 Series PS
1000
LPT1:
1000

1070
     0
  0
MLINESTYLE
  5
76C
102
{ACAD_REACTORS
330
76B
102
}
330
76B
100
AcDbMlineStyle
  2
STANDARD
 70
     0
  3

 62
   256
 51
90.0
 52
90.0
 71
     2
 49
0.5
 62
   256
  6
BYLAYER
 49
-0.5
 62
   256
  6
BYLAYER
  0
ACDBPLACEHOLDER
  5
7C5
102
{ACAD_REACTORS
330
7C4
102
}
330
7C4
  0
ACAD_PROXY_OBJECT
  5
9E9
102
{ACAD_REACTORS
330
9E8
102
}
330
9E8
100
AcDbProxyObject
 90
      499
 91
      521
 95
   983063
 70
     0
 93
     1841
310
4214DD185B99185C9928B81E85EB51B8AE3F2E07A17AD46E2B8FC02B5E8DC0F42B1CFD028000000C1008070000C3001FDFF8000000C1003FBFF000000182007F7FE00000030400FEFFC00000060801FDFF8000000C1003FBFF00000018200000000000000681FA0B0000001820100E000186003FBFF000000182007F7FE000
310
00030400FEFFC00000060801FDFF8000000C1003FBFF000000182007F7FE000000304000AD7A3703D0AC73F4160000003040201C00030C007F7FE00000030400FEFFC00000060801FDFF8000000C1003FBFF000000182007F7FE00000030400FEFFC000000608000
340
760
340
760
340
760
 94
        0
  0
XRECORD
  5
2E0C
102
{ACAD_REACTORS
330
2E0B
102
}
330
2E0B
100
AcDbXrecord
340
9E7
  0
XRECORD
  5
2E0D
102
{ACAD_REACTORS
330
2E0B
102
}
330
2E0B
100
AcDbXrecord
340
9E6
  0
DICTIONARYVAR
  5
A1C
102
{ACAD_REACTORS
330
7B3
102
}
330
7B3
100
DictionaryVariables
280
     0
  1
STANDARD
  0
DICTIONARYVAR
  5
7B4
102
{ACAD_REACTORS
330
7B3
102
}
330
7B3
100
DictionaryVariables
280
     0
  1
0
  0
XRECORD
  5
2BFF
102
{ACAD_REACTORS
330
2BFD
102
}
330
2BFD
100
AcDbXrecord
280
     1
330
0
330
0
  0
DICTIONARY
  5
2E0E
330
7C9
100
AcDbDictionary
280
     1
281
     1
  3
ACAD_XREC_ROUNDTRIP
360
2E0F
  0
DICTIONARY
  5
2E10
330
7C8
100
AcDbDictionary
280
     1
281
     1
  3
ACAD_XREC_ROUNDTRIP
360
2E11
  0
XRECORD
  5
2E0F
102
{ACAD_REACTORS
330
2E0E
102
}
330
2E0E
100
AcDbXrecord
102
SHADEPLOT
 70
     0
102
SHADEPLOTRESLEVEL
 70
     2
102
SHADEPLOTCUSTOMDPI
 70
   300
  0
XRECORD
  5
2E11
102
{ACAD_REACTORS
330
2E10
102
}
330
2E10
100
AcDbXrecord
102
SHADEPLOT
 70
     0
102
SHADEPLOTRESLEVEL
 70
     2
102
SHADEPLOTCUSTOMDPI
 70
   300
  0
ENDSEC
  0
EOF
