  0
SECTION
  2
HEADER
  9
$ACADVER
  1
AC1015
  9
$ACADMAINTVER
 70
     6
  9
$DWGCODEPAGE
  3
ANSI_1252
  9
$INSBASE
 10
0.0
 20
0.0
 30
0.0
  9
$EXTMIN
 10
-11.57757043332495
 20
-0.1000000000000156
 30
0.0
  9
$EXTMAX
 10
11.57757043332499
 20
14.76734463489596
 30
0.0
  9
$LIMMIN
 10
0.0
 20
0.0
  9
$LIMMAX
 10
31.5
 20
24.0
  9
$ORTHOMODE
 70
     1
  9
$REGENMODE
 70
     1
  9
$FILLMODE
 70
     1
  9
$QTEXTMODE
 70
     0
  9
$MIRRTEXT
 70
     0
  9
$LTSCALE
 40
1.0
  9
$ATTMODE
 70
     1
  9
$TEXTSIZE
 40
0.27
  9
$TRACEWID
 40
0.05
  9
$TEXTSTYLE
  7
STANDARD
  9
$CLAYER
  8
0
  9
$CELTYPE
  6
BYLAYER
  9
$CECOLOR
 62
   256
  9
$CELTSCALE
 40
1.0
  9
$DISPSILH
 70
     0
  9
$DIMSCALE
 40
1.0
  9
$DIMASZ
 40
0.375
  9
$DIMEXO
 40
0.0625
  9
$DIMDLI
 40
0.75
  9
$DIMRND
 40
0.0
  9
$DIMDLE
 40
0.0
  9
$DIMEXE
 40
0.18
  9
$DIMTP
 40
0.0
  9
$DIMTM
 40
0.0
  9
$DIMTXT
 40
0.27
  9
$DIMCEN
 40
-0.06
  9
$DIMTSZ
 40
0.0
  9
$DIMTOL
 70
     0
  9
$DIMLIM
 70
     0
  9
$DIMTIH
 70
     1
  9
$DIMTOH
 70
     1
  9
$DIMSE1
 70
     0
  9
$DIMSE2
 70
     0
  9
$DIMTAD
 70
     0
  9
$DIMZIN
 70
     0
  9
$DIMBLK
  1

  9
$DIMASO
 70
     0
  9
$DIMSHO
 70
     0
  9
$DIMPOST
  1

  9
$DIMAPOST
  1

  9
$DIMALT
 70
     0
  9
$DIMALTD
 70
     2
  9
$DIMALTF
 40
25.4
  9
$DIMLFAC
 40
1.0
  9
$DIMTOFL
 70
     0
  9
$DIMTVP
 40
0.0
  9
$DIMTIX
 70
     0
  9
$DIMSOXD
 70
     0
  9
$DIMSAH
 70
     0
  9
$DIMBLK1
  1

  9
$DIMBLK2
  1

  9
$DIMSTYLE
  2
STANDARD
  9
$DIMCLRD
 70
     0
  9
$DIMCLRE
 70
     0
  9
$DIMCLRT
 70
     0
  9
$DIMTFAC
 40
1.0
  9
$DIMGAP
 40
0.09
  9
$DIMJUST
 70
     0
  9
$DIMSD1
 70
     0
  9
$DIMSD2
 70
     0
  9
$DIMTOLJ
 70
     1
  9
$DIMTZIN
 70
     0
  9
$DIMALTZ
 70
     0
  9
$DIMALTTZ
 70
     0
  9
$DIMUPT
 70
     0
  9
$DIMDEC
 70
     5
  9
$DIMTDEC
 70
     5
  9
$DIMALTU
 70
     2
  9
$DIMALTTD
 70
     2
  9
$DIMTXSTY
  7
STANDARD
  9
$DIMAUNIT
 70
     0
  9
$DIMADEC
 70
     0
  9
$DIMALTRND
 40
0.0
  9
$DIMAZIN
 70
     0
  9
$DIMDSEP
 70
    46
  9
$DIMATFIT
 70
     3
  9
$DIMFRAC
 70
     2
  9
$DIMLDRBLK
  1

  9
$DIMLUNIT
 70
     5
  9
$DIMLWD
 70
    -2
  9
$DIMLWE
 70
    -2
  9
$DIMTMOVE
 70
     2
  9
$LUNITS
 70
     2
  9
$LUPREC
 70
     3
  9
$SKETCHINC
 40
0.1
  9
$FILLETRAD
 40
0.2
  9
$AUNITS
 70
     0
  9
$AUPREC
 70
     0
  9
$MENU
  1
ACAD
  9
$ELEVATION
 40
0.0
  9
$PELEVATION
 40
0.0
  9
$THICKNESS
 40
0.0
  9
$LIMCHECK
 70
     0
  9
$CHAMFERA
 40
0.0
  9
$CHAMFERB
 40
0.0
  9
$CHAMFERC
 40
0.0
  9
$CHAMFERD
 40
0.0
  9
$SKPOLY
 70
     0
  9
$TDCREATE
 40
2450613.848194097
  9
$TDUCREATE
 40
2450614.181527431
  9
$TDUPDATE
 40
2454509.868297593
  9
$TDUUPDATE
 40
2454510.201630926
  9
$TDINDWG
 40
0.4022848727
  9
$TDUSRTIMER
 40
0.4022848727
  9
$USRTIMER
 70
     1
  9
$ANGBASE
 50
0.0
  9
$ANGDIR
 70
     0
  9
$PDMODE
 70
     0
  9
$PDSIZE
 40
0.0
  9
$PLINEWID
 40
0.0
  9
$SPLFRAME
 70
     0
  9
$SPLINETYPE
 70
     6
  9
$SPLINESEGS
 70
     8
  9
$HANDSEED
  5
2E1A
  9
$SURFTAB1
 70
     6
  9
$SURFTAB2
 70
     6
  9
$SURFTYPE
 70
     6
  9
$SURFU
 70
     6
  9
$SURFV
 70
     6
  9
$UCSBASE
  2

  9
$UCSNAME
  2

  9
$UCSORG
 10
0.0
 20
0.0
 30
0.0
  9
$UCSXDIR
 10
1.0
 20
0.0
 30
0.0
  9
$UCSYDIR
 10
0.0
 20
1.0
 30
0.0
  9
$UCSORTHOREF
  2

  9
$UCSORTHOVIEW
 70
     0
  9
$UCSORGTOP
 10
0.0
 20
0.0
 30
0.0
  9
$UCSORGBOTTOM
 10
0.0
 20
0.0
 30
0.0
  9
$UCSORGLEFT
 10
0.0
 20
0.0
 30
0.0
  9
$UCSORGRIGHT
 10
0.0
 20
0.0
 30
0.0
  9
$UCSORGFRONT
 10
0.0
 20
0.0
 30
0.0
  9
$UCSORGBACK
 10
0.0
 20
0.0
 30
0.0
  9
$PUCSBASE
  2

  9
$PUCSNAME
  2

  9
$PUCSORG
 10
0.0
 20
0.0
 30
0.0
  9
$PUCSXDIR
 10
1.0
 20
0.0
 30
0.0
  9
$PUCSYDIR
 10
0.0
 20
1.0
 30
0.0
  9
$PUCSORTHOREF
  2

  9
$PUCSORTHOVIEW
 70
     0
  9
$PUCSORGTOP
 10
0.0
 20
0.0
 30
0.0
  9
$PUCSORGBOTTOM
 10
0.0
 20
0.0
 30
0.0
  9
$PUCSORGLEFT
 10
0.0
 20
0.0
 30
0.0
  9
$PUCSORGRIGHT
 10
0.0
 20
0.0
 30
0.0
  9
$PUCSORGFRONT
 10
0.0
 20
0.0
 30
0.0
  9
$PUCSORGBACK
 10
0.0
 20
0.0
 30
0.0
  9
$USERI1
 70
     0
  9
$USERI2
 70
     0
  9
$USERI3
 70
     0
  9
$USERI4
 70
     0
  9
$USERI5
 70
     0
  9
$USERR1
 40
0.0
  9
$USERR2
 40
0.0
  9
$USERR3
 40
0.0
  9
$USERR4
 40
0.0
  9
$USERR5
 40
0.0
  9
$WORLDVIEW
 70
     1
  9
$SHADEDGE
 70
     3
  9
$SHADEDIF
 70
    70
  9
$TILEMODE
 70
     1
  9
$MAXACTVP
 70
    16
  9
$PINSBASE
 10
0.0
 20
0.0
 30
0.0
  9
$PLIMCHECK
 70
     0
  9
$PEXTMIN
 10
1.000000000000000E+20
 20
1.000000000000000E+20
 30
1.000000000000000E+20
  9
$PEXTMAX
 10
-1.000000000000000E+20
 20
-1.000000000000000E+20
 30
-1.000000000000000E+20
  9
$PLIMMIN
 10
0.0
 20
0.0
  9
$PLIMMAX
 10
12.0
 20
9.0
  9
$UNITMODE
 70
     0
  9
$VISRETAIN
 70
     0
  9
$PLINEGEN
 70
     0
  9
$PSLTSCALE
 70
     0
  9
$TREEDEPTH
 70
  3020
  9
$CMLSTYLE
  2
STANDARD
  9
$CMLJUST
 70
     0
  9
$CMLSCALE
 40
1.0
  9
$PROXYGRAPHICS
 70
     1
  9
$MEASUREMENT
 70
     0
  9
$CELWEIGHT
370
    -1
  9
$ENDCAPS
280
     0
  9
$JOINSTYLE
280
     0
  9
$LWDISPLAY
290
     0
  9
$INSUNITS
 70
     0
  9
$HYPERLINKBASE
  1

  9
$STYLESHEET
  1
monochrome.ctb
  9
$XEDIT
290
     1
  9
$CEPSNTYPE
380
     0
  9
$PSTYLEMODE
290
     1
  9
$FINGERPRINTGUID
  2
{81491931-CD26-11D5-BE3F-00508B5FCD51}
  9
$VERSIONGUID
  2
{ECD23FA3-C546-4031-8B02-F9F72434B4DB}
  9
$EXTNAMES
290
     1
  9
$PSVPSCALE
 40
0.0
  9
$OLESTARTUP
290
     0
  0
ENDSEC
  0
SECTION
  2
CLASSES
  0
CLASS
  1
DICTIONARYVAR
  2
AcDbDictionaryVar
  3
AutoCAD 2000
 90
        0
280
     0
281
     0
  0
CLASS
  1
LWPOLYLINE
  2
AcDbPolyline
  3
AutoCAD 2000
 90
        0
280
     0
281
     1
  0
CLASS
  1
ACDBDICTIONARYWDFLT
  2
AcDbDictionaryWithDefault
  3
AutoCAD 2000
 90
        0
280
     0
281
     0
  0
CLASS
  1
ACDBPLACEHOLDER
  2
AcDbPlaceHolder
  3
ObjectDBX Classes
 90
        0
280
     0
281
     0
  0
CLASS
  1
LAYOUT
  2
AcDbLayout
  3
ObjectDBX Classes
 90
        0
280
     0
281
     0
  0
CLASS
  1
LONG_TRANSACTION
  2
AcDbLongTransaction
  3
ObjectDBX Classes
 90
   -65536
280
     1
281
     0
  0
CLASS
  1
LWPOLYLINE
  2
AcDbPolyline
  3
AutoCAD 2000
 90
        0
280
     0
281
     1
  0
CLASS
  1
HATCH
  2
AcDbHatch
  3
AutoCAD 2000
 90
        0
280
     0
281
     1
  0
CLASS
  1
XRECORD
  2
AcDbXrecord
  3
AutoCAD 2000
 90
        0
280
     0
281
     0
  0
CLASS
  1
LONG_TRANSACTION
  2
AcDbLongTransaction
  3
ObjectDBX Classes
 90
   -65536
280
     1
281
     0
  0
CLASS
  1
LWPOLYLINE
  2
AcDbPolyline
  3
AutoCAD 2000
 90
        0
280
     0
281
     1
  0
CLASS
  1
HATCH
  2
AcDbHatch
  3
AutoCAD 2000
 90
        0
280
     0
281
     1
  0
CLASS
  1
XRECORD
  2
AcDbXrecord
  3
AutoCAD 2000
 90
        0
280
     0
281
     0
  0
CLASS
  1
LONG_TRANSACTION
  2
AcDbLongTransaction
  3
ObjectDBX Classes
 90
   -65536
280
     1
281
     0
  0
CLASS
  1
LWPOLYLINE
  2
AcDbPolyline
  3
AutoCAD 2000
 90
        0
280
     0
281
     1
  0
CLASS
  1
HATCH
  2
AcDbHatch
  3
AutoCAD 2000
 90
        0
280
     0
281
     1
  0
CLASS
  1
XRECORD
  2
AcDbXrecord
  3
AutoCAD 2000
 90
        0
280
     0
281
     0
  0
CLASS
  1
LONG_TRANSACTION
  2
AcDbLongTransaction
  3
ObjectDBX Classes
 90
   -65536
280
     1
281
     0
  0
CLASS
  1
LWPOLYLINE
  2
AcDbPolyline
  3
AutoCAD 2000
 90
        0
280
     0
281
     1
  0
CLASS
  1
HATCH
  2
AcDbHatch
  3
AutoCAD 2000
 90
        0
280
     0
281
     1
  0
CLASS
  1
XRECORD
  2
AcDbXrecord
  3
AutoCAD 2000
 90
        0
280
     0
281
     0
  0
CLASS
  1
TABLESTYLE
  2
AcDbTableStyle
  3
ObjectDBX Classes
 90
     2047
280
     1
281
     0
  0
CLASS
  1
SORTENTSTABLE
  2
AcDbSortentsTable
  3
AutoCAD 2000
 90
        0
280
     0
281
     0
  0
ENDSEC
  0
SECTION
  2
TABLES
  0
TABLE
  2
VPORT
  5
759
330
0
100
AcDbSymbolTable
 70
     3
  0
VPORT
  5
2E0C
330
759
100
AcDbSymbolTableRecord
100
AcDbViewportTableRecord
  2
*Active
 70
     0
 10
0.0
 20
0.0
 11
1.0
 21
1.0
 12
2.614573876898795
 22
6.621504544445227
 13
0.0
 23
0.0
 14
0.0625
 24
0.0625
 15
0.5
 25
0.5
 16
0.0
 26
0.0
 36
1.0
 17
0.0
 27
0.0
 37
0.0
 40
22.51176583368487
 41
1.692748091603054
 42
50.0
 43
0.0
 44
0.0
 50
0.0
 51
0.0
 71
     0
 72
   100
 73
     1
 74
     0
 75
     0
 76
     0
 77
     0
 78
     0
281
     0
 65
     1
110
0.0
120
0.0
130
0.0
111
1.0
121
0.0
131
0.0
112
0.0
122
1.0
132
0.0
 79
     0
146
0.0
  0
ENDTAB
  0
TABLE
  2
LTYPE
  5
756
330
0
100
AcDbSymbolTable
 70
     2
  0
LTYPE
  5
762
330
756
100
AcDbSymbolTableRecord
100
AcDbLinetypeTableRecord
  2
BYBLOCK
 70
     0
  3

 72
    65
 73
     0
 40
0.0
  0
LTYPE
  5
763
330
756
100
AcDbSymbolTableRecord
100
AcDbLinetypeTableRecord
  2
BYLAYER
 70
     0
  3

 72
    65
 73
     0
 40
0.0
  0
LTYPE
  5
764
330
756
100
AcDbSymbolTableRecord
100
AcDbLinetypeTableRecord
  2
CONTINUOUS
 70
     0
  3
Solid line
 72
    65
 73
     0
 40
0.0
  0
LTYPE
  5
123B
330
756
100
AcDbSymbolTableRecord
100
AcDbLinetypeTableRecord
  2
HIDDEN2
 70
     0
  3
Hidden (.5x) _ _ _ _ _ _ _ _ _ _ _ _ _ _ _ _ _
 72
    65
 73
     2
 40
0.1875
 49
0.125
 74
     0
 49
-0.0625
 74
     0
  0
ENDTAB
  0
TABLE
  2
LAYER
  5
753
102
{ACAD_XDICTIONARY
360
9F9
102
}
330
0
100
AcDbSymbolTable
 70
     3
  0
LAYER
  5
75F
330
753
100
AcDbSymbolTableRecord
100
AcDbLayerTableRecord
  2
0
 70
     0
 62
     7
  6
CONTINUOUS
370
    -3
390
7C5
  0
LAYER
  5
7A4
330
753
100
AcDbSymbolTableRecord
100
AcDbLayerTableRecord
  2
DIM
 70
     0
 62
     5
  6
CONTINUOUS
370
    -3
390
7C5
  0
LAYER
  5
1C9C
330
753
100
AcDbSymbolTableRecord
100
AcDbLayerTableRecord
  2
Defpoints
 70
     0
 62
     7
  6
CONTINUOUS
290
     0
370
    -3
390
7C5
  0
ENDTAB
  0
TABLE
  2
STYLE
  5
754
330
0
100
AcDbSymbolTable
 70
     1
  0
STYLE
  5
760
330
754
100
AcDbSymbolTableRecord
100
AcDbTextStyleTableRecord
  2
STANDARD
 70
     0
 40
0.0
 41
1.0
 50
0.0
 71
     0
 42
0.27
  3
TXT
  4

  0
ENDTAB
  0
TABLE
  2
VIEW
  5
757
330
0
100
AcDbSymbolTable
 70
     4
  0
VIEW
  5
798
330
757
100
AcDbSymbolTableRecord
100
AcDbViewTableRecord
  2
PLOTTER
 70
     0
 40
23.625
 10
17.01330184198921
 20
11.8125
 41
1.0
 11
0.0
 21
0.0
 31
1.0
 12
0.0
 22
0.0
 32
0.0
 42
50.0
 43
0.0
 44
0.0
 50
0.0
 71
     0
281
     0
 72
     0
  0
VIEW
  5
799
330
757
100
AcDbSymbolTableRecord
100
AcDbViewTableRecord
  2
UPPER
 70
     0
 40
10.92682926829268
 10
12.68329970046198
 20
16.68292682926829
 41
1.0
 11
0.0
 21
0.0
 31
1.0
 12
0.0
 22
0.0
 32
0.0
 42
50.0
 43
0.0
 44
0.0
 50
0.0
 71
     0
281
     0
 72
     0
  0
VIEW
  5
79A
330
757
100
AcDbSymbolTableRecord
100
AcDbViewTableRecord
  2
LEFT
 70
     0
 40
5.446009389671362
 10
10.90014360505218
 20
8.479102255811291
 41
1.0
 11
0.0
 21
0.0
 31
1.0
 12
0.0
 22
0.0
 32
0.0
 42
50.0
 43
0.0
 44
0.0
 50
0.0
 71
     0
281
     0
 72
     0
  0
VIEW
  5
79B
330
757
100
AcDbSymbolTableRecord
100
AcDbViewTableRecord
  2
RIGHT
 70
     0
 40
10.21596244131455
 10
22.88218731978697
 20
10.27871292797435
 41
1.0
 11
0.0
 21
0.0
 31
1.0
 12
0.0
 22
0.0
 32
0.0
 42
50.0
 43
0.0
 44
0.0
 50
0.0
 71
     0
281
     0
 72
     0
  0
ENDTAB
  0
TABLE
  2
UCS
  5
758
330
0
100
AcDbSymbolTable
 70
     0
  0
ENDTAB
  0
TABLE
  2
APPID
  5
75A
330
0
100
AcDbSymbolTable
 70
     5
  0
APPID
  5
761
330
75A
100
AcDbSymbolTableRecord
100
AcDbRegAppTableRecord
  2
ACAD
 70
     0
  0
APPID
  5
1156
330
75A
100
AcDbSymbolTableRecord
100
AcDbRegAppTableRecord
  2
ACAD_DSTYLE_DIMTEXT_FILL
 70
     0
  0
APPID
  5
178C
330
75A
100
AcDbSymbolTableRecord
100
AcDbRegAppTableRecord
  2
ACAD_PSEXT
 70
     0
  0
APPID
  5
1CA0
330
75A
100
AcDbSymbolTableRecord
100
AcDbRegAppTableRecord
  2
AcAecLayerStandard
 70
     0
  0
APPID
  5
2BFE
330
75A
100
AcDbSymbolTableRecord
100
AcDbRegAppTableRecord
  2
DCO15
 70
     0
  0
ENDTAB
  0
TABLE
  2
DIMSTYLE
  5
75B
330
0
100
AcDbSymbolTable
 70
     1
100
AcDbDimStyleTable
  0
DIMSTYLE
105
7B9
330
75B
100
AcDbSymbolTableRecord
100
AcDbDimStyleTableRecord
  2
STANDARD
 70
     0
  3

  4

340
760
  0
ENDTAB
  0
TABLE
  2
BLOCK_RECORD
  5
752
330
0
100
AcDbSymbolTable
 70
     0
  0
BLOCK_RECORD
  5
768
102
{ACAD_XDICTIONARY
360
7F5
102
}
330
752
100
AcDbSymbolTableRecord
100
AcDbBlockTableRecord
  2
*MODEL_SPACE
340
7C8
  0
BLOCK_RECORD
  5
765
330
752
100
AcDbSymbolTableRecord
100
AcDbBlockTableRecord
  2
*PAPER_SPACE
340
7C9
  0
ENDTAB
  0
ENDSEC
  0
SECTION
  2
BLOCKS
  0
BLOCK
  5
7B1
330
768
100
AcDbEntity
  8
0
100
AcDbBlockBegin
  2
*MODEL_SPACE
 70
     0
 10
0.0
 20
0.0
 30
0.0
  3
*MODEL_SPACE
  1

  4

  0
ENDBLK
  5
7B2
330
768
100
AcDbEntity
  8
0
100
AcDbBlockEnd
  0
BLOCK
  5
7AF
330
765
100
AcDbEntity
 67
     1
  8
0
100
AcDbBlockBegin
  2
*PAPER_SPACE
 70
     0
 10
0.0
 20
0.0
 30
0.0
  3
*PAPER_SPACE
  1

  4

  0
ENDBLK
  5
7B0
330
765
100
AcDbEntity
 67
     1
  8
0
100
AcDbBlockEnd
  0
ENDSEC
  0
SECTION
  2
ENTITIES
  0
TEXT
  5
D9
330
768
100
AcDbEntity
  8
DIM
100
AcDbText
 10
9.860040913637929
 20
20.93053558724526
 30
0.0
 40
0.27
  1
   
 11
9.860040913637929
 21
21.06553558724526
 31
0.0
100
AcDbText
 73
     2
  0
LINE
  5
1409
330
768
100
AcDbEntity
  8
0
100
AcDbLine
 10
0.0
 20
0.0
 30
0.0
 11
3.437500000000206
 21
0.0
 31
0.0
  0
LINE
  5
140A
330
768
100
AcDbEntity
  8
0
100
AcDbLine
 10
0.0
 20
0.0937499999999893
 30
0.0
 11
1.094333180276124
 21
0.0937500000000711
 31
0.0
  0
LINE
  5
140B
330
768
100
AcDbEntity
  8
0
100
AcDbLine
 10
0.0
 20
0.0937499999999893
 30
0.0
 11
0.0
 21
0.0
 31
0.0
  0
LINE
  5
140C
330
768
100
AcDbEntity
  8
0
100
AcDbLine
 10
3.496250000000106
 20
5.46874999999989
 30
0.0
 11
3.49625000000011
 21
0.2924071150592571
 31
0.0
  0
LINE
  5
140D
330
768
100
AcDbEntity
  8
0
100
AcDbLine
 10
3.597500000000103
 20
5.46874999999989
 30
0.0
 11
3.597500000000103
 21
0.1836956212007479
 31
0.0
  0
LINE
  5
143F
330
768
100
AcDbEntity
  8
0
100
AcDbLine
 10
3.376249999999779
 20
0.0937499999999893
 30
0.0
 11
3.408202114436065
 21
0.0937499999999893
 31
0.0
  0
ARC
  5
15AF
330
768
100
AcDbEntity
  8
0
100
AcDbCircle
 10
3.40722605721859
 20
0.1828879850702592
 30
0.0
 40
0.0891433288029974
100
AcDbArc
 50
269.3726386773316
 51
2.965639978537869
  0
ARC
  5
15B0
330
768
100
AcDbEntity
  8
0
100
AcDbCircle
 10
3.410583407975789
 20
0.1849728105980226
 30
0.0
 40
0.1869209554510696
100
AcDbArc
 50
278.2793677806651
 51
0.3914923910276288
  0
ARC
  5
15B3
330
768
100
AcDbEntity
  8
0
100
AcDbCircle
 10
3.572105180336191
 20
0.0537186037697222
 30
0.0
 40
0.1976694340908199
100
AcDbArc
 50
112.5660146769121
 51
196.83388747981
  0
LINE
  5
15B5
330
768
100
AcDbEntity
  8
0
100
AcDbLine
 10
3.49625000000011
 20
0.9513884035151428
 30
0.0
 11
3.597500000000103
 21
0.9513884035151428
 31
0.0
  0
ARC
  5
15B9
330
768
100
AcDbEntity
  8
0
100
AcDbCircle
 10
3.464883574698511
 20
0.3748216206320123
 30
0.0
 40
0.1420732854992197
100
AcDbArc
 50
282.7546374569834
 51
339.6227081466869
  0
ARC
  5
15BA
330
768
100
AcDbEntity
  8
0
100
AcDbCircle
 10
3.355942710327373
 20
0.3147383245480651
 30
0.0
 40
0.1420732854992197
100
AcDbArc
 50
307.0765703218561
 51
3.944641011559611
  0
LINE
  5
15BB
330
768
100
AcDbEntity
  8
0
100
AcDbLine
 10
3.49625000000011
 20
0.236254070980797
 30
0.0
 11
3.49625000000011
 21
0.1874999999999893
 31
0.0
  0
LINE
  5
18F5
330
768
100
AcDbEntity
  8
0
100
AcDbLine
 10
3.49625000000011
 20
0.7013884035151357
 30
0.0
 11
3.597500000000103
 21
0.7013884035151357
 31
0.0
  0
LINE
  5
2070
330
768
100
AcDbEntity
  8
0
100
AcDbLine
 10
1.000125000000082
 20
4.702999999999907
 30
0.0
 11
0.9375000000000568
 21
4.702999999999914
 31
0.0
  0
LINE
  5
2071
330
768
100
AcDbEntity
  8
0
100
AcDbLine
 10
1.000125000000082
 20
4.546999999999901
 30
0.0
 11
0.9375000000000568
 21
4.546999999999901
 31
0.0
  0
ARC
  5
2072
330
768
100
AcDbEntity
  8
0
100
AcDbCircle
 10
1.000125000000082
 20
4.624999999999904
 30
0.0
 40
0.078
100
AcDbArc
 50
270.0
 51
89.99999999999999
  0
LINE
  5
207B
330
768
100
AcDbEntity
  8
0
100
AcDbLine
 10
0.9375000000000711
 20
3.570249999999911
 30
0.0
 11
0.9375000000000711
 21
3.804749999999904
 31
0.0
  0
LINE
  5
207D
330
768
100
AcDbEntity
  8
0
100
AcDbLine
 10
0.9375000000000533
 20
4.753812499999917
 30
0.0
 11
0.9375000000000462
 21
4.855437499999908
 31
0.0
  0
LINE
  5
207E
330
768
100
AcDbEntity
  8
0
100
AcDbLine
 10
1.156250000000071
 20
4.906249999999904
 30
0.0
 11
1.718750000000128
 21
5.468749999999933
 31
0.0
  0
LINE
  5
207F
330
768
100
AcDbEntity
  8
0
100
AcDbLine
 10
3.597500000000103
 20
5.46874999999989
 30
0.0
 11
1.718750000000128
 21
5.468749999999933
 31
0.0
  0
ARC
  5
2080
330
768
100
AcDbEntity
  8
0
100
AcDbCircle
 10
0.9693331802761236
 20
0.0937499999999396
 30
0.0
 40
0.125
100
AcDbArc
 50
0.0
 51
39.68543182753413
  0
LINE
  5
2082
330
768
100
AcDbEntity
  8
0
100
AcDbLine
 10
0.9375000000000711
 20
0.3278623083160248
 30
0.0
 11
1.065528423391754
 21
0.173571520919598
 31
0.0
  0
LINE
  5
2083
330
768
100
AcDbEntity
  8
0
100
AcDbLine
 10
1.156250000000071
 20
4.906249999999904
 30
0.0
 11
0.6934034542544367
 21
4.906249999999904
 31
0.0
  0
LINE
  5
2084
330
768
100
AcDbEntity
  8
0
100
AcDbLine
 10
1.000125000000082
 20
4.077999999999907
 30
0.0
 11
0.9375000000000711
 21
4.077999999999907
 31
0.0
  0
LINE
  5
2085
330
768
100
AcDbEntity
  8
0
100
AcDbLine
 10
1.000125000000082
 20
3.921999999999901
 30
0.0
 11
0.9375000000000711
 21
3.921999999999901
 31
0.0
  0
ARC
  5
2086
330
768
100
AcDbEntity
  8
0
100
AcDbCircle
 10
1.000125000000082
 20
3.999999999999904
 30
0.0
 40
0.078
100
AcDbArc
 50
270.0
 51
89.99999999999999
  0
LINE
  5
2087
330
768
100
AcDbEntity
  8
0
100
AcDbLine
 10
1.000125000000082
 20
3.452999999999907
 30
0.0
 11
0.9375000000000711
 21
3.452999999999914
 31
0.0
  0
LINE
  5
2088
330
768
100
AcDbEntity
  8
0
100
AcDbLine
 10
1.000125000000082
 20
3.296999999999901
 30
0.0
 11
0.9375000000000711
 21
3.296999999999908
 31
0.0
  0
ARC
  5
2089
330
768
100
AcDbEntity
  8
0
100
AcDbCircle
 10
1.000125000000082
 20
3.374999999999904
 30
0.0
 40
0.078
100
AcDbArc
 50
270.0
 51
89.99999999999999
  0
LINE
  5
208A
330
768
100
AcDbEntity
  8
0
100
AcDbLine
 10
1.000125000000082
 20
2.827999999999907
 30
0.0
 11
0.9375000000000711
 21
2.827999999999907
 31
0.0
  0
LINE
  5
208B
330
768
100
AcDbEntity
  8
0
100
AcDbLine
 10
1.000125000000082
 20
2.671999999999901
 30
0.0
 11
0.9375000000000711
 21
2.671999999999901
 31
0.0
  0
ARC
  5
208C
330
768
100
AcDbEntity
  8
0
100
AcDbCircle
 10
1.000125000000082
 20
2.749999999999904
 30
0.0
 40
0.078
100
AcDbArc
 50
270.0
 51
89.99999999999999
  0
LINE
  5
208D
330
768
100
AcDbEntity
  8
0
100
AcDbLine
 10
1.000125000000082
 20
2.202999999999907
 30
0.0
 11
0.9375000000000711
 21
2.202999999999914
 31
0.0
  0
LINE
  5
208E
330
768
100
AcDbEntity
  8
0
100
AcDbLine
 10
1.000125000000082
 20
2.046999999999901
 30
0.0
 11
0.9375000000000711
 21
2.046999999999908
 31
0.0
  0
ARC
  5
208F
330
768
100
AcDbEntity
  8
0
100
AcDbCircle
 10
1.000125000000082
 20
2.124999999999904
 30
0.0
 40
0.078
100
AcDbArc
 50
270.0
 51
89.99999999999999
  0
LINE
  5
2090
330
768
100
AcDbEntity
  8
0
100
AcDbLine
 10
1.000125000000082
 20
1.577999999999907
 30
0.0
 11
0.9375000000000711
 21
1.577999999999914
 31
0.0
  0
LINE
  5
2091
330
768
100
AcDbEntity
  8
0
100
AcDbLine
 10
1.000125000000082
 20
1.421999999999901
 30
0.0
 11
0.9375000000000711
 21
1.421999999999901
 31
0.0
  0
ARC
  5
2092
330
768
100
AcDbEntity
  8
0
100
AcDbCircle
 10
1.000125000000082
 20
1.499999999999904
 30
0.0
 40
0.078
100
AcDbArc
 50
270.0
 51
89.99999999999999
  0
LINE
  5
2093
330
768
100
AcDbEntity
  8
0
100
AcDbLine
 10
1.000125000000082
 20
0.952999999999907
 30
0.0
 11
0.9375000000000853
 21
0.952999999999907
 31
0.0
  0
LINE
  5
2094
330
768
100
AcDbEntity
  8
0
100
AcDbLine
 10
1.000125000000082
 20
0.7969999999999011
 30
0.0
 11
0.9375000000000853
 21
0.7969999999999082
 31
0.0
  0
ARC
  5
2095
330
768
100
AcDbEntity
  8
0
100
AcDbCircle
 10
1.000125000000082
 20
0.8749999999999041
 30
0.0
 40
0.078
100
AcDbArc
 50
270.0
 51
89.99999999999999
  0
LINE
  5
20AD
330
768
100
AcDbEntity
  8
0
100
AcDbLine
 10
0.9375000000000568
 20
4.546999999999901
 30
0.0
 11
0.9133004140653895
 21
4.546999999999901
 31
0.0
  0
LINE
  5
20AE
330
768
100
AcDbEntity
  8
0
100
AcDbLine
 10
0.9375000000000568
 20
4.702999999999907
 30
0.0
 11
0.9133004140653895
 21
4.702999999999907
 31
0.0
  0
LINE
  5
20C0
330
768
100
AcDbEntity
  8
0
100
AcDbLine
 10
0.9375000000000568
 20
3.921999999999901
 30
0.0
 11
0.9133004140653895
 21
3.921999999999901
 31
0.0
  0
LINE
  5
20C1
330
768
100
AcDbEntity
  8
0
100
AcDbLine
 10
0.9375000000000568
 20
4.077999999999907
 30
0.0
 11
0.9133004140653895
 21
4.077999999999907
 31
0.0
  0
LINE
  5
20D3
330
768
100
AcDbEntity
  8
0
100
AcDbLine
 10
0.9375000000000568
 20
3.296999999999901
 30
0.0
 11
0.9133004140653895
 21
3.296999999999901
 31
0.0
  0
LINE
  5
20D4
330
768
100
AcDbEntity
  8
0
100
AcDbLine
 10
0.9375000000000568
 20
3.452999999999907
 30
0.0
 11
0.9133004140653895
 21
3.452999999999907
 31
0.0
  0
LINE
  5
20E6
330
768
100
AcDbEntity
  8
0
100
AcDbLine
 10
0.9375000000000568
 20
2.671999999999901
 30
0.0
 11
0.9133004140653895
 21
2.671999999999901
 31
0.0
  0
LINE
  5
20E7
330
768
100
AcDbEntity
  8
0
100
AcDbLine
 10
0.9375000000000568
 20
2.827999999999907
 30
0.0
 11
0.9133004140653895
 21
2.827999999999907
 31
0.0
  0
LINE
  5
20F9
330
768
100
AcDbEntity
  8
0
100
AcDbLine
 10
0.9375000000000568
 20
2.046999999999901
 30
0.0
 11
0.9133004140653895
 21
2.046999999999901
 31
0.0
  0
LINE
  5
20FA
330
768
100
AcDbEntity
  8
0
100
AcDbLine
 10
0.9375000000000568
 20
2.202999999999907
 30
0.0
 11
0.9133004140653895
 21
2.202999999999907
 31
0.0
  0
LINE
  5
210C
330
768
100
AcDbEntity
  8
0
100
AcDbLine
 10
0.9375000000000568
 20
1.421999999999901
 30
0.0
 11
0.9133004140653895
 21
1.421999999999901
 31
0.0
  0
LINE
  5
210D
330
768
100
AcDbEntity
  8
0
100
AcDbLine
 10
0.9375000000000568
 20
1.577999999999907
 30
0.0
 11
0.9133004140653895
 21
1.577999999999907
 31
0.0
  0
LINE
  5
211F
330
768
100
AcDbEntity
  8
0
100
AcDbLine
 10
0.9375000000000568
 20
0.7969999999999011
 30
0.0
 11
0.9133004140653895
 21
0.7969999999999011
 31
0.0
  0
LINE
  5
2120
330
768
100
AcDbEntity
  8
0
100
AcDbLine
 10
0.9375000000000568
 20
0.952999999999907
 30
0.0
 11
0.9133004140653895
 21
0.952999999999907
 31
0.0
  0
LINE
  5
2121
330
768
100
AcDbEntity
  8
0
100
AcDbLine
 10
0.5880547150236026
 20
1.452046220291596
 30
0.0
 11
0.9375000000000711
 21
0.3278623083160248
 31
0.0
  0
LINE
  5
21B4
330
768
100
AcDbEntity
  8
0
100
AcDbLine
 10
0.5875000000000199
 20
-0.1000000000000156
 30
0.0
 11
0.4124999999999801
 21
-0.1000000000000156
 31
0.0
  0
ARC
  5
21B5
330
768
100
AcDbEntity
  8
0
100
AcDbCircle
 10
0.5875000000000199
 20
-0.0000000000000142
 30
0.0
 40
0.1
100
AcDbArc
 50
269.9999999999972
 51
0.0
  0
ARC
  5
21B6
330
768
100
AcDbEntity
  8
0
100
AcDbCircle
 10
0.4124999999999801
 20
-0.0000000000000142
 30
0.0
 40
0.1
100
AcDbArc
 50
179.9999999999998
 51
269.999999999998
  0
LINE
  5
21B7
330
768
100
AcDbEntity
  8
0
100
AcDbLine
 10
1.33750000000002
 20
-0.1000000000000156
 30
0.0
 11
1.16249999999998
 21
-0.1000000000000156
 31
0.0
  0
ARC
  5
21B8
330
768
100
AcDbEntity
  8
0
100
AcDbCircle
 10
1.33750000000002
 20
-0.0000000000000142
 30
0.0
 40
0.1
100
AcDbArc
 50
269.9999999999972
 51
0.0
  0
ARC
  5
21B9
330
768
100
AcDbEntity
  8
0
100
AcDbCircle
 10
1.16249999999998
 20
-0.0000000000000142
 30
0.0
 40
0.1
100
AcDbArc
 50
179.9999999999998
 51
269.999999999998
  0
LINE
  5
21BA
330
768
100
AcDbEntity
  8
0
100
AcDbLine
 10
2.08750000000002
 20
-0.1000000000000156
 30
0.0
 11
1.91249999999998
 21
-0.1000000000000156
 31
0.0
  0
ARC
  5
21BB
330
768
100
AcDbEntity
  8
0
100
AcDbCircle
 10
2.08750000000002
 20
-0.0000000000000142
 30
0.0
 40
0.1
100
AcDbArc
 50
269.9999999999972
 51
0.0
  0
ARC
  5
21BC
330
768
100
AcDbEntity
  8
0
100
AcDbCircle
 10
1.91249999999998
 20
-0.0000000000000142
 30
0.0
 40
0.1
100
AcDbArc
 50
179.9999999999998
 51
269.999999999998
  0
LINE
  5
21BD
330
768
100
AcDbEntity
  8
0
100
AcDbLine
 10
2.83750000000002
 20
-0.1000000000000156
 30
0.0
 11
2.66249999999998
 21
-0.1000000000000156
 31
0.0
  0
ARC
  5
21BE
330
768
100
AcDbEntity
  8
0
100
AcDbCircle
 10
2.83750000000002
 20
-0.0000000000000142
 30
0.0
 40
0.1
100
AcDbArc
 50
269.9999999999972
 51
0.0
  0
ARC
  5
21BF
330
768
100
AcDbEntity
  8
0
100
AcDbCircle
 10
2.66249999999998
 20
-0.0000000000000142
 30
0.0
 40
0.1
100
AcDbArc
 50
179.9999999999998
 51
269.999999999998
  0
LINE
  5
22D9
330
768
100
AcDbEntity
  8
0
100
AcDbLine
 10
0.6934034542544367
 20
4.906249999999904
 30
0.0
 11
0.5880547150236026
 21
4.625025000006719
 31
0.0
  0
LINE
  5
22DA
330
768
100
AcDbEntity
  8
0
100
AcDbLine
 10
0.7924232968008056
 20
4.906275000006705
 30
0.0
 11
0.6807731004802662
 21
4.608228467236334
 31
0.0
  0
LINE
  5
22DB
330
768
100
AcDbEntity
  8
0
100
AcDbLine
 10
0.5880547150236026
 20
1.452046220291596
 30
0.0
 11
0.5880547150236026
 21
4.625025000006719
 31
0.0
  0
LINE
  5
22DC
330
768
100
AcDbEntity
  8
0
100
AcDbLine
 10
0.6807731004802378
 20
1.153791284194174
 30
0.0
 11
0.6807731004802662
 21
4.608228467236334
 31
0.0
  0
LINE
  5
259B
330
768
100
AcDbEntity
  8
0
  6
HIDDEN2
100
AcDbLine
 10
1.094333180276124
 20
0.0937500000000711
 30
0.0
 11
3.376249999999779
 21
0.0937499999999893
 31
0.0
  0
LINE
  5
25E0
330
768
100
AcDbEntity
  8
0
100
AcDbLine
 10
0.5880547150236026
 20
4.625025000006719
 30
0.0
 11
0.6807731004802662
 21
4.608228467236334
 31
0.0
  0
LINE
  5
25E2
330
768
100
AcDbEntity
  8
0
100
AcDbLine
 10
0.9420445199454264
 20
4.197069112556049
 30
0.0
 11
0.9420445199454264
 21
4.431569112556042
 31
0.0
  0
LINE
  5
25E3
330
768
100
AcDbEntity
  8
0
100
AcDbLine
 10
0.9375000000000711
 20
2.945249999999918
 30
0.0
 11
0.9375000000000711
 21
3.179749999999912
 31
0.0
  0
LINE
  5
25E4
330
768
100
AcDbEntity
  8
0
100
AcDbLine
 10
0.9375000000000711
 20
2.320249999999911
 30
0.0
 11
0.9375000000000711
 21
2.554749999999904
 31
0.0
  0
LINE
  5
25E5
330
768
100
AcDbEntity
  8
0
100
AcDbLine
 10
0.9375000000000711
 20
1.695249999999918
 30
0.0
 11
0.9375000000000711
 21
1.929749999999912
 31
0.0
  0
LINE
  5
25E6
330
768
100
AcDbEntity
  8
0
100
AcDbLine
 10
0.9375000000000711
 20
1.070249999999911
 30
0.0
 11
0.9375000000000711
 21
1.304749999999904
 31
0.0
  0
LINE
  5
25E7
330
768
100
AcDbEntity
  8
0
100
AcDbLine
 10
0.9375000000000853
 20
0.445249999999918
 30
0.0
 11
0.9375000000000853
 21
0.6797499999999115
 31
0.0
  0
ARC
  5
2D8E
330
768
100
AcDbEntity
  8
0
100
AcDbCircle
 10
0.9274029331431724
 20
0.8388171459443963
 30
0.0
 40
0.0441311085206932
100
AcDbArc
 50
238.6465306415555
 51
251.3637069663465
  0
ARC
  5
2D8F
330
768
100
AcDbEntity
  8
0
100
AcDbCircle
 10
0.9110483064727308
 20
0.8119749722498987
 30
0.0
 40
0.0126990213775349
100
AcDbArc
 50
214.8167058814792
 51
238.6465306411285
  0
ARC
  5
2D90
330
768
100
AcDbEntity
  8
0
100
AcDbCircle
 10
0.9615444346688467
 20
0.8470925354079439
 30
0.0
 40
0.0742059494828945
100
AcDbArc
 50
205.1614067053421
 51
214.8167058814439
  0
ARC
  5
2D91
330
768
100
AcDbEntity
  8
0
100
AcDbCircle
 10
0.9514617952581208
 20
0.8423562981177417
 30
0.0
 40
0.06306631029862
100
AcDbArc
 50
194.6858417192841
 51
205.1614067053948
  0
ARC
  5
2D92
330
768
100
AcDbEntity
  8
0
100
AcDbCircle
 10
1.114623692020567
 20
0.8851179295772224
 30
0.0
 40
0.2317386603747234
100
AcDbArc
 50
190.2262282469742
 51
194.6858417193392
  0
ARC
  5
2D93
330
768
100
AcDbEntity
  8
0
100
AcDbCircle
 10
1.019722509821047
 20
0.867997658803537
 30
0.0
 40
0.1353055848548027
100
AcDbArc
 50
184.3888637228627
 51
190.2262282469087
  0
ARC
  5
2D94
330
768
100
AcDbEntity
  8
0
100
AcDbCircle
 10
1.110957876324425
 20
0.8750000000002152
 30
0.0
 40
0.2268092726670457
100
AcDbArc
 50
180.0000000002653
 51
184.3888637229108
  0
ARC
  5
2D95
330
768
100
AcDbEntity
  8
0
100
AcDbCircle
 10
1.110957876321271
 20
0.8750000000000093
 30
0.0
 40
0.2268092726638908
100
AcDbArc
 50
175.6111362775278
 51
180.0000000002133
  0
ARC
  5
2D96
330
768
100
AcDbEntity
  8
0
100
AcDbCircle
 10
1.019722509823135
 20
0.8820023411954745
 30
0.0
 40
0.1353055848569674
100
AcDbArc
 50
169.7737717535987
 51
175.6111362775301
  0
ARC
  5
2D97
330
768
100
AcDbEntity
  8
0
100
AcDbCircle
 10
1.114623692020695
 20
0.8648820704236995
 30
0.0
 40
0.2317386603746207
100
AcDbArc
 50
165.3141582812566
 51
169.7737717537008
  0
ARC
  5
2D98
330
768
100
AcDbEntity
  8
0
100
AcDbCircle
 10
0.9514617952594602
 20
0.9076437018809962
 30
0.0
 40
0.0630663103002428
100
AcDbArc
 50
154.8385932954217
 51
165.314158281265
  0
ARC
  5
2D99
330
768
100
AcDbEntity
  8
0
100
AcDbCircle
 10
0.9615444346746482
 20
0.9029074645891351
 30
0.0
 40
0.0742059494892615
100
AcDbArc
 50
145.1832941200632
 51
154.8385932956574
  0
ARC
  5
2D9A
330
768
100
AcDbEntity
  8
0
100
AcDbCircle
 10
0.9110483064728321
 20
0.9380250277491813
 30
0.0
 40
0.0126990213780797
100
AcDbArc
 50
121.3534693612123
 51
145.1832941200548
  0
ARC
  5
2D9B
330
768
100
AcDbEntity
  8
0
100
AcDbCircle
 10
0.9274029331454834
 20
0.9111828540538784
 30
0.0
 40
0.0441311085230754
100
AcDbArc
 50
108.6362930365946
 51
121.3534693610242
  0
ARC
  5
2D9C
330
768
100
AcDbEntity
  8
0
100
AcDbCircle
 10
0.9274029331431724
 20
1.463817145944396
 30
0.0
 40
0.0441311085206932
100
AcDbArc
 50
238.6465306415555
 51
251.3637069663465
  0
ARC
  5
2D9D
330
768
100
AcDbEntity
  8
0
100
AcDbCircle
 10
0.9110483064727308
 20
1.436974972249899
 30
0.0
 40
0.0126990213775348
100
AcDbArc
 50
214.8167058814787
 51
238.6465306411283
  0
ARC
  5
2D9E
330
768
100
AcDbEntity
  8
0
100
AcDbCircle
 10
0.9615444346688467
 20
1.472092535407944
 30
0.0
 40
0.0742059494828945
100
AcDbArc
 50
205.1614067053421
 51
214.8167058814439
  0
ARC
  5
2D9F
330
768
100
AcDbEntity
  8
0
100
AcDbCircle
 10
0.9514617952581208
 20
1.467356298117742
 30
0.0
 40
0.06306631029862
100
AcDbArc
 50
194.6858417192841
 51
205.1614067053948
  0
ARC
  5
2DA0
330
768
100
AcDbEntity
  8
0
100
AcDbCircle
 10
1.114623692020567
 20
1.510117929577223
 30
0.0
 40
0.2317386603747234
100
AcDbArc
 50
190.2262282469743
 51
194.6858417193392
  0
ARC
  5
2DA1
330
768
100
AcDbEntity
  8
0
100
AcDbCircle
 10
1.019722509821047
 20
1.492997658803537
 30
0.0
 40
0.1353055848548027
100
AcDbArc
 50
184.3888637228627
 51
190.2262282469087
  0
ARC
  5
2DA2
330
768
100
AcDbEntity
  8
0
100
AcDbCircle
 10
1.110957876324425
 20
1.500000000000215
 30
0.0
 40
0.2268092726670457
100
AcDbArc
 50
180.0000000002653
 51
184.3888637229108
  0
ARC
  5
2DA3
330
768
100
AcDbEntity
  8
0
100
AcDbCircle
 10
1.110957876321271
 20
1.500000000000009
 30
0.0
 40
0.2268092726638908
100
AcDbArc
 50
175.6111362775278
 51
180.0000000002133
  0
ARC
  5
2DA4
330
768
100
AcDbEntity
  8
0
100
AcDbCircle
 10
1.019722509823135
 20
1.507002341195475
 30
0.0
 40
0.1353055848569674
100
AcDbArc
 50
169.7737717535987
 51
175.6111362775301
  0
ARC
  5
2DA5
330
768
100
AcDbEntity
  8
0
100
AcDbCircle
 10
1.114623692020695
 20
1.4898820704237
 30
0.0
 40
0.2317386603746207
100
AcDbArc
 50
165.3141582812566
 51
169.7737717537008
  0
ARC
  5
2DA6
330
768
100
AcDbEntity
  8
0
100
AcDbCircle
 10
0.9514617952594602
 20
1.532643701880996
 30
0.0
 40
0.0630663103002428
100
AcDbArc
 50
154.8385932954217
 51
165.314158281265
  0
ARC
  5
2DA7
330
768
100
AcDbEntity
  8
0
100
AcDbCircle
 10
0.9615444346746482
 20
1.527907464589135
 30
0.0
 40
0.0742059494892615
100
AcDbArc
 50
145.1832941200632
 51
154.8385932956574
  0
ARC
  5
2DA8
330
768
100
AcDbEntity
  8
0
100
AcDbCircle
 10
0.9110483064728321
 20
1.563025027749181
 30
0.0
 40
0.0126990213780797
100
AcDbArc
 50
121.3534693612123
 51
145.1832941200548
  0
ARC
  5
2DA9
330
768
100
AcDbEntity
  8
0
100
AcDbCircle
 10
0.9274029331454834
 20
1.536182854053878
 30
0.0
 40
0.0441311085230754
100
AcDbArc
 50
108.6362930365946
 51
121.3534693610242
  0
ARC
  5
2DAA
330
768
100
AcDbEntity
  8
0
100
AcDbCircle
 10
0.9274029331431724
 20
2.088817145944396
 30
0.0
 40
0.0441311085206932
100
AcDbArc
 50
238.6465306415555
 51
251.3637069663465
  0
ARC
  5
2DAB
330
768
100
AcDbEntity
  8
0
100
AcDbCircle
 10
0.9110483064727308
 20
2.061974972249899
 30
0.0
 40
0.0126990213775348
100
AcDbArc
 50
214.8167058814787
 51
238.6465306411283
  0
ARC
  5
2DAC
330
768
100
AcDbEntity
  8
0
100
AcDbCircle
 10
0.9615444346688467
 20
2.097092535407944
 30
0.0
 40
0.0742059494828944
100
AcDbArc
 50
205.1614067053419
 51
214.8167058814437
  0
ARC
  5
2DAD
330
768
100
AcDbEntity
  8
0
100
AcDbCircle
 10
0.9514617952581208
 20
2.092356298117742
 30
0.0
 40
0.06306631029862
100
AcDbArc
 50
194.6858417192841
 51
205.1614067053948
  0
ARC
  5
2DAE
330
768
100
AcDbEntity
  8
0
100
AcDbCircle
 10
1.114623692020567
 20
2.135117929577223
 30
0.0
 40
0.2317386603747234
100
AcDbArc
 50
190.2262282469743
 51
194.6858417193392
  0
ARC
  5
2DAF
330
768
100
AcDbEntity
  8
0
100
AcDbCircle
 10
1.019722509821047
 20
2.117997658803537
 30
0.0
 40
0.1353055848548027
100
AcDbArc
 50
184.3888637228627
 51
190.2262282469087
  0
ARC
  5
2DB0
330
768
100
AcDbEntity
  8
0
100
AcDbCircle
 10
1.110957876324425
 20
2.125000000000215
 30
0.0
 40
0.2268092726670456
100
AcDbArc
 50
180.0000000002652
 51
184.3888637229107
  0
ARC
  5
2DB1
330
768
100
AcDbEntity
  8
0
100
AcDbCircle
 10
1.110957876321271
 20
2.125000000000009
 30
0.0
 40
0.2268092726638908
100
AcDbArc
 50
175.6111362775278
 51
180.0000000002133
  0
ARC
  5
2DB2
330
768
100
AcDbEntity
  8
0
100
AcDbCircle
 10
1.019722509823135
 20
2.132002341195475
 30
0.0
 40
0.1353055848569674
100
AcDbArc
 50
169.7737717535987
 51
175.6111362775301
  0
ARC
  5
2DB3
330
768
100
AcDbEntity
  8
0
100
AcDbCircle
 10
1.114623692020695
 20
2.1148820704237
 30
0.0
 40
0.2317386603746207
100
AcDbArc
 50
165.3141582812566
 51
169.7737717537008
  0
ARC
  5
2DB4
330
768
100
AcDbEntity
  8
0
100
AcDbCircle
 10
0.9514617952594602
 20
2.157643701880996
 30
0.0
 40
0.0630663103002428
100
AcDbArc
 50
154.8385932954217
 51
165.314158281265
  0
ARC
  5
2DB5
330
768
100
AcDbEntity
  8
0
100
AcDbCircle
 10
0.9615444346746482
 20
2.152907464589135
 30
0.0
 40
0.0742059494892615
100
AcDbArc
 50
145.1832941200632
 51
154.8385932956574
  0
ARC
  5
2DB6
330
768
100
AcDbEntity
  8
0
100
AcDbCircle
 10
0.9110483064728321
 20
2.188025027749181
 30
0.0
 40
0.0126990213780797
100
AcDbArc
 50
121.3534693612123
 51
145.1832941200548
  0
ARC
  5
2DB7
330
768
100
AcDbEntity
  8
0
100
AcDbCircle
 10
0.9274029331454834
 20
2.161182854053878
 30
0.0
 40
0.0441311085230754
100
AcDbArc
 50
108.6362930365946
 51
121.3534693610242
  0
ARC
  5
2DB8
330
768
100
AcDbEntity
  8
0
100
AcDbCircle
 10
0.9274029331431724
 20
2.713817145944396
 30
0.0
 40
0.0441311085206932
100
AcDbArc
 50
238.6465306415555
 51
251.3637069663465
  0
ARC
  5
2DB9
330
768
100
AcDbEntity
  8
0
100
AcDbCircle
 10
0.9110483064727308
 20
2.686974972249899
 30
0.0
 40
0.0126990213775348
100
AcDbArc
 50
214.8167058814787
 51
238.6465306411283
  0
ARC
  5
2DBA
330
768
100
AcDbEntity
  8
0
100
AcDbCircle
 10
0.9615444346688467
 20
2.722092535407944
 30
0.0
 40
0.0742059494828944
100
AcDbArc
 50
205.1614067053419
 51
214.8167058814437
  0
ARC
  5
2DBB
330
768
100
AcDbEntity
  8
0
100
AcDbCircle
 10
0.9514617952581208
 20
2.717356298117742
 30
0.0
 40
0.06306631029862
100
AcDbArc
 50
194.6858417192841
 51
205.1614067053948
  0
ARC
  5
2DBC
330
768
100
AcDbEntity
  8
0
100
AcDbCircle
 10
1.114623692020567
 20
2.760117929577223
 30
0.0
 40
0.2317386603747234
100
AcDbArc
 50
190.2262282469743
 51
194.6858417193392
  0
ARC
  5
2DBD
330
768
100
AcDbEntity
  8
0
100
AcDbCircle
 10
1.019722509821047
 20
2.742997658803537
 30
0.0
 40
0.1353055848548027
100
AcDbArc
 50
184.3888637228627
 51
190.2262282469087
  0
ARC
  5
2DBE
330
768
100
AcDbEntity
  8
0
100
AcDbCircle
 10
1.110957876324425
 20
2.750000000000215
 30
0.0
 40
0.2268092726670456
100
AcDbArc
 50
180.0000000002652
 51
184.3888637229107
  0
ARC
  5
2DBF
330
768
100
AcDbEntity
  8
0
100
AcDbCircle
 10
1.110957876321271
 20
2.750000000000009
 30
0.0
 40
0.2268092726638908
100
AcDbArc
 50
175.6111362775278
 51
180.0000000002133
  0
ARC
  5
2DC0
330
768
100
AcDbEntity
  8
0
100
AcDbCircle
 10
1.019722509823135
 20
2.757002341195475
 30
0.0
 40
0.1353055848569674
100
AcDbArc
 50
169.7737717535987
 51
175.6111362775301
  0
ARC
  5
2DC1
330
768
100
AcDbEntity
  8
0
100
AcDbCircle
 10
1.114623692020695
 20
2.7398820704237
 30
0.0
 40
0.2317386603746207
100
AcDbArc
 50
165.3141582812566
 51
169.7737717537008
  0
ARC
  5
2DC2
330
768
100
AcDbEntity
  8
0
100
AcDbCircle
 10
0.9514617952594602
 20
2.782643701880996
 30
0.0
 40
0.0630663103002428
100
AcDbArc
 50
154.8385932954217
 51
165.314158281265
  0
ARC
  5
2DC3
330
768
100
AcDbEntity
  8
0
100
AcDbCircle
 10
0.9615444346746482
 20
2.777907464589135
 30
0.0
 40
0.0742059494892615
100
AcDbArc
 50
145.1832941200632
 51
154.8385932956574
  0
ARC
  5
2DC4
330
768
100
AcDbEntity
  8
0
100
AcDbCircle
 10
0.9110483064728321
 20
2.813025027749181
 30
0.0
 40
0.0126990213780797
100
AcDbArc
 50
121.3534693612123
 51
145.1832941200548
  0
ARC
  5
2DC5
330
768
100
AcDbEntity
  8
0
100
AcDbCircle
 10
0.9274029331454834
 20
2.786182854053878
 30
0.0
 40
0.0441311085230754
100
AcDbArc
 50
108.6362930365946
 51
121.3534693610242
  0
ARC
  5
2DC6
330
768
100
AcDbEntity
  8
0
100
AcDbCircle
 10
0.9274029331431724
 20
3.338817145944396
 30
0.0
 40
0.0441311085206932
100
AcDbArc
 50
238.6465306415555
 51
251.3637069663465
  0
ARC
  5
2DC7
330
768
100
AcDbEntity
  8
0
100
AcDbCircle
 10
0.9110483064727308
 20
3.311974972249899
 30
0.0
 40
0.0126990213775348
100
AcDbArc
 50
214.8167058814787
 51
238.6465306411283
  0
ARC
  5
2DC8
330
768
100
AcDbEntity
  8
0
100
AcDbCircle
 10
0.9615444346688467
 20
3.347092535407944
 30
0.0
 40
0.0742059494828944
100
AcDbArc
 50
205.1614067053419
 51
214.8167058814437
  0
ARC
  5
2DC9
330
768
100
AcDbEntity
  8
0
100
AcDbCircle
 10
0.9514617952581208
 20
3.342356298117742
 30
0.0
 40
0.06306631029862
100
AcDbArc
 50
194.6858417192841
 51
205.1614067053948
  0
ARC
  5
2DCA
330
768
100
AcDbEntity
  8
0
100
AcDbCircle
 10
1.114623692020567
 20
3.385117929577223
 30
0.0
 40
0.2317386603747234
100
AcDbArc
 50
190.2262282469743
 51
194.6858417193392
  0
ARC
  5
2DCB
330
768
100
AcDbEntity
  8
0
100
AcDbCircle
 10
1.019722509821047
 20
3.367997658803537
 30
0.0
 40
0.1353055848548027
100
AcDbArc
 50
184.3888637228627
 51
190.2262282469087
  0
ARC
  5
2DCC
330
768
100
AcDbEntity
  8
0
100
AcDbCircle
 10
1.110957876324425
 20
3.375000000000215
 30
0.0
 40
0.2268092726670456
100
AcDbArc
 50
180.0000000002652
 51
184.3888637229107
  0
ARC
  5
2DCD
330
768
100
AcDbEntity
  8
0
100
AcDbCircle
 10
1.110957876321271
 20
3.375000000000009
 30
0.0
 40
0.2268092726638908
100
AcDbArc
 50
175.6111362775278
 51
180.0000000002133
  0
ARC
  5
2DCE
330
768
100
AcDbEntity
  8
0
100
AcDbCircle
 10
1.019722509823135
 20
3.382002341195475
 30
0.0
 40
0.1353055848569674
100
AcDbArc
 50
169.7737717535987
 51
175.6111362775301
  0
ARC
  5
2DCF
330
768
100
AcDbEntity
  8
0
100
AcDbCircle
 10
1.114623692020695
 20
3.3648820704237
 30
0.0
 40
0.2317386603746207
100
AcDbArc
 50
165.3141582812566
 51
169.7737717537008
  0
ARC
  5
2DD0
330
768
100
AcDbEntity
  8
0
100
AcDbCircle
 10
0.9514617952594602
 20
3.407643701880996
 30
0.0
 40
0.0630663103002428
100
AcDbArc
 50
154.8385932954217
 51
165.314158281265
  0
ARC
  5
2DD1
330
768
100
AcDbEntity
  8
0
100
AcDbCircle
 10
0.9615444346746482
 20
3.402907464589135
 30
0.0
 40
0.0742059494892615
100
AcDbArc
 50
145.1832941200632
 51
154.8385932956574
  0
ARC
  5
2DD2
330
768
100
AcDbEntity
  8
0
100
AcDbCircle
 10
0.9110483064728321
 20
3.438025027749181
 30
0.0
 40
0.0126990213780797
100
AcDbArc
 50
121.3534693612123
 51
145.1832941200548
  0
ARC
  5
2DD3
330
768
100
AcDbEntity
  8
0
100
AcDbCircle
 10
0.9274029331454834
 20
3.411182854053878
 30
0.0
 40
0.0441311085230754
100
AcDbArc
 50
108.6362930365946
 51
121.3534693610242
  0
ARC
  5
2DD4
330
768
100
AcDbEntity
  8
0
100
AcDbCircle
 10
0.9274029331431724
 20
3.963817145944397
 30
0.0
 40
0.0441311085206936
100
AcDbArc
 50
238.6465306415558
 51
251.3637069663467
  0
ARC
  5
2DD5
330
768
100
AcDbEntity
  8
0
100
AcDbCircle
 10
0.9110483064727308
 20
3.936974972249899
 30
0.0
 40
0.0126990213775348
100
AcDbArc
 50
214.8167058814787
 51
238.6465306411283
  0
ARC
  5
2DD6
330
768
100
AcDbEntity
  8
0
100
AcDbCircle
 10
0.9615444346688467
 20
3.972092535407944
 30
0.0
 40
0.0742059494828944
100
AcDbArc
 50
205.1614067053419
 51
214.8167058814437
  0
ARC
  5
2DD7
330
768
100
AcDbEntity
  8
0
100
AcDbCircle
 10
0.9514617952581208
 20
3.967356298117742
 30
0.0
 40
0.06306631029862
100
AcDbArc
 50
194.6858417192841
 51
205.1614067053948
  0
ARC
  5
2DD8
330
768
100
AcDbEntity
  8
0
100
AcDbCircle
 10
1.114623692020567
 20
4.010117929577223
 30
0.0
 40
0.2317386603747234
100
AcDbArc
 50
190.2262282469743
 51
194.6858417193392
  0
ARC
  5
2DD9
330
768
100
AcDbEntity
  8
0
100
AcDbCircle
 10
1.019722509821047
 20
3.992997658803537
 30
0.0
 40
0.1353055848548027
100
AcDbArc
 50
184.3888637228627
 51
190.2262282469087
  0
ARC
  5
2DDA
330
768
100
AcDbEntity
  8
0
100
AcDbCircle
 10
1.110957876324425
 20
4.000000000000215
 30
0.0
 40
0.2268092726670456
100
AcDbArc
 50
180.0000000002652
 51
184.3888637229107
  0
ARC
  5
2DDB
330
768
100
AcDbEntity
  8
0
100
AcDbCircle
 10
1.110957876321271
 20
4.000000000000009
 30
0.0
 40
0.2268092726638908
100
AcDbArc
 50
175.6111362775277
 51
180.0000000002131
  0
ARC
  5
2DDC
330
768
100
AcDbEntity
  8
0
100
AcDbCircle
 10
1.019722509823135
 20
4.007002341195475
 30
0.0
 40
0.1353055848569674
100
AcDbArc
 50
169.7737717535987
 51
175.6111362775301
  0
ARC
  5
2DDD
330
768
100
AcDbEntity
  8
0
100
AcDbCircle
 10
1.114623692020695
 20
3.9898820704237
 30
0.0
 40
0.2317386603746207
100
AcDbArc
 50
165.3141582812566
 51
169.7737717537008
  0
ARC
  5
2DDE
330
768
100
AcDbEntity
  8
0
100
AcDbCircle
 10
0.9514617952594602
 20
4.032643701880996
 30
0.0
 40
0.0630663103002428
100
AcDbArc
 50
154.8385932954217
 51
165.314158281265
  0
ARC
  5
2DDF
330
768
100
AcDbEntity
  8
0
100
AcDbCircle
 10
0.9615444346746482
 20
4.027907464589135
 30
0.0
 40
0.0742059494892615
100
AcDbArc
 50
145.1832941200632
 51
154.8385932956574
  0
ARC
  5
2DE0
330
768
100
AcDbEntity
  8
0
100
AcDbCircle
 10
0.9110483064728321
 20
4.063025027749181
 30
0.0
 40
0.0126990213780797
100
AcDbArc
 50
121.3534693612123
 51
145.1832941200548
  0
ARC
  5
2DE1
330
768
100
AcDbEntity
  8
0
100
AcDbCircle
 10
0.9274029331454834
 20
4.036182854053878
 30
0.0
 40
0.0441311085230754
100
AcDbArc
 50
108.6362930365946
 51
121.3534693610242
  0
ARC
  5
2DE2
330
768
100
AcDbEntity
  8
0
100
AcDbCircle
 10
0.9274029331431724
 20
4.588817145944397
 30
0.0
 40
0.0441311085206936
100
AcDbArc
 50
238.6465306415558
 51
251.3637069663467
  0
ARC
  5
2DE3
330
768
100
AcDbEntity
  8
0
100
AcDbCircle
 10
0.9110483064727308
 20
4.561974972249899
 30
0.0
 40
0.0126990213775348
100
AcDbArc
 50
214.8167058814787
 51
238.6465306411283
  0
ARC
  5
2DE4
330
768
100
AcDbEntity
  8
0
100
AcDbCircle
 10
0.9615444346688467
 20
4.597092535407944
 30
0.0
 40
0.0742059494828944
100
AcDbArc
 50
205.1614067053419
 51
214.8167058814437
  0
ARC
  5
2DE5
330
768
100
AcDbEntity
  8
0
100
AcDbCircle
 10
0.9514617952581208
 20
4.592356298117742
 30
0.0
 40
0.06306631029862
100
AcDbArc
 50
194.6858417192841
 51
205.1614067053948
  0
ARC
  5
2DE6
330
768
100
AcDbEntity
  8
0
100
AcDbCircle
 10
1.114623692020567
 20
4.635117929577223
 30
0.0
 40
0.2317386603747234
100
AcDbArc
 50
190.2262282469743
 51
194.6858417193392
  0
ARC
  5
2DE7
330
768
100
AcDbEntity
  8
0
100
AcDbCircle
 10
1.019722509821047
 20
4.617997658803537
 30
0.0
 40
0.1353055848548027
100
AcDbArc
 50
184.3888637228627
 51
190.2262282469087
  0
ARC
  5
2DE8
330
768
100
AcDbEntity
  8
0
100
AcDbCircle
 10
1.110957876324425
 20
4.625000000000215
 30
0.0
 40
0.2268092726670456
100
AcDbArc
 50
180.0000000002652
 51
184.3888637229107
  0
ARC
  5
2DE9
330
768
100
AcDbEntity
  8
0
100
AcDbCircle
 10
1.110957876321271
 20
4.625000000000009
 30
0.0
 40
0.2268092726638908
100
AcDbArc
 50
175.6111362775277
 51
180.0000000002131
  0
ARC
  5
2DEA
330
768
100
AcDbEntity
  8
0
100
AcDbCircle
 10
1.019722509823135
 20
4.632002341195475
 30
0.0
 40
0.1353055848569674
100
AcDbArc
 50
169.7737717535987
 51
175.6111362775301
  0
ARC
  5
2DEB
330
768
100
AcDbEntity
  8
0
100
AcDbCircle
 10
1.114623692020695
 20
4.6148820704237
 30
0.0
 40
0.2317386603746207
100
AcDbArc
 50
165.3141582812566
 51
169.7737717537008
  0
ARC
  5
2DEC
330
768
100
AcDbEntity
  8
0
100
AcDbCircle
 10
0.9514617952594602
 20
4.657643701880996
 30
0.0
 40
0.0630663103002428
100
AcDbArc
 50
154.8385932954217
 51
165.314158281265
  0
ARC
  5
2DED
330
768
100
AcDbEntity
  8
0
100
AcDbCircle
 10
0.9615444346746482
 20
4.652907464589135
 30
0.0
 40
0.0742059494892615
100
AcDbArc
 50
145.1832941200632
 51
154.8385932956574
  0
ARC
  5
2DEE
330
768
100
AcDbEntity
  8
0
100
AcDbCircle
 10
0.9110483064728321
 20
4.688025027749181
 30
0.0
 40
0.0126990213780797
100
AcDbArc
 50
121.3534693612123
 51
145.1832941200548
  0
ARC
  5
2DEF
330
768
100
AcDbEntity
  8
0
100
AcDbCircle
 10
0.9274029331454834
 20
4.661182854053878
 30
0.0
 40
0.0441311085230754
100
AcDbArc
 50
108.6362930365946
 51
121.3534693610242
  0
ENDSEC
  0
SECTION
  2
OBJECTS
  0
DICTIONARY
  5
75D
330
0
100
AcDbDictionary
281
     1
  3
ACAD_COLOR
350
9E7
  3
ACAD_GROUP
350
75E
  3
ACAD_LAYOUT
350
7C6
  3
ACAD_MATERIAL
350
9E6
  3
ACAD_MLINESTYLE
350
76B
  3
ACAD_PLOTSETTINGS
350
7C7
  3
ACAD_PLOTSTYLENAME
350
7C4
  3
ACAD_TABLESTYLE
350
9E8
  3
ACDBHEADERROUNDTRIPXREC
350
2E13
  3
ACDBVARIABLEDICTIONARY
350
7B3
  3
ASE_INDEX_DICTIONARY
350
2BFD
  0
DICTIONARY
  5
9F9
330
753
100
AcDbDictionary
280
     1
281
     1
  3
ACAD_LAYERFILTERS
360
2DF1
  3
ACAD_LAYERSTATES
360
9FA
  3
ACLYDICTIONARY
360
2DF0
  0
DICTIONARY
  5
7F5
330
768
100
AcDbDictionary
280
     1
281
     1
  3
ACAD_SORTENTS
360
1265
  0
DICTIONARY
  5
9E7
102
{ACAD_REACTORS
330
75D
102
}
330
75D
100
AcDbDictionary
281
     1
  0
DICTIONARY
  5
75E
102
{ACAD_REACTORS
330
75D
102
}
330
75D
100
AcDbDictionary
281
     1
  0
DICTIONARY
  5
7C6
102
{ACAD_REACTORS
330
75D
102
}
330
75D
100
AcDbDictionary
281
     1
  3
Layout1
350
7C9
  3
Model
350
7C8
  0
DICTIONARY
  5
9E6
102
{ACAD_REACTORS
330
75D
102
}
330
75D
100
AcDbDictionary
281
     1
  0
DICTIONARY
  5
76B
102
{ACAD_REACTORS
330
75D
102
}
330
75D
100
AcDbDictionary
281
     1
  3
STANDARD
350
76C
  0
DICTIONARY
  5
7C7
102
{ACAD_REACTORS
330
75D
102
}
330
75D
100
AcDbDictionary
281
     1
  0
ACDBDICTIONARYWDFLT
  5
7C4
102
{ACAD_REACTORS
330
75D
102
}
330
75D
100
AcDbDictionary
281
     1
  3
Normal
350
7C5
100
AcDbDictionaryWithDefault
340
7C5
  0
DICTIONARY
  5
9E8
102
{ACAD_REACTORS
330
75D
102
}
330
75D
100
AcDbDictionary
281
     1
  3
Standard
350
9E9
  0
DICTIONARY
  5
2E13
102
{ACAD_REACTORS
330
75D
102
}
330
75D
100
AcDbDictionary
281
     1
  3
COLORDICT
350
2E14
  3
MATERIALDICT
350
2E15
  0
DICTIONARY
  5
7B3
102
{ACAD_REACTORS
330
75D
102
}
330
75D
100
AcDbDictionary
281
     1
  3
CTABLESTYLE
350
A1C
  3
DIMADEC
350
7B4
  0
DICTIONARY
  5
2BFD
102
{ACAD_REACTORS
330
75D
102
}
330
75D
100
AcDbDictionary
281
     1
  3
ASEBlockHierarchyIndexRecord
350
2BFF
1001
DCO15
1040
1616226316.912
  0
DICTIONARY
  5
2DF1
102
{ACAD_REACTORS
330
9F9
102
}
330
9F9
100
AcDbDictionary
281
     1
  0
DICTIONARY
  5
9FA
102
{ACAD_REACTORS
330
9F9
102
}
330
9F9
100
AcDbDictionary
281
     1
  0
DICTIONARY
  5
2DF0
102
{ACAD_REACTORS
330
9F9
102
}
330
9F9
100
AcDbDictionary
281
     1
1001
ACAD
1000
<All
  0
SORTENTSTABLE
  5
1265
102
{ACAD_REACTORS
330
7F5
102
}
330
7F5
100
AcDbSortentsTable
330
768
331
0
  5
2B36
331
2DEF
  5
2120
331
2DEE
  5
211F
331
2DE1
  5
22DB
331
2DE0
  5
22DA
331
2DDF
  5
22D9
331
2DDE
  5
21BF
331
2DE8
  5
20E6
331
2DE7
  5
20D4
331
2DEA
  5
20F9
331
2DE9
  5
20E7
331
2DDB
  5
21BC
331
2DE6
  5
20D3
331
2DC4
  5
26CC
331
2DC5
  5
26CD
331
2DC3
  5
26CB
331
2DC2
  5
26CA
331
2DC1
  5
26C9
331
2DC0
  5
26C8
331
2DBF
  5
26C7
331
2DBE
  5
26C6
331
2DBD
  5
26C5
331
2DBC
  5
26C4
331
2DBB
  5
26C3
331
2DB4
  5
26DA
331
2DB3
  5
26D9
331
2DB2
  5
26D8
331
2DB1
  5
26D7
331
2DB0
  5
26D6
331
2DAF
  5
26D5
331
2DAE
  5
26D4
331
2DAD
  5
26D3
331
2DAA
  5
26D0
331
2DA7
  5
2781
331
2DA6
  5
2780
331
2DA5
  5
277F
331
2DA4
  5
277E
331
2DA3
  5
273F
331
2DA2
  5
273E
331
2DA1
  5
26E9
331
2DA0
  5
26E8
331
2D9F
  5
26E7
331
2D9E
  5
26E6
331
2D9D
  5
26E2
331
2D9C
  5
26E1
331
2D99
  5
2791
331
2D98
  5
2790
331
2D97
  5
278F
331
2D96
  5
278E
331
2D95
  5
278D
331
2DE5
  5
20C1
331
2DDA
  5
21BB
331
2DE2
  5
20AD
331
2D94
  5
278C
331
2D93
  5
278B
331
2D91
  5
2789
331
2D8F
  5
2787
331
25E7
  5
27B2
331
25E6
  5
27B1
331
25E5
  5
27B0
331
25E0
  5
27AC
331
259B
  5
27A8
331
22DC
  5
27A7
331
22DB
  5
27A6
331
22DA
  5
27A5
331
22D9
  5
27A4
331
21BF
  5
27A3
331
21BE
  5
27A2
331
21BD
  5
27A1
331
21BC
  5
27A0
331
21BB
  5
279F
331
21BA
  5
279E
331
21B9
  5
279D
331
21B7
  5
279B
331
21B6
  5
279A
331
21B5
  5
2799
331
21B4
  5
2798
331
2121
  5
2797
331
2120
  5
2795
331
211F
  5
2794
331
210D
  5
2785
331
210C
  5
2784
331
20FA
  5
26E0
331
20F9
  5
26DF
331
20E7
  5
26CF
331
20E6
  5
26CE
331
20D4
  5
26B6
331
20D3
  5
26AE
331
20C1
  5
259B
331
20C0
  5
22DC
331
20AE
  5
21B4
331
20AD
  5
2121
331
2095
  5
2095
331
2094
  5
2094
331
2093
  5
2093
331
2092
  5
2092
331
2091
  5
2091
331
2090
  5
2090
331
208F
  5
208F
331
208E
  5
208E
331
208D
  5
208D
331
208C
  5
208C
331
208B
  5
208B
331
208A
  5
208A
331
2089
  5
2089
331
2088
  5
2088
331
2087
  5
2087
331
2086
  5
2086
331
2085
  5
2085
331
2084
  5
2084
331
2083
  5
2083
331
2082
  5
2082
331
2080
  5
2080
331
207F
  5
207F
331
207E
  5
207E
331
207D
  5
207D
331
207B
  5
207B
331
2072
  5
2072
331
2071
  5
2071
331
2070
  5
2070
331
18F5
  5
18F5
331
15BB
  5
140D
331
15BA
  5
15BB
331
15B9
  5
15BA
331
15B5
  5
15B9
331
15B3
  5
15B5
331
15B0
  5
15B3
331
15AF
  5
15B0
331
143F
  5
1441
331
140D
  5
1439
331
140C
  5
140C
331
140B
  5
140B
331
140A
  5
140A
331
1409
  5
1409
331
D9
  5
D9
331
2DB5
  5
26DB
331
2DB6
  5
26DC
331
2DB7
  5
26DE
331
2DB8
  5
26BE
331
2DB9
  5
26BF
331
2DBA
  5
26C1
331
2D9A
  5
2792
331
2D9B
  5
2793
331
2DA8
  5
2782
331
2DAB
  5
26D1
331
2DA9
  5
2783
331
2D8E
  5
2786
331
25E2
  5
27AD
331
2DAC
  5
26D2
331
2DC8
  5
25A2
331
2DE3
  5
20AE
331
2DE4
  5
20C0
331
2DED
  5
210D
331
2DEC
  5
210C
331
2DEB
  5
20FA
331
25E3
  5
27AE
331
25E4
  5
27AF
331
21B8
  5
279C
331
2D90
  5
2788
331
2D92
  5
278A
331
2DC7
  5
25A1
331
2DC9
  5
25E0
331
2DC6
  5
25A0
331
2DCA
  5
25E2
331
2DCB
  5
25E3
331
2DCC
  5
25E4
331
2DD3
  5
26AD
331
2DCD
  5
25E5
331
2DD5
  5
21B6
331
2DD0
  5
269C
331
2DCF
  5
25E7
331
2DCE
  5
25E6
331
2DD4
  5
21B5
331
2DD2
  5
26AB
331
2DD1
  5
269D
331
2DD6
  5
21B7
331
2DD7
  5
21B8
331
2DD8
  5
21B9
331
2DD9
  5
21BA
331
2DDC
  5
21BD
331
2DDD
  5
21BE
  0
LAYOUT
  5
7C9
102
{ACAD_REACTORS
330
7C6
102
}
102
{ACAD_XDICTIONARY
360
2E16
102
}
330
7C6
100
AcDbPlotSettings
  1

  2
HP LaserJet 2100 Series PS
  4

  6

 40
0.0
 41
0.0
 42
0.0
 43
0.0
 44
0.0
 45
0.0
 46
0.0
 47
0.0
 48
0.0
 49
0.0
140
0.0
141
0.0
142
1.0
143
1.0
 70
   688
 72
     0
 73
     0
 74
     5
  7
monochrome.ctb
 75
    16
147
1.0
148
0.0
149
0.0
100
AcDbLayout
  1
Layout1
 70
     0
 71
     1
 10
0.0
 20
0.0
 11
12.0
 21
9.0
 12
0.0
 22
0.0
 32
0.0
 14
1.000000000000000E+20
 24
1.000000000000000E+20
 34
1.000000000000000E+20
 15
-1.000000000000000E+20
 25
-1.000000000000000E+20
 35
-1.000000000000000E+20
146
0.0
 13
0.0
 23
0.0
 33
0.0
 16
1.0
 26
0.0
 36
0.0
 17
0.0
 27
1.0
 37
0.0
 76
     0
330
765
  0
LAYOUT
  5
7C8
102
{ACAD_REACTORS
330
7C6
102
}
102
{ACAD_XDICTIONARY
360
2E18
102
}
330
7C6
100
AcDbPlotSettings
  1

  2
HP LaserJet 2100 Series PS
  4
Letter
  6

 40
5.365749835968018
 41
5.408073902130127
 42
5.132904052734375
 43
5.090576171875
 44
215.8999938964844
 45
279.3999938964844
 46
0.0
 47
0.0
 48
0.0
 49
0.0
140
0.0
141
0.0
142
1.0
143
2.976082445509257
 70
 11952
 72
     0
 73
     1
 74
     1
  7
monochrome.ctb
 75
     0
147
0.3360121966745056
148
0.0870080269693517
149
0.0053532330227938
100
AcDbLayout
  1
Model
 70
     1
 71
     0
 10
0.0
 20
0.0
 11
12.0
 21
9.0
 12
0.0
 22
0.0
 32
0.0
 14
0.0
 24
0.0
 34
0.0
 15
0.0
 25
0.0
 35
0.0
146
0.0
 13
0.0
 23
0.0
 33
0.0
 16
1.0
 26
0.0
 36
0.0
 17
0.0
 27
1.0
 37
0.0
 76
     0
330
768
1001
ACAD_PSEXT
1000
HP LaserJet 2100 Series PS
1000
HP LaserJet 2100 Series PS
1000
LPT1:
1000

1070
     0
  0
MLINESTYLE
  5
76C
102
{ACAD_REACTORS
330
76B
102
}
330
76B
100
AcDbMlineStyle
  2
STANDARD
 70
     0
  3

 62
   256
 51
90.0
 52
90.0
 71
     2
 49
0.5
 62
   256
  6
BYLAYER
 49
-0.5
 62
   256
  6
BYLAYER
  0
ACDBPLACEHOLDER
  5
7C5
102
{ACAD_REACTORS
330
7C4
102
}
330
7C4
  0
ACAD_PROXY_OBJECT
  5
9E9
102
{ACAD_REACTORS
330
9E8
102
}
330
9E8
100
AcDbProxyObject
 90
      499
 91
      521
 95
   983063
 70
     0
 93
     1841
310
4214DD185B99185C9928B81E85EB51B8AE3F2E07A17AD46E2B8FC02B5E8DC0F42B1CFD028000000C1008070000C3001FDFF8000000C1003FBFF000000182007F7FE00000030400FEFFC00000060801FDFF8000000C1003FBFF00000018200000000000000681FA0B0000001820100E000186003FBFF000000182007F7FE000
310
00030400FEFFC00000060801FDFF8000000C1003FBFF000000182007F7FE000000304000AD7A3703D0AC73F4160000003040201C00030C007F7FE00000030400FEFFC00000060801FDFF8000000C1003FBFF000000182007F7FE00000030400FEFFC000000608000
340
760
340
760
340
760
 94
        0
  0
XRECORD
  5
2E14
102
{ACAD_REACTORS
330
2E13
102
}
330
2E13
100
AcDbXrecord
340
9E7
  0
XRECORD
  5
2E15
102
{ACAD_REACTORS
330
2E13
102
}
330
2E13
100
AcDbXrecord
340
9E6
  0
DICTIONARYVAR
  5
A1C
102
{ACAD_REACTORS
330
7B3
102
}
330
7B3
100
DictionaryVariables
280
     0
  1
STANDARD
  0
DICTIONARYVAR
  5
7B4
102
{ACAD_REACTORS
330
7B3
102
}
330
7B3
100
DictionaryVariables
280
     0
  1
0
  0
XRECORD
  5
2BFF
102
{ACAD_REACTORS
330
2BFD
102
}
330
2BFD
100
AcDbXrecord
280
     1
330
0
330
0
  0
DICTIONARY
  5
2E16
330
7C9
100
AcDbDictionary
280
     1
281
     1
  3
ACAD_XREC_ROUNDTRIP
360
2E17
  0
DICTIONARY
  5
2E18
330
7C8
100
AcDbDictionary
280
     1
281
     1
  3
ACAD_XREC_ROUNDTRIP
360
2E19
  0
XRECORD
  5
2E17
102
{ACAD_REACTORS
330
2E16
102
}
330
2E16
100
AcDbXrecord
102
SHADEPLOT
 70
     0
102
SHADEPLOTRESLEVEL
 70
     2
102
SHADEPLOTCUSTOMDPI
 70
   300
  0
XRECORD
  5
2E19
102
{ACAD_REACTORS
330
2E18
102
}
330
2E18
100
AcDbXrecord
102
SHADEPLOT
 70
     0
102
SHADEPLOTRESLEVEL
 70
     2
102
SHADEPLOTCUSTOMDPI
 70
   300
  0
ENDSEC
  0
EOF
