  0
SECTION
  2
HEADER
  9
$ACADVER
  1
AC1015
  9
$ACADMAINTVER
 70
     6
  9
$DWGCODEPAGE
  3
ANSI_1252
  9
$INSBASE
 10
0.0
 20
0.0
 30
0.0
  9
$EXTMIN
 10
-11.57757043332495
 20
-0.0207106781187043
 30
0.0
  9
$EXTMAX
 10
11.57757043332499
 20
14.76734463489596
 30
0.0
  9
$LIMMIN
 10
0.0
 20
0.0
  9
$LIMMAX
 10
31.5
 20
24.0
  9
$ORTHOMODE
 70
     1
  9
$REGENMODE
 70
     1
  9
$FILLMODE
 70
     1
  9
$QTEXTMODE
 70
     0
  9
$MIRRTEXT
 70
     0
  9
$LTSCALE
 40
1.0
  9
$ATTMODE
 70
     1
  9
$TEXTSIZE
 40
0.27
  9
$TRACEWID
 40
0.05
  9
$TEXTSTYLE
  7
STANDARD
  9
$CLAYER
  8
0
  9
$CELTYPE
  6
BYLAYER
  9
$CECOLOR
 62
   256
  9
$CELTSCALE
 40
1.0
  9
$DISPSILH
 70
     0
  9
$DIMSCALE
 40
1.0
  9
$DIMASZ
 40
0.375
  9
$DIMEXO
 40
0.0625
  9
$DIMDLI
 40
0.75
  9
$DIMRND
 40
0.0
  9
$DIMDLE
 40
0.0
  9
$DIMEXE
 40
0.18
  9
$DIMTP
 40
0.0
  9
$DIMTM
 40
0.0
  9
$DIMTXT
 40
0.27
  9
$DIMCEN
 40
-0.06
  9
$DIMTSZ
 40
0.0
  9
$DIMTOL
 70
     0
  9
$DIMLIM
 70
     0
  9
$DIMTIH
 70
     1
  9
$DIMTOH
 70
     1
  9
$DIMSE1
 70
     0
  9
$DIMSE2
 70
     0
  9
$DIMTAD
 70
     0
  9
$DIMZIN
 70
     0
  9
$DIMBLK
  1

  9
$DIMASO
 70
     0
  9
$DIMSHO
 70
     0
  9
$DIMPOST
  1

  9
$DIMAPOST
  1

  9
$DIMALT
 70
     0
  9
$DIMALTD
 70
     2
  9
$DIMALTF
 40
25.4
  9
$DIMLFAC
 40
1.0
  9
$DIMTOFL
 70
     0
  9
$DIMTVP
 40
0.0
  9
$DIMTIX
 70
     0
  9
$DIMSOXD
 70
     0
  9
$DIMSAH
 70
     0
  9
$DIMBLK1
  1

  9
$DIMBLK2
  1

  9
$DIMSTYLE
  2
STANDARD
  9
$DIMCLRD
 70
     0
  9
$DIMCLRE
 70
     0
  9
$DIMCLRT
 70
     0
  9
$DIMTFAC
 40
1.0
  9
$DIMGAP
 40
0.09
  9
$DIMJUST
 70
     0
  9
$DIMSD1
 70
     0
  9
$DIMSD2
 70
     0
  9
$DIMTOLJ
 70
     1
  9
$DIMTZIN
 70
     0
  9
$DIMALTZ
 70
     0
  9
$DIMALTTZ
 70
     0
  9
$DIMUPT
 70
     0
  9
$DIMDEC
 70
     5
  9
$DIMTDEC
 70
     5
  9
$DIMALTU
 70
     2
  9
$DIMALTTD
 70
     2
  9
$DIMTXSTY
  7
STANDARD
  9
$DIMAUNIT
 70
     0
  9
$DIMADEC
 70
     0
  9
$DIMALTRND
 40
0.0
  9
$DIMAZIN
 70
     0
  9
$DIMDSEP
 70
    46
  9
$DIMATFIT
 70
     3
  9
$DIMFRAC
 70
     2
  9
$DIMLDRBLK
  1

  9
$DIMLUNIT
 70
     5
  9
$DIMLWD
 70
    -2
  9
$DIMLWE
 70
    -2
  9
$DIMTMOVE
 70
     2
  9
$LUNITS
 70
     2
  9
$LUPREC
 70
     3
  9
$SKETCHINC
 40
0.1
  9
$FILLETRAD
 40
0.2
  9
$AUNITS
 70
     0
  9
$AUPREC
 70
     0
  9
$MENU
  1
ACAD
  9
$ELEVATION
 40
0.0
  9
$PELEVATION
 40
0.0
  9
$THICKNESS
 40
0.0
  9
$LIMCHECK
 70
     0
  9
$CHAMFERA
 40
0.0
  9
$CHAMFERB
 40
0.0
  9
$CHAMFERC
 40
0.0
  9
$CHAMFERD
 40
0.0
  9
$SKPOLY
 70
     0
  9
$TDCREATE
 40
2450613.848194097
  9
$TDUCREATE
 40
2450614.181527431
  9
$TDUPDATE
 40
2454509.868533229
  9
$TDUUPDATE
 40
2454510.201866563
  9
$TDINDWG
 40
0.4022635301
  9
$TDUSRTIMER
 40
0.4022635301
  9
$USRTIMER
 70
     1
  9
$ANGBASE
 50
0.0
  9
$ANGDIR
 70
     0
  9
$PDMODE
 70
     0
  9
$PDSIZE
 40
0.0
  9
$PLINEWID
 40
0.0
  9
$SPLFRAME
 70
     0
  9
$SPLINETYPE
 70
     6
  9
$SPLINESEGS
 70
     8
  9
$HANDSEED
  5
2E1A
  9
$SURFTAB1
 70
     6
  9
$SURFTAB2
 70
     6
  9
$SURFTYPE
 70
     6
  9
$SURFU
 70
     6
  9
$SURFV
 70
     6
  9
$UCSBASE
  2

  9
$UCSNAME
  2

  9
$UCSORG
 10
0.0
 20
0.0
 30
0.0
  9
$UCSXDIR
 10
1.0
 20
0.0
 30
0.0
  9
$UCSYDIR
 10
0.0
 20
1.0
 30
0.0
  9
$UCSORTHOREF
  2

  9
$UCSORTHOVIEW
 70
     0
  9
$UCSORGTOP
 10
0.0
 20
0.0
 30
0.0
  9
$UCSORGBOTTOM
 10
0.0
 20
0.0
 30
0.0
  9
$UCSORGLEFT
 10
0.0
 20
0.0
 30
0.0
  9
$UCSORGRIGHT
 10
0.0
 20
0.0
 30
0.0
  9
$UCSORGFRONT
 10
0.0
 20
0.0
 30
0.0
  9
$UCSORGBACK
 10
0.0
 20
0.0
 30
0.0
  9
$PUCSBASE
  2

  9
$PUCSNAME
  2

  9
$PUCSORG
 10
0.0
 20
0.0
 30
0.0
  9
$PUCSXDIR
 10
1.0
 20
0.0
 30
0.0
  9
$PUCSYDIR
 10
0.0
 20
1.0
 30
0.0
  9
$PUCSORTHOREF
  2

  9
$PUCSORTHOVIEW
 70
     0
  9
$PUCSORGTOP
 10
0.0
 20
0.0
 30
0.0
  9
$PUCSORGBOTTOM
 10
0.0
 20
0.0
 30
0.0
  9
$PUCSORGLEFT
 10
0.0
 20
0.0
 30
0.0
  9
$PUCSORGRIGHT
 10
0.0
 20
0.0
 30
0.0
  9
$PUCSORGFRONT
 10
0.0
 20
0.0
 30
0.0
  9
$PUCSORGBACK
 10
0.0
 20
0.0
 30
0.0
  9
$USERI1
 70
     0
  9
$USERI2
 70
     0
  9
$USERI3
 70
     0
  9
$USERI4
 70
     0
  9
$USERI5
 70
     0
  9
$USERR1
 40
0.0
  9
$USERR2
 40
0.0
  9
$USERR3
 40
0.0
  9
$USERR4
 40
0.0
  9
$USERR5
 40
0.0
  9
$WORLDVIEW
 70
     1
  9
$SHADEDGE
 70
     3
  9
$SHADEDIF
 70
    70
  9
$TILEMODE
 70
     1
  9
$MAXACTVP
 70
    16
  9
$PINSBASE
 10
0.0
 20
0.0
 30
0.0
  9
$PLIMCHECK
 70
     0
  9
$PEXTMIN
 10
1.000000000000000E+20
 20
1.000000000000000E+20
 30
1.000000000000000E+20
  9
$PEXTMAX
 10
-1.000000000000000E+20
 20
-1.000000000000000E+20
 30
-1.000000000000000E+20
  9
$PLIMMIN
 10
0.0
 20
0.0
  9
$PLIMMAX
 10
12.0
 20
9.0
  9
$UNITMODE
 70
     0
  9
$VISRETAIN
 70
     0
  9
$PLINEGEN
 70
     0
  9
$PSLTSCALE
 70
     0
  9
$TREEDEPTH
 70
  3020
  9
$CMLSTYLE
  2
STANDARD
  9
$CMLJUST
 70
     0
  9
$CMLSCALE
 40
1.0
  9
$PROXYGRAPHICS
 70
     1
  9
$MEASUREMENT
 70
     0
  9
$CELWEIGHT
370
    -1
  9
$ENDCAPS
280
     0
  9
$JOINSTYLE
280
     0
  9
$LWDISPLAY
290
     0
  9
$INSUNITS
 70
     0
  9
$HYPERLINKBASE
  1

  9
$STYLESHEET
  1
monochrome.ctb
  9
$XEDIT
290
     1
  9
$CEPSNTYPE
380
     0
  9
$PSTYLEMODE
290
     1
  9
$FINGERPRINTGUID
  2
{81491931-CD26-11D5-BE3F-00508B5FCD51}
  9
$VERSIONGUID
  2
{9BF947F6-5728-4EE3-B88B-E4E0BC12F86C}
  9
$EXTNAMES
290
     1
  9
$PSVPSCALE
 40
0.0
  9
$OLESTARTUP
290
     0
  0
ENDSEC
  0
SECTION
  2
CLASSES
  0
CLASS
  1
DICTIONARYVAR
  2
AcDbDictionaryVar
  3
AutoCAD 2000
 90
        0
280
     0
281
     0
  0
CLASS
  1
LWPOLYLINE
  2
AcDbPolyline
  3
AutoCAD 2000
 90
        0
280
     0
281
     1
  0
CLASS
  1
ACDBDICTIONARYWDFLT
  2
AcDbDictionaryWithDefault
  3
AutoCAD 2000
 90
        0
280
     0
281
     0
  0
CLASS
  1
ACDBPLACEHOLDER
  2
AcDbPlaceHolder
  3
ObjectDBX Classes
 90
        0
280
     0
281
     0
  0
CLASS
  1
LAYOUT
  2
AcDbLayout
  3
ObjectDBX Classes
 90
        0
280
     0
281
     0
  0
CLASS
  1
LONG_TRANSACTION
  2
AcDbLongTransaction
  3
ObjectDBX Classes
 90
   -65536
280
     1
281
     0
  0
CLASS
  1
LWPOLYLINE
  2
AcDbPolyline
  3
AutoCAD 2000
 90
        0
280
     0
281
     1
  0
CLASS
  1
HATCH
  2
AcDbHatch
  3
AutoCAD 2000
 90
        0
280
     0
281
     1
  0
CLASS
  1
XRECORD
  2
AcDbXrecord
  3
AutoCAD 2000
 90
        0
280
     0
281
     0
  0
CLASS
  1
LONG_TRANSACTION
  2
AcDbLongTransaction
  3
ObjectDBX Classes
 90
   -65536
280
     1
281
     0
  0
CLASS
  1
LWPOLYLINE
  2
AcDbPolyline
  3
AutoCAD 2000
 90
        0
280
     0
281
     1
  0
CLASS
  1
HATCH
  2
AcDbHatch
  3
AutoCAD 2000
 90
        0
280
     0
281
     1
  0
CLASS
  1
XRECORD
  2
AcDbXrecord
  3
AutoCAD 2000
 90
        0
280
     0
281
     0
  0
CLASS
  1
LONG_TRANSACTION
  2
AcDbLongTransaction
  3
ObjectDBX Classes
 90
   -65536
280
     1
281
     0
  0
CLASS
  1
LWPOLYLINE
  2
AcDbPolyline
  3
AutoCAD 2000
 90
        0
280
     0
281
     1
  0
CLASS
  1
HATCH
  2
AcDbHatch
  3
AutoCAD 2000
 90
        0
280
     0
281
     1
  0
CLASS
  1
XRECORD
  2
AcDbXrecord
  3
AutoCAD 2000
 90
        0
280
     0
281
     0
  0
CLASS
  1
LONG_TRANSACTION
  2
AcDbLongTransaction
  3
ObjectDBX Classes
 90
   -65536
280
     1
281
     0
  0
CLASS
  1
LWPOLYLINE
  2
AcDbPolyline
  3
AutoCAD 2000
 90
        0
280
     0
281
     1
  0
CLASS
  1
HATCH
  2
AcDbHatch
  3
AutoCAD 2000
 90
        0
280
     0
281
     1
  0
CLASS
  1
XRECORD
  2
AcDbXrecord
  3
AutoCAD 2000
 90
        0
280
     0
281
     0
  0
CLASS
  1
TABLESTYLE
  2
AcDbTableStyle
  3
ObjectDBX Classes
 90
     2047
280
     1
281
     0
  0
CLASS
  1
SORTENTSTABLE
  2
AcDbSortentsTable
  3
AutoCAD 2000
 90
        0
280
     0
281
     0
  0
ENDSEC
  0
SECTION
  2
TABLES
  0
TABLE
  2
VPORT
  5
759
330
0
100
AcDbSymbolTable
 70
     3
  0
VPORT
  5
2E0C
330
759
100
AcDbSymbolTableRecord
100
AcDbViewportTableRecord
  2
*Active
 70
     0
 10
0.0
 20
0.0
 11
1.0
 21
1.0
 12
2.614573876898795
 22
6.621504544445227
 13
0.0
 23
0.0
 14
0.0625
 24
0.0625
 15
0.5
 25
0.5
 16
0.0
 26
0.0
 36
1.0
 17
0.0
 27
0.0
 37
0.0
 40
22.51176583368487
 41
1.692748091603054
 42
50.0
 43
0.0
 44
0.0
 50
0.0
 51
0.0
 71
     0
 72
   100
 73
     1
 74
     0
 75
     0
 76
     0
 77
     0
 78
     0
281
     0
 65
     1
110
0.0
120
0.0
130
0.0
111
1.0
121
0.0
131
0.0
112
0.0
122
1.0
132
0.0
 79
     0
146
0.0
  0
ENDTAB
  0
TABLE
  2
LTYPE
  5
756
330
0
100
AcDbSymbolTable
 70
     2
  0
LTYPE
  5
762
330
756
100
AcDbSymbolTableRecord
100
AcDbLinetypeTableRecord
  2
BYBLOCK
 70
     0
  3

 72
    65
 73
     0
 40
0.0
  0
LTYPE
  5
763
330
756
100
AcDbSymbolTableRecord
100
AcDbLinetypeTableRecord
  2
BYLAYER
 70
     0
  3

 72
    65
 73
     0
 40
0.0
  0
LTYPE
  5
764
330
756
100
AcDbSymbolTableRecord
100
AcDbLinetypeTableRecord
  2
CONTINUOUS
 70
     0
  3
Solid line
 72
    65
 73
     0
 40
0.0
  0
LTYPE
  5
123B
330
756
100
AcDbSymbolTableRecord
100
AcDbLinetypeTableRecord
  2
HIDDEN2
 70
     0
  3
Hidden (.5x) _ _ _ _ _ _ _ _ _ _ _ _ _ _ _ _ _
 72
    65
 73
     2
 40
0.1875
 49
0.125
 74
     0
 49
-0.0625
 74
     0
  0
ENDTAB
  0
TABLE
  2
LAYER
  5
753
102
{ACAD_XDICTIONARY
360
9F9
102
}
330
0
100
AcDbSymbolTable
 70
     3
  0
LAYER
  5
75F
330
753
100
AcDbSymbolTableRecord
100
AcDbLayerTableRecord
  2
0
 70
     0
 62
     7
  6
CONTINUOUS
370
    -3
390
7C5
  0
LAYER
  5
7A4
330
753
100
AcDbSymbolTableRecord
100
AcDbLayerTableRecord
  2
DIM
 70
     0
 62
     5
  6
CONTINUOUS
370
    -3
390
7C5
  0
LAYER
  5
1C9C
330
753
100
AcDbSymbolTableRecord
100
AcDbLayerTableRecord
  2
Defpoints
 70
     0
 62
     7
  6
CONTINUOUS
290
     0
370
    -3
390
7C5
  0
ENDTAB
  0
TABLE
  2
STYLE
  5
754
330
0
100
AcDbSymbolTable
 70
     1
  0
STYLE
  5
760
330
754
100
AcDbSymbolTableRecord
100
AcDbTextStyleTableRecord
  2
STANDARD
 70
     0
 40
0.0
 41
1.0
 50
0.0
 71
     0
 42
0.27
  3
TXT
  4

  0
ENDTAB
  0
TABLE
  2
VIEW
  5
757
330
0
100
AcDbSymbolTable
 70
     4
  0
VIEW
  5
798
330
757
100
AcDbSymbolTableRecord
100
AcDbViewTableRecord
  2
PLOTTER
 70
     0
 40
23.625
 10
17.01330184198921
 20
11.8125
 41
1.0
 11
0.0
 21
0.0
 31
1.0
 12
0.0
 22
0.0
 32
0.0
 42
50.0
 43
0.0
 44
0.0
 50
0.0
 71
     0
281
     0
 72
     0
  0
VIEW
  5
799
330
757
100
AcDbSymbolTableRecord
100
AcDbViewTableRecord
  2
UPPER
 70
     0
 40
10.92682926829268
 10
12.68329970046198
 20
16.68292682926829
 41
1.0
 11
0.0
 21
0.0
 31
1.0
 12
0.0
 22
0.0
 32
0.0
 42
50.0
 43
0.0
 44
0.0
 50
0.0
 71
     0
281
     0
 72
     0
  0
VIEW
  5
79A
330
757
100
AcDbSymbolTableRecord
100
AcDbViewTableRecord
  2
LEFT
 70
     0
 40
5.446009389671362
 10
10.90014360505218
 20
8.479102255811291
 41
1.0
 11
0.0
 21
0.0
 31
1.0
 12
0.0
 22
0.0
 32
0.0
 42
50.0
 43
0.0
 44
0.0
 50
0.0
 71
     0
281
     0
 72
     0
  0
VIEW
  5
79B
330
757
100
AcDbSymbolTableRecord
100
AcDbViewTableRecord
  2
RIGHT
 70
     0
 40
10.21596244131455
 10
22.88218731978697
 20
10.27871292797435
 41
1.0
 11
0.0
 21
0.0
 31
1.0
 12
0.0
 22
0.0
 32
0.0
 42
50.0
 43
0.0
 44
0.0
 50
0.0
 71
     0
281
     0
 72
     0
  0
ENDTAB
  0
TABLE
  2
UCS
  5
758
330
0
100
AcDbSymbolTable
 70
     0
  0
ENDTAB
  0
TABLE
  2
APPID
  5
75A
330
0
100
AcDbSymbolTable
 70
     5
  0
APPID
  5
761
330
75A
100
AcDbSymbolTableRecord
100
AcDbRegAppTableRecord
  2
ACAD
 70
     0
  0
APPID
  5
1156
330
75A
100
AcDbSymbolTableRecord
100
AcDbRegAppTableRecord
  2
ACAD_DSTYLE_DIMTEXT_FILL
 70
     0
  0
APPID
  5
178C
330
75A
100
AcDbSymbolTableRecord
100
AcDbRegAppTableRecord
  2
ACAD_PSEXT
 70
     0
  0
APPID
  5
1CA0
330
75A
100
AcDbSymbolTableRecord
100
AcDbRegAppTableRecord
  2
AcAecLayerStandard
 70
     0
  0
APPID
  5
2BFE
330
75A
100
AcDbSymbolTableRecord
100
AcDbRegAppTableRecord
  2
DCO15
 70
     0
  0
ENDTAB
  0
TABLE
  2
DIMSTYLE
  5
75B
330
0
100
AcDbSymbolTable
 70
     1
100
AcDbDimStyleTable
  0
DIMSTYLE
105
7B9
330
75B
100
AcDbSymbolTableRecord
100
AcDbDimStyleTableRecord
  2
STANDARD
 70
     0
  3

  4

340
760
  0
ENDTAB
  0
TABLE
  2
BLOCK_RECORD
  5
752
330
0
100
AcDbSymbolTable
 70
     0
  0
BLOCK_RECORD
  5
768
102
{ACAD_XDICTIONARY
360
7F5
102
}
330
752
100
AcDbSymbolTableRecord
100
AcDbBlockTableRecord
  2
*MODEL_SPACE
340
7C8
  0
BLOCK_RECORD
  5
765
330
752
100
AcDbSymbolTableRecord
100
AcDbBlockTableRecord
  2
*PAPER_SPACE
340
7C9
  0
ENDTAB
  0
ENDSEC
  0
SECTION
  2
BLOCKS
  0
BLOCK
  5
7B1
330
768
100
AcDbEntity
  8
0
100
AcDbBlockBegin
  2
*MODEL_SPACE
 70
     0
 10
0.0
 20
0.0
 30
0.0
  3
*MODEL_SPACE
  1

  4

  0
ENDBLK
  5
7B2
330
768
100
AcDbEntity
  8
0
100
AcDbBlockEnd
  0
BLOCK
  5
7AF
330
765
100
AcDbEntity
 67
     1
  8
0
100
AcDbBlockBegin
  2
*PAPER_SPACE
 70
     0
 10
0.0
 20
0.0
 30
0.0
  3
*PAPER_SPACE
  1

  4

  0
ENDBLK
  5
7B0
330
765
100
AcDbEntity
 67
     1
  8
0
100
AcDbBlockEnd
  0
ENDSEC
  0
SECTION
  2
ENTITIES
  0
TEXT
  5
D9
330
768
100
AcDbEntity
  8
DIM
100
AcDbText
 10
9.860040913637929
 20
20.93053558724526
 30
0.0
 40
0.27
  1
   
 11
9.860040913637929
 21
21.06553558724526
 31
0.0
100
AcDbText
 73
     2
  0
LINE
  5
FE9
330
768
100
AcDbEntity
  8
0
  6
HIDDEN2
100
AcDbLine
 10
1.742487499996539
 20
2.566250000000018
 30
0.0
 11
-1.742512500003468
 21
2.566250000000018
 31
0.0
  0
LINE
  5
FEB
330
768
100
AcDbEntity
  8
0
  6
HIDDEN2
100
AcDbLine
 10
1.742487499996539
 20
2.941250000000018
 30
0.0
 11
-1.742512500003468
 21
2.941250000000018
 31
0.0
  0
ARC
  5
FF3
330
768
100
AcDbEntity
  8
0
  6
HIDDEN2
100
AcDbCircle
 10
-1.742512500003468
 20
2.753750000000018
 30
0.0
 40
0.1875
100
AcDbArc
 50
90.0
 51
270.0
  0
ARC
  5
FF7
330
768
100
AcDbEntity
  8
0
  6
HIDDEN2
100
AcDbCircle
 10
1.742487499996539
 20
2.753750000000018
 30
0.0
 40
0.1875
100
AcDbArc
 50
270.0
 51
90.0
  0
LINE
  5
1284
330
768
100
AcDbEntity
  8
0
100
AcDbLine
 10
-3.912512500003492
 20
3.601250000000107
 30
0.0
 11
-3.912512500003492
 21
3.500000000000107
 31
0.0
  0
LINE
  5
269C
330
768
100
AcDbEntity
  8
0
100
AcDbLine
 10
2.437475000000056
 20
3.500000000000028
 30
0.0
 11
-2.437500000006857
 21
3.500000000000085
 31
0.0
  0
LINE
  5
269D
330
768
100
AcDbEntity
  8
0
100
AcDbLine
 10
2.062500000000064
 20
0.0
 30
0.0
 11
-2.062500000000064
 21
0.0
 31
0.0
  0
LINE
  5
26AB
330
768
100
AcDbEntity
  8
0
100
AcDbLine
 10
1.750000000000011
 20
2.837500000000006
 30
0.0
 11
-1.749999999999993
 21
2.837500000000006
 31
0.0
  0
LINE
  5
26AD
330
768
100
AcDbEntity
  8
0
100
AcDbLine
 10
1.750000000000011
 20
2.662499999999994
 30
0.0
 11
-1.749999999999993
 21
2.662499999999994
 31
0.0
  0
LINE
  5
26AE
330
768
100
AcDbEntity
  8
0
100
AcDbLine
 10
-2.562499999999996
 20
3.350000000000051
 30
0.0
 11
-2.562500000000053
 21
1.156842216405252
 31
0.0
  0
ARC
  5
26B6
330
768
100
AcDbEntity
  8
0
100
AcDbCircle
 10
-1.749999999999993
 20
2.75
 30
0.0
 40
0.0875
100
AcDbArc
 50
90.0
 51
270.0
  0
ARC
  5
26BE
330
768
100
AcDbEntity
  8
0
100
AcDbCircle
 10
1.750000000000011
 20
2.75
 30
0.0
 40
0.0875
100
AcDbArc
 50
270.0
 51
90.0
  0
LINE
  5
26BF
330
768
100
AcDbEntity
  8
0
100
AcDbLine
 10
-2.437500000006857
 20
3.500000000002828
 30
0.0
 11
-2.337500000009595
 21
3.60000000000008
 31
0.0
  0
ARC
  5
26C1
330
768
100
AcDbEntity
  8
0
100
AcDbCircle
 10
-2.562500000000053
 20
1.031833180276067
 30
0.0
 40
0.125
100
AcDbArc
 50
0.0000000000012213
 51
90.01145915910274
  0
ARC
  5
26C3
330
768
100
AcDbEntity
  8
0
100
AcDbCircle
 10
-2.562500000006857
 20
3.500000000002828
 30
0.0
 40
0.125
100
AcDbArc
 50
269.4253032630721
 51
359.9999999987429
  0
LINE
  5
26C4
330
768
100
AcDbEntity
  8
0
100
AcDbLine
 10
2.562500000000014
 20
3.350000000000051
 30
0.0
 11
2.562525368645826
 21
0.9995706757275684
 31
0.0
  0
LINE
  5
26C5
330
768
100
AcDbEntity
  8
0
100
AcDbLine
 10
2.437500000006875
 20
3.500000000002828
 30
0.0
 11
2.337500000009673
 21
3.600000000000023
 31
0.0
  0
LINE
  5
26C6
330
768
100
AcDbEntity
  8
0
100
AcDbLine
 10
2.437500000000071
 20
1.031833180276067
 30
0.0
 11
2.437500000000057
 21
0.3749999999999716
 31
0.0
  0
ARC
  5
26C7
330
768
100
AcDbEntity
  8
0
100
AcDbCircle
 10
2.562500000000071
 20
1.031833180276067
 30
0.0
 40
0.125
100
AcDbArc
 50
90.00000000000162
 51
179.9999999999988
  0
LINE
  5
26C8
330
768
100
AcDbEntity
  8
0
100
AcDbLine
 10
2.062500000000064
 20
0.0
 30
0.0
 11
2.437500000000071
 21
0.3749999999999858
 31
0.0
  0
ARC
  5
26C9
330
768
100
AcDbEntity
  8
0
100
AcDbCircle
 10
2.562500000006875
 20
3.500000000002828
 30
0.0
 40
0.125
100
AcDbArc
 50
180.0000000012572
 51
270.5746967369605
  0
LINE
  5
26CA
330
768
100
AcDbEntity
  8
0
100
AcDbLine
 10
4.162500000000016
 20
3.500000000000057
 30
0.0
 11
2.812500000000018
 21
3.500000000000057
 31
0.0
  0
ARC
  5
26CB
330
768
100
AcDbEntity
  8
0
100
AcDbCircle
 10
2.812500000000018
 20
3.350000000000065
 30
0.0
 40
0.15
100
AcDbArc
 50
89.99999999999939
 51
180.0000000000016
  0
ARC
  5
26CC
330
768
100
AcDbEntity
  8
0
100
AcDbCircle
 10
2.812500000000018
 20
3.350000000000065
 30
0.0
 40
0.25
100
AcDbArc
 50
89.99999999999939
 51
180.0000000000016
  0
LINE
  5
26CD
330
768
100
AcDbEntity
  8
0
100
AcDbLine
 10
4.162500000000016
 20
3.600000000000051
 30
0.0
 11
4.162500000000016
 21
3.500000000000057
 31
0.0
  0
LINE
  5
26CE
330
768
100
AcDbEntity
  8
0
100
AcDbLine
 10
4.162500000000016
 20
3.600000000000051
 30
0.0
 11
2.812500000000021
 21
3.60000000000008
 31
0.0
  0
LINE
  5
26CF
330
768
100
AcDbEntity
  8
0
100
AcDbLine
 10
2.662500000000019
 20
3.350000000000051
 30
0.0
 11
2.662525367596246
 21
0.9996679206870169
 31
0.0
  0
LINE
  5
26D0
330
768
100
AcDbEntity
  8
0
100
AcDbLine
 10
2.337500000009676
 20
3.600000000000023
 30
0.0
 11
-2.337500000009595
 21
3.600000000000094
 31
0.0
  0
LINE
  5
26D1
330
768
100
AcDbEntity
  8
0
100
AcDbLine
 10
-2.562525000006811
 20
3.353535446003193
 30
0.0
 11
-2.562525000006872
 21
1.000000000000057
 31
0.0
  0
LINE
  5
26D2
330
768
100
AcDbEntity
  8
0
100
AcDbLine
 10
-4.16252500000682
 20
3.500000000000057
 30
0.0
 11
-2.812499999999929
 21
3.500000000000071
 31
0.0
  0
LINE
  5
26D3
330
768
100
AcDbEntity
  8
0
100
AcDbLine
 10
-4.16252500000682
 20
3.600000000000051
 30
0.0
 11
-4.16252500000682
 21
3.500000000000057
 31
0.0
  0
LINE
  5
26D4
330
768
100
AcDbEntity
  8
0
100
AcDbLine
 10
-4.16252500000682
 20
3.600000000000051
 30
0.0
 11
-2.812499999999933
 21
3.60000000000008
 31
0.0
  0
LINE
  5
26D5
330
768
100
AcDbEntity
  8
0
100
AcDbLine
 10
-2.75633401099449
 20
0.8609224218150473
 30
0.0
 11
-3.047526299543591
 21
0.743273100480252
 31
0.0
  0
LINE
  5
26D6
330
768
100
AcDbEntity
  8
0
100
AcDbLine
 10
-2.718873351652903
 20
0.7682040363583695
 30
0.0
 11
-3.010065640201997
 21
0.6505547150235884
 31
0.0
  0
LINE
  5
26D7
330
768
100
AcDbEntity
  8
0
100
AcDbLine
 10
-2.662525000006809
 20
3.352738499053146
 30
0.0
 11
-2.66252500000688
 21
1.000000000000057
 31
0.0
  0
ARC
  5
26D8
330
768
100
AcDbEntity
  8
0
100
AcDbCircle
 10
-2.812525000006879
 20
1.000000000000057
 30
0.0
 40
0.15
100
AcDbArc
 50
292.0000000000011
 51
359.9999999999984
  0
ARC
  5
26D9
330
768
100
AcDbEntity
  8
0
100
AcDbCircle
 10
-2.812525000006879
 20
1.000000000000057
 30
0.0
 40
0.25
100
AcDbArc
 50
292.0000000000011
 51
359.9999999999984
  0
ARC
  5
26DA
330
768
100
AcDbEntity
  8
0
100
AcDbCircle
 10
-2.812499999999929
 20
3.350000000000065
 30
0.0
 40
0.15
100
AcDbArc
 50
359.9999999999984
 51
90.0000000000005
  0
ARC
  5
26DB
330
768
100
AcDbEntity
  8
0
100
AcDbCircle
 10
-2.812499999999929
 20
3.350000000000065
 30
0.0
 40
0.25
100
AcDbArc
 50
359.9999999999984
 51
90.0000000000005
  0
LINE
  5
26DC
330
768
100
AcDbEntity
  8
0
100
AcDbLine
 10
-3.047526299543584
 20
0.743273100480252
 30
0.0
 11
-3.01006564020199
 21
0.65055471502356
 31
0.0
  0
LINE
  5
26DE
330
768
100
AcDbEntity
  8
0
100
AcDbLine
 10
2.756334010994504
 20
0.8609224218150473
 30
0.0
 11
3.047526299543605
 21
0.743273100480252
 31
0.0
  0
LINE
  5
26DF
330
768
100
AcDbEntity
  8
0
100
AcDbLine
 10
2.718873351652917
 20
0.7682040363583695
 30
0.0
 11
3.010065640202011
 21
0.6505547150235884
 31
0.0
  0
ARC
  5
26E0
330
768
100
AcDbEntity
  8
0
100
AcDbCircle
 10
2.812525000006893
 20
1.000000000000057
 30
0.0
 40
0.15
100
AcDbArc
 50
180.0000000000016
 51
247.9999999999989
  0
ARC
  5
26E1
330
768
100
AcDbEntity
  8
0
100
AcDbCircle
 10
2.812525000006893
 20
1.000000000000057
 30
0.0
 40
0.25
100
AcDbArc
 50
180.0000000000016
 51
247.9999999999989
  0
LINE
  5
26E2
330
768
100
AcDbEntity
  8
0
100
AcDbLine
 10
3.047526299543598
 20
0.743273100480252
 30
0.0
 11
3.010065640202004
 21
0.65055471502356
 31
0.0
  0
LINE
  5
26E6
330
768
100
AcDbEntity
  8
0
100
AcDbLine
 10
-2.662525000006877
 20
1.140624999999957
 30
0.0
 11
-2.562525000006868
 21
1.140624999999957
 31
0.0
  0
LINE
  5
26E7
330
768
100
AcDbEntity
  8
0
100
AcDbLine
 10
-2.704696800699409
 20
0.89572594074221
 30
0.0
 11
-2.632811334494434
 21
0.826209901236993
 31
0.0
  0
LINE
  5
26E8
330
768
100
AcDbEntity
  8
0
100
AcDbLine
 10
2.662525000006891
 20
1.140624999999957
 30
0.0
 11
2.562525000006882
 21
1.140624999999957
 31
0.0
  0
LINE
  5
26E9
330
768
100
AcDbEntity
  8
0
100
AcDbLine
 10
2.704696800699423
 20
0.89572594074221
 30
0.0
 11
2.632811334494448
 21
0.826209901236993
 31
0.0
  0
LINE
  5
273E
330
768
100
AcDbEntity
  8
0
100
AcDbLine
 10
-2.437500000000068
 20
1.031833180276067
 30
0.0
 11
-2.437500000000053
 21
0.3749999999999716
 31
0.0
  0
LINE
  5
273F
330
768
100
AcDbEntity
  8
0
100
AcDbLine
 10
-2.06250000000006
 20
0.0
 30
0.0
 11
-2.437500000000068
 21
0.3749999999999858
 31
0.0
  0
LINE
  5
277E
330
768
100
AcDbEntity
  8
0
  6
HIDDEN2
100
AcDbLine
 10
1.742487499996539
 20
1.816250000000018
 30
0.0
 11
-1.742512500003468
 21
1.816250000000018
 31
0.0
  0
LINE
  5
277F
330
768
100
AcDbEntity
  8
0
  6
HIDDEN2
100
AcDbLine
 10
1.742487499996539
 20
2.191250000000018
 30
0.0
 11
-1.742512500003468
 21
2.191250000000018
 31
0.0
  0
ARC
  5
2780
330
768
100
AcDbEntity
  8
0
  6
HIDDEN2
100
AcDbCircle
 10
-1.742512500003468
 20
2.003750000000018
 30
0.0
 40
0.1875
100
AcDbArc
 50
90.0
 51
270.0
  0
ARC
  5
2781
330
768
100
AcDbEntity
  8
0
  6
HIDDEN2
100
AcDbCircle
 10
1.742487499996539
 20
2.003750000000018
 30
0.0
 40
0.1875
100
AcDbArc
 50
270.0
 51
90.0
  0
LINE
  5
2782
330
768
100
AcDbEntity
  8
0
100
AcDbLine
 10
1.750000000000011
 20
2.087500000000006
 30
0.0
 11
-1.749999999999993
 21
2.087500000000006
 31
0.0
  0
LINE
  5
2783
330
768
100
AcDbEntity
  8
0
100
AcDbLine
 10
1.750000000000011
 20
1.912499999999994
 30
0.0
 11
-1.749999999999993
 21
1.912499999999994
 31
0.0
  0
ARC
  5
2784
330
768
100
AcDbEntity
  8
0
100
AcDbCircle
 10
-1.749999999999993
 20
2.0
 30
0.0
 40
0.0875
100
AcDbArc
 50
90.0
 51
270.0
  0
ARC
  5
2785
330
768
100
AcDbEntity
  8
0
100
AcDbCircle
 10
1.750000000000011
 20
2.0
 30
0.0
 40
0.0875
100
AcDbArc
 50
270.0
 51
90.0
  0
LINE
  5
2786
330
768
100
AcDbEntity
  8
0
  6
HIDDEN2
100
AcDbLine
 10
1.742487499996539
 20
1.066250000000018
 30
0.0
 11
-1.742512500003468
 21
1.066250000000018
 31
0.0
  0
LINE
  5
2787
330
768
100
AcDbEntity
  8
0
  6
HIDDEN2
100
AcDbLine
 10
1.742487499996539
 20
1.441250000000018
 30
0.0
 11
-1.742512500003468
 21
1.441250000000018
 31
0.0
  0
ARC
  5
2788
330
768
100
AcDbEntity
  8
0
  6
HIDDEN2
100
AcDbCircle
 10
-1.742512500003468
 20
1.253750000000018
 30
0.0
 40
0.1875
100
AcDbArc
 50
90.0
 51
270.0
  0
ARC
  5
2789
330
768
100
AcDbEntity
  8
0
  6
HIDDEN2
100
AcDbCircle
 10
1.742487499996539
 20
1.253750000000018
 30
0.0
 40
0.1875
100
AcDbArc
 50
270.0
 51
90.0
  0
LINE
  5
278A
330
768
100
AcDbEntity
  8
0
100
AcDbLine
 10
1.750000000000011
 20
1.337500000000006
 30
0.0
 11
-1.749999999999993
 21
1.337500000000006
 31
0.0
  0
LINE
  5
278B
330
768
100
AcDbEntity
  8
0
100
AcDbLine
 10
1.750000000000011
 20
1.162499999999994
 30
0.0
 11
-1.749999999999993
 21
1.162499999999994
 31
0.0
  0
ARC
  5
278C
330
768
100
AcDbEntity
  8
0
100
AcDbCircle
 10
-1.749999999999993
 20
1.25
 30
0.0
 40
0.0875
100
AcDbArc
 50
90.0
 51
270.0
  0
ARC
  5
278D
330
768
100
AcDbEntity
  8
0
100
AcDbCircle
 10
1.750000000000011
 20
1.25
 30
0.0
 40
0.0875
100
AcDbArc
 50
270.0
 51
90.0
  0
LINE
  5
278E
330
768
100
AcDbEntity
  8
0
  6
HIDDEN2
100
AcDbLine
 10
1.742487499996539
 20
0.3162500000000179
 30
0.0
 11
-1.742512500003468
 21
0.3162500000000179
 31
0.0
  0
LINE
  5
278F
330
768
100
AcDbEntity
  8
0
  6
HIDDEN2
100
AcDbLine
 10
1.742487499996539
 20
0.6912500000000179
 30
0.0
 11
-1.742512500003468
 21
0.6912500000000179
 31
0.0
  0
ARC
  5
2790
330
768
100
AcDbEntity
  8
0
  6
HIDDEN2
100
AcDbCircle
 10
-1.742512500003468
 20
0.5037500000000179
 30
0.0
 40
0.1875
100
AcDbArc
 50
90.0
 51
270.0
  0
ARC
  5
2791
330
768
100
AcDbEntity
  8
0
  6
HIDDEN2
100
AcDbCircle
 10
1.742487499996539
 20
0.5037500000000179
 30
0.0
 40
0.1875
100
AcDbArc
 50
270.0
 51
90.0
  0
LINE
  5
2792
330
768
100
AcDbEntity
  8
0
100
AcDbLine
 10
1.750000000000011
 20
0.5875000000000057
 30
0.0
 11
-1.749999999999993
 21
0.5875000000000057
 31
0.0
  0
LINE
  5
2793
330
768
100
AcDbEntity
  8
0
100
AcDbLine
 10
1.750000000000011
 20
0.4124999999999943
 30
0.0
 11
-1.749999999999993
 21
0.4124999999999943
 31
0.0
  0
ARC
  5
2794
330
768
100
AcDbEntity
  8
0
100
AcDbCircle
 10
-1.749999999999993
 20
0.5
 30
0.0
 40
0.0875
100
AcDbArc
 50
90.0
 51
270.0
  0
ARC
  5
2795
330
768
100
AcDbEntity
  8
0
100
AcDbCircle
 10
1.750000000000011
 20
0.5
 30
0.0
 40
0.0875
100
AcDbArc
 50
270.0
 51
90.0
  0
LINE
  5
294F
330
768
100
AcDbEntity
  8
0
100
AcDbLine
 10
3.912487499996692
 20
3.601250000000107
 30
0.0
 11
3.912487499996692
 21
3.500000000000107
 31
0.0
  0
ENDSEC
  0
SECTION
  2
OBJECTS
  0
DICTIONARY
  5
75D
330
0
100
AcDbDictionary
281
     1
  3
ACAD_COLOR
350
9E7
  3
ACAD_GROUP
350
75E
  3
ACAD_LAYOUT
350
7C6
  3
ACAD_MATERIAL
350
9E6
  3
ACAD_MLINESTYLE
350
76B
  3
ACAD_PLOTSETTINGS
350
7C7
  3
ACAD_PLOTSTYLENAME
350
7C4
  3
ACAD_TABLESTYLE
350
9E8
  3
ACDBHEADERROUNDTRIPXREC
350
2E13
  3
ACDBVARIABLEDICTIONARY
350
7B3
  3
ASE_INDEX_DICTIONARY
350
2BFD
  0
DICTIONARY
  5
9F9
330
753
100
AcDbDictionary
280
     1
281
     1
  3
ACAD_LAYERFILTERS
360
2DF1
  3
ACAD_LAYERSTATES
360
9FA
  3
ACLYDICTIONARY
360
2DF0
  0
DICTIONARY
  5
7F5
330
768
100
AcDbDictionary
280
     1
281
     1
  3
ACAD_SORTENTS
360
1265
  0
DICTIONARY
  5
9E7
102
{ACAD_REACTORS
330
75D
102
}
330
75D
100
AcDbDictionary
281
     1
  0
DICTIONARY
  5
75E
102
{ACAD_REACTORS
330
75D
102
}
330
75D
100
AcDbDictionary
281
     1
  0
DICTIONARY
  5
7C6
102
{ACAD_REACTORS
330
75D
102
}
330
75D
100
AcDbDictionary
281
     1
  3
Layout1
350
7C9
  3
Model
350
7C8
  0
DICTIONARY
  5
9E6
102
{ACAD_REACTORS
330
75D
102
}
330
75D
100
AcDbDictionary
281
     1
  0
DICTIONARY
  5
76B
102
{ACAD_REACTORS
330
75D
102
}
330
75D
100
AcDbDictionary
281
     1
  3
STANDARD
350
76C
  0
DICTIONARY
  5
7C7
102
{ACAD_REACTORS
330
75D
102
}
330
75D
100
AcDbDictionary
281
     1
  0
ACDBDICTIONARYWDFLT
  5
7C4
102
{ACAD_REACTORS
330
75D
102
}
330
75D
100
AcDbDictionary
281
     1
  3
Normal
350
7C5
100
AcDbDictionaryWithDefault
340
7C5
  0
DICTIONARY
  5
9E8
102
{ACAD_REACTORS
330
75D
102
}
330
75D
100
AcDbDictionary
281
     1
  3
Standard
350
9E9
  0
DICTIONARY
  5
2E13
102
{ACAD_REACTORS
330
75D
102
}
330
75D
100
AcDbDictionary
281
     1
  3
COLORDICT
350
2E14
  3
MATERIALDICT
350
2E15
  0
DICTIONARY
  5
7B3
102
{ACAD_REACTORS
330
75D
102
}
330
75D
100
AcDbDictionary
281
     1
  3
CTABLESTYLE
350
A1C
  3
DIMADEC
350
7B4
  0
DICTIONARY
  5
2BFD
102
{ACAD_REACTORS
330
75D
102
}
330
75D
100
AcDbDictionary
281
     1
  3
ASEBlockHierarchyIndexRecord
350
2BFF
1001
DCO15
1040
1616226337.271
  0
DICTIONARY
  5
2DF1
102
{ACAD_REACTORS
330
9F9
102
}
330
9F9
100
AcDbDictionary
281
     1
  0
DICTIONARY
  5
9FA
102
{ACAD_REACTORS
330
9F9
102
}
330
9F9
100
AcDbDictionary
281
     1
  0
DICTIONARY
  5
2DF0
102
{ACAD_REACTORS
330
9F9
102
}
330
9F9
100
AcDbDictionary
281
     1
1001
ACAD
1000
<All
  0
SORTENTSTABLE
  5
1265
102
{ACAD_REACTORS
330
7F5
102
}
330
7F5
100
AcDbSortentsTable
330
768
331
0
  5
2C79
331
D9
  5
D9
331
FE9
  5
FE9
331
FEB
  5
FEB
331
FF3
  5
FF3
331
FF7
  5
FF7
331
1284
  5
1284
331
269C
  5
27B3
331
269D
  5
27B4
331
26AB
  5
27B5
331
26AD
  5
27C7
331
26AE
  5
27C8
331
26B6
  5
27DA
331
26BE
  5
27DB
331
26BF
  5
27ED
331
26C1
  5
27EE
331
26C3
  5
2800
331
26C4
  5
2801
331
26C5
  5
2813
331
26C6
  5
2814
331
26C7
  5
2826
331
26C8
  5
2827
331
26C9
  5
2828
331
26CA
  5
2829
331
26CB
  5
282A
331
26CC
  5
282B
331
26CD
  5
282C
331
26CE
  5
283E
331
26CF
  5
283F
331
26D0
  5
2840
331
26D1
  5
2841
331
26D2
  5
2842
331
26D3
  5
2843
331
26D4
  5
2844
331
26D5
  5
2845
331
26D6
  5
2846
331
26D7
  5
2847
331
26D8
  5
2848
331
26D9
  5
2849
331
26DA
  5
284A
331
26DB
  5
284B
331
26DC
  5
284C
331
26DE
  5
284D
331
26DF
  5
284E
331
26E0
  5
284F
331
26E1
  5
2850
331
26E2
  5
2852
331
26E6
  5
2853
331
26E7
  5
2854
331
26E8
  5
2856
331
26E9
  5
2857
331
273E
  5
2858
331
273F
  5
285A
331
277E
  5
285B
331
277F
  5
285C
331
2780
  5
285D
331
2781
  5
285E
331
2782
  5
285F
331
2783
  5
2860
331
2784
  5
2861
331
2785
  5
2862
331
2786
  5
2863
331
2787
  5
2864
331
2788
  5
2865
331
2789
  5
2866
331
278A
  5
2867
331
278B
  5
2868
331
278C
  5
2869
331
278D
  5
286A
331
278E
  5
286B
331
278F
  5
286C
331
2790
  5
286D
331
2791
  5
286E
331
2792
  5
287B
331
2793
  5
287C
331
2794
  5
287D
331
2795
  5
287E
331
294F
  5
2CAA
  0
LAYOUT
  5
7C9
102
{ACAD_REACTORS
330
7C6
102
}
102
{ACAD_XDICTIONARY
360
2E16
102
}
330
7C6
100
AcDbPlotSettings
  1

  2
HP LaserJet 2100 Series PS
  4

  6

 40
0.0
 41
0.0
 42
0.0
 43
0.0
 44
0.0
 45
0.0
 46
0.0
 47
0.0
 48
0.0
 49
0.0
140
0.0
141
0.0
142
1.0
143
1.0
 70
   688
 72
     0
 73
     0
 74
     5
  7
monochrome.ctb
 75
    16
147
1.0
148
0.0
149
0.0
100
AcDbLayout
  1
Layout1
 70
     0
 71
     1
 10
0.0
 20
0.0
 11
12.0
 21
9.0
 12
0.0
 22
0.0
 32
0.0
 14
1.000000000000000E+20
 24
1.000000000000000E+20
 34
1.000000000000000E+20
 15
-1.000000000000000E+20
 25
-1.000000000000000E+20
 35
-1.000000000000000E+20
146
0.0
 13
0.0
 23
0.0
 33
0.0
 16
1.0
 26
0.0
 36
0.0
 17
0.0
 27
1.0
 37
0.0
 76
     0
330
765
  0
LAYOUT
  5
7C8
102
{ACAD_REACTORS
330
7C6
102
}
102
{ACAD_XDICTIONARY
360
2E18
102
}
330
7C6
100
AcDbPlotSettings
  1

  2
HP LaserJet 2100 Series PS
  4
Letter
  6

 40
5.365749835968018
 41
5.408073902130127
 42
5.132904052734375
 43
5.090576171875
 44
215.8999938964844
 45
279.3999938964844
 46
0.0
 47
0.0
 48
0.0
 49
0.0
140
0.0
141
0.0
142
1.0
143
2.976082445509257
 70
 11952
 72
     0
 73
     1
 74
     1
  7
monochrome.ctb
 75
     0
147
0.3360121966745056
148
0.0870080269693517
149
0.0053532330227938
100
AcDbLayout
  1
Model
 70
     1
 71
     0
 10
0.0
 20
0.0
 11
12.0
 21
9.0
 12
0.0
 22
0.0
 32
0.0
 14
0.0
 24
0.0
 34
0.0
 15
0.0
 25
0.0
 35
0.0
146
0.0
 13
0.0
 23
0.0
 33
0.0
 16
1.0
 26
0.0
 36
0.0
 17
0.0
 27
1.0
 37
0.0
 76
     0
330
768
1001
ACAD_PSEXT
1000
HP LaserJet 2100 Series PS
1000
HP LaserJet 2100 Series PS
1000
LPT1:
1000

1070
     0
  0
MLINESTYLE
  5
76C
102
{ACAD_REACTORS
330
76B
102
}
330
76B
100
AcDbMlineStyle
  2
STANDARD
 70
     0
  3

 62
   256
 51
90.0
 52
90.0
 71
     2
 49
0.5
 62
   256
  6
BYLAYER
 49
-0.5
 62
   256
  6
BYLAYER
  0
ACDBPLACEHOLDER
  5
7C5
102
{ACAD_REACTORS
330
7C4
102
}
330
7C4
  0
ACAD_PROXY_OBJECT
  5
9E9
102
{ACAD_REACTORS
330
9E8
102
}
330
9E8
100
AcDbProxyObject
 90
      499
 91
      521
 95
   983063
 70
     0
 93
     1841
310
4214DD185B99185C9928B81E85EB51B8AE3F2E07A17AD46E2B8FC02B5E8DC0F42B1CFD028000000C1008070000C3001FDFF8000000C1003FBFF000000182007F7FE00000030400FEFFC00000060801FDFF8000000C1003FBFF00000018200000000000000681FA0B0000001820100E000186003FBFF000000182007F7FE000
310
00030400FEFFC00000060801FDFF8000000C1003FBFF000000182007F7FE000000304000AD7A3703D0AC73F4160000003040201C00030C007F7FE00000030400FEFFC00000060801FDFF8000000C1003FBFF000000182007F7FE00000030400FEFFC000000608000
340
760
340
760
340
760
 94
        0
  0
XRECORD
  5
2E14
102
{ACAD_REACTORS
330
2E13
102
}
330
2E13
100
AcDbXrecord
340
9E7
  0
XRECORD
  5
2E15
102
{ACAD_REACTORS
330
2E13
102
}
330
2E13
100
AcDbXrecord
340
9E6
  0
DICTIONARYVAR
  5
A1C
102
{ACAD_REACTORS
330
7B3
102
}
330
7B3
100
DictionaryVariables
280
     0
  1
STANDARD
  0
DICTIONARYVAR
  5
7B4
102
{ACAD_REACTORS
330
7B3
102
}
330
7B3
100
DictionaryVariables
280
     0
  1
0
  0
XRECORD
  5
2BFF
102
{ACAD_REACTORS
330
2BFD
102
}
330
2BFD
100
AcDbXrecord
280
     1
330
0
330
0
  0
DICTIONARY
  5
2E16
330
7C9
100
AcDbDictionary
280
     1
281
     1
  3
ACAD_XREC_ROUNDTRIP
360
2E17
  0
DICTIONARY
  5
2E18
330
7C8
100
AcDbDictionary
280
     1
281
     1
  3
ACAD_XREC_ROUNDTRIP
360
2E19
  0
XRECORD
  5
2E17
102
{ACAD_REACTORS
330
2E16
102
}
330
2E16
100
AcDbXrecord
102
SHADEPLOT
 70
     0
102
SHADEPLOTRESLEVEL
 70
     2
102
SHADEPLOTCUSTOMDPI
 70
   300
  0
XRECORD
  5
2E19
102
{ACAD_REACTORS
330
2E18
102
}
330
2E18
100
AcDbXrecord
102
SHADEPLOT
 70
     0
102
SHADEPLOTRESLEVEL
 70
     2
102
SHADEPLOTCUSTOMDPI
 70
   300
  0
ENDSEC
  0
EOF
