  0
SECTION
  2
HEADER
  9
$ACADVER
  1
AC1015
  9
$ACADMAINTVER
 70
     6
  9
$DWGCODEPAGE
  3
ANSI_1252
  9
$INSBASE
 10
0.0
 20
0.0
 30
0.0
  9
$EXTMIN
 10
-0.2153319942477765
 20
-0.1015777100128759
 30
-0.0015258207003583
  9
$EXTMAX
 10
7.580078152450824
 20
12.36012271950036
 30
0.0000000349246037
  9
$LIMMIN
 10
0.0
 20
0.0
  9
$LIMMAX
 10
16.0
 20
21.0
  9
$ORTHOMODE
 70
     1
  9
$REGENMODE
 70
     1
  9
$FILLMODE
 70
     1
  9
$QTEXTMODE
 70
     0
  9
$MIRRTEXT
 70
     0
  9
$LTSCALE
 40
1.0
  9
$ATTMODE
 70
     1
  9
$TEXTSIZE
 40
0.18
  9
$TRACEWID
 40
0.05
  9
$TEXTSTYLE
  7
STANDARD
  9
$CLAYER
  8
0
  9
$CELTYPE
  6
BYLAYER
  9
$CECOLOR
 62
   256
  9
$CELTSCALE
 40
1.0
  9
$DISPSILH
 70
     0
  9
$DIMSCALE
 40
2.0
  9
$DIMASZ
 40
0.125
  9
$DIMEXO
 40
0.062
  9
$DIMDLI
 40
0.0
  9
$DIMRND
 40
0.0
  9
$DIMDLE
 40
0.0
  9
$DIMEXE
 40
0.08
  9
$DIMTP
 40
0.0
  9
$DIMTM
 40
0.0
  9
$DIMTXT
 40
0.09
  9
$DIMCEN
 40
-0.06
  9
$DIMTSZ
 40
0.0
  9
$DIMTOL
 70
     0
  9
$DIMLIM
 70
     0
  9
$DIMTIH
 70
     1
  9
$DIMTOH
 70
     1
  9
$DIMSE1
 70
     0
  9
$DIMSE2
 70
     0
  9
$DIMTAD
 70
     0
  9
$DIMZIN
 70
     0
  9
$DIMBLK
  1

  9
$DIMASO
 70
     0
  9
$DIMSHO
 70
     0
  9
$DIMPOST
  1

  9
$DIMAPOST
  1

  9
$DIMALT
 70
     0
  9
$DIMALTD
 70
     2
  9
$DIMALTF
 40
25.4
  9
$DIMLFAC
 40
1.0
  9
$DIMTOFL
 70
     0
  9
$DIMTVP
 40
0.0
  9
$DIMTIX
 70
     0
  9
$DIMSOXD
 70
     0
  9
$DIMSAH
 70
     0
  9
$DIMBLK1
  1

  9
$DIMBLK2
  1

  9
$DIMSTYLE
  2
STANDARD
  9
$DIMCLRD
 70
     0
  9
$DIMCLRE
 70
     0
  9
$DIMCLRT
 70
     0
  9
$DIMTFAC
 40
1.0
  9
$DIMGAP
 40
0.09375
  9
$DIMJUST
 70
     0
  9
$DIMSD1
 70
     0
  9
$DIMSD2
 70
     0
  9
$DIMTOLJ
 70
     1
  9
$DIMTZIN
 70
     0
  9
$DIMALTZ
 70
     0
  9
$DIMALTTZ
 70
     0
  9
$DIMUPT
 70
     0
  9
$DIMDEC
 70
     5
  9
$DIMTDEC
 70
     5
  9
$DIMALTU
 70
     5
  9
$DIMALTTD
 70
     2
  9
$DIMTXSTY
  7
STANDARD
  9
$DIMAUNIT
 70
     0
  9
$DIMADEC
 70
     0
  9
$DIMALTRND
 40
0.0
  9
$DIMAZIN
 70
     0
  9
$DIMDSEP
 70
    46
  9
$DIMATFIT
 70
     3
  9
$DIMFRAC
 70
     2
  9
$DIMLDRBLK
  1

  9
$DIMLUNIT
 70
     5
  9
$DIMLWD
 70
    -2
  9
$DIMLWE
 70
    -2
  9
$DIMTMOVE
 70
     2
  9
$LUNITS
 70
     5
  9
$LUPREC
 70
     5
  9
$SKETCHINC
 40
0.1
  9
$FILLETRAD
 40
0.0625
  9
$AUNITS
 70
     0
  9
$AUPREC
 70
     0
  9
$MENU
  1
QA
  9
$ELEVATION
 40
0.0
  9
$PELEVATION
 40
0.0
  9
$THICKNESS
 40
0.0
  9
$LIMCHECK
 70
     0
  9
$CHAMFERA
 40
0.25
  9
$CHAMFERB
 40
0.25
  9
$CHAMFERC
 40
0.0
  9
$CHAMFERD
 40
0.0
  9
$SKPOLY
 70
     0
  9
$TDCREATE
 40
2452080.854204051
  9
$TDUCREATE
 40
2452081.187537384
  9
$TDUPDATE
 40
2454181.71365169
  9
$TDUUPDATE
 40
2454182.046985023
  9
$TDINDWG
 40
0.5149006134
  9
$TDUSRTIMER
 40
0.5149000347
  9
$USRTIMER
 70
     1
  9
$ANGBASE
 50
0.0
  9
$ANGDIR
 70
     0
  9
$PDMODE
 70
     0
  9
$PDSIZE
 40
0.0
  9
$PLINEWID
 40
0.0
  9
$SPLFRAME
 70
     0
  9
$SPLINETYPE
 70
     6
  9
$SPLINESEGS
 70
     8
  9
$HANDSEED
  5
317F
  9
$SURFTAB1
 70
     6
  9
$SURFTAB2
 70
     6
  9
$SURFTYPE
 70
     6
  9
$SURFU
 70
     6
  9
$SURFV
 70
     6
  9
$UCSBASE
  2

  9
$UCSNAME
  2

  9
$UCSORG
 10
0.0
 20
0.0
 30
0.0
  9
$UCSXDIR
 10
1.0
 20
0.0
 30
0.0
  9
$UCSYDIR
 10
0.0
 20
1.0
 30
0.0
  9
$UCSORTHOREF
  2

  9
$UCSORTHOVIEW
 70
     0
  9
$UCSORGTOP
 10
0.0
 20
0.0
 30
0.0
  9
$UCSORGBOTTOM
 10
0.0
 20
0.0
 30
0.0
  9
$UCSORGLEFT
 10
0.0
 20
0.0
 30
0.0
  9
$UCSORGRIGHT
 10
0.0
 20
0.0
 30
0.0
  9
$UCSORGFRONT
 10
0.0
 20
0.0
 30
0.0
  9
$UCSORGBACK
 10
0.0
 20
0.0
 30
0.0
  9
$PUCSBASE
  2

  9
$PUCSNAME
  2

  9
$PUCSORG
 10
0.0
 20
0.0
 30
0.0
  9
$PUCSXDIR
 10
1.0
 20
0.0
 30
0.0
  9
$PUCSYDIR
 10
0.0
 20
1.0
 30
0.0
  9
$PUCSORTHOREF
  2

  9
$PUCSORTHOVIEW
 70
     0
  9
$PUCSORGTOP
 10
0.0
 20
0.0
 30
0.0
  9
$PUCSORGBOTTOM
 10
0.0
 20
0.0
 30
0.0
  9
$PUCSORGLEFT
 10
0.0
 20
0.0
 30
0.0
  9
$PUCSORGRIGHT
 10
0.0
 20
0.0
 30
0.0
  9
$PUCSORGFRONT
 10
0.0
 20
0.0
 30
0.0
  9
$PUCSORGBACK
 10
0.0
 20
0.0
 30
0.0
  9
$USERI1
 70
     0
  9
$USERI2
 70
     0
  9
$USERI3
 70
     0
  9
$USERI4
 70
     0
  9
$USERI5
 70
     0
  9
$USERR1
 40
0.0
  9
$USERR2
 40
0.0
  9
$USERR3
 40
0.0
  9
$USERR4
 40
0.0
  9
$USERR5
 40
0.0
  9
$WORLDVIEW
 70
     1
  9
$SHADEDGE
 70
     3
  9
$SHADEDIF
 70
    70
  9
$TILEMODE
 70
     1
  9
$MAXACTVP
 70
    16
  9
$PINSBASE
 10
0.0
 20
0.0
 30
0.0
  9
$PLIMCHECK
 70
     0
  9
$PEXTMIN
 10
1.057335079500113
 20
0.8072817979566906
 30
-0.0000000349181948
  9
$PEXTMAX
 10
9.518486014756849
 20
7.268272518691802
 30
0.0000000814935746
  9
$PLIMMIN
 10
-0.2112501249538632
 20
-0.2112499935420479
  9
$PLIMMAX
 10
10.78874963475025
 20
8.288749766162061
  9
$UNITMODE
 70
     0
  9
$VISRETAIN
 70
     0
  9
$PLINEGEN
 70
     1
  9
$PSLTSCALE
 70
     0
  9
$TREEDEPTH
 70
  3020
  9
$CMLSTYLE
  2
STANDARD
  9
$CMLJUST
 70
     0
  9
$CMLSCALE
 40
1.0
  9
$PROXYGRAPHICS
 70
     1
  9
$MEASUREMENT
 70
     0
  9
$CELWEIGHT
370
    -1
  9
$ENDCAPS
280
     0
  9
$JOINSTYLE
280
     0
  9
$LWDISPLAY
290
     0
  9
$INSUNITS
 70
     0
  9
$HYPERLINKBASE
  1

  9
$STYLESHEET
  1

  9
$XEDIT
290
     1
  9
$CEPSNTYPE
380
     0
  9
$PSTYLEMODE
290
     1
  9
$FINGERPRINTGUID
  2
{7AD2D6B0-FD17-11D4-BE3F-00508B5FCD51}
  9
$VERSIONGUID
  2
{DFDC962C-2E46-418C-8555-EB821C24AD83}
  9
$EXTNAMES
290
     1
  9
$PSVPSCALE
 40
0.0
  9
$OLESTARTUP
290
     0
  0
ENDSEC
  0
SECTION
  2
CLASSES
  0
CLASS
  1
DICTIONARYVAR
  2
AcDbDictionaryVar
  3
AutoCAD 2000
 90
        0
280
     0
281
     0
  0
CLASS
  1
LWPOLYLINE
  2
AcDbPolyline
  3
AutoCAD 2000
 90
        0
280
     0
281
     1
  0
CLASS
  1
ACDBDICTIONARYWDFLT
  2
AcDbDictionaryWithDefault
  3
AutoCAD 2000
 90
        0
280
     0
281
     0
  0
CLASS
  1
ACDBPLACEHOLDER
  2
AcDbPlaceHolder
  3
ObjectDBX Classes
 90
        0
280
     0
281
     0
  0
CLASS
  1
LAYOUT
  2
AcDbLayout
  3
ObjectDBX Classes
 90
        0
280
     0
281
     0
  0
CLASS
  1
LONG_TRANSACTION
  2
AcDbLongTransaction
  3
ObjectDBX Classes
 90
   -65536
280
     1
281
     0
  0
CLASS
  1
LWPOLYLINE
  2
AcDbPolyline
  3
AutoCAD 2000
 90
        0
280
     0
281
     1
  0
CLASS
  1
HATCH
  2
AcDbHatch
  3
AutoCAD 2000
 90
        0
280
     0
281
     1
  0
CLASS
  1
XRECORD
  2
AcDbXrecord
  3
AutoCAD 2000
 90
        0
280
     0
281
     0
  0
CLASS
  1
LONG_TRANSACTION
  2
AcDbLongTransaction
  3
ObjectDBX Classes
 90
   -65536
280
     1
281
     0
  0
CLASS
  1
LWPOLYLINE
  2
AcDbPolyline
  3
AutoCAD 2000
 90
        0
280
     0
281
     1
  0
CLASS
  1
HATCH
  2
AcDbHatch
  3
AutoCAD 2000
 90
        0
280
     0
281
     1
  0
CLASS
  1
XRECORD
  2
AcDbXrecord
  3
AutoCAD 2000
 90
        0
280
     0
281
     0
  0
CLASS
  1
LONG_TRANSACTION
  2
AcDbLongTransaction
  3
ObjectDBX Classes
 90
   -65536
280
     1
281
     0
  0
CLASS
  1
LWPOLYLINE
  2
AcDbPolyline
  3
AutoCAD 2000
 90
        0
280
     0
281
     1
  0
CLASS
  1
HATCH
  2
AcDbHatch
  3
AutoCAD 2000
 90
        0
280
     0
281
     1
  0
CLASS
  1
XRECORD
  2
AcDbXrecord
  3
AutoCAD 2000
 90
        0
280
     0
281
     0
  0
CLASS
  1
LONG_TRANSACTION
  2
AcDbLongTransaction
  3
ObjectDBX Classes
 90
   -65536
280
     1
281
     0
  0
CLASS
  1
LWPOLYLINE
  2
AcDbPolyline
  3
AutoCAD 2000
 90
        0
280
     0
281
     1
  0
CLASS
  1
HATCH
  2
AcDbHatch
  3
AutoCAD 2000
 90
        0
280
     0
281
     1
  0
CLASS
  1
XRECORD
  2
AcDbXrecord
  3
AutoCAD 2000
 90
        0
280
     0
281
     0
  0
CLASS
  1
LONG_TRANSACTION
  2
AcDbLongTransaction
  3
ObjectDBX Classes
 90
   -65536
280
     1
281
     0
  0
CLASS
  1
LWPOLYLINE
  2
AcDbPolyline
  3
AutoCAD 2000
 90
        0
280
     0
281
     1
  0
CLASS
  1
HATCH
  2
AcDbHatch
  3
AutoCAD 2000
 90
        0
280
     0
281
     1
  0
CLASS
  1
XRECORD
  2
AcDbXrecord
  3
AutoCAD 2000
 90
        0
280
     0
281
     0
  0
CLASS
  1
LONG_TRANSACTION
  2
AcDbLongTransaction
  3
ObjectDBX Classes
 90
   -65536
280
     1
281
     0
  0
CLASS
  1
LWPOLYLINE
  2
AcDbPolyline
  3
AutoCAD 2000
 90
        0
280
     0
281
     1
  0
CLASS
  1
HATCH
  2
AcDbHatch
  3
AutoCAD 2000
 90
        0
280
     0
281
     1
  0
CLASS
  1
XRECORD
  2
AcDbXrecord
  3
AutoCAD 2000
 90
        0
280
     0
281
     0
  0
CLASS
  1
LONG_TRANSACTION
  2
AcDbLongTransaction
  3
ObjectDBX Classes
 90
   -65536
280
     1
281
     0
  0
CLASS
  1
LWPOLYLINE
  2
AcDbPolyline
  3
AutoCAD 2000
 90
        0
280
     0
281
     1
  0
CLASS
  1
HATCH
  2
AcDbHatch
  3
AutoCAD 2000
 90
        0
280
     0
281
     1
  0
CLASS
  1
XRECORD
  2
AcDbXrecord
  3
AutoCAD 2000
 90
        0
280
     0
281
     0
  0
CLASS
  1
LONG_TRANSACTION
  2
AcDbLongTransaction
  3
ObjectDBX Classes
 90
   -65536
280
     1
281
     0
  0
CLASS
  1
LWPOLYLINE
  2
AcDbPolyline
  3
AutoCAD 2000
 90
        0
280
     0
281
     1
  0
CLASS
  1
HATCH
  2
AcDbHatch
  3
AutoCAD 2000
 90
        0
280
     0
281
     1
  0
CLASS
  1
XRECORD
  2
AcDbXrecord
  3
AutoCAD 2000
 90
        0
280
     0
281
     0
  0
CLASS
  1
LONG_TRANSACTION
  2
AcDbLongTransaction
  3
ObjectDBX Classes
 90
   -65536
280
     1
281
     0
  0
CLASS
  1
LWPOLYLINE
  2
AcDbPolyline
  3
AutoCAD 2000
 90
        0
280
     0
281
     1
  0
CLASS
  1
HATCH
  2
AcDbHatch
  3
AutoCAD 2000
 90
        0
280
     0
281
     1
  0
CLASS
  1
XRECORD
  2
AcDbXrecord
  3
AutoCAD 2000
 90
        0
280
     0
281
     0
  0
CLASS
  1
LONG_TRANSACTION
  2
AcDbLongTransaction
  3
ObjectDBX Classes
 90
   -65536
280
     1
281
     0
  0
CLASS
  1
LWPOLYLINE
  2
AcDbPolyline
  3
AutoCAD 2000
 90
        0
280
     0
281
     1
  0
CLASS
  1
HATCH
  2
AcDbHatch
  3
AutoCAD 2000
 90
        0
280
     0
281
     1
  0
CLASS
  1
XRECORD
  2
AcDbXrecord
  3
AutoCAD 2000
 90
        0
280
     0
281
     0
  0
CLASS
  1
LONG_TRANSACTION
  2
AcDbLongTransaction
  3
ObjectDBX Classes
 90
   -65536
280
     1
281
     0
  0
CLASS
  1
LWPOLYLINE
  2
AcDbPolyline
  3
AutoCAD 2000
 90
        0
280
     0
281
     1
  0
CLASS
  1
HATCH
  2
AcDbHatch
  3
AutoCAD 2000
 90
        0
280
     0
281
     1
  0
CLASS
  1
XRECORD
  2
AcDbXrecord
  3
AutoCAD 2000
 90
        0
280
     0
281
     0
  0
CLASS
  1
LONG_TRANSACTION
  2
AcDbLongTransaction
  3
ObjectDBX Classes
 90
   -65536
280
     1
281
     0
  0
CLASS
  1
LWPOLYLINE
  2
AcDbPolyline
  3
AutoCAD 2000
 90
        0
280
     0
281
     1
  0
CLASS
  1
HATCH
  2
AcDbHatch
  3
AutoCAD 2000
 90
        0
280
     0
281
     1
  0
CLASS
  1
XRECORD
  2
AcDbXrecord
  3
AutoCAD 2000
 90
        0
280
     0
281
     0
  0
CLASS
  1
LONG_TRANSACTION
  2
AcDbLongTransaction
  3
ObjectDBX Classes
 90
   -65536
280
     1
281
     0
  0
CLASS
  1
LWPOLYLINE
  2
AcDbPolyline
  3
AutoCAD 2000
 90
        0
280
     0
281
     1
  0
CLASS
  1
HATCH
  2
AcDbHatch
  3
AutoCAD 2000
 90
        0
280
     0
281
     1
  0
CLASS
  1
XRECORD
  2
AcDbXrecord
  3
AutoCAD 2000
 90
        0
280
     0
281
     0
  0
CLASS
  1
LONG_TRANSACTION
  2
AcDbLongTransaction
  3
ObjectDBX Classes
 90
   -65536
280
     1
281
     0
  0
CLASS
  1
LWPOLYLINE
  2
AcDbPolyline
  3
AutoCAD 2000
 90
        0
280
     0
281
     1
  0
CLASS
  1
HATCH
  2
AcDbHatch
  3
AutoCAD 2000
 90
        0
280
     0
281
     1
  0
CLASS
  1
XRECORD
  2
AcDbXrecord
  3
AutoCAD 2000
 90
        0
280
     0
281
     0
  0
CLASS
  1
LONG_TRANSACTION
  2
AcDbLongTransaction
  3
ObjectDBX Classes
 90
   -65536
280
     1
281
     0
  0
CLASS
  1
LWPOLYLINE
  2
AcDbPolyline
  3
AutoCAD 2000
 90
        0
280
     0
281
     1
  0
CLASS
  1
HATCH
  2
AcDbHatch
  3
AutoCAD 2000
 90
        0
280
     0
281
     1
  0
CLASS
  1
XRECORD
  2
AcDbXrecord
  3
AutoCAD 2000
 90
        0
280
     0
281
     0
  0
CLASS
  1
LONG_TRANSACTION
  2
AcDbLongTransaction
  3
ObjectDBX Classes
 90
   -65536
280
     1
281
     0
  0
CLASS
  1
LWPOLYLINE
  2
AcDbPolyline
  3
AutoCAD 2000
 90
        0
280
     0
281
     1
  0
CLASS
  1
HATCH
  2
AcDbHatch
  3
AutoCAD 2000
 90
        0
280
     0
281
     1
  0
CLASS
  1
XRECORD
  2
AcDbXrecord
  3
AutoCAD 2000
 90
        0
280
     0
281
     0
  0
CLASS
  1
LONG_TRANSACTION
  2
AcDbLongTransaction
  3
ObjectDBX Classes
 90
   -65536
280
     1
281
     0
  0
CLASS
  1
LWPOLYLINE
  2
AcDbPolyline
  3
AutoCAD 2000
 90
        0
280
     0
281
     1
  0
CLASS
  1
HATCH
  2
AcDbHatch
  3
AutoCAD 2000
 90
        0
280
     0
281
     1
  0
CLASS
  1
XRECORD
  2
AcDbXrecord
  3
AutoCAD 2000
 90
        0
280
     0
281
     0
  0
CLASS
  1
LONG_TRANSACTION
  2
AcDbLongTransaction
  3
ObjectDBX Classes
 90
   -65536
280
     1
281
     0
  0
CLASS
  1
LWPOLYLINE
  2
AcDbPolyline
  3
AutoCAD 2000
 90
        0
280
     0
281
     1
  0
CLASS
  1
HATCH
  2
AcDbHatch
  3
AutoCAD 2000
 90
        0
280
     0
281
     1
  0
CLASS
  1
XRECORD
  2
AcDbXrecord
  3
AutoCAD 2000
 90
        0
280
     0
281
     0
  0
CLASS
  1
LONG_TRANSACTION
  2
AcDbLongTransaction
  3
ObjectDBX Classes
 90
   -65536
280
     1
281
     0
  0
CLASS
  1
LWPOLYLINE
  2
AcDbPolyline
  3
AutoCAD 2000
 90
        0
280
     0
281
     1
  0
CLASS
  1
HATCH
  2
AcDbHatch
  3
AutoCAD 2000
 90
        0
280
     0
281
     1
  0
CLASS
  1
XRECORD
  2
AcDbXrecord
  3
AutoCAD 2000
 90
        0
280
     0
281
     0
  0
CLASS
  1
LONG_TRANSACTION
  2
AcDbLongTransaction
  3
ObjectDBX Classes
 90
   -65536
280
     1
281
     0
  0
CLASS
  1
LWPOLYLINE
  2
AcDbPolyline
  3
AutoCAD 2000
 90
        0
280
     0
281
     1
  0
CLASS
  1
HATCH
  2
AcDbHatch
  3
AutoCAD 2000
 90
        0
280
     0
281
     1
  0
CLASS
  1
XRECORD
  2
AcDbXrecord
  3
AutoCAD 2000
 90
        0
280
     0
281
     0
  0
CLASS
  1
TABLESTYLE
  2
AcDbTableStyle
  3
ObjectDBX Classes
 90
     2047
280
     1
281
     0
  0
ENDSEC
  0
SECTION
  2
TABLES
  0
TABLE
  2
VPORT
  5
11A0
330
0
100
AcDbSymbolTable
 70
     2
  0
VPORT
  5
3165
330
11A0
100
AcDbSymbolTableRecord
100
AcDbViewportTableRecord
  2
*Active
 70
     0
 10
0.0
 20
0.0
 11
1.0
 21
1.0
 12
7.892334002876114
 22
10.44921114499356
 13
0.0
 23
0.0
 14
0.0625
 24
0.0625
 15
0.25
 25
0.25
 16
0.0
 26
0.0
 36
1.0
 17
0.0
 27
0.0
 37
0.0
 40
21.36479905358892
 41
1.814583333333334
 42
50.0
 43
0.0
 44
0.0
 50
0.0
 51
0.0
 71
     0
 72
   100
 73
     1
 74
     0
 75
     0
 76
     0
 77
     0
 78
     0
281
     0
 65
     1
110
0.0
120
0.0
130
0.0
111
1.0
121
0.0
131
0.0
112
0.0
122
1.0
132
0.0
 79
     0
146
0.0
  0
ENDTAB
  0
TABLE
  2
LTYPE
  5
119D
330
0
100
AcDbSymbolTable
 70
     2
  0
LTYPE
  5
11A9
330
119D
100
AcDbSymbolTableRecord
100
AcDbLinetypeTableRecord
  2
BYBLOCK
 70
     0
  3

 72
    65
 73
     0
 40
0.0
  0
LTYPE
  5
11AA
330
119D
100
AcDbSymbolTableRecord
100
AcDbLinetypeTableRecord
  2
BYLAYER
 70
     0
  3

 72
    65
 73
     0
 40
0.0
  0
LTYPE
  5
11AB
330
119D
100
AcDbSymbolTableRecord
100
AcDbLinetypeTableRecord
  2
CONTINUOUS
 70
     0
  3
Solid line
 72
    65
 73
     0
 40
0.0
  0
LTYPE
  5
11C6
330
119D
100
AcDbSymbolTableRecord
100
AcDbLinetypeTableRecord
  2
HIDDEN
 70
     0
  3
_ _ _ _ _ _ _ _ _ _ _ _ _ _ _ _ _ _ _ _ _ _ _
 72
    65
 73
     2
 40
0.375
 49
0.25
 74
     0
 49
-0.125
 74
     0
  0
ENDTAB
  0
TABLE
  2
LAYER
  5
119A
330
0
100
AcDbSymbolTable
 70
     4
  0
LAYER
  5
11A6
330
119A
100
AcDbSymbolTableRecord
100
AcDbLayerTableRecord
  2
0
 70
     0
 62
     7
  6
CONTINUOUS
370
    -3
390
15BF
  0
LAYER
  5
11D4
330
119A
100
AcDbSymbolTableRecord
100
AcDbLayerTableRecord
  2
DIM
 70
     0
 62
     5
  6
CONTINUOUS
370
    -3
390
15BF
  0
ENDTAB
  0
TABLE
  2
STYLE
  5
119B
330
0
100
AcDbSymbolTable
 70
     1
  0
STYLE
  5
11A7
330
119B
100
AcDbSymbolTableRecord
100
AcDbTextStyleTableRecord
  2
STANDARD
 70
     0
 40
0.0
 41
1.0
 50
0.0
 71
     0
 42
0.18
  3
TXT
  4

  0
ENDTAB
  0
TABLE
  2
VIEW
  5
119E
330
0
100
AcDbSymbolTable
 70
     1
  0
VIEW
  5
11CB
330
119E
100
AcDbSymbolTableRecord
100
AcDbViewTableRecord
  2
1
 70
     0
 40
8.149475694399708
 10
6.869897054360147
 20
9.830771043222521
 41
1.0
 11
0.0
 21
0.0
 31
1.0
 12
0.0
 22
0.0
 32
0.0
 42
50.0
 43
0.0
 44
0.0
 50
0.0
 71
     0
281
     0
 72
     0
  0
ENDTAB
  0
TABLE
  2
UCS
  5
119F
330
0
100
AcDbSymbolTable
 70
     0
  0
ENDTAB
  0
TABLE
  2
APPID
  5
11A1
330
0
100
AcDbSymbolTable
 70
     5
  0
APPID
  5
11A8
330
11A1
100
AcDbSymbolTableRecord
100
AcDbRegAppTableRecord
  2
ACAD
 70
     0
  0
APPID
  5
14D5
330
11A1
100
AcDbSymbolTableRecord
100
AcDbRegAppTableRecord
  2
RAK
 70
     0
  0
APPID
  5
14D6
330
11A1
100
AcDbSymbolTableRecord
100
AcDbRegAppTableRecord
  2
AME_SOL
 70
     0
  0
APPID
  5
280F
330
11A1
100
AcDbSymbolTableRecord
100
AcDbRegAppTableRecord
  2
ACAD_PSEXT
 70
     0
  0
APPID
  5
2810
330
11A1
100
AcDbSymbolTableRecord
100
AcDbRegAppTableRecord
  2
AcAecLayerStandard
 70
     0
  0
ENDTAB
  0
TABLE
  2
DIMSTYLE
  5
11A2
330
0
100
AcDbSymbolTable
 70
     1
100
AcDbDimStyleTable
  0
DIMSTYLE
105
11CE
330
11A2
100
AcDbSymbolTableRecord
100
AcDbDimStyleTableRecord
  2
STANDARD
 70
     0
  3

  4

271
     5
272
     5
273
     5
277
     5
279
     2
340
11A7
  0
ENDTAB
  0
TABLE
  2
BLOCK_RECORD
  5
1199
330
0
100
AcDbSymbolTable
 70
     0
  0
BLOCK_RECORD
  5
11AF
330
1199
100
AcDbSymbolTableRecord
100
AcDbBlockTableRecord
  2
*MODEL_SPACE
340
15C2
  0
BLOCK_RECORD
  5
11AC
330
1199
100
AcDbSymbolTableRecord
100
AcDbBlockTableRecord
  2
*PAPER_SPACE
340
15C3
  0
ENDTAB
  0
ENDSEC
  0
SECTION
  2
BLOCKS
  0
BLOCK
  5
11E0
330
11AF
100
AcDbEntity
  8
0
100
AcDbBlockBegin
  2
*MODEL_SPACE
 70
     0
 10
0.0
 20
0.0
 30
0.0
  3
*MODEL_SPACE
  1

  4

  0
ENDBLK
  5
11E1
330
11AF
100
AcDbEntity
  8
0
100
AcDbBlockEnd
  0
BLOCK
  5
11DE
330
11AC
100
AcDbEntity
 67
     1
  8
0
100
AcDbBlockBegin
  2
*PAPER_SPACE
 70
     0
 10
0.0
 20
0.0
 30
0.0
  3
*PAPER_SPACE
  1

  4

  0
ENDBLK
  5
11DF
330
11AC
100
AcDbEntity
 67
     1
  8
0
100
AcDbBlockEnd
  0
ENDSEC
  0
SECTION
  2
ENTITIES
  0
ARC
  5
30D3
330
11AF
100
AcDbEntity
  8
0
  6
Continuous
100
AcDbCircle
 10
-0.2499999999999858
 20
3.111784317729491
 30
0.0
 40
0.2499999999999987
100
AcDbArc
 50
359.9999999999992
 51
29.99999999999931
  0
ARC
  5
30D4
330
11AF
100
AcDbEntity
  8
0
  6
Continuous
100
AcDbCircle
 10
1.25
 20
3.111784190432278
 30
0.0
 40
0.2500000000000027
100
AcDbArc
 50
0.0000000000024427
 51
30.00000000000231
  0
ARC
  5
30D5
330
11AF
100
AcDbEntity
  8
0
  6
Continuous
100
AcDbCircle
 10
0.8125
 20
0.0000000000000071
 30
0.0
 40
0.0549999999999997
100
AcDbArc
 50
270.0000000000004
 51
0.0000000000111956
  0
LWPOLYLINE
  5
30D6
330
11AF
100
AcDbEntity
  8
0
  6
Continuous
100
AcDbPolyline
 90
        4
 70
     0
 43
0.0
 10
0.8675000000000068
 20
0.0000000000000071
 10
0.8675000000000068
 20
0.3809618943233133
 42
1.0
 10
0.6324999999999932
 20
0.3809618943233133
 10
0.6324999999999932
 20
0.0000000000000071
  0
LINE
  5
30D7
330
11AF
100
AcDbEntity
  8
0
  6
HIDDEN
100
AcDbLine
 10
0.0
 20
0.0550000000000068
 30
0.0
 11
1.5
 21
0.0550000000000068
 31
0.0
  0
LINE
  5
30D8
330
11AF
100
AcDbEntity
  8
0
  6
Continuous
100
AcDbLine
 10
0.0
 20
0.0000000000000036
 30
0.0
 11
0.0
 21
3.111784190432292
 31
0.0
  0
LWPOLYLINE
  5
30D9
330
11AF
100
AcDbEntity
  8
0
  6
Continuous
100
AcDbPolyline
 90
        4
 70
     0
 43
0.0
 10
0.367999999999995
 20
0.0
 10
0.367999999999995
 20
1.130961894323324
 42
1.0
 10
0.1329999999999956
 20
1.130961894323324
 10
0.1329999999999956
 20
0.0
  0
LWPOLYLINE
  5
30DA
330
11AF
100
AcDbEntity
  8
0
  6
HIDDEN
100
AcDbPolyline
 90
        4
 70
     0
 43
0.0
 10
0.3129999999999882
 20
0.0
 10
0.3129999999999882
 20
1.130961894323324
 42
0.9999999999999999
 10
0.1879999999999882
 20
1.130961894323324
 10
0.1879999999999882
 20
0.0
  0
LINE
  5
30DB
330
11AF
100
AcDbEntity
  8
0
  6
Continuous
100
AcDbLine
 10
0.1879999999999882
 20
-0.0549999999999926
 30
0.0
 11
0.3129999999999882
 21
-0.0549999999999926
 31
0.0
  0
LINE
  5
30DC
330
11AF
100
AcDbEntity
  8
0
  6
Continuous
100
AcDbLine
 10
0.0
 20
0.0
 30
0.0
 11
0.1329999999999956
 21
0.0000000000000009
 31
0.0
  0
ARC
  5
30DD
330
11AF
100
AcDbEntity
  8
0
  6
Continuous
100
AcDbCircle
 10
0.1879999999999882
 20
0.0
 30
0.0
 40
0.0550000000000006
100
AcDbArc
 50
179.9999999999963
 51
270.0000000000004
  0
CIRCLE
  5
30DE
330
11AF
100
AcDbEntity
  8
0
  6
Continuous
100
AcDbCircle
 10
0.5
 20
0.6800000000000033
 30
0.0
 40
0.078
  0
LINE
  5
30DF
330
11AF
100
AcDbEntity
  8
0
  6
Continuous
100
AcDbLine
 10
0.367999999999995
 20
0.0000000000000036
 30
0.0
 11
0.6324999999999932
 21
0.0000000000000062
 31
0.0
  0
ARC
  5
30E0
330
11AF
100
AcDbEntity
  8
0
  6
Continuous
100
AcDbCircle
 10
0.3129999999999882
 20
0.0
 30
0.0
 40
0.0549999999999997
100
AcDbArc
 50
270.0000000000004
 51
0.0000000000111956
  0
LWPOLYLINE
  5
30E1
330
11AF
100
AcDbEntity
  8
0
  6
HIDDEN
100
AcDbPolyline
 90
        4
 70
     0
 43
0.0
 10
0.8125
 20
0.0000000000000071
 10
0.8125
 20
0.3809618943233133
 42
0.9999999999999999
 10
0.6875
 20
0.3809618943233133
 10
0.6875
 20
0.0000000000000071
  0
ARC
  5
30E2
330
11AF
100
AcDbEntity
  8
0
  6
Continuous
100
AcDbCircle
 10
0.6875
 20
0.0000000000000071
 30
0.0
 40
0.0550000000000006
100
AcDbArc
 50
179.9999999999963
 51
270.0000000000004
  0
LINE
  5
30E3
330
11AF
100
AcDbEntity
  8
0
  6
Continuous
100
AcDbLine
 10
0.6875
 20
-0.0549999999999855
 30
0.0
 11
0.8125
 21
-0.0549999999999855
 31
0.0
  0
CIRCLE
  5
30E4
330
11AF
100
AcDbEntity
  8
0
  6
Continuous
100
AcDbCircle
 10
0.5
 20
1.180000000000003
 30
0.0
 40
0.078
  0
ARC
  5
30E5
330
11AF
100
AcDbEntity
  8
0
  6
Continuous
100
AcDbCircle
 10
0.2033000000000129
 20
1.849113227286519
 30
0.0
 40
0.0313
100
AcDbArc
 50
180.0
 51
299.9999999999989
  0
ARC
  5
30E6
330
11AF
100
AcDbEntity
  8
0
  6
Continuous
100
AcDbCircle
 10
0.2033000000000129
 20
2.010886772713487
 30
0.0
 40
0.0313
100
AcDbArc
 50
60.00000000000095
 51
180.0
  0
LINE
  5
30E7
330
11AF
100
AcDbEntity
  8
0
  6
Continuous
100
AcDbLine
 10
0.1720000000000113
 20
2.010886772713487
 30
0.0
 11
0.1720000000000113
 21
1.849113227286519
 31
0.0
  0
ARC
  5
30E8
330
11AF
100
AcDbEntity
  8
0
  6
Continuous
100
AcDbCircle
 10
0.3434000000000168
 20
1.930000000300819
 30
0.0
 40
0.0313
100
AcDbArc
 50
299.9999999999993
 51
60.00000000000025
  0
LINE
  5
30E9
330
11AF
100
AcDbEntity
  8
0
  6
Continuous
100
AcDbLine
 10
0.3590500000000105
 20
1.902893405162384
 30
0.0
 11
0.2189500000000209
 21
1.822006632148085
 31
0.0
  0
LINE
  5
30EA
330
11AF
100
AcDbEntity
  8
0
  6
Continuous
100
AcDbLine
 10
0.3590500000000105
 20
1.95710659543931
 30
0.0
 11
0.2189500000000209
 21
2.037993367851922
 31
0.0
  0
LINE
  5
30EB
330
11AF
100
AcDbEntity
  8
0
  6
Continuous
100
AcDbLine
 10
0.6090499999999963
 20
2.652893405162377
 30
0.0
 11
0.4689500000000066
 21
2.572006632148078
 31
0.0
  0
LINE
  5
30EC
330
11AF
100
AcDbEntity
  8
0
  6
Continuous
100
AcDbLine
 10
0.6090499999999963
 20
2.707106595439303
 30
0.0
 11
0.4689500000000066
 21
2.787993367851914
 31
0.0
  0
LINE
  5
30ED
330
11AF
100
AcDbEntity
  8
0
  6
Continuous
100
AcDbLine
 10
0.421999999999997
 20
2.76088677271348
 30
0.0
 11
0.421999999999997
 21
2.599113227286512
 31
0.0
  0
ARC
  5
30EE
330
11AF
100
AcDbEntity
  8
0
  6
Continuous
100
AcDbCircle
 10
0.4532999999999987
 20
2.599113227286512
 30
0.0
 40
0.0313
100
AcDbArc
 50
180.0
 51
299.9999999999989
  0
ARC
  5
30EF
330
11AF
100
AcDbEntity
  8
0
  6
Continuous
100
AcDbCircle
 10
0.4532999999999987
 20
2.76088677271348
 30
0.0
 40
0.0313
100
AcDbArc
 50
60.00000000000095
 51
180.0
  0
ARC
  5
30F0
330
11AF
100
AcDbEntity
  8
0
  6
Continuous
100
AcDbCircle
 10
0.5934000000000026
 20
2.680000000300812
 30
0.0
 40
0.0313
100
AcDbArc
 50
299.9999999999993
 51
60.00000000000025
  0
LINE
  5
30F1
330
11AF
100
AcDbEntity
  8
0
  6
Continuous
100
AcDbLine
 10
1.5
 20
3.111784190432289
 30
0.0
 11
1.5
 21
0.0000000000000142
 31
0.0
  0
LINE
  5
30F2
330
11AF
100
AcDbEntity
  8
0
  6
Continuous
100
AcDbLine
 10
1.36699999999999
 20
0.0000000000000133
 30
0.0
 11
1.5
 21
0.0000000000000142
 31
0.0
  0
LWPOLYLINE
  5
30F3
330
11AF
100
AcDbEntity
  8
0
  6
Continuous
100
AcDbPolyline
 90
        4
 70
     0
 43
0.0
 10
1.36699999999999
 20
0.0000000000000142
 10
1.36699999999999
 20
1.130961894323317
 42
1.0
 10
1.131999999999977
 20
1.130961894323317
 10
1.131999999999977
 20
0.0000000000000071
  0
LWPOLYLINE
  5
30F4
330
11AF
100
AcDbEntity
  8
0
  6
HIDDEN
100
AcDbPolyline
 90
        4
 70
     0
 43
0.0
 10
1.311999999999983
 20
0.0000000000000142
 10
1.311999999999983
 20
1.130961894323317
 42
0.9999999999999999
 10
1.186999999999983
 20
1.130961894323317
 10
1.186999999999983
 20
0.0000000000000142
  0
ARC
  5
30F5
330
11AF
100
AcDbEntity
  8
0
  6
Continuous
100
AcDbCircle
 10
1.186999999999983
 20
0.0000000000000071
 30
0.0
 40
0.0550000000000006
100
AcDbArc
 50
179.9999999999963
 51
270.0000000000004
  0
LINE
  5
30F6
330
11AF
100
AcDbEntity
  8
0
  6
Continuous
100
AcDbLine
 10
0.8675000000000068
 20
0.000000000000008
 30
0.0
 11
1.131999999999977
 21
0.0000000000000107
 31
0.0
  0
LINE
  5
30F7
330
11AF
100
AcDbEntity
  8
0
  6
Continuous
100
AcDbLine
 10
1.186999999999983
 20
-0.0549999999999855
 30
0.0
 11
1.311999999999983
 21
-0.0549999999999855
 31
0.0
  0
ARC
  5
30F8
330
11AF
100
AcDbEntity
  8
0
  6
Continuous
100
AcDbCircle
 10
1.311999999999983
 20
0.0000000000000071
 30
0.0
 40
0.0549999999999997
100
AcDbArc
 50
270.0000000000004
 51
0.0000000000111956
  0
CIRCLE
  5
30F9
330
11AF
100
AcDbEntity
  8
0
  6
Continuous
100
AcDbCircle
 10
1.0
 20
0.9300000000000033
 30
0.0
 40
0.078
  0
LINE
  5
30FA
330
11AF
100
AcDbEntity
  8
0
  6
Continuous
100
AcDbLine
 10
1.211647366183385
 20
2.332106595439303
 30
0.0
 11
1.071547366183395
 21
2.412993367851914
 31
0.0
  0
LINE
  5
30FB
330
11AF
100
AcDbEntity
  8
0
  6
Continuous
100
AcDbLine
 10
1.024597366183386
 20
2.38588677271348
 30
0.0
 11
1.024597366183386
 21
2.224113227286512
 31
0.0
  0
LINE
  5
30FC
330
11AF
100
AcDbEntity
  8
0
  6
Continuous
100
AcDbLine
 10
1.211647366183385
 20
2.277893405162377
 30
0.0
 11
1.071547366183395
 21
2.197006632148078
 31
0.0
  0
ARC
  5
30FD
330
11AF
100
AcDbEntity
  8
0
  6
Continuous
100
AcDbCircle
 10
1.055897366183388
 20
2.224113227286512
 30
0.0
 40
0.0313
100
AcDbArc
 50
180.0
 51
299.9999999999989
  0
ARC
  5
30FE
330
11AF
100
AcDbEntity
  8
0
  6
Continuous
100
AcDbCircle
 10
1.195997366183391
 20
2.305000000300812
 30
0.0
 40
0.0313
100
AcDbArc
 50
299.9999999999993
 51
60.00000000000025
  0
ARC
  5
30FF
330
11AF
100
AcDbEntity
  8
0
  6
Continuous
100
AcDbCircle
 10
1.055897366183388
 20
2.38588677271348
 30
0.0
 40
0.0313
100
AcDbArc
 50
60.00000000000095
 51
180.0
  0
LINE
  5
3100
330
11AF
100
AcDbEntity
  8
0
  6
Continuous
100
AcDbLine
 10
-0.1800000000000068
 20
7.929999999999989
 30
0.0
 11
-0.1800000000000068
 21
3.490540761199693
 31
0.0
  0
LINE
  5
3101
330
11AF
100
AcDbEntity
  8
0
  6
Continuous
100
AcDbLine
 10
-0.125
 20
5.993354050839496
 30
0.0
 11
-0.125
 21
7.929999999999989
 31
0.0
  0
LINE
  5
3102
330
11AF
100
AcDbEntity
  8
0
  6
Continuous
100
AcDbLine
 10
1.466506350946105
 20
3.236784190432285
 30
0.0
 11
-0.1800000000000068
 21
6.088616845255796
 31
0.0
  0
LINE
  5
3103
330
11AF
100
AcDbEntity
  8
0
  6
HIDDEN
 48
0.5
100
AcDbLine
 10
-0.125
 20
3.395277966783386
 30
0.0
 11
-0.125
 21
5.993354050839496
 31
0.0
  0
LINE
  5
3104
330
11AF
100
AcDbEntity
  8
0
  6
Continuous
100
AcDbLine
 10
-0.1800000000000068
 20
3.4905407611997
 30
0.0
 11
-0.0334936490538809
 21
3.236784317729491
 31
0.0
  0
LINE
  5
3105
330
11AF
100
AcDbEntity
  8
0
  6
Continuous
100
AcDbLine
 10
-0.1799999999999926
 20
7.929999999999975
 30
0.0
 11
-0.125
 21
7.929999999999975
 31
0.0
  0
ARC
  5
3106
330
11AF
100
AcDbEntity
  8
0
  6
Continuous
 48
0.5
100
AcDbCircle
 10
0.7500000000000071
 20
10.30479772984166
 30
0.0
 40
0.1174999999999997
100
AcDbArc
 50
0.0
 51
180.0
  0
LINE
  5
3107
330
11AF
100
AcDbEntity
  8
0
  6
Continuous
100
AcDbLine
 10
0.1249999999999965
 20
11.09225962416497
 30
0.0
 11
1.375
 21
11.09225962416499
 31
0.0
  0
ARC
  5
3108
330
11AF
100
AcDbEntity
  8
0
  6
Continuous
100
AcDbCircle
 10
0.8125
 20
10.06575962416496
 30
0.0
 40
0.0549999999999997
100
AcDbArc
 50
270.0000000000004
 51
0.0000000000111956
  0
LINE
  5
3109
330
11AF
100
AcDbEntity
  8
0
  6
Continuous
100
AcDbLine
 10
-0.0150000000000041
 20
10.12075962416497
 30
0.0
 11
1.5
 21
10.12075962416497
 31
0.0
  0
LINE
  5
310A
330
11AF
100
AcDbEntity
  8
0
  6
Continuous
100
AcDbLine
 10
-0.0150000000000006
 20
10.06575962416497
 30
0.0
 11
1.5
 21
10.06575962416497
 31
0.0
  0
LINE
  5
310B
330
11AF
100
AcDbEntity
  8
0
  6
Continuous
100
AcDbLine
 10
-0.1800000000000104
 20
10.23075962416497
 30
0.0
 11
-0.1800000000000104
 21
12.35915962416496
 31
0.0
  0
LINE
  5
310C
330
11AF
100
AcDbEntity
  8
0
  6
Continuous
100
AcDbLine
 10
-0.1250000000000036
 20
10.23075962416497
 30
0.0
 11
-0.1250000000000036
 21
12.35915962416496
 31
0.0
  0
ARC
  5
310D
330
11AF
100
AcDbEntity
  8
0
  6
Continuous
 48
0.5
100
AcDbCircle
 10
0.2504999999999917
 20
10.30479772984166
 30
0.0
 40
0.1174999999999997
100
AcDbArc
 50
0.0
 51
180.0
  0
ARC
  5
310E
330
11AF
100
AcDbEntity
  8
0
  6
Continuous
100
AcDbCircle
 10
0.2504999999999846
 20
10.30479772984166
 30
0.0
 40
0.0625
100
AcDbArc
 50
0.0
 51
180.0
  0
LINE
  5
310F
330
11AF
100
AcDbEntity
  8
0
  6
Continuous
100
AcDbLine
 10
0.1879999999999846
 20
10.01075962416496
 30
0.0
 11
0.3129999999999846
 21
10.01075962416496
 31
0.0
  0
LINE
  5
3110
330
11AF
100
AcDbEntity
  8
0
  6
Continuous
100
AcDbLine
 10
-0.0000000000000036
 20
10.12075962416499
 30
0.0
 11
-0.0000000000000036
 21
10.96725962416497
 31
0.0
  0
ARC
  5
3111
330
11AF
100
AcDbEntity
  8
0
  6
Continuous
100
AcDbCircle
 10
-0.0150000000000006
 20
10.23075962416497
 30
0.0
 40
0.165
100
AcDbArc
 50
180.0
 51
269.9999999999996
  0
ARC
  5
3112
330
11AF
100
AcDbEntity
  8
0
  6
Continuous
100
AcDbCircle
 10
-0.0150000000000006
 20
10.23075962416497
 30
0.0
 40
0.11
100
AcDbArc
 50
180.0
 51
269.9999999999996
  0
LINE
  5
3113
330
11AF
100
AcDbEntity
  8
0
  6
Continuous
 48
0.5
100
AcDbLine
 10
0.132999999999992
 20
10.12075962416497
 30
0.0
 11
0.132999999999992
 21
10.30479772984166
 31
0.0
  0
ARC
  5
3114
330
11AF
100
AcDbEntity
  8
0
  6
Continuous
100
AcDbCircle
 10
0.1879999999999846
 20
10.06575962416495
 30
0.0
 40
0.0550000000000006
100
AcDbArc
 50
179.9999999999963
 51
270.0000000000004
  0
LINE
  5
3115
330
11AF
100
AcDbEntity
  8
0
  6
Continuous
100
AcDbLine
 10
0.1879999999999846
 20
10.2661029588028
 30
0.0
 11
0.1879999999999846
 21
10.14640017830893
 31
0.0
  0
LINE
  5
3116
330
11AF
100
AcDbEntity
  8
0
  6
Continuous
100
AcDbLine
 10
-0.0000000000000036
 20
10.96725962416497
 30
0.0
 11
0.1249999999999965
 21
11.09225962416497
 31
0.0
  0
LINE
  5
3117
330
11AF
100
AcDbEntity
  8
0
  6
Continuous
 48
0.5
100
AcDbLine
 10
0.3679999999999915
 20
10.30479772984166
 30
0.0
 11
0.3679999999999915
 21
10.12075962416497
 31
0.0
  0
ARC
  5
3118
330
11AF
100
AcDbEntity
  8
0
  6
Continuous
100
AcDbCircle
 10
0.3129999999999846
 20
10.06575962416495
 30
0.0
 40
0.0549999999999997
100
AcDbArc
 50
270.0000000000004
 51
0.0000000000111956
  0
LINE
  5
3119
330
11AF
100
AcDbEntity
  8
0
  6
Continuous
100
AcDbLine
 10
0.3129999999999846
 20
10.2661029588028
 30
0.0
 11
0.3129999999999846
 21
10.14640017830893
 31
0.0
  0
LINE
  5
311A
330
11AF
100
AcDbEntity
  8
0
  6
Continuous
 48
0.5
100
AcDbLine
 10
0.6325000000000038
 20
10.12075962416497
 30
0.0
 11
0.6325000000000038
 21
10.30479772984166
 31
0.0
  0
ARC
  5
311B
330
11AF
100
AcDbEntity
  8
0
  6
Continuous
100
AcDbCircle
 10
0.6875
 20
10.06575962416496
 30
0.0
 40
0.0550000000000006
100
AcDbArc
 50
179.9999999999963
 51
270.0000000000004
  0
LINE
  5
311C
330
11AF
100
AcDbEntity
  8
0
  6
Continuous
100
AcDbLine
 10
0.6875
 20
10.01075962416497
 30
0.0
 11
0.8125
 21
10.01075962416497
 31
0.0
  0
LINE
  5
311D
330
11AF
100
AcDbEntity
  8
0
  6
Continuous
100
AcDbLine
 10
0.6875
 20
10.26610295880279
 30
0.0
 11
0.6875
 21
10.14640017830893
 31
0.0
  0
LINE
  5
311E
330
11AF
100
AcDbEntity
  8
0
  6
Continuous
100
AcDbLine
 10
0.8125
 20
10.26610295880279
 30
0.0
 11
0.8125
 21
10.14640017830893
 31
0.0
  0
ARC
  5
311F
330
11AF
100
AcDbEntity
  8
0
  6
Continuous
100
AcDbCircle
 10
0.75
 20
10.30479772984166
 30
0.0
 40
0.0625
100
AcDbArc
 50
0.0
 51
180.0
  0
LINE
  5
3120
330
11AF
100
AcDbEntity
  8
0
  6
Continuous
100
AcDbLine
 10
-0.1800000000000104
 20
12.35915962416496
 30
0.0
 11
-0.1250000000000036
 21
12.35915962416495
 31
0.0
  0
LINE
  5
3121
330
11AF
100
AcDbEntity
  8
0
  6
Continuous
100
AcDbLine
 10
1.375
 20
11.09225962416499
 30
0.0
 11
1.5
 21
10.96725962416499
 31
0.0
  0
ARC
  5
3122
330
11AF
100
AcDbEntity
  8
0
  6
Continuous
 48
0.5
100
AcDbCircle
 10
1.249499999999991
 20
10.30479772984166
 30
0.0
 40
0.1174999999999997
100
AcDbArc
 50
0.0
 51
180.0
  0
ARC
  5
3123
330
11AF
100
AcDbEntity
  8
0
  6
Continuous
100
AcDbCircle
 10
1.186999999999983
 20
10.06575962416496
 30
0.0
 40
0.0550000000000006
100
AcDbArc
 50
179.9999999999963
 51
270.0000000000004
  0
LINE
  5
3124
330
11AF
100
AcDbEntity
  8
0
  6
Continuous
 48
0.5
100
AcDbLine
 10
0.8675000000000068
 20
10.30479772984166
 30
0.0
 11
0.8675000000000068
 21
10.12075962416497
 31
0.0
  0
LINE
  5
3125
330
11AF
100
AcDbEntity
  8
0
  6
Continuous
 48
0.5
100
AcDbLine
 10
1.131999999999991
 20
10.12075962416497
 30
0.0
 11
1.131999999999991
 21
10.30479772984166
 31
0.0
  0
LINE
  5
3126
330
11AF
100
AcDbEntity
  8
0
  6
Continuous
 48
0.5
100
AcDbLine
 10
1.36699999999999
 20
10.30479772984166
 30
0.0
 11
1.36699999999999
 21
10.12075962416497
 31
0.0
  0
LINE
  5
3127
330
11AF
100
AcDbEntity
  8
0
  6
Continuous
100
AcDbLine
 10
1.186999999999983
 20
10.01075962416497
 30
0.0
 11
1.311999999999983
 21
10.01075962416497
 31
0.0
  0
ARC
  5
3128
330
11AF
100
AcDbEntity
  8
0
  6
Continuous
100
AcDbCircle
 10
1.311999999999983
 20
10.06575962416496
 30
0.0
 40
0.0549999999999997
100
AcDbArc
 50
270.0000000000004
 51
0.0000000000111956
  0
ARC
  5
3129
330
11AF
100
AcDbEntity
  8
0
  6
Continuous
100
AcDbCircle
 10
1.249499999999983
 20
10.30479772984166
 30
0.0
 40
0.0625
100
AcDbArc
 50
0.0
 51
180.0
  0
LINE
  5
312A
330
11AF
100
AcDbEntity
  8
0
  6
Continuous
100
AcDbLine
 10
1.186999999999983
 20
10.26610295880279
 30
0.0
 11
1.186999999999983
 21
10.14640017830893
 31
0.0
  0
LINE
  5
312B
330
11AF
100
AcDbEntity
  8
0
  6
Continuous
100
AcDbLine
 10
1.311999999999983
 20
10.26610295880279
 30
0.0
 11
1.311999999999983
 21
10.14640017830893
 31
0.0
  0
LINE
  5
312C
330
11AF
100
AcDbEntity
  8
0
  6
Continuous
100
AcDbLine
 10
1.5
 20
10.96725962416499
 30
0.0
 11
1.5
 21
10.12075962416497
 31
0.0
  0
LINE
  5
312D
330
11AF
100
AcDbEntity
  8
0
  6
Continuous
100
AcDbLine
 10
1.5
 20
10.06575962416497
 30
0.0
 11
1.5
 21
10.12075962416497
 31
0.0
  0
LINE
  5
312E
330
11AF
100
AcDbEntity
  8
0
  6
Continuous
100
AcDbLine
 10
5.302141365957866
 20
0.1650000000000027
 30
0.0
 11
5.302141365957866
 21
6.097359981359293
 31
0.0
  0
LINE
  5
312F
330
11AF
100
AcDbEntity
  8
0
  6
Continuous
100
AcDbLine
 10
5.357141365957858
 20
0.1650000000000027
 30
0.0
 11
5.357141365957858
 21
6.192622775775565
 31
0.0
  0
LINE
  5
3130
330
11AF
100
AcDbEntity
  8
0
  6
Continuous
100
AcDbLine
 10
6.328641365957857
 20
0.0550000000000033
 30
0.0
 11
5.467141365957858
 21
0.0550000000000033
 31
0.0
  0
LINE
  5
3131
330
11AF
100
AcDbEntity
  8
0
  6
Continuous
100
AcDbLine
 10
6.328641365957857
 20
0.0000000000000036
 30
0.0
 11
5.467141365957858
 21
0.0000000000000107
 31
0.0
  0
ARC
  5
3132
330
11AF
100
AcDbEntity
  8
0
  6
Continuous
100
AcDbCircle
 10
5.467141365957858
 20
0.1650000000000027
 30
0.0
 40
0.22
100
AcDbArc
 50
180.0
 51
269.9999999999998
  0
LINE
  5
3133
330
11AF
100
AcDbEntity
  8
0
  6
Continuous
100
AcDbLine
 10
5.247141365957869
 20
0.1649999999999992
 30
0.0
 11
5.247141365957859
 21
1.18000000000001
 31
0.0
  0
LINE
  5
3134
330
11AF
100
AcDbEntity
  8
0
  6
Continuous
100
AcDbLine
 10
5.603679471634525
 20
-0.0549999999999891
 30
0.0
 11
5.467141365957861
 21
-0.0549999999999962
 31
0.0
  0
ARC
  5
3135
330
11AF
100
AcDbEntity
  8
0
  6
Continuous
100
AcDbCircle
 10
5.467141365957858
 20
0.1650000000000027
 30
0.0
 40
0.165
100
AcDbArc
 50
180.0
 51
269.9999999999998
  0
ARC
  5
3136
330
11AF
100
AcDbEntity
  8
0
  6
Continuous
100
AcDbCircle
 10
5.467141365957858
 20
0.1650000000000027
 30
0.0
 40
0.11
100
AcDbArc
 50
180.0
 51
269.9999999999998
  0
ARC
  5
3137
330
11AF
100
AcDbEntity
  8
0
  6
Continuous
100
AcDbCircle
 10
5.603679471634525
 20
0.0
 30
0.0
 40
0.055
100
AcDbArc
 50
270.0
 51
0.0
  0
ARC
  5
3138
330
11AF
100
AcDbEntity
  8
0
  6
Continuous
100
AcDbCircle
 10
5.302141365957866
 20
1.18000000000001
 30
0.0
 40
0.055
100
AcDbArc
 50
90.0
 51
180.0
  0
LINE
  5
3139
330
11AF
100
AcDbEntity
  8
0
  6
Continuous
100
AcDbLine
 10
6.328641365957857
 20
0.0000000000000036
 30
0.0
 11
6.328641365957857
 21
0.0550000000000033
 31
0.0
  0
ARC
  5
313A
330
11AF
100
AcDbEntity
  8
0
  6
Continuous
100
AcDbCircle
 10
7.066151198744159
 20
6.961155670674437
 30
0.0
 40
0.0313
100
AcDbArc
 50
330.0
 51
89.99999999999899
  0
LINE
  5
313B
330
11AF
100
AcDbEntity
  8
0
  6
Continuous
100
AcDbLine
 10
7.093257793882611
 20
6.945505670674443
 30
0.0
 11
7.012371021169127
 21
6.805405670674411
 31
0.0
  0
LINE
  5
313C
330
11AF
100
AcDbEntity
  8
0
  6
Continuous
100
AcDbLine
 10
6.196589291435871
 20
7.929999999999989
 30
0.0
 11
7.446589217940783
 21
7.930000000000003
 31
0.0
  0
LINE
  5
313D
330
11AF
100
AcDbEntity
  8
0
  6
Continuous
100
AcDbLine
 10
7.538095568886817
 20
7.371987298107822
 30
0.0
 11
5.357141365957858
 21
3.594463809653819
 31
0.0
  0
CIRCLE
  5
313E
330
11AF
100
AcDbEntity
  8
0
  6
Continuous
100
AcDbCircle
 10
6.672764426030682
 20
6.373189793309162
 30
0.0
 40
0.078
  0
LINE
  5
313F
330
11AF
100
AcDbEntity
  8
0
  6
Continuous
100
AcDbLine
 10
5.302141365957866
 20
6.097277099293624
 30
0.0
 11
6.038095642381975
 21
7.371987298107779
 31
0.0
  0
CIRCLE
  5
3140
330
11AF
100
AcDbEntity
  8
0
  6
Continuous
100
AcDbCircle
 10
5.888576516048545
 20
5.014936490538926
 30
0.0
 40
0.078
  0
CIRCLE
  5
3141
330
11AF
100
AcDbEntity
  8
0
  6
Continuous
100
AcDbCircle
 10
5.590926858733269
 20
6.097468245269464
 30
0.0
 40
0.078
  0
CIRCLE
  5
3142
330
11AF
100
AcDbEntity
  8
0
  6
Continuous
100
AcDbCircle
 10
6.360264426030682
 20
5.831923915943893
 30
0.0
 40
0.078
  0
CIRCLE
  5
3143
330
11AF
100
AcDbEntity
  8
0
  6
Continuous
100
AcDbCircle
 10
5.903426858733269
 20
6.638734122634727
 30
0.0
 40
0.078
  0
LINE
  5
3144
330
11AF
100
AcDbEntity
  8
0
  6
Continuous
100
AcDbLine
 10
6.423715220639434
 20
7.758000000130267
 30
0.0
 11
6.585488765915933
 21
7.758000000130267
 31
0.0
  0
LINE
  5
3145
330
11AF
100
AcDbEntity
  8
0
  6
Continuous
100
AcDbLine
 10
6.396608625576587
 20
7.711050000086594
 30
0.0
 11
6.477495398365267
 21
7.570949999956341
 31
0.0
  0
CIRCLE
  5
3146
330
11AF
100
AcDbEntity
  8
0
  6
Continuous
100
AcDbCircle
 10
6.215926858733283
 20
7.179999999999989
 30
0.0
 40
0.078
  0
LINE
  5
3147
330
11AF
100
AcDbEntity
  8
0
  6
Continuous
100
AcDbLine
 10
6.071589291435871
 20
7.804999999999989
 30
0.0
 11
6.196589291435871
 21
7.929999999999989
 31
0.0
  0
LINE
  5
3148
330
11AF
100
AcDbEntity
  8
0
  6
Continuous
100
AcDbLine
 10
6.071589291435871
 20
7.496987298107779
 30
0.0
 11
6.071589291435871
 21
7.804999999999989
 31
0.0
  0
ARC
  5
3149
330
11AF
100
AcDbEntity
  8
0
  6
Continuous
100
AcDbCircle
 10
5.821589291435856
 20
7.496987298107779
 30
0.0
 40
0.2500000000000013
100
AcDbArc
 50
330.0000000000002
 51
0.0
  0
ARC
  5
314A
330
11AF
100
AcDbEntity
  8
0
  6
Continuous
100
AcDbCircle
 10
6.423715220689822
 20
7.726700000130236
 30
0.0
 40
0.0313
100
AcDbArc
 50
90.00000009227719
 51
210.0000000922783
  0
LINE
  5
314B
330
11AF
100
AcDbEntity
  8
0
  6
Continuous
100
AcDbLine
 10
6.877271058329182
 20
6.945505670934956
 30
0.0
 11
6.958157830892223
 21
6.805405670674439
 31
0.0
  0
ARC
  5
314C
330
11AF
100
AcDbEntity
  8
0
  6
Continuous
100
AcDbCircle
 10
6.985264426030675
 20
6.821055670674411
 30
0.0
 40
0.0313
100
AcDbArc
 50
210.000000000001
 51
330.0
  0
LINE
  5
314D
330
11AF
100
AcDbEntity
  8
0
  6
Continuous
100
AcDbLine
 10
6.904377653467645
 20
6.992455670934973
 30
0.0
 11
7.066151198744141
 21
6.992455670674431
 31
0.0
  0
ARC
  5
314E
330
11AF
100
AcDbEntity
  8
0
  6
Continuous
100
AcDbCircle
 10
6.90437765346762
 20
6.961155670934943
 30
0.0
 40
0.0313
100
AcDbArc
 50
89.99999999999982
 51
210.0000000000008
  0
LINE
  5
314F
330
11AF
100
AcDbEntity
  8
0
  6
Continuous
100
AcDbLine
 10
6.612595361130019
 20
7.711050000173934
 30
0.0
 11
6.531708588642172
 21
7.570950000043631
 31
0.0
  0
ARC
  5
3150
330
11AF
100
AcDbEntity
  8
0
  6
Continuous
100
AcDbCircle
 10
6.504601993478516
 20
7.586599999999976
 30
0.0
 40
0.0313
100
AcDbArc
 50
210.0000000922785
 51
330.0000000922776
  0
ARC
  5
3151
330
11AF
100
AcDbEntity
  8
0
  6
Continuous
100
AcDbCircle
 10
6.58548876596636
 20
7.726700000130279
 30
0.0
 40
0.0313
100
AcDbArc
 50
330.0000000922776
 51
90.00000009227657
  0
ARC
  5
3152
330
11AF
100
AcDbEntity
  8
0
  6
Continuous
100
AcDbCircle
 10
7.371225990579049
 20
7.726700000130279
 30
0.0
 40
0.0313
100
AcDbArc
 50
330.0000000922776
 51
90.00000009227657
  0
LINE
  5
3153
330
11AF
100
AcDbEntity
  8
0
  6
Continuous
100
AcDbLine
 10
7.398332585742708
 20
7.711050000173934
 30
0.0
 11
7.317445813254857
 21
7.570950000043631
 31
0.0
  0
LINE
  5
3154
330
11AF
100
AcDbEntity
  8
0
  6
Continuous
100
AcDbLine
 10
7.182345850189272
 20
7.711050000086594
 30
0.0
 11
7.263232622977952
 21
7.570949999956341
 31
0.0
  0
ARC
  5
3155
330
11AF
100
AcDbEntity
  8
0
  6
Continuous
100
AcDbCircle
 10
7.290339218091201
 20
7.586599999999976
 30
0.0
 40
0.0313
100
AcDbArc
 50
210.0000000922785
 51
330.0000000922776
  0
LINE
  5
3156
330
11AF
100
AcDbEntity
  8
0
  6
Continuous
100
AcDbLine
 10
7.209452445252119
 20
7.758000000130267
 30
0.0
 11
7.371225990528622
 21
7.758000000130267
 31
0.0
  0
ARC
  5
3157
330
11AF
100
AcDbEntity
  8
0
  6
Continuous
100
AcDbCircle
 10
7.20945244530251
 20
7.726700000130236
 30
0.0
 40
0.0313
100
AcDbArc
 50
90.00000009227719
 51
210.0000000922783
  0
LINE
  5
3158
330
11AF
100
AcDbEntity
  8
0
  6
Continuous
100
AcDbLine
 10
7.571589217940783
 20
7.805000000000003
 30
0.0
 11
7.571589217940783
 21
7.496987298107779
 31
0.0
  0
ARC
  5
3159
330
11AF
100
AcDbEntity
  8
0
  6
Continuous
100
AcDbCircle
 10
7.321589217940783
 20
7.496987298107779
 30
0.0
 40
0.25
100
AcDbArc
 50
330.000000000001
 51
0.0000000000008142
  0
LINE
  5
315A
330
11AF
100
AcDbEntity
  8
0
  6
Continuous
100
AcDbLine
 10
7.446589217940783
 20
7.930000000000003
 30
0.0
 11
7.571589217940783
 21
7.805000000000003
 31
0.0
  0
VIEWPORT
  5
1FDD
102
{ACAD_XDICTIONARY
360
317B
102
}
330
11AC
100
AcDbEntity
 67
     1
  8
0
100
AcDbViewport
 10
5.28874975489819
 20
4.038749886310008
 30
0.0
 40
16.13860031895387
 41
8.99299974576695
 68
     1
 69
     1
 12
5.28874975489819
 22
4.038749886310008
 13
0.0
 23
0.0
 14
0.5
 24
0.5
 15
0.5
 25
0.5
 16
0.0
 26
0.0
 36
1.0
 17
0.0
 27
0.0
 37
0.0
 42
50.0
 43
0.0
 44
0.0
 45
8.99299974576695
 50
0.0
 51
0.0
 72
   100
 90
    32800
  1

281
     0
 71
     1
 74
     0
110
0.0
120
0.0
130
0.0
111
1.0
121
0.0
131
0.0
112
0.0
122
1.0
132
0.0
 79
     0
146
0.0
  0
VIEWPORT
  5
1FDF
102
{ACAD_XDICTIONARY
360
317D
102
}
330
11AC
100
AcDbEntity
 67
     1
  8
DIM
100
AcDbViewport
 10
5.287916463191114
 20
4.037916594602931
 30
0.0
 40
8.460666341105783
 41
6.460666551364689
 68
     2
 69
     2
 12
11.94964544700201
 22
10.49919908472321
 13
0.0
 23
0.0
 14
0.0625
 24
0.0625
 15
0.25
 25
0.25
 16
0.0
 26
0.0
 36
1.0
 17
0.0
 27
0.0
 37
0.0
 42
50.0
 43
0.0
 44
0.0
 45
21.34309148999513
 50
0.0
 51
0.0
 72
   100
 90
    32768
  1

281
     0
 71
     1
 74
     0
110
0.0
120
0.0
130
0.0
111
1.0
121
0.0
131
0.0
112
0.0
122
1.0
132
0.0
 79
     0
146
0.0
  0
ENDSEC
  0
SECTION
  2
OBJECTS
  0
DICTIONARY
  5
11A4
330
0
100
AcDbDictionary
281
     1
  3
ACAD_COLOR
350
3160
  3
ACAD_GROUP
350
11A5
  3
ACAD_LAYOUT
350
15C0
  3
ACAD_MATERIAL
350
315F
  3
ACAD_MLINESTYLE
350
11B2
  3
ACAD_PLOTSETTINGS
350
15C1
  3
ACAD_PLOTSTYLENAME
350
15BE
  3
ACAD_TABLESTYLE
350
3161
  3
ACDBHEADERROUNDTRIPXREC
350
3173
  3
ACDBVARIABLEDICTIONARY
350
11E2
  3
DWGPROPS
350
3176
  0
DICTIONARY
  5
317B
330
1FDD
100
AcDbDictionary
280
     1
281
     1
  3
ACAD_XREC_ROUNDTRIP
360
317C
  0
DICTIONARY
  5
317D
330
1FDF
100
AcDbDictionary
280
     1
281
     1
  3
ACAD_XREC_ROUNDTRIP
360
317E
  0
DICTIONARY
  5
3160
102
{ACAD_REACTORS
330
11A4
102
}
330
11A4
100
AcDbDictionary
281
     1
  0
DICTIONARY
  5
11A5
102
{ACAD_REACTORS
330
11A4
102
}
330
11A4
100
AcDbDictionary
281
     1
  0
DICTIONARY
  5
15C0
102
{ACAD_REACTORS
330
11A4
102
}
330
11A4
100
AcDbDictionary
281
     1
  3
Layout1
350
15C3
  3
Model
350
15C2
  0
DICTIONARY
  5
315F
102
{ACAD_REACTORS
330
11A4
102
}
330
11A4
100
AcDbDictionary
281
     1
  0
DICTIONARY
  5
11B2
102
{ACAD_REACTORS
330
11A4
102
}
330
11A4
100
AcDbDictionary
281
     1
  3
STANDARD
350
11B3
  0
DICTIONARY
  5
15C1
102
{ACAD_REACTORS
330
11A4
102
}
330
11A4
100
AcDbDictionary
281
     1
  0
ACDBDICTIONARYWDFLT
  5
15BE
102
{ACAD_REACTORS
330
11A4
102
}
330
11A4
100
AcDbDictionary
281
     1
  3
Normal
350
15BF
100
AcDbDictionaryWithDefault
340
15BF
  0
DICTIONARY
  5
3161
102
{ACAD_REACTORS
330
11A4
102
}
330
11A4
100
AcDbDictionary
281
     1
  3
Standard
350
3162
  0
DICTIONARY
  5
3173
102
{ACAD_REACTORS
330
11A4
102
}
330
11A4
100
AcDbDictionary
281
     1
  3
COLORDICT
350
3174
  3
MATERIALDICT
350
3175
  0
DICTIONARY
  5
11E2
102
{ACAD_REACTORS
330
11A4
102
}
330
11A4
100
AcDbDictionary
281
     1
  3
CTABLESTYLE
350
3170
  3
DIMADEC
350
11E3
  0
XRECORD
  5
3176
102
{ACAD_REACTORS
330
11A4
102
}
330
11A4
100
AcDbXrecord
  1
DWGPROPS COOKIE
  2

  3

  4

  6

  7

  8
helder
  9

300
=
301
=
302
=
303
=
304
=
305
=
306
=
307
=
308
=
309
=
 40
0.0
 41
2452080.854204051
 42
2454181.71365169
  1

 90
        0
  0
XRECORD
  5
317C
102
{ACAD_REACTORS
330
317B
102
}
330
317B
100
AcDbXrecord
280
     1
102
SHADEPLOT
 70
     0
  0
XRECORD
  5
317E
102
{ACAD_REACTORS
330
317D
102
}
330
317D
100
AcDbXrecord
280
     1
102
SHADEPLOT
 70
     0
  0
LAYOUT
  5
15C3
102
{ACAD_REACTORS
330
15C0
102
}
102
{ACAD_XDICTIONARY
360
3177
102
}
330
15C0
100
AcDbPlotSettings
  1

  2
HP LaserJet 2100 Series PS
  4
Letter
  6

 40
5.365749835968018
 41
5.408084392547607
 42
5.4080810546875
 43
5.365753173828125
 44
215.8999938964844
 45
279.3999938964844
 46
0.0
 47
0.0
 48
0.0
 49
0.0
140
0.0
141
0.0
142
1.0
143
1.0
 70
   688
 72
     0
 73
     1
 74
     5
  7

 75
     0
147
1.0
148
0.0
149
0.0
100
AcDbLayout
  1
Layout1
 70
     0
 71
     1
 10
-0.2112501249538632
 20
-0.2112499935420479
 11
10.78874963475025
 21
8.288749766162061
 12
0.0
 22
0.0
 32
0.0
 14
1.057335079500113
 24
0.8072817979566906
 34
-0.0000000349181948
 15
9.518486014756849
 25
7.268272518691802
 35
0.0000000814935746
146
0.0
 13
0.0
 23
0.0
 33
0.0
 16
1.0
 26
0.0
 36
0.0
 17
0.0
 27
1.0
 37
0.0
 76
     0
330
11AC
331
1FDD
  0
LAYOUT
  5
15C2
102
{ACAD_REACTORS
330
15C0
102
}
102
{ACAD_XDICTIONARY
360
3179
102
}
330
15C0
100
AcDbPlotSettings
  1

  2
HP LaserJet 2100 Series PS
  4
Letter
  6
1
 40
5.365749835968018
 41
5.408084392547607
 42
5.4080810546875
 43
5.365753173828125
 44
215.8999938964844
 45
279.3999938964844
 46
0.0
 47
0.0
 48
0.0
 49
0.0
140
0.0
141
0.0
142
1.0
143
1.985659204923131
 70
 11952
 72
     0
 73
     0
 74
     2
  7

 75
     0
147
0.5036110917324871
148
0.0
149
0.0
100
AcDbLayout
  1
Model
 70
     1
 71
     0
 10
0.0
 20
0.0
 11
12.0
 21
9.0
 12
0.0
 22
0.0
 32
0.0
 14
0.0
 24
0.0
 34
0.0
 15
0.0
 25
0.0
 35
0.0
146
0.0
 13
0.0
 23
0.0
 33
0.0
 16
1.0
 26
0.0
 36
0.0
 17
0.0
 27
1.0
 37
0.0
 76
     0
330
11AF
  0
MLINESTYLE
  5
11B3
102
{ACAD_REACTORS
330
11B2
102
}
330
11B2
100
AcDbMlineStyle
  2
STANDARD
 70
     0
  3

 62
   256
 51
90.0
 52
90.0
 71
     2
 49
0.5
 62
   256
  6
BYLAYER
 49
-0.5
 62
   256
  6
BYLAYER
  0
ACDBPLACEHOLDER
  5
15BF
102
{ACAD_REACTORS
330
15BE
102
}
330
15BE
  0
ACAD_PROXY_OBJECT
  5
3162
102
{ACAD_REACTORS
330
3161
102
}
330
3161
100
AcDbProxyObject
 90
      499
 91
      585
 95
   983063
 70
     0
 93
     1841
310
4214DD185B99185C9928B81E85EB51B8AE3F2E07A17AD46E2B8FC02B5E8DC0F42B1CFD028000000C1008070000C3001FDFF8000000C1003FBFF000000182007F7FE00000030400FEFFC00000060801FDFF8000000C1003FBFF00000018200000000000000681FA0B0000001820100E000186003FBFF000000182007F7FE000
310
00030400FEFFC00000060801FDFF8000000C1003FBFF000000182007F7FE000000304000AD7A3703D0AC73F4160000003040201C00030C007F7FE00000030400FEFFC00000060801FDFF8000000C1003FBFF000000182007F7FE00000030400FEFFC000000608000
340
11A7
340
11A7
340
11A7
 94
        0
  0
XRECORD
  5
3174
102
{ACAD_REACTORS
330
3173
102
}
330
3173
100
AcDbXrecord
340
3160
  0
XRECORD
  5
3175
102
{ACAD_REACTORS
330
3173
102
}
330
3173
100
AcDbXrecord
340
315F
  0
DICTIONARYVAR
  5
3170
102
{ACAD_REACTORS
330
11E2
102
}
330
11E2
100
DictionaryVariables
280
     0
  1
STANDARD
  0
DICTIONARYVAR
  5
11E3
102
{ACAD_REACTORS
330
11E2
102
}
330
11E2
100
DictionaryVariables
280
     0
  1
0
  0
DICTIONARY
  5
3177
330
15C3
100
AcDbDictionary
280
     1
281
     1
  3
ACAD_XREC_ROUNDTRIP
360
3178
  0
DICTIONARY
  5
3179
330
15C2
100
AcDbDictionary
280
     1
281
     1
  3
ACAD_XREC_ROUNDTRIP
360
317A
  0
XRECORD
  5
3178
102
{ACAD_REACTORS
330
3177
102
}
330
3177
100
AcDbXrecord
102
SHADEPLOT
 70
     0
102
SHADEPLOTRESLEVEL
 70
     2
102
SHADEPLOTCUSTOMDPI
 70
   300
  0
XRECORD
  5
317A
102
{ACAD_REACTORS
330
3179
102
}
330
3179
100
AcDbXrecord
102
SHADEPLOT
 70
     0
102
SHADEPLOTRESLEVEL
 70
     2
102
SHADEPLOTCUSTOMDPI
 70
   300
  0
ENDSEC
  0
EOF
