  0
SECTION
  2
HEADER
  9
$ACADVER
  1
AC1015
  9
$ACADMAINTVER
 70
     6
  9
$DWGCODEPAGE
  3
ANSI_1252
  9
$INSBASE
 10
0.0
 20
0.0
 30
0.0
  9
$EXTMIN
 10
-3.910715760077274
 20
-0.1088325214724779
 30
0.0
  9
$EXTMAX
 10
3.602430860000002
 20
19.30118028495618
 30
0.0
  9
$LIMMIN
 10
0.0
 20
0.0
  9
$LIMMAX
 10
32.0
 20
42.0
  9
$ORTHOMODE
 70
     1
  9
$REGENMODE
 70
     1
  9
$FILLMODE
 70
     1
  9
$QTEXTMODE
 70
     0
  9
$MIRRTEXT
 70
     1
  9
$LTSCALE
 40
1.0
  9
$ATTMODE
 70
     1
  9
$TEXTSIZE
 40
0.36
  9
$TRACEWID
 40
0.05
  9
$TEXTSTYLE
  7
STANDARD
  9
$CLAYER
  8
0
  9
$CELTYPE
  6
ByLayer
  9
$CECOLOR
 62
   256
  9
$CELTSCALE
 40
1.0
  9
$DISPSILH
 70
     0
  9
$DIMSCALE
 40
4.0
  9
$DIMASZ
 40
0.125
  9
$DIMEXO
 40
0.062
  9
$DIMDLI
 40
0.375
  9
$DIMRND
 40
0.0
  9
$DIMDLE
 40
0.0
  9
$DIMEXE
 40
0.08
  9
$DIMTP
 40
0.0
  9
$DIMTM
 40
0.0
  9
$DIMTXT
 40
0.09
  9
$DIMCEN
 40
-0.03125
  9
$DIMTSZ
 40
0.0
  9
$DIMTOL
 70
     0
  9
$DIMLIM
 70
     0
  9
$DIMTIH
 70
     1
  9
$DIMTOH
 70
     1
  9
$DIMSE1
 70
     0
  9
$DIMSE2
 70
     0
  9
$DIMTAD
 70
     0
  9
$DIMZIN
 70
     0
  9
$DIMBLK
  1

  9
$DIMASO
 70
     0
  9
$DIMSHO
 70
     0
  9
$DIMPOST
  1

  9
$DIMAPOST
  1

  9
$DIMALT
 70
     0
  9
$DIMALTD
 70
     2
  9
$DIMALTF
 40
25.4
  9
$DIMLFAC
 40
1.0
  9
$DIMTOFL
 70
     0
  9
$DIMTVP
 40
0.0
  9
$DIMTIX
 70
     0
  9
$DIMSOXD
 70
     0
  9
$DIMSAH
 70
     0
  9
$DIMBLK1
  1

  9
$DIMBLK2
  1

  9
$DIMSTYLE
  2
Standard
  9
$DIMCLRD
 70
     0
  9
$DIMCLRE
 70
     0
  9
$DIMCLRT
 70
     0
  9
$DIMTFAC
 40
1.0
  9
$DIMGAP
 40
0.09
  9
$DIMJUST
 70
     0
  9
$DIMSD1
 70
     0
  9
$DIMSD2
 70
     0
  9
$DIMTOLJ
 70
     1
  9
$DIMTZIN
 70
     0
  9
$DIMALTZ
 70
     0
  9
$DIMALTTZ
 70
     0
  9
$DIMUPT
 70
     0
  9
$DIMDEC
 70
     5
  9
$DIMTDEC
 70
     5
  9
$DIMALTU
 70
     5
  9
$DIMALTTD
 70
     2
  9
$DIMTXSTY
  7
STANDARD
  9
$DIMAUNIT
 70
     0
  9
$DIMADEC
 70
     0
  9
$DIMALTRND
 40
0.0
  9
$DIMAZIN
 70
     0
  9
$DIMDSEP
 70
    46
  9
$DIMATFIT
 70
     3
  9
$DIMFRAC
 70
     0
  9
$DIMLDRBLK
  1

  9
$DIMLUNIT
 70
     5
  9
$DIMLWD
 70
    -2
  9
$DIMLWE
 70
    -2
  9
$DIMTMOVE
 70
     2
  9
$LUNITS
 70
     5
  9
$LUPREC
 70
     5
  9
$SKETCHINC
 40
0.1
  9
$FILLETRAD
 40
0.0
  9
$AUNITS
 70
     0
  9
$AUPREC
 70
     0
  9
$MENU
  1
simpson
  9
$ELEVATION
 40
0.0
  9
$PELEVATION
 40
0.0
  9
$THICKNESS
 40
0.0
  9
$LIMCHECK
 70
     0
  9
$CHAMFERA
 40
0.0
  9
$CHAMFERB
 40
0.0
  9
$CHAMFERC
 40
0.0
  9
$CHAMFERD
 40
0.0
  9
$SKPOLY
 70
     0
  9
$TDCREATE
 40
2448852.748293287
  9
$TDUCREATE
 40
2448853.08162662
  9
$TDUPDATE
 40
2454168.987561563
  9
$TDUUPDATE
 40
2454169.320894896
  9
$TDINDWG
 40
0.0708371644
  9
$TDUSRTIMER
 40
0.0708371644
  9
$USRTIMER
 70
     1
  9
$ANGBASE
 50
0.0
  9
$ANGDIR
 70
     0
  9
$PDMODE
 70
     0
  9
$PDSIZE
 40
0.0
  9
$PLINEWID
 40
0.1
  9
$SPLFRAME
 70
     0
  9
$SPLINETYPE
 70
     6
  9
$SPLINESEGS
 70
     8
  9
$HANDSEED
  5
72F
  9
$SURFTAB1
 70
     6
  9
$SURFTAB2
 70
     6
  9
$SURFTYPE
 70
     6
  9
$SURFU
 70
     6
  9
$SURFV
 70
     6
  9
$UCSBASE
  2

  9
$UCSNAME
  2

  9
$UCSORG
 10
0.0
 20
0.0
 30
0.0
  9
$UCSXDIR
 10
1.0
 20
0.0
 30
0.0
  9
$UCSYDIR
 10
0.0
 20
1.0
 30
0.0
  9
$UCSORTHOREF
  2

  9
$UCSORTHOVIEW
 70
     0
  9
$UCSORGTOP
 10
0.0
 20
0.0
 30
0.0
  9
$UCSORGBOTTOM
 10
0.0
 20
0.0
 30
0.0
  9
$UCSORGLEFT
 10
0.0
 20
0.0
 30
0.0
  9
$UCSORGRIGHT
 10
0.0
 20
0.0
 30
0.0
  9
$UCSORGFRONT
 10
0.0
 20
0.0
 30
0.0
  9
$UCSORGBACK
 10
0.0
 20
0.0
 30
0.0
  9
$PUCSBASE
  2

  9
$PUCSNAME
  2

  9
$PUCSORG
 10
0.0
 20
0.0
 30
0.0
  9
$PUCSXDIR
 10
1.0
 20
0.0
 30
0.0
  9
$PUCSYDIR
 10
0.0
 20
1.0
 30
0.0
  9
$PUCSORTHOREF
  2

  9
$PUCSORTHOVIEW
 70
     0
  9
$PUCSORGTOP
 10
0.0
 20
0.0
 30
0.0
  9
$PUCSORGBOTTOM
 10
0.0
 20
0.0
 30
0.0
  9
$PUCSORGLEFT
 10
0.0
 20
0.0
 30
0.0
  9
$PUCSORGRIGHT
 10
0.0
 20
0.0
 30
0.0
  9
$PUCSORGFRONT
 10
0.0
 20
0.0
 30
0.0
  9
$PUCSORGBACK
 10
0.0
 20
0.0
 30
0.0
  9
$USERI1
 70
     0
  9
$USERI2
 70
     0
  9
$USERI3
 70
     0
  9
$USERI4
 70
     0
  9
$USERI5
 70
     0
  9
$USERR1
 40
0.0
  9
$USERR2
 40
0.0
  9
$USERR3
 40
0.0
  9
$USERR4
 40
0.0
  9
$USERR5
 40
0.0
  9
$WORLDVIEW
 70
     1
  9
$SHADEDGE
 70
     3
  9
$SHADEDIF
 70
    70
  9
$TILEMODE
 70
     1
  9
$MAXACTVP
 70
    16
  9
$PINSBASE
 10
0.0
 20
0.0
 30
0.0
  9
$PLIMCHECK
 70
     0
  9
$PEXTMIN
 10
1.000000000000000E+20
 20
1.000000000000000E+20
 30
1.000000000000000E+20
  9
$PEXTMAX
 10
-1.000000000000000E+20
 20
-1.000000000000000E+20
 30
-1.000000000000000E+20
  9
$PLIMMIN
 10
0.0
 20
0.0
  9
$PLIMMAX
 10
12.0
 20
9.0
  9
$UNITMODE
 70
     0
  9
$VISRETAIN
 70
     0
  9
$PLINEGEN
 70
     0
  9
$PSLTSCALE
 70
     0
  9
$TREEDEPTH
 70
  3020
  9
$CMLSTYLE
  2
Standard
  9
$CMLJUST
 70
     0
  9
$CMLSCALE
 40
1.0
  9
$PROXYGRAPHICS
 70
     1
  9
$MEASUREMENT
 70
     0
  9
$CELWEIGHT
370
    -1
  9
$ENDCAPS
280
     0
  9
$JOINSTYLE
280
     0
  9
$LWDISPLAY
290
     0
  9
$INSUNITS
 70
     0
  9
$HYPERLINKBASE
  1

  9
$STYLESHEET
  1

  9
$XEDIT
290
     1
  9
$CEPSNTYPE
380
     0
  9
$PSTYLEMODE
290
     1
  9
$FINGERPRINTGUID
  2
{B3CB328A-5AEE-4C80-AFD8-BCBD8F425619}
  9
$VERSIONGUID
  2
{B2F7C7F2-B5C2-4173-9DB6-03B9DCCFE373}
  9
$EXTNAMES
290
     1
  9
$PSVPSCALE
 40
0.0
  9
$OLESTARTUP
290
     0
  0
ENDSEC
  0
SECTION
  2
CLASSES
  0
CLASS
  1
ACDBDICTIONARYWDFLT
  2
AcDbDictionaryWithDefault
  3
AutoCAD 2000
 90
        0
280
     0
281
     0
  0
CLASS
  1
ACDBPLACEHOLDER
  2
AcDbPlaceHolder
  3
ObjectDBX Classes
 90
        0
280
     0
281
     0
  0
CLASS
  1
LAYOUT
  2
AcDbLayout
  3
ObjectDBX Classes
 90
        0
280
     0
281
     0
  0
CLASS
  1
TABLESTYLE
  2
AcDbTableStyle
  3
ObjectDBX Classes
 90
     2047
280
     1
281
     0
  0
CLASS
  1
DICTIONARYVAR
  2
AcDbDictionaryVar
  3
AutoCAD 2000
 90
        0
280
     0
281
     0
  0
ENDSEC
  0
SECTION
  2
TABLES
  0
TABLE
  2
VPORT
  5
8
330
0
100
AcDbSymbolTable
 70
     3
  0
VPORT
  5
721
330
8
100
AcDbSymbolTableRecord
100
AcDbViewportTableRecord
  2
*Active
 70
     0
 10
0.0
 20
0.0
 11
1.0
 21
1.0
 12
14.04394534747575
 22
20.94488530273652
 13
0.0
 23
0.0
 14
0.063
 24
0.063
 15
0.25
 25
0.25
 16
0.0
 26
0.0
 36
1.0
 17
0.0
 27
0.0
 37
0.0
 40
42.63551292127781
 41
1.814583333333333
 42
50.0
 43
0.0
 44
0.0
 50
0.0
 51
0.0
 71
     0
 72
   100
 73
     1
 74
     0
 75
     0
 76
     0
 77
     0
 78
     0
281
     0
 65
     1
110
0.0
120
0.0
130
0.0
111
1.0
121
0.0
131
0.0
112
0.0
122
1.0
132
0.0
 79
     0
146
0.0
  0
ENDTAB
  0
TABLE
  2
LTYPE
  5
5
330
0
100
AcDbSymbolTable
 70
     2
  0
LTYPE
  5
13
330
5
100
AcDbSymbolTableRecord
100
AcDbLinetypeTableRecord
  2
ByBlock
 70
     0
  3

 72
    65
 73
     0
 40
0.0
  0
LTYPE
  5
14
330
5
100
AcDbSymbolTableRecord
100
AcDbLinetypeTableRecord
  2
ByLayer
 70
     0
  3

 72
    65
 73
     0
 40
0.0
  0
LTYPE
  5
15
330
5
100
AcDbSymbolTableRecord
100
AcDbLinetypeTableRecord
  2
CONTINUOUS
 70
     0
  3
Solid line
 72
    65
 73
     0
 40
0.0
  0
LTYPE
  5
3D
330
5
100
AcDbSymbolTableRecord
100
AcDbLinetypeTableRecord
  2
HIDDEN
 70
     0
  3
_ _ _ _ _ _ _ _ _ _ _ _ _ _ _ _ _ _ _ _ _ _ _
 72
    65
 73
     2
 40
0.375
 49
0.25
 74
     0
 49
-0.125
 74
     0
  0
ENDTAB
  0
TABLE
  2
LAYER
  5
2
330
0
100
AcDbSymbolTable
 70
     3
  0
LAYER
  5
10
330
2
100
AcDbSymbolTableRecord
100
AcDbLayerTableRecord
  2
0
 70
     0
 62
     7
  6
CONTINUOUS
370
    -3
390
F
  0
LAYER
  5
56
330
2
100
AcDbSymbolTableRecord
100
AcDbLayerTableRecord
  2
DTM
 70
     0
 62
     1
  6
CONTINUOUS
370
    -3
390
F
  0
LAYER
  5
64
330
2
100
AcDbSymbolTableRecord
100
AcDbLayerTableRecord
  2
STP-SHIFT
 70
     0
 62
     4
  6
CONTINUOUS
370
    -3
390
F
  0
ENDTAB
  0
TABLE
  2
STYLE
  5
3
330
0
100
AcDbSymbolTable
 70
     1
  0
STYLE
  5
11
330
3
100
AcDbSymbolTableRecord
100
AcDbTextStyleTableRecord
  2
STANDARD
 70
     0
 40
0.0
 41
1.0
 50
0.0
 71
     0
 42
0.36
  3
TXT
  4

  0
ENDTAB
  0
TABLE
  2
VIEW
  5
6
330
0
100
AcDbSymbolTable
 70
     0
  0
ENDTAB
  0
TABLE
  2
UCS
  5
7
330
0
100
AcDbSymbolTable
 70
     0
  0
ENDTAB
  0
TABLE
  2
APPID
  5
9
330
0
100
AcDbSymbolTable
 70
     1
  0
APPID
  5
12
330
9
100
AcDbSymbolTableRecord
100
AcDbRegAppTableRecord
  2
ACAD
 70
     0
  0
ENDTAB
  0
TABLE
  2
DIMSTYLE
  5
A
330
0
100
AcDbSymbolTable
 70
     1
100
AcDbDimStyleTable
  0
DIMSTYLE
105
6DF
330
A
100
AcDbSymbolTableRecord
100
AcDbDimStyleTableRecord
  2
Standard
 70
     0
  3

  4

340
11
  0
ENDTAB
  0
TABLE
  2
BLOCK_RECORD
  5
1
330
0
100
AcDbSymbolTable
 70
     1
  0
BLOCK_RECORD
  5
1E
330
1
100
AcDbSymbolTableRecord
100
AcDbBlockTableRecord
  2
*Model_Space
340
21
  0
BLOCK_RECORD
  5
1A
330
1
100
AcDbSymbolTableRecord
100
AcDbBlockTableRecord
  2
*Paper_Space
340
1D
  0
BLOCK_RECORD
  5
27
330
1
100
AcDbSymbolTableRecord
100
AcDbBlockTableRecord
  2
DTM
340
0
102
{BLKREFS
331
33E
331
353
331
368
331
37D
331
392
331
3A7
331
3BC
331
3D1
331
3E6
331
3FB
331
411
331
426
331
43B
331
450
331
465
331
47A
331
48F
331
4A4
331
4B9
331
4CE
331
4E3
331
4F8
331
50D
331
522
331
537
331
54C
331
561
102
}
  0
ENDTAB
  0
ENDSEC
  0
SECTION
  2
BLOCKS
  0
BLOCK
  5
79
330
1E
100
AcDbEntity
  8
0
100
AcDbBlockBegin
  2
*Model_Space
 70
     0
 10
0.0
 20
0.0
 30
0.0
  3
*Model_Space
  1

  4

  0
ENDBLK
  5
7A
330
1E
100
AcDbEntity
  8
0
100
AcDbBlockEnd
  0
BLOCK
  5
77
330
1A
100
AcDbEntity
 67
     1
  8
0
100
AcDbBlockBegin
  2
*Paper_Space
 70
     0
 10
0.0
 20
0.0
 30
0.0
  3
*Paper_Space
  1

  4

  0
ENDBLK
  5
78
330
1A
100
AcDbEntity
 67
     1
  8
0
100
AcDbBlockEnd
  0
BLOCK
  5
E9
330
27
100
AcDbEntity
  8
0
100
AcDbBlockBegin
  2
DTM
 70
     2
 10
0.0
 20
0.00002
 30
0.0
  3
DTM
  1

  4

  0
ATTDEF
  5
EA
330
27
100
AcDbEntity
  8
DTM
100
AcDbText
 10
0.0
 20
0.00002
 30
0.0
 40
0.000005
  1
DTM
100
AcDbAttributeDefinition
  3

  2
LAY1
 70
     1
  0
ATTDEF
  5
EB
330
27
100
AcDbEntity
  8
DTM
100
AcDbText
 10
0.00003
 20
0.0000283333333333
 30
0.0
 40
0.000005
  1
0.25
100
AcDbAttributeDefinition
  3

  2
ZIG1
 70
     1
  0
ATTDEF
  5
EC
330
27
100
AcDbEntity
  8
DTM
100
AcDbText
 10
0.00003
 20
0.0000366666666667
 30
0.0
 40
0.000005
  1
0.75
100
AcDbAttributeDefinition
  3

  2
ZAG1
 70
     1
  0
ATTDEF
  5
ED
330
27
100
AcDbEntity
  8
DTM
100
AcDbText
 10
0.00003
 20
0.000045
 30
0.0
 40
0.000005
  1
0.125
100
AcDbAttributeDefinition
  3

  2
TXT1
 70
     1
  0
ATTDEF
  5
EE
330
27
100
AcDbEntity
  8
DTM
100
AcDbText
 10
0.00003
 20
0.0000533333333333
 30
0.0
 40
0.000005
  1
STANDARD
100
AcDbAttributeDefinition
  3

  2
STY1
 70
     1
  0
ATTDEF
  5
EF
330
27
100
AcDbEntity
  8
DTM
100
AcDbText
 10
0.00003
 20
0.0000616666666667
 30
0.0
 40
0.000005
  1
1.0
100
AcDbAttributeDefinition
  3

  2
SCL1
 70
     1
  0
ATTDEF
  5
F0
330
27
100
AcDbEntity
  8
DTM
100
AcDbText
 10
0.00003
 20
0.00007
 30
0.0
 40
0.000005
  1
0.0
100
AcDbAttributeDefinition
  3

  2
ROT1
 70
     1
  0
ATTDEF
  5
F1
330
27
100
AcDbEntity
  8
DTM
100
AcDbText
 10
0.00003
 20
0.0000783333333333
 30
0.0
 40
0.000005
  1
0.125
100
AcDbAttributeDefinition
  3

  2
LLS1
 70
     1
  0
ATTDEF
  5
F2
330
27
100
AcDbEntity
  8
DTM
100
AcDbText
 10
0.00003
 20
0.0000866666666667
 30
0.0
 40
0.000005
  1
0.0625
100
AcDbAttributeDefinition
  3

  2
LLO1
 70
     1
  0
ATTDEF
  5
F3
330
27
100
AcDbEntity
  8
DTM
100
AcDbText
 10
0.00003
 20
0.000095
 30
0.0
 40
0.000005
  1
0.5
100
AcDbAttributeDefinition
  3

  2
LLI1
 70
     1
  0
ATTDEF
  5
F4
330
27
100
AcDbEntity
  8
DTM
100
AcDbText
 10
0.0
 20
0.0000283333333333
 30
0.0
 40
0.000005
  1
0.0
100
AcDbAttributeDefinition
  3

  2
FRM4
 70
     1
  0
ATTDEF
  5
F5
330
27
100
AcDbEntity
  8
DTM
100
AcDbText
 10
0.0
 20
0.0000366666666667
 30
0.0
 40
0.000005
  1
0.0
100
AcDbAttributeDefinition
  3

  2
FRM3
 70
     1
  0
ATTDEF
  5
F6
330
27
100
AcDbEntity
  8
DTM
100
AcDbText
 10
0.0
 20
0.000045
 30
0.0
 40
0.000005
  1
0.0
100
AcDbAttributeDefinition
  3

  2
FRM2
 70
     1
  0
ATTDEF
  5
F7
330
27
100
AcDbEntity
  8
DTM
100
AcDbText
 10
0.0
 20
0.0000533333333333
 30
0.0
 40
0.000005
  1
0.0
100
AcDbAttributeDefinition
  3

  2
FRM1
 70
     1
  0
ATTDEF
  5
F8
330
27
100
AcDbEntity
  8
DTM
100
AcDbText
 10
0.0
 20
0.0000616666666667
 30
0.0
 40
0.000005
  1
1.0
100
AcDbAttributeDefinition
  3

  2
DLF1
 70
     1
  0
ATTDEF
  5
F9
330
27
100
AcDbEntity
  8
DTM
100
AcDbText
 10
0.0
 20
0.00007
 30
0.0
 40
0.000005
  1
0.0
100
AcDbAttributeDefinition
  3

  2
BSE2
 70
     1
  0
ATTDEF
  5
FA
330
27
100
AcDbEntity
  8
DTM
100
AcDbText
 10
0.0
 20
0.0000783333333333
 30
0.0
 40
0.000005
  1
0.0
100
AcDbAttributeDefinition
  3

  2
BSE1
 70
     1
  0
ATTDEF
  5
FB
330
27
100
AcDbEntity
  8
DTM
100
AcDbText
 10
0.0
 20
0.0000866666666667
 30
0.0
 40
0.000005
  1
1.0
100
AcDbAttributeDefinition
  3

  2
BDR1
 70
     1
  0
ATTDEF
  5
FC
330
27
100
AcDbEntity
  8
DTM
100
AcDbText
 10
0.0
 20
0.000095
 30
0.0
 40
0.000005
  1
0.0
100
AcDbAttributeDefinition
  3

  2
ABS1
 70
     1
  0
ENDBLK
  5
FD
330
27
100
AcDbEntity
  8
0
100
AcDbBlockEnd
  0
ENDSEC
  0
SECTION
  2
ENTITIES
  0
LINE
  5
2A4
330
1E
100
AcDbEntity
  8
0
100
AcDbLine
 10
-2.597720104000002
 20
1.528128753000001
 30
0.0
 11
-1.985111107000002
 21
1.528128753000001
 31
0.0
  0
LINE
  5
2A5
330
1E
100
AcDbEntity
  8
0
  6
HIDDEN
100
AcDbLine
 10
-0.9575555530000006
 20
1.528128753000001
 30
0.0
 11
-1.915111107000003
 21
1.528128753000001
 31
0.0
  0
LINE
  5
2A6
330
1E
100
AcDbEntity
  8
0
100
AcDbLine
 10
-2.597720104000002
 20
10.090628753
 30
0.0
 11
-1.985111107000002
 21
10.090628753
 31
0.0
  0
LINE
  5
2A7
330
1E
100
AcDbEntity
  8
0
100
AcDbLine
 10
-3.910220104000002
 20
10.090628753
 30
0.0
 11
-3.910220104000002
 21
1.528128753000001
 31
0.0
  0
LINE
  5
2A8
330
1E
100
AcDbEntity
  8
0
100
AcDbLine
 10
-3.910220104000002
 20
10.090628753
 30
0.0
 11
-2.597720104000002
 21
10.090628753
 31
0.0
  0
LINE
  5
2A9
330
1E
100
AcDbEntity
  8
0
100
AcDbLine
 10
-2.597720104000002
 20
9.94222614142114
 30
0.0
 11
-2.597720104000002
 21
1.67766149997968
 31
0.0
  0
LINE
  5
2AA
330
1E
100
AcDbEntity
  8
0
100
AcDbLine
 10
-1.790111107000001
 20
0.0
 30
0.0
 11
0.2498197519999987
 21
0.0
 31
0.0
  0
LINE
  5
2B4
330
1E
100
AcDbEntity
  8
0
100
AcDbLine
 10
-1.797611107000002
 20
-0.0700000000000003
 30
0.0
 11
2.172430859999997
 21
-0.0700000000000003
 31
0.0
  0
LINE
  5
2B5
330
1E
100
AcDbEntity
  8
0
100
AcDbLine
 10
0.3748197519999987
 20
10.090628753
 30
0.0
 11
0.3748197519999987
 21
0.125
 31
0.0
  0
LINE
  5
2B6
330
1E
100
AcDbEntity
  8
0
100
AcDbLine
 10
-1.915111107000001
 20
10.090628753
 30
0.0
 11
-1.915111107000001
 21
0.125
 31
0.0
  0
LINE
  5
2B7
330
1E
100
AcDbEntity
  8
0
100
AcDbLine
 10
-3.910220104000002
 20
10.090628753
 30
0.0
 11
-3.910220104000002
 21
1.528128753000001
 31
0.0
  0
LINE
  5
2B8
330
1E
100
AcDbEntity
  8
0
100
AcDbLine
 10
-0.9575555530000006
 20
10.090628753
 30
0.0
 11
-0.9575555530000006
 21
1.278128753000001
 31
0.0
  0
LINE
  5
2B9
330
1E
100
AcDbEntity
  8
0
100
AcDbLine
 10
0.3748197519999987
 20
10.090628753
 30
0.0
 11
2.289930859999998
 21
10.090628753
 31
0.0
  0
LINE
  5
2BA
330
1E
100
AcDbEntity
  8
0
100
AcDbLine
 10
-0.9575555530000006
 20
1.278128753000001
 30
0.0
 11
0.0
 21
0.0
 31
0.0
  0
LINE
  5
2BB
330
1E
100
AcDbEntity
  8
0
100
AcDbLine
 10
-1.985111107000002
 20
10.090628753
 30
0.0
 11
-1.985111107000002
 21
0.1174999999999997
 31
0.0
  0
LINE
  5
2BC
330
1E
100
AcDbEntity
  8
0
100
AcDbLine
 10
0.444819751999999
 20
10.090628753
 30
0.0
 11
0.4448197519999972
 21
0.1174999999999997
 31
0.0
  0
LINE
  5
2BD
330
1E
100
AcDbEntity
  8
0
  6
HIDDEN
100
AcDbLine
 10
2.289930859999998
 20
10.090628753
 30
0.0
 11
2.289930859999998
 21
0.125
 31
0.0
  0
LINE
  5
2CD
330
1E
100
AcDbEntity
  8
0
100
AcDbLine
 10
2.289930859999998
 20
1.528128753000001
 30
0.0
 11
2.359930859999999
 21
1.528128753000001
 31
0.0
  0
LINE
  5
2CE
330
1E
100
AcDbEntity
  8
0
100
AcDbLine
 10
3.602430859999998
 20
10.090628753
 30
0.0
 11
2.289930859999998
 21
10.090628753
 31
0.0
  0
LINE
  5
2CF
330
1E
100
AcDbEntity
  8
0
100
AcDbLine
 10
3.602430859999998
 20
1.528128753000001
 30
0.0
 11
3.602430859999998
 21
10.090628753
 31
0.0
  0
ARC
  5
2D0
330
1E
100
AcDbEntity
  8
0
100
AcDbCircle
 10
0.2498197519999987
 20
0.125
 30
0.0
 40
0.125
100
AcDbArc
 50
270.0
 51
0.0
  0
ARC
  5
2D1
330
1E
100
AcDbEntity
  8
0
100
AcDbCircle
 10
-1.790111107000001
 20
0.125
 30
0.0
 40
0.125
100
AcDbArc
 50
180.0
 51
270.0
  0
LINE
  5
314
330
1E
100
AcDbEntity
  8
0
100
AcDbLine
 10
-1.985111107000002
 20
10.090628753
 30
0.0
 11
-0.9575555530000006
 21
10.090628753
 31
0.0
  0
LINE
  5
315
330
1E
100
AcDbEntity
  8
0
100
AcDbLine
 10
2.359930859999999
 20
10.090628753
 30
0.0
 11
2.359930859999997
 21
0.1174999999999997
 31
0.0
  0
LINE
  5
316
330
1E
100
AcDbEntity
  8
0
  6
HIDDEN
100
AcDbLine
 10
0.4034361439620362
 20
0.0
 30
0.0
 11
2.164930859999998
 21
0.0
 31
0.0
  0
ARC
  5
317
330
1E
100
AcDbEntity
  8
0
  6
HIDDEN
100
AcDbCircle
 10
2.164930859999998
 20
0.125
 30
0.0
 40
0.125
100
AcDbArc
 50
270.0
 51
0.0
  0
LINE
  5
318
330
1E
100
AcDbEntity
  8
0
100
AcDbLine
 10
2.359930859999999
 20
1.528128753000001
 30
0.0
 11
3.602430859999998
 21
1.528128753000001
 31
0.0
  0
LINE
  5
319
330
1E
100
AcDbEntity
  8
0
  6
HIDDEN
100
AcDbLine
 10
-1.027555553000001
 20
10.090628753
 30
0.0
 11
-1.027555553000001
 21
1.528128753000001
 31
0.0
  0
LINE
  5
31A
330
1E
100
AcDbEntity
  8
0
100
AcDbLine
 10
-1.985111107000002
 20
1.528128753000001
 30
0.0
 11
-3.910220104000002
 21
1.528128753000001
 31
0.0
  0
INSERT
  5
33E
330
1E
100
AcDbEntity
  8
0
100
AcDbBlockReference
 66
     1
  2
DTM
 10
25.62226693425955
 20
8.551183563786307
 30
0.0
  0
ATTRIB
  5
33F
330
33E
100
AcDbEntity
  8
DTM
100
AcDbText
 10
25.62226693425955
 20
8.551183563786307
 30
0.0
 40
0.000005
  1
DTM
100
AcDbAttribute
  2
LAY1
 70
     1
  0
ATTRIB
  5
340
330
33E
100
AcDbEntity
  8
DTM
100
AcDbText
 10
25.62229693425955
 20
8.55119189711964
 30
0.0
 40
0.000005
  1
0.25
100
AcDbAttribute
  2
ZIG1
 70
     1
  0
ATTRIB
  5
341
330
33E
100
AcDbEntity
  8
DTM
100
AcDbText
 10
25.62229693425955
 20
8.551200230452974
 30
0.0
 40
0.000005
  1
0.75
100
AcDbAttribute
  2
ZAG1
 70
     1
  0
ATTRIB
  5
342
330
33E
100
AcDbEntity
  8
DTM
100
AcDbText
 10
25.62229693425955
 20
8.551208563786307
 30
0.0
 40
0.000005
  1
0.125
100
AcDbAttribute
  2
TXT1
 70
     1
  0
ATTRIB
  5
343
330
33E
100
AcDbEntity
  8
DTM
100
AcDbText
 10
25.62229693425955
 20
8.551216897119639
 30
0.0
 40
0.000005
  1
STANDARD
100
AcDbAttribute
  2
STY1
 70
     1
  0
ATTRIB
  5
344
330
33E
100
AcDbEntity
  8
DTM
100
AcDbText
 10
25.62229693425955
 20
8.551225230452973
 30
0.0
 40
0.000005
  1
1.0
100
AcDbAttribute
  2
SCL1
 70
     1
  0
ATTRIB
  5
345
330
33E
100
AcDbEntity
  8
DTM
100
AcDbText
 10
25.62229693425955
 20
8.551233563786306
 30
0.0
 40
0.000005
  1
0.0
100
AcDbAttribute
  2
ROT1
 70
     1
  0
ATTRIB
  5
346
330
33E
100
AcDbEntity
  8
DTM
100
AcDbText
 10
25.62229693425955
 20
8.55124189711964
 30
0.0
 40
0.000005
  1
0.125
100
AcDbAttribute
  2
LLS1
 70
     1
  0
ATTRIB
  5
347
330
33E
100
AcDbEntity
  8
DTM
100
AcDbText
 10
25.62229693425955
 20
8.551250230452974
 30
0.0
 40
0.000005
  1
0.0625
100
AcDbAttribute
  2
LLO1
 70
     1
  0
ATTRIB
  5
348
330
33E
100
AcDbEntity
  8
DTM
100
AcDbText
 10
25.62229693425955
 20
8.551258563786307
 30
0.0
 40
0.000005
  1
0.5
100
AcDbAttribute
  2
LLI1
 70
     1
  0
ATTRIB
  5
349
330
33E
100
AcDbEntity
  8
DTM
100
AcDbText
 10
25.62226693425955
 20
8.55119189711964
 30
0.0
 40
0.000005
  1
0.0
100
AcDbAttribute
  2
FRM4
 70
     1
  0
ATTRIB
  5
34A
330
33E
100
AcDbEntity
  8
DTM
100
AcDbText
 10
25.62226693425955
 20
8.551200230452974
 30
0.0
 40
0.000005
  1
0.0
100
AcDbAttribute
  2
FRM3
 70
     1
  0
ATTRIB
  5
34B
330
33E
100
AcDbEntity
  8
DTM
100
AcDbText
 10
25.62226693425955
 20
8.551208563786307
 30
0.0
 40
0.000005
  1
0.0
100
AcDbAttribute
  2
FRM2
 70
     1
  0
ATTRIB
  5
34C
330
33E
100
AcDbEntity
  8
DTM
100
AcDbText
 10
25.62226693425955
 20
8.551216897119639
 30
0.0
 40
0.000005
  1
0.0
100
AcDbAttribute
  2
FRM1
 70
     1
  0
ATTRIB
  5
34D
330
33E
100
AcDbEntity
  8
DTM
100
AcDbText
 10
25.62226693425955
 20
8.551225230452973
 30
0.0
 40
0.000005
  1
1.0
100
AcDbAttribute
  2
DLF1
 70
     1
  0
ATTRIB
  5
34E
330
33E
100
AcDbEntity
  8
DTM
100
AcDbText
 10
25.62226693425955
 20
8.551233563786306
 30
0.0
 40
0.000005
  1
0.0
100
AcDbAttribute
  2
BSE2
 70
     1
  0
ATTRIB
  5
34F
330
33E
100
AcDbEntity
  8
DTM
100
AcDbText
 10
25.62226693425955
 20
8.55124189711964
 30
0.0
 40
0.000005
  1
0.0
100
AcDbAttribute
  2
BSE1
 70
     1
  0
ATTRIB
  5
350
330
33E
100
AcDbEntity
  8
DTM
100
AcDbText
 10
25.62226693425955
 20
8.551250230452974
 30
0.0
 40
0.000005
  1
1.0
100
AcDbAttribute
  2
BDR1
 70
     1
  0
ATTRIB
  5
351
330
33E
100
AcDbEntity
  8
DTM
100
AcDbText
 10
25.62226693425955
 20
8.551258563786307
 30
0.0
 40
0.000005
  1
0.0
100
AcDbAttribute
  2
ABS1
 70
     1
  0
SEQEND
  5
352
330
33E
100
AcDbEntity
  8
0
  0
INSERT
  5
353
330
1E
100
AcDbEntity
  8
0
100
AcDbBlockReference
 66
     1
  2
DTM
 10
25.62226693425955
 20
8.551183563786307
 30
0.0
  0
ATTRIB
  5
354
330
353
100
AcDbEntity
  8
DTM
100
AcDbText
 10
25.62226693425955
 20
8.551183563786307
 30
0.0
 40
0.000005
  1
DTM
100
AcDbAttribute
  2
LAY1
 70
     1
  0
ATTRIB
  5
355
330
353
100
AcDbEntity
  8
DTM
100
AcDbText
 10
25.62229693425955
 20
8.55119189711964
 30
0.0
 40
0.000005
  1
0.25
100
AcDbAttribute
  2
ZIG1
 70
     1
  0
ATTRIB
  5
356
330
353
100
AcDbEntity
  8
DTM
100
AcDbText
 10
25.62229693425955
 20
8.551200230452974
 30
0.0
 40
0.000005
  1
0.75
100
AcDbAttribute
  2
ZAG1
 70
     1
  0
ATTRIB
  5
357
330
353
100
AcDbEntity
  8
DTM
100
AcDbText
 10
25.62229693425955
 20
8.551208563786307
 30
0.0
 40
0.000005
  1
0.125
100
AcDbAttribute
  2
TXT1
 70
     1
  0
ATTRIB
  5
358
330
353
100
AcDbEntity
  8
DTM
100
AcDbText
 10
25.62229693425955
 20
8.551216897119639
 30
0.0
 40
0.000005
  1
STANDARD
100
AcDbAttribute
  2
STY1
 70
     1
  0
ATTRIB
  5
359
330
353
100
AcDbEntity
  8
DTM
100
AcDbText
 10
25.62229693425955
 20
8.551225230452973
 30
0.0
 40
0.000005
  1
1.0
100
AcDbAttribute
  2
SCL1
 70
     1
  0
ATTRIB
  5
35A
330
353
100
AcDbEntity
  8
DTM
100
AcDbText
 10
25.62229693425955
 20
8.551233563786306
 30
0.0
 40
0.000005
  1
0.0
100
AcDbAttribute
  2
ROT1
 70
     1
  0
ATTRIB
  5
35B
330
353
100
AcDbEntity
  8
DTM
100
AcDbText
 10
25.62229693425955
 20
8.55124189711964
 30
0.0
 40
0.000005
  1
0.125
100
AcDbAttribute
  2
LLS1
 70
     1
  0
ATTRIB
  5
35C
330
353
100
AcDbEntity
  8
DTM
100
AcDbText
 10
25.62229693425955
 20
8.551250230452974
 30
0.0
 40
0.000005
  1
0.0625
100
AcDbAttribute
  2
LLO1
 70
     1
  0
ATTRIB
  5
35D
330
353
100
AcDbEntity
  8
DTM
100
AcDbText
 10
25.62229693425955
 20
8.551258563786307
 30
0.0
 40
0.000005
  1
0.5
100
AcDbAttribute
  2
LLI1
 70
     1
  0
ATTRIB
  5
35E
330
353
100
AcDbEntity
  8
DTM
100
AcDbText
 10
25.62226693425955
 20
8.55119189711964
 30
0.0
 40
0.000005
  1
0.0
100
AcDbAttribute
  2
FRM4
 70
     1
  0
ATTRIB
  5
35F
330
353
100
AcDbEntity
  8
DTM
100
AcDbText
 10
25.62226693425955
 20
8.551200230452974
 30
0.0
 40
0.000005
  1
0.0
100
AcDbAttribute
  2
FRM3
 70
     1
  0
ATTRIB
  5
360
330
353
100
AcDbEntity
  8
DTM
100
AcDbText
 10
25.62226693425955
 20
8.551208563786307
 30
0.0
 40
0.000005
  1
0.0
100
AcDbAttribute
  2
FRM2
 70
     1
  0
ATTRIB
  5
361
330
353
100
AcDbEntity
  8
DTM
100
AcDbText
 10
25.62226693425955
 20
8.551216897119639
 30
0.0
 40
0.000005
  1
0.0
100
AcDbAttribute
  2
FRM1
 70
     1
  0
ATTRIB
  5
362
330
353
100
AcDbEntity
  8
DTM
100
AcDbText
 10
25.62226693425955
 20
8.551225230452973
 30
0.0
 40
0.000005
  1
1.0
100
AcDbAttribute
  2
DLF1
 70
     1
  0
ATTRIB
  5
363
330
353
100
AcDbEntity
  8
DTM
100
AcDbText
 10
25.62226693425955
 20
8.551233563786306
 30
0.0
 40
0.000005
  1
0.0
100
AcDbAttribute
  2
BSE2
 70
     1
  0
ATTRIB
  5
364
330
353
100
AcDbEntity
  8
DTM
100
AcDbText
 10
25.62226693425955
 20
8.55124189711964
 30
0.0
 40
0.000005
  1
0.0
100
AcDbAttribute
  2
BSE1
 70
     1
  0
ATTRIB
  5
365
330
353
100
AcDbEntity
  8
DTM
100
AcDbText
 10
25.62226693425955
 20
8.551250230452974
 30
0.0
 40
0.000005
  1
1.0
100
AcDbAttribute
  2
BDR1
 70
     1
  0
ATTRIB
  5
366
330
353
100
AcDbEntity
  8
DTM
100
AcDbText
 10
25.62226693425955
 20
8.551258563786307
 30
0.0
 40
0.000005
  1
0.0
100
AcDbAttribute
  2
ABS1
 70
     1
  0
SEQEND
  5
367
330
353
100
AcDbEntity
  8
STP-SHIFT
  0
INSERT
  5
368
330
1E
100
AcDbEntity
  8
0
100
AcDbBlockReference
 66
     1
  2
DTM
 10
52.12226693425954
 20
9.551183563786307
 30
0.0
  0
ATTRIB
  5
369
330
368
100
AcDbEntity
  8
DTM
100
AcDbText
 10
52.12226693425954
 20
9.551183563786307
 30
0.0
 40
0.000005
  1
DTM
100
AcDbAttribute
  2
LAY1
 70
     1
  0
ATTRIB
  5
36A
330
368
100
AcDbEntity
  8
DTM
100
AcDbText
 10
52.12229693425955
 20
9.55119189711964
 30
0.0
 40
0.000005
  1
0.25
100
AcDbAttribute
  2
ZIG1
 70
     1
  0
ATTRIB
  5
36B
330
368
100
AcDbEntity
  8
DTM
100
AcDbText
 10
52.12229693425955
 20
9.551200230452974
 30
0.0
 40
0.000005
  1
0.75
100
AcDbAttribute
  2
ZAG1
 70
     1
  0
ATTRIB
  5
36C
330
368
100
AcDbEntity
  8
DTM
100
AcDbText
 10
52.12229693425955
 20
9.551208563786307
 30
0.0
 40
0.000005
  1
0.125
100
AcDbAttribute
  2
TXT1
 70
     1
  0
ATTRIB
  5
36D
330
368
100
AcDbEntity
  8
DTM
100
AcDbText
 10
52.12229693425955
 20
9.551216897119639
 30
0.0
 40
0.000005
  1
STANDARD
100
AcDbAttribute
  2
STY1
 70
     1
  0
ATTRIB
  5
36E
330
368
100
AcDbEntity
  8
DTM
100
AcDbText
 10
52.12229693425955
 20
9.551225230452973
 30
0.0
 40
0.000005
  1
1.0
100
AcDbAttribute
  2
SCL1
 70
     1
  0
ATTRIB
  5
36F
330
368
100
AcDbEntity
  8
DTM
100
AcDbText
 10
52.12229693425955
 20
9.551233563786306
 30
0.0
 40
0.000005
  1
0.0
100
AcDbAttribute
  2
ROT1
 70
     1
  0
ATTRIB
  5
370
330
368
100
AcDbEntity
  8
DTM
100
AcDbText
 10
52.12229693425955
 20
9.55124189711964
 30
0.0
 40
0.000005
  1
0.125
100
AcDbAttribute
  2
LLS1
 70
     1
  0
ATTRIB
  5
371
330
368
100
AcDbEntity
  8
DTM
100
AcDbText
 10
52.12229693425955
 20
9.551250230452974
 30
0.0
 40
0.000005
  1
0.0625
100
AcDbAttribute
  2
LLO1
 70
     1
  0
ATTRIB
  5
372
330
368
100
AcDbEntity
  8
DTM
100
AcDbText
 10
52.12229693425955
 20
9.551258563786307
 30
0.0
 40
0.000005
  1
0.5
100
AcDbAttribute
  2
LLI1
 70
     1
  0
ATTRIB
  5
373
330
368
100
AcDbEntity
  8
DTM
100
AcDbText
 10
52.12226693425954
 20
9.55119189711964
 30
0.0
 40
0.000005
  1
0.0
100
AcDbAttribute
  2
FRM4
 70
     1
  0
ATTRIB
  5
374
330
368
100
AcDbEntity
  8
DTM
100
AcDbText
 10
52.12226693425954
 20
9.551200230452974
 30
0.0
 40
0.000005
  1
0.0
100
AcDbAttribute
  2
FRM3
 70
     1
  0
ATTRIB
  5
375
330
368
100
AcDbEntity
  8
DTM
100
AcDbText
 10
52.12226693425954
 20
9.551208563786307
 30
0.0
 40
0.000005
  1
0.0
100
AcDbAttribute
  2
FRM2
 70
     1
  0
ATTRIB
  5
376
330
368
100
AcDbEntity
  8
DTM
100
AcDbText
 10
52.12226693425954
 20
9.551216897119639
 30
0.0
 40
0.000005
  1
0.0
100
AcDbAttribute
  2
FRM1
 70
     1
  0
ATTRIB
  5
377
330
368
100
AcDbEntity
  8
DTM
100
AcDbText
 10
52.12226693425954
 20
9.551225230452973
 30
0.0
 40
0.000005
  1
1.0
100
AcDbAttribute
  2
DLF1
 70
     1
  0
ATTRIB
  5
378
330
368
100
AcDbEntity
  8
DTM
100
AcDbText
 10
52.12226693425954
 20
9.551233563786306
 30
0.0
 40
0.000005
  1
0.0
100
AcDbAttribute
  2
BSE2
 70
     1
  0
ATTRIB
  5
379
330
368
100
AcDbEntity
  8
DTM
100
AcDbText
 10
52.12226693425954
 20
9.55124189711964
 30
0.0
 40
0.000005
  1
0.0
100
AcDbAttribute
  2
BSE1
 70
     1
  0
ATTRIB
  5
37A
330
368
100
AcDbEntity
  8
DTM
100
AcDbText
 10
52.12226693425954
 20
9.551250230452974
 30
0.0
 40
0.000005
  1
1.0
100
AcDbAttribute
  2
BDR1
 70
     1
  0
ATTRIB
  5
37B
330
368
100
AcDbEntity
  8
DTM
100
AcDbText
 10
52.12226693425954
 20
9.551258563786307
 30
0.0
 40
0.000005
  1
0.0
100
AcDbAttribute
  2
ABS1
 70
     1
  0
SEQEND
  5
37C
330
368
100
AcDbEntity
  8
0
  0
INSERT
  5
37D
330
1E
100
AcDbEntity
  8
0
100
AcDbBlockReference
 66
     1
  2
DTM
 10
52.12226693425954
 20
9.551183563786307
 30
0.0
  0
ATTRIB
  5
37E
330
37D
100
AcDbEntity
  8
DTM
100
AcDbText
 10
52.12226693425954
 20
9.551183563786307
 30
0.0
 40
0.000005
  1
DTM
100
AcDbAttribute
  2
LAY1
 70
     1
  0
ATTRIB
  5
37F
330
37D
100
AcDbEntity
  8
DTM
100
AcDbText
 10
52.12229693425955
 20
9.55119189711964
 30
0.0
 40
0.000005
  1
0.25
100
AcDbAttribute
  2
ZIG1
 70
     1
  0
ATTRIB
  5
380
330
37D
100
AcDbEntity
  8
DTM
100
AcDbText
 10
52.12229693425955
 20
9.551200230452974
 30
0.0
 40
0.000005
  1
0.75
100
AcDbAttribute
  2
ZAG1
 70
     1
  0
ATTRIB
  5
381
330
37D
100
AcDbEntity
  8
DTM
100
AcDbText
 10
52.12229693425955
 20
9.551208563786307
 30
0.0
 40
0.000005
  1
0.125
100
AcDbAttribute
  2
TXT1
 70
     1
  0
ATTRIB
  5
382
330
37D
100
AcDbEntity
  8
DTM
100
AcDbText
 10
52.12229693425955
 20
9.551216897119639
 30
0.0
 40
0.000005
  1
STANDARD
100
AcDbAttribute
  2
STY1
 70
     1
  0
ATTRIB
  5
383
330
37D
100
AcDbEntity
  8
DTM
100
AcDbText
 10
52.12229693425955
 20
9.551225230452973
 30
0.0
 40
0.000005
  1
1.0
100
AcDbAttribute
  2
SCL1
 70
     1
  0
ATTRIB
  5
384
330
37D
100
AcDbEntity
  8
DTM
100
AcDbText
 10
52.12229693425955
 20
9.551233563786306
 30
0.0
 40
0.000005
  1
0.0
100
AcDbAttribute
  2
ROT1
 70
     1
  0
ATTRIB
  5
385
330
37D
100
AcDbEntity
  8
DTM
100
AcDbText
 10
52.12229693425955
 20
9.55124189711964
 30
0.0
 40
0.000005
  1
0.125
100
AcDbAttribute
  2
LLS1
 70
     1
  0
ATTRIB
  5
386
330
37D
100
AcDbEntity
  8
DTM
100
AcDbText
 10
52.12229693425955
 20
9.551250230452974
 30
0.0
 40
0.000005
  1
0.0625
100
AcDbAttribute
  2
LLO1
 70
     1
  0
ATTRIB
  5
387
330
37D
100
AcDbEntity
  8
DTM
100
AcDbText
 10
52.12229693425955
 20
9.551258563786307
 30
0.0
 40
0.000005
  1
0.5
100
AcDbAttribute
  2
LLI1
 70
     1
  0
ATTRIB
  5
388
330
37D
100
AcDbEntity
  8
DTM
100
AcDbText
 10
52.12226693425954
 20
9.55119189711964
 30
0.0
 40
0.000005
  1
0.0
100
AcDbAttribute
  2
FRM4
 70
     1
  0
ATTRIB
  5
389
330
37D
100
AcDbEntity
  8
DTM
100
AcDbText
 10
52.12226693425954
 20
9.551200230452974
 30
0.0
 40
0.000005
  1
0.0
100
AcDbAttribute
  2
FRM3
 70
     1
  0
ATTRIB
  5
38A
330
37D
100
AcDbEntity
  8
DTM
100
AcDbText
 10
52.12226693425954
 20
9.551208563786307
 30
0.0
 40
0.000005
  1
0.0
100
AcDbAttribute
  2
FRM2
 70
     1
  0
ATTRIB
  5
38B
330
37D
100
AcDbEntity
  8
DTM
100
AcDbText
 10
52.12226693425954
 20
9.551216897119639
 30
0.0
 40
0.000005
  1
0.0
100
AcDbAttribute
  2
FRM1
 70
     1
  0
ATTRIB
  5
38C
330
37D
100
AcDbEntity
  8
DTM
100
AcDbText
 10
52.12226693425954
 20
9.551225230452973
 30
0.0
 40
0.000005
  1
1.0
100
AcDbAttribute
  2
DLF1
 70
     1
  0
ATTRIB
  5
38D
330
37D
100
AcDbEntity
  8
DTM
100
AcDbText
 10
52.12226693425954
 20
9.551233563786306
 30
0.0
 40
0.000005
  1
0.0
100
AcDbAttribute
  2
BSE2
 70
     1
  0
ATTRIB
  5
38E
330
37D
100
AcDbEntity
  8
DTM
100
AcDbText
 10
52.12226693425954
 20
9.55124189711964
 30
0.0
 40
0.000005
  1
0.0
100
AcDbAttribute
  2
BSE1
 70
     1
  0
ATTRIB
  5
38F
330
37D
100
AcDbEntity
  8
DTM
100
AcDbText
 10
52.12226693425954
 20
9.551250230452974
 30
0.0
 40
0.000005
  1
1.0
100
AcDbAttribute
  2
BDR1
 70
     1
  0
ATTRIB
  5
390
330
37D
100
AcDbEntity
  8
DTM
100
AcDbText
 10
52.12226693425954
 20
9.551258563786307
 30
0.0
 40
0.000005
  1
0.0
100
AcDbAttribute
  2
ABS1
 70
     1
  0
SEQEND
  5
391
330
37D
100
AcDbEntity
  8
STP-SHIFT
  0
INSERT
  5
392
330
1E
100
AcDbEntity
  8
0
100
AcDbBlockReference
 66
     1
  2
DTM
 10
52.12226693425954
 20
9.551183563786307
 30
0.0
  0
ATTRIB
  5
393
330
392
100
AcDbEntity
  8
DTM
100
AcDbText
 10
52.12226693425954
 20
9.551183563786307
 30
0.0
 40
0.000005
  1
DTM
100
AcDbAttribute
  2
LAY1
 70
     1
  0
ATTRIB
  5
394
330
392
100
AcDbEntity
  8
DTM
100
AcDbText
 10
52.12229693425955
 20
9.55119189711964
 30
0.0
 40
0.000005
  1
0.25
100
AcDbAttribute
  2
ZIG1
 70
     1
  0
ATTRIB
  5
395
330
392
100
AcDbEntity
  8
DTM
100
AcDbText
 10
52.12229693425955
 20
9.551200230452974
 30
0.0
 40
0.000005
  1
0.75
100
AcDbAttribute
  2
ZAG1
 70
     1
  0
ATTRIB
  5
396
330
392
100
AcDbEntity
  8
DTM
100
AcDbText
 10
52.12229693425955
 20
9.551208563786307
 30
0.0
 40
0.000005
  1
0.125
100
AcDbAttribute
  2
TXT1
 70
     1
  0
ATTRIB
  5
397
330
392
100
AcDbEntity
  8
DTM
100
AcDbText
 10
52.12229693425955
 20
9.551216897119639
 30
0.0
 40
0.000005
  1
STANDARD
100
AcDbAttribute
  2
STY1
 70
     1
  0
ATTRIB
  5
398
330
392
100
AcDbEntity
  8
DTM
100
AcDbText
 10
52.12229693425955
 20
9.551225230452973
 30
0.0
 40
0.000005
  1
1.0
100
AcDbAttribute
  2
SCL1
 70
     1
  0
ATTRIB
  5
399
330
392
100
AcDbEntity
  8
DTM
100
AcDbText
 10
52.12229693425955
 20
9.551233563786306
 30
0.0
 40
0.000005
  1
0.0
100
AcDbAttribute
  2
ROT1
 70
     1
  0
ATTRIB
  5
39A
330
392
100
AcDbEntity
  8
DTM
100
AcDbText
 10
52.12229693425955
 20
9.55124189711964
 30
0.0
 40
0.000005
  1
0.125
100
AcDbAttribute
  2
LLS1
 70
     1
  0
ATTRIB
  5
39B
330
392
100
AcDbEntity
  8
DTM
100
AcDbText
 10
52.12229693425955
 20
9.551250230452974
 30
0.0
 40
0.000005
  1
0.0625
100
AcDbAttribute
  2
LLO1
 70
     1
  0
ATTRIB
  5
39C
330
392
100
AcDbEntity
  8
DTM
100
AcDbText
 10
52.12229693425955
 20
9.551258563786307
 30
0.0
 40
0.000005
  1
0.5
100
AcDbAttribute
  2
LLI1
 70
     1
  0
ATTRIB
  5
39D
330
392
100
AcDbEntity
  8
DTM
100
AcDbText
 10
52.12226693425954
 20
9.55119189711964
 30
0.0
 40
0.000005
  1
0.0
100
AcDbAttribute
  2
FRM4
 70
     1
  0
ATTRIB
  5
39E
330
392
100
AcDbEntity
  8
DTM
100
AcDbText
 10
52.12226693425954
 20
9.551200230452974
 30
0.0
 40
0.000005
  1
0.0
100
AcDbAttribute
  2
FRM3
 70
     1
  0
ATTRIB
  5
39F
330
392
100
AcDbEntity
  8
DTM
100
AcDbText
 10
52.12226693425954
 20
9.551208563786307
 30
0.0
 40
0.000005
  1
0.0
100
AcDbAttribute
  2
FRM2
 70
     1
  0
ATTRIB
  5
3A0
330
392
100
AcDbEntity
  8
DTM
100
AcDbText
 10
52.12226693425954
 20
9.551216897119639
 30
0.0
 40
0.000005
  1
0.0
100
AcDbAttribute
  2
FRM1
 70
     1
  0
ATTRIB
  5
3A1
330
392
100
AcDbEntity
  8
DTM
100
AcDbText
 10
52.12226693425954
 20
9.551225230452973
 30
0.0
 40
0.000005
  1
1.0
100
AcDbAttribute
  2
DLF1
 70
     1
  0
ATTRIB
  5
3A2
330
392
100
AcDbEntity
  8
DTM
100
AcDbText
 10
52.12226693425954
 20
9.551233563786306
 30
0.0
 40
0.000005
  1
0.0
100
AcDbAttribute
  2
BSE2
 70
     1
  0
ATTRIB
  5
3A3
330
392
100
AcDbEntity
  8
DTM
100
AcDbText
 10
52.12226693425954
 20
9.55124189711964
 30
0.0
 40
0.000005
  1
0.0
100
AcDbAttribute
  2
BSE1
 70
     1
  0
ATTRIB
  5
3A4
330
392
100
AcDbEntity
  8
DTM
100
AcDbText
 10
52.12226693425954
 20
9.551250230452974
 30
0.0
 40
0.000005
  1
1.0
100
AcDbAttribute
  2
BDR1
 70
     1
  0
ATTRIB
  5
3A5
330
392
100
AcDbEntity
  8
DTM
100
AcDbText
 10
52.12226693425954
 20
9.551258563786307
 30
0.0
 40
0.000005
  1
0.0
100
AcDbAttribute
  2
ABS1
 70
     1
  0
SEQEND
  5
3A6
330
392
100
AcDbEntity
  8
0
  0
INSERT
  5
3A7
330
1E
100
AcDbEntity
  8
0
100
AcDbBlockReference
 66
     1
  2
DTM
 10
52.12226693425954
 20
9.551183563786307
 30
0.0
  0
ATTRIB
  5
3A8
330
3A7
100
AcDbEntity
  8
DTM
100
AcDbText
 10
52.12226693425954
 20
9.551183563786307
 30
0.0
 40
0.000005
  1
DTM
100
AcDbAttribute
  2
LAY1
 70
     1
  0
ATTRIB
  5
3A9
330
3A7
100
AcDbEntity
  8
DTM
100
AcDbText
 10
52.12229693425955
 20
9.55119189711964
 30
0.0
 40
0.000005
  1
0.25
100
AcDbAttribute
  2
ZIG1
 70
     1
  0
ATTRIB
  5
3AA
330
3A7
100
AcDbEntity
  8
DTM
100
AcDbText
 10
52.12229693425955
 20
9.551200230452974
 30
0.0
 40
0.000005
  1
0.75
100
AcDbAttribute
  2
ZAG1
 70
     1
  0
ATTRIB
  5
3AB
330
3A7
100
AcDbEntity
  8
DTM
100
AcDbText
 10
52.12229693425955
 20
9.551208563786307
 30
0.0
 40
0.000005
  1
0.125
100
AcDbAttribute
  2
TXT1
 70
     1
  0
ATTRIB
  5
3AC
330
3A7
100
AcDbEntity
  8
DTM
100
AcDbText
 10
52.12229693425955
 20
9.551216897119639
 30
0.0
 40
0.000005
  1
STANDARD
100
AcDbAttribute
  2
STY1
 70
     1
  0
ATTRIB
  5
3AD
330
3A7
100
AcDbEntity
  8
DTM
100
AcDbText
 10
52.12229693425955
 20
9.551225230452973
 30
0.0
 40
0.000005
  1
1.0
100
AcDbAttribute
  2
SCL1
 70
     1
  0
ATTRIB
  5
3AE
330
3A7
100
AcDbEntity
  8
DTM
100
AcDbText
 10
52.12229693425955
 20
9.551233563786306
 30
0.0
 40
0.000005
  1
0.0
100
AcDbAttribute
  2
ROT1
 70
     1
  0
ATTRIB
  5
3AF
330
3A7
100
AcDbEntity
  8
DTM
100
AcDbText
 10
52.12229693425955
 20
9.55124189711964
 30
0.0
 40
0.000005
  1
0.125
100
AcDbAttribute
  2
LLS1
 70
     1
  0
ATTRIB
  5
3B0
330
3A7
100
AcDbEntity
  8
DTM
100
AcDbText
 10
52.12229693425955
 20
9.551250230452974
 30
0.0
 40
0.000005
  1
0.0625
100
AcDbAttribute
  2
LLO1
 70
     1
  0
ATTRIB
  5
3B1
330
3A7
100
AcDbEntity
  8
DTM
100
AcDbText
 10
52.12229693425955
 20
9.551258563786307
 30
0.0
 40
0.000005
  1
0.5
100
AcDbAttribute
  2
LLI1
 70
     1
  0
ATTRIB
  5
3B2
330
3A7
100
AcDbEntity
  8
DTM
100
AcDbText
 10
52.12226693425954
 20
9.55119189711964
 30
0.0
 40
0.000005
  1
0.0
100
AcDbAttribute
  2
FRM4
 70
     1
  0
ATTRIB
  5
3B3
330
3A7
100
AcDbEntity
  8
DTM
100
AcDbText
 10
52.12226693425954
 20
9.551200230452974
 30
0.0
 40
0.000005
  1
0.0
100
AcDbAttribute
  2
FRM3
 70
     1
  0
ATTRIB
  5
3B4
330
3A7
100
AcDbEntity
  8
DTM
100
AcDbText
 10
52.12226693425954
 20
9.551208563786307
 30
0.0
 40
0.000005
  1
0.0
100
AcDbAttribute
  2
FRM2
 70
     1
  0
ATTRIB
  5
3B5
330
3A7
100
AcDbEntity
  8
DTM
100
AcDbText
 10
52.12226693425954
 20
9.551216897119639
 30
0.0
 40
0.000005
  1
0.0
100
AcDbAttribute
  2
FRM1
 70
     1
  0
ATTRIB
  5
3B6
330
3A7
100
AcDbEntity
  8
DTM
100
AcDbText
 10
52.12226693425954
 20
9.551225230452973
 30
0.0
 40
0.000005
  1
1.0
100
AcDbAttribute
  2
DLF1
 70
     1
  0
ATTRIB
  5
3B7
330
3A7
100
AcDbEntity
  8
DTM
100
AcDbText
 10
52.12226693425954
 20
9.551233563786306
 30
0.0
 40
0.000005
  1
0.0
100
AcDbAttribute
  2
BSE2
 70
     1
  0
ATTRIB
  5
3B8
330
3A7
100
AcDbEntity
  8
DTM
100
AcDbText
 10
52.12226693425954
 20
9.55124189711964
 30
0.0
 40
0.000005
  1
0.0
100
AcDbAttribute
  2
BSE1
 70
     1
  0
ATTRIB
  5
3B9
330
3A7
100
AcDbEntity
  8
DTM
100
AcDbText
 10
52.12226693425954
 20
9.551250230452974
 30
0.0
 40
0.000005
  1
1.0
100
AcDbAttribute
  2
BDR1
 70
     1
  0
ATTRIB
  5
3BA
330
3A7
100
AcDbEntity
  8
DTM
100
AcDbText
 10
52.12226693425954
 20
9.551258563786307
 30
0.0
 40
0.000005
  1
0.0
100
AcDbAttribute
  2
ABS1
 70
     1
  0
SEQEND
  5
3BB
330
3A7
100
AcDbEntity
  8
STP-SHIFT
  0
INSERT
  5
3BC
330
1E
100
AcDbEntity
  8
0
100
AcDbBlockReference
 66
     1
  2
DTM
 10
52.12226693425954
 20
22.55118356378631
 30
0.0
  0
ATTRIB
  5
3BD
330
3BC
100
AcDbEntity
  8
DTM
100
AcDbText
 10
52.12226693425954
 20
22.55118356378631
 30
0.0
 40
0.000005
  1
DTM
100
AcDbAttribute
  2
LAY1
 70
     1
  0
ATTRIB
  5
3BE
330
3BC
100
AcDbEntity
  8
DTM
100
AcDbText
 10
52.12229693425955
 20
22.55119189711964
 30
0.0
 40
0.000005
  1
0.25
100
AcDbAttribute
  2
ZIG1
 70
     1
  0
ATTRIB
  5
3BF
330
3BC
100
AcDbEntity
  8
DTM
100
AcDbText
 10
52.12229693425955
 20
22.55120023045297
 30
0.0
 40
0.000005
  1
0.75
100
AcDbAttribute
  2
ZAG1
 70
     1
  0
ATTRIB
  5
3C0
330
3BC
100
AcDbEntity
  8
DTM
100
AcDbText
 10
52.12229693425955
 20
22.55120856378631
 30
0.0
 40
0.000005
  1
0.125
100
AcDbAttribute
  2
TXT1
 70
     1
  0
ATTRIB
  5
3C1
330
3BC
100
AcDbEntity
  8
DTM
100
AcDbText
 10
52.12229693425955
 20
22.55121689711964
 30
0.0
 40
0.000005
  1
STANDARD
100
AcDbAttribute
  2
STY1
 70
     1
  0
ATTRIB
  5
3C2
330
3BC
100
AcDbEntity
  8
DTM
100
AcDbText
 10
52.12229693425955
 20
22.55122523045297
 30
0.0
 40
0.000005
  1
1.0
100
AcDbAttribute
  2
SCL1
 70
     1
  0
ATTRIB
  5
3C3
330
3BC
100
AcDbEntity
  8
DTM
100
AcDbText
 10
52.12229693425955
 20
22.55123356378631
 30
0.0
 40
0.000005
  1
0.0
100
AcDbAttribute
  2
ROT1
 70
     1
  0
ATTRIB
  5
3C4
330
3BC
100
AcDbEntity
  8
DTM
100
AcDbText
 10
52.12229693425955
 20
22.55124189711964
 30
0.0
 40
0.000005
  1
0.125
100
AcDbAttribute
  2
LLS1
 70
     1
  0
ATTRIB
  5
3C5
330
3BC
100
AcDbEntity
  8
DTM
100
AcDbText
 10
52.12229693425955
 20
22.55125023045297
 30
0.0
 40
0.000005
  1
0.0625
100
AcDbAttribute
  2
LLO1
 70
     1
  0
ATTRIB
  5
3C6
330
3BC
100
AcDbEntity
  8
DTM
100
AcDbText
 10
52.12229693425955
 20
22.55125856378631
 30
0.0
 40
0.000005
  1
0.5
100
AcDbAttribute
  2
LLI1
 70
     1
  0
ATTRIB
  5
3C7
330
3BC
100
AcDbEntity
  8
DTM
100
AcDbText
 10
52.12226693425954
 20
22.55119189711964
 30
0.0
 40
0.000005
  1
0.0
100
AcDbAttribute
  2
FRM4
 70
     1
  0
ATTRIB
  5
3C8
330
3BC
100
AcDbEntity
  8
DTM
100
AcDbText
 10
52.12226693425954
 20
22.55120023045297
 30
0.0
 40
0.000005
  1
0.0
100
AcDbAttribute
  2
FRM3
 70
     1
  0
ATTRIB
  5
3C9
330
3BC
100
AcDbEntity
  8
DTM
100
AcDbText
 10
52.12226693425954
 20
22.55120856378631
 30
0.0
 40
0.000005
  1
0.0
100
AcDbAttribute
  2
FRM2
 70
     1
  0
ATTRIB
  5
3CA
330
3BC
100
AcDbEntity
  8
DTM
100
AcDbText
 10
52.12226693425954
 20
22.55121689711964
 30
0.0
 40
0.000005
  1
0.0
100
AcDbAttribute
  2
FRM1
 70
     1
  0
ATTRIB
  5
3CB
330
3BC
100
AcDbEntity
  8
DTM
100
AcDbText
 10
52.12226693425954
 20
22.55122523045297
 30
0.0
 40
0.000005
  1
1.0
100
AcDbAttribute
  2
DLF1
 70
     1
  0
ATTRIB
  5
3CC
330
3BC
100
AcDbEntity
  8
DTM
100
AcDbText
 10
52.12226693425954
 20
22.55123356378631
 30
0.0
 40
0.000005
  1
0.0
100
AcDbAttribute
  2
BSE2
 70
     1
  0
ATTRIB
  5
3CD
330
3BC
100
AcDbEntity
  8
DTM
100
AcDbText
 10
52.12226693425954
 20
22.55124189711964
 30
0.0
 40
0.000005
  1
0.0
100
AcDbAttribute
  2
BSE1
 70
     1
  0
ATTRIB
  5
3CE
330
3BC
100
AcDbEntity
  8
DTM
100
AcDbText
 10
52.12226693425954
 20
22.55125023045297
 30
0.0
 40
0.000005
  1
1.0
100
AcDbAttribute
  2
BDR1
 70
     1
  0
ATTRIB
  5
3CF
330
3BC
100
AcDbEntity
  8
DTM
100
AcDbText
 10
52.12226693425954
 20
22.55125856378631
 30
0.0
 40
0.000005
  1
0.0
100
AcDbAttribute
  2
ABS1
 70
     1
  0
SEQEND
  5
3D0
330
3BC
100
AcDbEntity
  8
0
  0
INSERT
  5
3D1
330
1E
100
AcDbEntity
  8
0
100
AcDbBlockReference
 66
     1
  2
DTM
 10
52.12226693425954
 20
22.55118356378631
 30
0.0
  0
ATTRIB
  5
3D2
330
3D1
100
AcDbEntity
  8
DTM
100
AcDbText
 10
52.12226693425954
 20
22.55118356378631
 30
0.0
 40
0.000005
  1
DTM
100
AcDbAttribute
  2
LAY1
 70
     1
  0
ATTRIB
  5
3D3
330
3D1
100
AcDbEntity
  8
DTM
100
AcDbText
 10
52.12229693425955
 20
22.55119189711964
 30
0.0
 40
0.000005
  1
0.25
100
AcDbAttribute
  2
ZIG1
 70
     1
  0
ATTRIB
  5
3D4
330
3D1
100
AcDbEntity
  8
DTM
100
AcDbText
 10
52.12229693425955
 20
22.55120023045297
 30
0.0
 40
0.000005
  1
0.75
100
AcDbAttribute
  2
ZAG1
 70
     1
  0
ATTRIB
  5
3D5
330
3D1
100
AcDbEntity
  8
DTM
100
AcDbText
 10
52.12229693425955
 20
22.55120856378631
 30
0.0
 40
0.000005
  1
0.125
100
AcDbAttribute
  2
TXT1
 70
     1
  0
ATTRIB
  5
3D6
330
3D1
100
AcDbEntity
  8
DTM
100
AcDbText
 10
52.12229693425955
 20
22.55121689711964
 30
0.0
 40
0.000005
  1
STANDARD
100
AcDbAttribute
  2
STY1
 70
     1
  0
ATTRIB
  5
3D7
330
3D1
100
AcDbEntity
  8
DTM
100
AcDbText
 10
52.12229693425955
 20
22.55122523045297
 30
0.0
 40
0.000005
  1
1.0
100
AcDbAttribute
  2
SCL1
 70
     1
  0
ATTRIB
  5
3D8
330
3D1
100
AcDbEntity
  8
DTM
100
AcDbText
 10
52.12229693425955
 20
22.55123356378631
 30
0.0
 40
0.000005
  1
0.0
100
AcDbAttribute
  2
ROT1
 70
     1
  0
ATTRIB
  5
3D9
330
3D1
100
AcDbEntity
  8
DTM
100
AcDbText
 10
52.12229693425955
 20
22.55124189711964
 30
0.0
 40
0.000005
  1
0.125
100
AcDbAttribute
  2
LLS1
 70
     1
  0
ATTRIB
  5
3DA
330
3D1
100
AcDbEntity
  8
DTM
100
AcDbText
 10
52.12229693425955
 20
22.55125023045297
 30
0.0
 40
0.000005
  1
0.0625
100
AcDbAttribute
  2
LLO1
 70
     1
  0
ATTRIB
  5
3DB
330
3D1
100
AcDbEntity
  8
DTM
100
AcDbText
 10
52.12229693425955
 20
22.55125856378631
 30
0.0
 40
0.000005
  1
0.5
100
AcDbAttribute
  2
LLI1
 70
     1
  0
ATTRIB
  5
3DC
330
3D1
100
AcDbEntity
  8
DTM
100
AcDbText
 10
52.12226693425954
 20
22.55119189711964
 30
0.0
 40
0.000005
  1
0.0
100
AcDbAttribute
  2
FRM4
 70
     1
  0
ATTRIB
  5
3DD
330
3D1
100
AcDbEntity
  8
DTM
100
AcDbText
 10
52.12226693425954
 20
22.55120023045297
 30
0.0
 40
0.000005
  1
0.0
100
AcDbAttribute
  2
FRM3
 70
     1
  0
ATTRIB
  5
3DE
330
3D1
100
AcDbEntity
  8
DTM
100
AcDbText
 10
52.12226693425954
 20
22.55120856378631
 30
0.0
 40
0.000005
  1
0.0
100
AcDbAttribute
  2
FRM2
 70
     1
  0
ATTRIB
  5
3DF
330
3D1
100
AcDbEntity
  8
DTM
100
AcDbText
 10
52.12226693425954
 20
22.55121689711964
 30
0.0
 40
0.000005
  1
0.0
100
AcDbAttribute
  2
FRM1
 70
     1
  0
ATTRIB
  5
3E0
330
3D1
100
AcDbEntity
  8
DTM
100
AcDbText
 10
52.12226693425954
 20
22.55122523045297
 30
0.0
 40
0.000005
  1
1.0
100
AcDbAttribute
  2
DLF1
 70
     1
  0
ATTRIB
  5
3E1
330
3D1
100
AcDbEntity
  8
DTM
100
AcDbText
 10
52.12226693425954
 20
22.55123356378631
 30
0.0
 40
0.000005
  1
0.0
100
AcDbAttribute
  2
BSE2
 70
     1
  0
ATTRIB
  5
3E2
330
3D1
100
AcDbEntity
  8
DTM
100
AcDbText
 10
52.12226693425954
 20
22.55124189711964
 30
0.0
 40
0.000005
  1
0.0
100
AcDbAttribute
  2
BSE1
 70
     1
  0
ATTRIB
  5
3E3
330
3D1
100
AcDbEntity
  8
DTM
100
AcDbText
 10
52.12226693425954
 20
22.55125023045297
 30
0.0
 40
0.000005
  1
1.0
100
AcDbAttribute
  2
BDR1
 70
     1
  0
ATTRIB
  5
3E4
330
3D1
100
AcDbEntity
  8
DTM
100
AcDbText
 10
52.12226693425954
 20
22.55125856378631
 30
0.0
 40
0.000005
  1
0.0
100
AcDbAttribute
  2
ABS1
 70
     1
  0
SEQEND
  5
3E5
330
3D1
100
AcDbEntity
  8
STP-SHIFT
  0
INSERT
  5
3E6
330
1E
100
AcDbEntity
  8
0
100
AcDbBlockReference
 66
     1
  2
DTM
 10
52.12226693425954
 20
22.55118356378631
 30
0.0
  0
ATTRIB
  5
3E7
330
3E6
100
AcDbEntity
  8
DTM
100
AcDbText
 10
52.12226693425954
 20
22.55118356378631
 30
0.0
 40
0.000005
  1
DTM
100
AcDbAttribute
  2
LAY1
 70
     1
  0
ATTRIB
  5
3E8
330
3E6
100
AcDbEntity
  8
DTM
100
AcDbText
 10
52.12229693425955
 20
22.55119189711964
 30
0.0
 40
0.000005
  1
0.25
100
AcDbAttribute
  2
ZIG1
 70
     1
  0
ATTRIB
  5
3E9
330
3E6
100
AcDbEntity
  8
DTM
100
AcDbText
 10
52.12229693425955
 20
22.55120023045297
 30
0.0
 40
0.000005
  1
0.75
100
AcDbAttribute
  2
ZAG1
 70
     1
  0
ATTRIB
  5
3EA
330
3E6
100
AcDbEntity
  8
DTM
100
AcDbText
 10
52.12229693425955
 20
22.55120856378631
 30
0.0
 40
0.000005
  1
0.125
100
AcDbAttribute
  2
TXT1
 70
     1
  0
ATTRIB
  5
3EB
330
3E6
100
AcDbEntity
  8
DTM
100
AcDbText
 10
52.12229693425955
 20
22.55121689711964
 30
0.0
 40
0.000005
  1
STANDARD
100
AcDbAttribute
  2
STY1
 70
     1
  0
ATTRIB
  5
3EC
330
3E6
100
AcDbEntity
  8
DTM
100
AcDbText
 10
52.12229693425955
 20
22.55122523045297
 30
0.0
 40
0.000005
  1
1.0
100
AcDbAttribute
  2
SCL1
 70
     1
  0
ATTRIB
  5
3ED
330
3E6
100
AcDbEntity
  8
DTM
100
AcDbText
 10
52.12229693425955
 20
22.55123356378631
 30
0.0
 40
0.000005
  1
0.0
100
AcDbAttribute
  2
ROT1
 70
     1
  0
ATTRIB
  5
3EE
330
3E6
100
AcDbEntity
  8
DTM
100
AcDbText
 10
52.12229693425955
 20
22.55124189711964
 30
0.0
 40
0.000005
  1
0.125
100
AcDbAttribute
  2
LLS1
 70
     1
  0
ATTRIB
  5
3EF
330
3E6
100
AcDbEntity
  8
DTM
100
AcDbText
 10
52.12229693425955
 20
22.55125023045297
 30
0.0
 40
0.000005
  1
0.0625
100
AcDbAttribute
  2
LLO1
 70
     1
  0
ATTRIB
  5
3F0
330
3E6
100
AcDbEntity
  8
DTM
100
AcDbText
 10
52.12229693425955
 20
22.55125856378631
 30
0.0
 40
0.000005
  1
0.5
100
AcDbAttribute
  2
LLI1
 70
     1
  0
ATTRIB
  5
3F1
330
3E6
100
AcDbEntity
  8
DTM
100
AcDbText
 10
52.12226693425954
 20
22.55119189711964
 30
0.0
 40
0.000005
  1
0.0
100
AcDbAttribute
  2
FRM4
 70
     1
  0
ATTRIB
  5
3F2
330
3E6
100
AcDbEntity
  8
DTM
100
AcDbText
 10
52.12226693425954
 20
22.55120023045297
 30
0.0
 40
0.000005
  1
0.0
100
AcDbAttribute
  2
FRM3
 70
     1
  0
ATTRIB
  5
3F3
330
3E6
100
AcDbEntity
  8
DTM
100
AcDbText
 10
52.12226693425954
 20
22.55120856378631
 30
0.0
 40
0.000005
  1
0.0
100
AcDbAttribute
  2
FRM2
 70
     1
  0
ATTRIB
  5
3F4
330
3E6
100
AcDbEntity
  8
DTM
100
AcDbText
 10
52.12226693425954
 20
22.55121689711964
 30
0.0
 40
0.000005
  1
0.0
100
AcDbAttribute
  2
FRM1
 70
     1
  0
ATTRIB
  5
3F5
330
3E6
100
AcDbEntity
  8
DTM
100
AcDbText
 10
52.12226693425954
 20
22.55122523045297
 30
0.0
 40
0.000005
  1
1.0
100
AcDbAttribute
  2
DLF1
 70
     1
  0
ATTRIB
  5
3F6
330
3E6
100
AcDbEntity
  8
DTM
100
AcDbText
 10
52.12226693425954
 20
22.55123356378631
 30
0.0
 40
0.000005
  1
0.0
100
AcDbAttribute
  2
BSE2
 70
     1
  0
ATTRIB
  5
3F7
330
3E6
100
AcDbEntity
  8
DTM
100
AcDbText
 10
52.12226693425954
 20
22.55124189711964
 30
0.0
 40
0.000005
  1
0.0
100
AcDbAttribute
  2
BSE1
 70
     1
  0
ATTRIB
  5
3F8
330
3E6
100
AcDbEntity
  8
DTM
100
AcDbText
 10
52.12226693425954
 20
22.55125023045297
 30
0.0
 40
0.000005
  1
1.0
100
AcDbAttribute
  2
BDR1
 70
     1
  0
ATTRIB
  5
3F9
330
3E6
100
AcDbEntity
  8
DTM
100
AcDbText
 10
52.12226693425954
 20
22.55125856378631
 30
0.0
 40
0.000005
  1
0.0
100
AcDbAttribute
  2
ABS1
 70
     1
  0
SEQEND
  5
3FA
330
3E6
100
AcDbEntity
  8
0
  0
INSERT
  5
3FB
330
1E
100
AcDbEntity
  8
0
100
AcDbBlockReference
 66
     1
  2
DTM
 10
52.12226693425954
 20
22.55118356378631
 30
0.0
  0
ATTRIB
  5
3FC
330
3FB
100
AcDbEntity
  8
DTM
100
AcDbText
 10
52.12226693425954
 20
22.55118356378631
 30
0.0
 40
0.000005
  1
DTM
100
AcDbAttribute
  2
LAY1
 70
     1
  0
ATTRIB
  5
3FD
330
3FB
100
AcDbEntity
  8
DTM
100
AcDbText
 10
52.12229693425955
 20
22.55119189711964
 30
0.0
 40
0.000005
  1
0.25
100
AcDbAttribute
  2
ZIG1
 70
     1
  0
ATTRIB
  5
3FE
330
3FB
100
AcDbEntity
  8
DTM
100
AcDbText
 10
52.12229693425955
 20
22.55120023045297
 30
0.0
 40
0.000005
  1
0.75
100
AcDbAttribute
  2
ZAG1
 70
     1
  0
ATTRIB
  5
3FF
330
3FB
100
AcDbEntity
  8
DTM
100
AcDbText
 10
52.12229693425955
 20
22.55120856378631
 30
0.0
 40
0.000005
  1
0.125
100
AcDbAttribute
  2
TXT1
 70
     1
  0
ATTRIB
  5
400
330
3FB
100
AcDbEntity
  8
DTM
100
AcDbText
 10
52.12229693425955
 20
22.55121689711964
 30
0.0
 40
0.000005
  1
STANDARD
100
AcDbAttribute
  2
STY1
 70
     1
  0
ATTRIB
  5
401
330
3FB
100
AcDbEntity
  8
DTM
100
AcDbText
 10
52.12229693425955
 20
22.55122523045297
 30
0.0
 40
0.000005
  1
1.0
100
AcDbAttribute
  2
SCL1
 70
     1
  0
ATTRIB
  5
402
330
3FB
100
AcDbEntity
  8
DTM
100
AcDbText
 10
52.12229693425955
 20
22.55123356378631
 30
0.0
 40
0.000005
  1
0.0
100
AcDbAttribute
  2
ROT1
 70
     1
  0
ATTRIB
  5
403
330
3FB
100
AcDbEntity
  8
DTM
100
AcDbText
 10
52.12229693425955
 20
22.55124189711964
 30
0.0
 40
0.000005
  1
0.125
100
AcDbAttribute
  2
LLS1
 70
     1
  0
ATTRIB
  5
404
330
3FB
100
AcDbEntity
  8
DTM
100
AcDbText
 10
52.12229693425955
 20
22.55125023045297
 30
0.0
 40
0.000005
  1
0.0625
100
AcDbAttribute
  2
LLO1
 70
     1
  0
ATTRIB
  5
405
330
3FB
100
AcDbEntity
  8
DTM
100
AcDbText
 10
52.12229693425955
 20
22.55125856378631
 30
0.0
 40
0.000005
  1
0.5
100
AcDbAttribute
  2
LLI1
 70
     1
  0
ATTRIB
  5
406
330
3FB
100
AcDbEntity
  8
DTM
100
AcDbText
 10
52.12226693425954
 20
22.55119189711964
 30
0.0
 40
0.000005
  1
0.0
100
AcDbAttribute
  2
FRM4
 70
     1
  0
ATTRIB
  5
407
330
3FB
100
AcDbEntity
  8
DTM
100
AcDbText
 10
52.12226693425954
 20
22.55120023045297
 30
0.0
 40
0.000005
  1
0.0
100
AcDbAttribute
  2
FRM3
 70
     1
  0
ATTRIB
  5
408
330
3FB
100
AcDbEntity
  8
DTM
100
AcDbText
 10
52.12226693425954
 20
22.55120856378631
 30
0.0
 40
0.000005
  1
0.0
100
AcDbAttribute
  2
FRM2
 70
     1
  0
ATTRIB
  5
409
330
3FB
100
AcDbEntity
  8
DTM
100
AcDbText
 10
52.12226693425954
 20
22.55121689711964
 30
0.0
 40
0.000005
  1
0.0
100
AcDbAttribute
  2
FRM1
 70
     1
  0
ATTRIB
  5
40A
330
3FB
100
AcDbEntity
  8
DTM
100
AcDbText
 10
52.12226693425954
 20
22.55122523045297
 30
0.0
 40
0.000005
  1
1.0
100
AcDbAttribute
  2
DLF1
 70
     1
  0
ATTRIB
  5
40B
330
3FB
100
AcDbEntity
  8
DTM
100
AcDbText
 10
52.12226693425954
 20
22.55123356378631
 30
0.0
 40
0.000005
  1
0.0
100
AcDbAttribute
  2
BSE2
 70
     1
  0
ATTRIB
  5
40C
330
3FB
100
AcDbEntity
  8
DTM
100
AcDbText
 10
52.12226693425954
 20
22.55124189711964
 30
0.0
 40
0.000005
  1
0.0
100
AcDbAttribute
  2
BSE1
 70
     1
  0
ATTRIB
  5
40D
330
3FB
100
AcDbEntity
  8
DTM
100
AcDbText
 10
52.12226693425954
 20
22.55125023045297
 30
0.0
 40
0.000005
  1
1.0
100
AcDbAttribute
  2
BDR1
 70
     1
  0
ATTRIB
  5
40E
330
3FB
100
AcDbEntity
  8
DTM
100
AcDbText
 10
52.12226693425954
 20
22.55125856378631
 30
0.0
 40
0.000005
  1
0.0
100
AcDbAttribute
  2
ABS1
 70
     1
  0
SEQEND
  5
40F
330
3FB
100
AcDbEntity
  8
STP-SHIFT
  0
TEXT
  5
410
330
1E
100
AcDbEntity
  8
0
100
AcDbText
 10
82.62226693425954
 20
28.05118356378631
 30
0.0
 40
0.25
  1
 
100
AcDbText
  0
INSERT
  5
411
330
1E
100
AcDbEntity
  8
0
100
AcDbBlockReference
 66
     1
  2
DTM
 10
64.63621059319769
 20
43.60454942307817
 30
0.0
  0
ATTRIB
  5
412
330
411
100
AcDbEntity
  8
DTM
100
AcDbText
 10
64.63621059319769
 20
43.60454942307817
 30
0.0
 40
0.000005
  1
DTM
100
AcDbAttribute
  2
LAY1
 70
     1
  0
ATTRIB
  5
413
330
411
100
AcDbEntity
  8
DTM
100
AcDbText
 10
64.63624059319768
 20
43.6045577564115
 30
0.0
 40
0.000005
  1
0.25
100
AcDbAttribute
  2
ZIG1
 70
     1
  0
ATTRIB
  5
414
330
411
100
AcDbEntity
  8
DTM
100
AcDbText
 10
64.63624059319768
 20
43.60456608974484
 30
0.0
 40
0.000005
  1
0.75
100
AcDbAttribute
  2
ZAG1
 70
     1
  0
ATTRIB
  5
415
330
411
100
AcDbEntity
  8
DTM
100
AcDbText
 10
64.63624059319768
 20
43.60457442307816
 30
0.0
 40
0.000005
  1
0.125
100
AcDbAttribute
  2
TXT1
 70
     1
  0
ATTRIB
  5
416
330
411
100
AcDbEntity
  8
DTM
100
AcDbText
 10
64.63624059319768
 20
43.6045827564115
 30
0.0
 40
0.000005
  1
STANDARD
100
AcDbAttribute
  2
STY1
 70
     1
  0
ATTRIB
  5
417
330
411
100
AcDbEntity
  8
DTM
100
AcDbText
 10
64.63624059319768
 20
43.60459108974483
 30
0.0
 40
0.000005
  1
1.0
100
AcDbAttribute
  2
SCL1
 70
     1
  0
ATTRIB
  5
418
330
411
100
AcDbEntity
  8
DTM
100
AcDbText
 10
64.63624059319768
 20
43.60459942307817
 30
0.0
 40
0.000005
  1
0.0
100
AcDbAttribute
  2
ROT1
 70
     1
  0
ATTRIB
  5
419
330
411
100
AcDbEntity
  8
DTM
100
AcDbText
 10
64.63624059319768
 20
43.6046077564115
 30
0.0
 40
0.000005
  1
0.125
100
AcDbAttribute
  2
LLS1
 70
     1
  0
ATTRIB
  5
41A
330
411
100
AcDbEntity
  8
DTM
100
AcDbText
 10
64.63624059319768
 20
43.60461608974484
 30
0.0
 40
0.000005
  1
0.0625
100
AcDbAttribute
  2
LLO1
 70
     1
  0
ATTRIB
  5
41B
330
411
100
AcDbEntity
  8
DTM
100
AcDbText
 10
64.63624059319768
 20
43.60462442307816
 30
0.0
 40
0.000005
  1
0.5
100
AcDbAttribute
  2
LLI1
 70
     1
  0
ATTRIB
  5
41C
330
411
100
AcDbEntity
  8
DTM
100
AcDbText
 10
64.63621059319769
 20
43.6045577564115
 30
0.0
 40
0.000005
  1
0.0
100
AcDbAttribute
  2
FRM4
 70
     1
  0
ATTRIB
  5
41D
330
411
100
AcDbEntity
  8
DTM
100
AcDbText
 10
64.63621059319769
 20
43.60456608974484
 30
0.0
 40
0.000005
  1
0.0
100
AcDbAttribute
  2
FRM3
 70
     1
  0
ATTRIB
  5
41E
330
411
100
AcDbEntity
  8
DTM
100
AcDbText
 10
64.63621059319769
 20
43.60457442307816
 30
0.0
 40
0.000005
  1
0.0
100
AcDbAttribute
  2
FRM2
 70
     1
  0
ATTRIB
  5
41F
330
411
100
AcDbEntity
  8
DTM
100
AcDbText
 10
64.63621059319769
 20
43.6045827564115
 30
0.0
 40
0.000005
  1
0.0
100
AcDbAttribute
  2
FRM1
 70
     1
  0
ATTRIB
  5
420
330
411
100
AcDbEntity
  8
DTM
100
AcDbText
 10
64.63621059319769
 20
43.60459108974483
 30
0.0
 40
0.000005
  1
1.0
100
AcDbAttribute
  2
DLF1
 70
     1
  0
ATTRIB
  5
421
330
411
100
AcDbEntity
  8
DTM
100
AcDbText
 10
64.63621059319769
 20
43.60459942307817
 30
0.0
 40
0.000005
  1
0.0
100
AcDbAttribute
  2
BSE2
 70
     1
  0
ATTRIB
  5
422
330
411
100
AcDbEntity
  8
DTM
100
AcDbText
 10
64.63621059319769
 20
43.6046077564115
 30
0.0
 40
0.000005
  1
0.0
100
AcDbAttribute
  2
BSE1
 70
     1
  0
ATTRIB
  5
423
330
411
100
AcDbEntity
  8
DTM
100
AcDbText
 10
64.63621059319769
 20
43.60461608974484
 30
0.0
 40
0.000005
  1
1.0
100
AcDbAttribute
  2
BDR1
 70
     1
  0
ATTRIB
  5
424
330
411
100
AcDbEntity
  8
DTM
100
AcDbText
 10
64.63621059319769
 20
43.60462442307816
 30
0.0
 40
0.000005
  1
0.0
100
AcDbAttribute
  2
ABS1
 70
     1
  0
SEQEND
  5
425
330
411
100
AcDbEntity
  8
0
  0
INSERT
  5
426
330
1E
100
AcDbEntity
  8
0
100
AcDbBlockReference
 66
     1
  2
DTM
 10
64.63621059319769
 20
43.60454942307817
 30
0.0
  0
ATTRIB
  5
427
330
426
100
AcDbEntity
  8
DTM
100
AcDbText
 10
64.63621059319769
 20
43.60454942307817
 30
0.0
 40
0.000005
  1
DTM
100
AcDbAttribute
  2
LAY1
 70
     1
  0
ATTRIB
  5
428
330
426
100
AcDbEntity
  8
DTM
100
AcDbText
 10
64.63624059319768
 20
43.6045577564115
 30
0.0
 40
0.000005
  1
0.25
100
AcDbAttribute
  2
ZIG1
 70
     1
  0
ATTRIB
  5
429
330
426
100
AcDbEntity
  8
DTM
100
AcDbText
 10
64.63624059319768
 20
43.60456608974484
 30
0.0
 40
0.000005
  1
0.75
100
AcDbAttribute
  2
ZAG1
 70
     1
  0
ATTRIB
  5
42A
330
426
100
AcDbEntity
  8
DTM
100
AcDbText
 10
64.63624059319768
 20
43.60457442307816
 30
0.0
 40
0.000005
  1
0.125
100
AcDbAttribute
  2
TXT1
 70
     1
  0
ATTRIB
  5
42B
330
426
100
AcDbEntity
  8
DTM
100
AcDbText
 10
64.63624059319768
 20
43.6045827564115
 30
0.0
 40
0.000005
  1
STANDARD
100
AcDbAttribute
  2
STY1
 70
     1
  0
ATTRIB
  5
42C
330
426
100
AcDbEntity
  8
DTM
100
AcDbText
 10
64.63624059319768
 20
43.60459108974483
 30
0.0
 40
0.000005
  1
1.0
100
AcDbAttribute
  2
SCL1
 70
     1
  0
ATTRIB
  5
42D
330
426
100
AcDbEntity
  8
DTM
100
AcDbText
 10
64.63624059319768
 20
43.60459942307817
 30
0.0
 40
0.000005
  1
0.0
100
AcDbAttribute
  2
ROT1
 70
     1
  0
ATTRIB
  5
42E
330
426
100
AcDbEntity
  8
DTM
100
AcDbText
 10
64.63624059319768
 20
43.6046077564115
 30
0.0
 40
0.000005
  1
0.125
100
AcDbAttribute
  2
LLS1
 70
     1
  0
ATTRIB
  5
42F
330
426
100
AcDbEntity
  8
DTM
100
AcDbText
 10
64.63624059319768
 20
43.60461608974484
 30
0.0
 40
0.000005
  1
0.0625
100
AcDbAttribute
  2
LLO1
 70
     1
  0
ATTRIB
  5
430
330
426
100
AcDbEntity
  8
DTM
100
AcDbText
 10
64.63624059319768
 20
43.60462442307816
 30
0.0
 40
0.000005
  1
0.5
100
AcDbAttribute
  2
LLI1
 70
     1
  0
ATTRIB
  5
431
330
426
100
AcDbEntity
  8
DTM
100
AcDbText
 10
64.63621059319769
 20
43.6045577564115
 30
0.0
 40
0.000005
  1
0.0
100
AcDbAttribute
  2
FRM4
 70
     1
  0
ATTRIB
  5
432
330
426
100
AcDbEntity
  8
DTM
100
AcDbText
 10
64.63621059319769
 20
43.60456608974484
 30
0.0
 40
0.000005
  1
0.0
100
AcDbAttribute
  2
FRM3
 70
     1
  0
ATTRIB
  5
433
330
426
100
AcDbEntity
  8
DTM
100
AcDbText
 10
64.63621059319769
 20
43.60457442307816
 30
0.0
 40
0.000005
  1
0.0
100
AcDbAttribute
  2
FRM2
 70
     1
  0
ATTRIB
  5
434
330
426
100
AcDbEntity
  8
DTM
100
AcDbText
 10
64.63621059319769
 20
43.6045827564115
 30
0.0
 40
0.000005
  1
0.0
100
AcDbAttribute
  2
FRM1
 70
     1
  0
ATTRIB
  5
435
330
426
100
AcDbEntity
  8
DTM
100
AcDbText
 10
64.63621059319769
 20
43.60459108974483
 30
0.0
 40
0.000005
  1
1.0
100
AcDbAttribute
  2
DLF1
 70
     1
  0
ATTRIB
  5
436
330
426
100
AcDbEntity
  8
DTM
100
AcDbText
 10
64.63621059319769
 20
43.60459942307817
 30
0.0
 40
0.000005
  1
0.0
100
AcDbAttribute
  2
BSE2
 70
     1
  0
ATTRIB
  5
437
330
426
100
AcDbEntity
  8
DTM
100
AcDbText
 10
64.63621059319769
 20
43.6046077564115
 30
0.0
 40
0.000005
  1
0.0
100
AcDbAttribute
  2
BSE1
 70
     1
  0
ATTRIB
  5
438
330
426
100
AcDbEntity
  8
DTM
100
AcDbText
 10
64.63621059319769
 20
43.60461608974484
 30
0.0
 40
0.000005
  1
1.0
100
AcDbAttribute
  2
BDR1
 70
     1
  0
ATTRIB
  5
439
330
426
100
AcDbEntity
  8
DTM
100
AcDbText
 10
64.63621059319769
 20
43.60462442307816
 30
0.0
 40
0.000005
  1
0.0
100
AcDbAttribute
  2
ABS1
 70
     1
  0
SEQEND
  5
43A
330
426
100
AcDbEntity
  8
STP-SHIFT
  0
INSERT
  5
43B
330
1E
100
AcDbEntity
  8
0
100
AcDbBlockReference
 66
     1
  2
DTM
 10
69.63621059319769
 20
43.60454942307817
 30
0.0
  0
ATTRIB
  5
43C
330
43B
100
AcDbEntity
  8
DTM
100
AcDbText
 10
69.63621059319769
 20
43.60454942307817
 30
0.0
 40
0.000005
  1
DTM
100
AcDbAttribute
  2
LAY1
 70
     1
  0
ATTRIB
  5
43D
330
43B
100
AcDbEntity
  8
DTM
100
AcDbText
 10
69.63624059319768
 20
43.6045577564115
 30
0.0
 40
0.000005
  1
0.25
100
AcDbAttribute
  2
ZIG1
 70
     1
  0
ATTRIB
  5
43E
330
43B
100
AcDbEntity
  8
DTM
100
AcDbText
 10
69.63624059319768
 20
43.60456608974484
 30
0.0
 40
0.000005
  1
0.75
100
AcDbAttribute
  2
ZAG1
 70
     1
  0
ATTRIB
  5
43F
330
43B
100
AcDbEntity
  8
DTM
100
AcDbText
 10
69.63624059319768
 20
43.60457442307816
 30
0.0
 40
0.000005
  1
0.125
100
AcDbAttribute
  2
TXT1
 70
     1
  0
ATTRIB
  5
440
330
43B
100
AcDbEntity
  8
DTM
100
AcDbText
 10
69.63624059319768
 20
43.6045827564115
 30
0.0
 40
0.000005
  1
STANDARD
100
AcDbAttribute
  2
STY1
 70
     1
  0
ATTRIB
  5
441
330
43B
100
AcDbEntity
  8
DTM
100
AcDbText
 10
69.63624059319768
 20
43.60459108974483
 30
0.0
 40
0.000005
  1
1.0
100
AcDbAttribute
  2
SCL1
 70
     1
  0
ATTRIB
  5
442
330
43B
100
AcDbEntity
  8
DTM
100
AcDbText
 10
69.63624059319768
 20
43.60459942307817
 30
0.0
 40
0.000005
  1
0.0
100
AcDbAttribute
  2
ROT1
 70
     1
  0
ATTRIB
  5
443
330
43B
100
AcDbEntity
  8
DTM
100
AcDbText
 10
69.63624059319768
 20
43.6046077564115
 30
0.0
 40
0.000005
  1
0.125
100
AcDbAttribute
  2
LLS1
 70
     1
  0
ATTRIB
  5
444
330
43B
100
AcDbEntity
  8
DTM
100
AcDbText
 10
69.63624059319768
 20
43.60461608974484
 30
0.0
 40
0.000005
  1
0.0625
100
AcDbAttribute
  2
LLO1
 70
     1
  0
ATTRIB
  5
445
330
43B
100
AcDbEntity
  8
DTM
100
AcDbText
 10
69.63624059319768
 20
43.60462442307816
 30
0.0
 40
0.000005
  1
0.5
100
AcDbAttribute
  2
LLI1
 70
     1
  0
ATTRIB
  5
446
330
43B
100
AcDbEntity
  8
DTM
100
AcDbText
 10
69.63621059319769
 20
43.6045577564115
 30
0.0
 40
0.000005
  1
0.0
100
AcDbAttribute
  2
FRM4
 70
     1
  0
ATTRIB
  5
447
330
43B
100
AcDbEntity
  8
DTM
100
AcDbText
 10
69.63621059319769
 20
43.60456608974484
 30
0.0
 40
0.000005
  1
0.0
100
AcDbAttribute
  2
FRM3
 70
     1
  0
ATTRIB
  5
448
330
43B
100
AcDbEntity
  8
DTM
100
AcDbText
 10
69.63621059319769
 20
43.60457442307816
 30
0.0
 40
0.000005
  1
0.0
100
AcDbAttribute
  2
FRM2
 70
     1
  0
ATTRIB
  5
449
330
43B
100
AcDbEntity
  8
DTM
100
AcDbText
 10
69.63621059319769
 20
43.6045827564115
 30
0.0
 40
0.000005
  1
0.0
100
AcDbAttribute
  2
FRM1
 70
     1
  0
ATTRIB
  5
44A
330
43B
100
AcDbEntity
  8
DTM
100
AcDbText
 10
69.63621059319769
 20
43.60459108974483
 30
0.0
 40
0.000005
  1
1.0
100
AcDbAttribute
  2
DLF1
 70
     1
  0
ATTRIB
  5
44B
330
43B
100
AcDbEntity
  8
DTM
100
AcDbText
 10
69.63621059319769
 20
43.60459942307817
 30
0.0
 40
0.000005
  1
0.0
100
AcDbAttribute
  2
BSE2
 70
     1
  0
ATTRIB
  5
44C
330
43B
100
AcDbEntity
  8
DTM
100
AcDbText
 10
69.63621059319769
 20
43.6046077564115
 30
0.0
 40
0.000005
  1
0.0
100
AcDbAttribute
  2
BSE1
 70
     1
  0
ATTRIB
  5
44D
330
43B
100
AcDbEntity
  8
DTM
100
AcDbText
 10
69.63621059319769
 20
43.60461608974484
 30
0.0
 40
0.000005
  1
1.0
100
AcDbAttribute
  2
BDR1
 70
     1
  0
ATTRIB
  5
44E
330
43B
100
AcDbEntity
  8
DTM
100
AcDbText
 10
69.63621059319769
 20
43.60462442307816
 30
0.0
 40
0.000005
  1
0.0
100
AcDbAttribute
  2
ABS1
 70
     1
  0
SEQEND
  5
44F
330
43B
100
AcDbEntity
  8
0
  0
INSERT
  5
450
330
1E
100
AcDbEntity
  8
0
100
AcDbBlockReference
 66
     1
  2
DTM
 10
69.63621059319769
 20
43.60454942307817
 30
0.0
  0
ATTRIB
  5
451
330
450
100
AcDbEntity
  8
DTM
100
AcDbText
 10
69.63621059319769
 20
43.60454942307817
 30
0.0
 40
0.000005
  1
DTM
100
AcDbAttribute
  2
LAY1
 70
     1
  0
ATTRIB
  5
452
330
450
100
AcDbEntity
  8
DTM
100
AcDbText
 10
69.63624059319768
 20
43.6045577564115
 30
0.0
 40
0.000005
  1
0.25
100
AcDbAttribute
  2
ZIG1
 70
     1
  0
ATTRIB
  5
453
330
450
100
AcDbEntity
  8
DTM
100
AcDbText
 10
69.63624059319768
 20
43.60456608974484
 30
0.0
 40
0.000005
  1
0.75
100
AcDbAttribute
  2
ZAG1
 70
     1
  0
ATTRIB
  5
454
330
450
100
AcDbEntity
  8
DTM
100
AcDbText
 10
69.63624059319768
 20
43.60457442307816
 30
0.0
 40
0.000005
  1
0.125
100
AcDbAttribute
  2
TXT1
 70
     1
  0
ATTRIB
  5
455
330
450
100
AcDbEntity
  8
DTM
100
AcDbText
 10
69.63624059319768
 20
43.6045827564115
 30
0.0
 40
0.000005
  1
STANDARD
100
AcDbAttribute
  2
STY1
 70
     1
  0
ATTRIB
  5
456
330
450
100
AcDbEntity
  8
DTM
100
AcDbText
 10
69.63624059319768
 20
43.60459108974483
 30
0.0
 40
0.000005
  1
1.0
100
AcDbAttribute
  2
SCL1
 70
     1
  0
ATTRIB
  5
457
330
450
100
AcDbEntity
  8
DTM
100
AcDbText
 10
69.63624059319768
 20
43.60459942307817
 30
0.0
 40
0.000005
  1
0.0
100
AcDbAttribute
  2
ROT1
 70
     1
  0
ATTRIB
  5
458
330
450
100
AcDbEntity
  8
DTM
100
AcDbText
 10
69.63624059319768
 20
43.6046077564115
 30
0.0
 40
0.000005
  1
0.125
100
AcDbAttribute
  2
LLS1
 70
     1
  0
ATTRIB
  5
459
330
450
100
AcDbEntity
  8
DTM
100
AcDbText
 10
69.63624059319768
 20
43.60461608974484
 30
0.0
 40
0.000005
  1
0.0625
100
AcDbAttribute
  2
LLO1
 70
     1
  0
ATTRIB
  5
45A
330
450
100
AcDbEntity
  8
DTM
100
AcDbText
 10
69.63624059319768
 20
43.60462442307816
 30
0.0
 40
0.000005
  1
0.5
100
AcDbAttribute
  2
LLI1
 70
     1
  0
ATTRIB
  5
45B
330
450
100
AcDbEntity
  8
DTM
100
AcDbText
 10
69.63621059319769
 20
43.6045577564115
 30
0.0
 40
0.000005
  1
0.0
100
AcDbAttribute
  2
FRM4
 70
     1
  0
ATTRIB
  5
45C
330
450
100
AcDbEntity
  8
DTM
100
AcDbText
 10
69.63621059319769
 20
43.60456608974484
 30
0.0
 40
0.000005
  1
0.0
100
AcDbAttribute
  2
FRM3
 70
     1
  0
ATTRIB
  5
45D
330
450
100
AcDbEntity
  8
DTM
100
AcDbText
 10
69.63621059319769
 20
43.60457442307816
 30
0.0
 40
0.000005
  1
0.0
100
AcDbAttribute
  2
FRM2
 70
     1
  0
ATTRIB
  5
45E
330
450
100
AcDbEntity
  8
DTM
100
AcDbText
 10
69.63621059319769
 20
43.6045827564115
 30
0.0
 40
0.000005
  1
0.0
100
AcDbAttribute
  2
FRM1
 70
     1
  0
ATTRIB
  5
45F
330
450
100
AcDbEntity
  8
DTM
100
AcDbText
 10
69.63621059319769
 20
43.60459108974483
 30
0.0
 40
0.000005
  1
1.0
100
AcDbAttribute
  2
DLF1
 70
     1
  0
ATTRIB
  5
460
330
450
100
AcDbEntity
  8
DTM
100
AcDbText
 10
69.63621059319769
 20
43.60459942307817
 30
0.0
 40
0.000005
  1
0.0
100
AcDbAttribute
  2
BSE2
 70
     1
  0
ATTRIB
  5
461
330
450
100
AcDbEntity
  8
DTM
100
AcDbText
 10
69.63621059319769
 20
43.6046077564115
 30
0.0
 40
0.000005
  1
0.0
100
AcDbAttribute
  2
BSE1
 70
     1
  0
ATTRIB
  5
462
330
450
100
AcDbEntity
  8
DTM
100
AcDbText
 10
69.63621059319769
 20
43.60461608974484
 30
0.0
 40
0.000005
  1
1.0
100
AcDbAttribute
  2
BDR1
 70
     1
  0
ATTRIB
  5
463
330
450
100
AcDbEntity
  8
DTM
100
AcDbText
 10
69.63621059319769
 20
43.60462442307816
 30
0.0
 40
0.000005
  1
0.0
100
AcDbAttribute
  2
ABS1
 70
     1
  0
SEQEND
  5
464
330
450
100
AcDbEntity
  8
STP-SHIFT
  0
INSERT
  5
465
330
1E
100
AcDbEntity
  8
0
100
AcDbBlockReference
 66
     1
  2
DTM
 10
69.63621059319769
 20
43.60454942307817
 30
0.0
  0
ATTRIB
  5
466
330
465
100
AcDbEntity
  8
DTM
100
AcDbText
 10
69.63621059319769
 20
43.60454942307817
 30
0.0
 40
0.000005
  1
DTM
100
AcDbAttribute
  2
LAY1
 70
     1
  0
ATTRIB
  5
467
330
465
100
AcDbEntity
  8
DTM
100
AcDbText
 10
69.63624059319768
 20
43.6045577564115
 30
0.0
 40
0.000005
  1
0.25
100
AcDbAttribute
  2
ZIG1
 70
     1
  0
ATTRIB
  5
468
330
465
100
AcDbEntity
  8
DTM
100
AcDbText
 10
69.63624059319768
 20
43.60456608974484
 30
0.0
 40
0.000005
  1
0.75
100
AcDbAttribute
  2
ZAG1
 70
     1
  0
ATTRIB
  5
469
330
465
100
AcDbEntity
  8
DTM
100
AcDbText
 10
69.63624059319768
 20
43.60457442307816
 30
0.0
 40
0.000005
  1
0.125
100
AcDbAttribute
  2
TXT1
 70
     1
  0
ATTRIB
  5
46A
330
465
100
AcDbEntity
  8
DTM
100
AcDbText
 10
69.63624059319768
 20
43.6045827564115
 30
0.0
 40
0.000005
  1
STANDARD
100
AcDbAttribute
  2
STY1
 70
     1
  0
ATTRIB
  5
46B
330
465
100
AcDbEntity
  8
DTM
100
AcDbText
 10
69.63624059319768
 20
43.60459108974483
 30
0.0
 40
0.000005
  1
1.0
100
AcDbAttribute
  2
SCL1
 70
     1
  0
ATTRIB
  5
46C
330
465
100
AcDbEntity
  8
DTM
100
AcDbText
 10
69.63624059319768
 20
43.60459942307817
 30
0.0
 40
0.000005
  1
0.0
100
AcDbAttribute
  2
ROT1
 70
     1
  0
ATTRIB
  5
46D
330
465
100
AcDbEntity
  8
DTM
100
AcDbText
 10
69.63624059319768
 20
43.6046077564115
 30
0.0
 40
0.000005
  1
0.125
100
AcDbAttribute
  2
LLS1
 70
     1
  0
ATTRIB
  5
46E
330
465
100
AcDbEntity
  8
DTM
100
AcDbText
 10
69.63624059319768
 20
43.60461608974484
 30
0.0
 40
0.000005
  1
0.0625
100
AcDbAttribute
  2
LLO1
 70
     1
  0
ATTRIB
  5
46F
330
465
100
AcDbEntity
  8
DTM
100
AcDbText
 10
69.63624059319768
 20
43.60462442307816
 30
0.0
 40
0.000005
  1
0.5
100
AcDbAttribute
  2
LLI1
 70
     1
  0
ATTRIB
  5
470
330
465
100
AcDbEntity
  8
DTM
100
AcDbText
 10
69.63621059319769
 20
43.6045577564115
 30
0.0
 40
0.000005
  1
0.0
100
AcDbAttribute
  2
FRM4
 70
     1
  0
ATTRIB
  5
471
330
465
100
AcDbEntity
  8
DTM
100
AcDbText
 10
69.63621059319769
 20
43.60456608974484
 30
0.0
 40
0.000005
  1
0.0
100
AcDbAttribute
  2
FRM3
 70
     1
  0
ATTRIB
  5
472
330
465
100
AcDbEntity
  8
DTM
100
AcDbText
 10
69.63621059319769
 20
43.60457442307816
 30
0.0
 40
0.000005
  1
0.0
100
AcDbAttribute
  2
FRM2
 70
     1
  0
ATTRIB
  5
473
330
465
100
AcDbEntity
  8
DTM
100
AcDbText
 10
69.63621059319769
 20
43.6045827564115
 30
0.0
 40
0.000005
  1
0.0
100
AcDbAttribute
  2
FRM1
 70
     1
  0
ATTRIB
  5
474
330
465
100
AcDbEntity
  8
DTM
100
AcDbText
 10
69.63621059319769
 20
43.60459108974483
 30
0.0
 40
0.000005
  1
1.0
100
AcDbAttribute
  2
DLF1
 70
     1
  0
ATTRIB
  5
475
330
465
100
AcDbEntity
  8
DTM
100
AcDbText
 10
69.63621059319769
 20
43.60459942307817
 30
0.0
 40
0.000005
  1
0.0
100
AcDbAttribute
  2
BSE2
 70
     1
  0
ATTRIB
  5
476
330
465
100
AcDbEntity
  8
DTM
100
AcDbText
 10
69.63621059319769
 20
43.6046077564115
 30
0.0
 40
0.000005
  1
0.0
100
AcDbAttribute
  2
BSE1
 70
     1
  0
ATTRIB
  5
477
330
465
100
AcDbEntity
  8
DTM
100
AcDbText
 10
69.63621059319769
 20
43.60461608974484
 30
0.0
 40
0.000005
  1
1.0
100
AcDbAttribute
  2
BDR1
 70
     1
  0
ATTRIB
  5
478
330
465
100
AcDbEntity
  8
DTM
100
AcDbText
 10
69.63621059319769
 20
43.60462442307816
 30
0.0
 40
0.000005
  1
0.0
100
AcDbAttribute
  2
ABS1
 70
     1
  0
SEQEND
  5
479
330
465
100
AcDbEntity
  8
0
  0
INSERT
  5
47A
330
1E
100
AcDbEntity
  8
0
100
AcDbBlockReference
 66
     1
  2
DTM
 10
69.63621059319769
 20
43.60454942307817
 30
0.0
  0
ATTRIB
  5
47B
330
47A
100
AcDbEntity
  8
DTM
100
AcDbText
 10
69.63621059319769
 20
43.60454942307817
 30
0.0
 40
0.000005
  1
DTM
100
AcDbAttribute
  2
LAY1
 70
     1
  0
ATTRIB
  5
47C
330
47A
100
AcDbEntity
  8
DTM
100
AcDbText
 10
69.63624059319768
 20
43.6045577564115
 30
0.0
 40
0.000005
  1
0.25
100
AcDbAttribute
  2
ZIG1
 70
     1
  0
ATTRIB
  5
47D
330
47A
100
AcDbEntity
  8
DTM
100
AcDbText
 10
69.63624059319768
 20
43.60456608974484
 30
0.0
 40
0.000005
  1
0.75
100
AcDbAttribute
  2
ZAG1
 70
     1
  0
ATTRIB
  5
47E
330
47A
100
AcDbEntity
  8
DTM
100
AcDbText
 10
69.63624059319768
 20
43.60457442307816
 30
0.0
 40
0.000005
  1
0.125
100
AcDbAttribute
  2
TXT1
 70
     1
  0
ATTRIB
  5
47F
330
47A
100
AcDbEntity
  8
DTM
100
AcDbText
 10
69.63624059319768
 20
43.6045827564115
 30
0.0
 40
0.000005
  1
STANDARD
100
AcDbAttribute
  2
STY1
 70
     1
  0
ATTRIB
  5
480
330
47A
100
AcDbEntity
  8
DTM
100
AcDbText
 10
69.63624059319768
 20
43.60459108974483
 30
0.0
 40
0.000005
  1
1.0
100
AcDbAttribute
  2
SCL1
 70
     1
  0
ATTRIB
  5
481
330
47A
100
AcDbEntity
  8
DTM
100
AcDbText
 10
69.63624059319768
 20
43.60459942307817
 30
0.0
 40
0.000005
  1
0.0
100
AcDbAttribute
  2
ROT1
 70
     1
  0
ATTRIB
  5
482
330
47A
100
AcDbEntity
  8
DTM
100
AcDbText
 10
69.63624059319768
 20
43.6046077564115
 30
0.0
 40
0.000005
  1
0.125
100
AcDbAttribute
  2
LLS1
 70
     1
  0
ATTRIB
  5
483
330
47A
100
AcDbEntity
  8
DTM
100
AcDbText
 10
69.63624059319768
 20
43.60461608974484
 30
0.0
 40
0.000005
  1
0.0625
100
AcDbAttribute
  2
LLO1
 70
     1
  0
ATTRIB
  5
484
330
47A
100
AcDbEntity
  8
DTM
100
AcDbText
 10
69.63624059319768
 20
43.60462442307816
 30
0.0
 40
0.000005
  1
0.5
100
AcDbAttribute
  2
LLI1
 70
     1
  0
ATTRIB
  5
485
330
47A
100
AcDbEntity
  8
DTM
100
AcDbText
 10
69.63621059319769
 20
43.6045577564115
 30
0.0
 40
0.000005
  1
0.0
100
AcDbAttribute
  2
FRM4
 70
     1
  0
ATTRIB
  5
486
330
47A
100
AcDbEntity
  8
DTM
100
AcDbText
 10
69.63621059319769
 20
43.60456608974484
 30
0.0
 40
0.000005
  1
0.0
100
AcDbAttribute
  2
FRM3
 70
     1
  0
ATTRIB
  5
487
330
47A
100
AcDbEntity
  8
DTM
100
AcDbText
 10
69.63621059319769
 20
43.60457442307816
 30
0.0
 40
0.000005
  1
0.0
100
AcDbAttribute
  2
FRM2
 70
     1
  0
ATTRIB
  5
488
330
47A
100
AcDbEntity
  8
DTM
100
AcDbText
 10
69.63621059319769
 20
43.6045827564115
 30
0.0
 40
0.000005
  1
0.0
100
AcDbAttribute
  2
FRM1
 70
     1
  0
ATTRIB
  5
489
330
47A
100
AcDbEntity
  8
DTM
100
AcDbText
 10
69.63621059319769
 20
43.60459108974483
 30
0.0
 40
0.000005
  1
1.0
100
AcDbAttribute
  2
DLF1
 70
     1
  0
ATTRIB
  5
48A
330
47A
100
AcDbEntity
  8
DTM
100
AcDbText
 10
69.63621059319769
 20
43.60459942307817
 30
0.0
 40
0.000005
  1
0.0
100
AcDbAttribute
  2
BSE2
 70
     1
  0
ATTRIB
  5
48B
330
47A
100
AcDbEntity
  8
DTM
100
AcDbText
 10
69.63621059319769
 20
43.6046077564115
 30
0.0
 40
0.000005
  1
0.0
100
AcDbAttribute
  2
BSE1
 70
     1
  0
ATTRIB
  5
48C
330
47A
100
AcDbEntity
  8
DTM
100
AcDbText
 10
69.63621059319769
 20
43.60461608974484
 30
0.0
 40
0.000005
  1
1.0
100
AcDbAttribute
  2
BDR1
 70
     1
  0
ATTRIB
  5
48D
330
47A
100
AcDbEntity
  8
DTM
100
AcDbText
 10
69.63621059319769
 20
43.60462442307816
 30
0.0
 40
0.000005
  1
0.0
100
AcDbAttribute
  2
ABS1
 70
     1
  0
SEQEND
  5
48E
330
47A
100
AcDbEntity
  8
STP-SHIFT
  0
INSERT
  5
48F
330
1E
100
AcDbEntity
  8
0
100
AcDbBlockReference
 66
     1
  2
DTM
 10
64.63621059319769
 20
43.60454942307817
 30
0.0
  0
ATTRIB
  5
490
330
48F
100
AcDbEntity
  8
DTM
100
AcDbText
 10
64.63621059319769
 20
43.60454942307817
 30
0.0
 40
0.000005
  1
DTM
100
AcDbAttribute
  2
LAY1
 70
     1
  0
ATTRIB
  5
491
330
48F
100
AcDbEntity
  8
DTM
100
AcDbText
 10
64.63624059319768
 20
43.6045577564115
 30
0.0
 40
0.000005
  1
0.25
100
AcDbAttribute
  2
ZIG1
 70
     1
  0
ATTRIB
  5
492
330
48F
100
AcDbEntity
  8
DTM
100
AcDbText
 10
64.63624059319768
 20
43.60456608974484
 30
0.0
 40
0.000005
  1
0.75
100
AcDbAttribute
  2
ZAG1
 70
     1
  0
ATTRIB
  5
493
330
48F
100
AcDbEntity
  8
DTM
100
AcDbText
 10
64.63624059319768
 20
43.60457442307816
 30
0.0
 40
0.000005
  1
0.125
100
AcDbAttribute
  2
TXT1
 70
     1
  0
ATTRIB
  5
494
330
48F
100
AcDbEntity
  8
DTM
100
AcDbText
 10
64.63624059319768
 20
43.6045827564115
 30
0.0
 40
0.000005
  1
STANDARD
100
AcDbAttribute
  2
STY1
 70
     1
  0
ATTRIB
  5
495
330
48F
100
AcDbEntity
  8
DTM
100
AcDbText
 10
64.63624059319768
 20
43.60459108974483
 30
0.0
 40
0.000005
  1
1.0
100
AcDbAttribute
  2
SCL1
 70
     1
  0
ATTRIB
  5
496
330
48F
100
AcDbEntity
  8
DTM
100
AcDbText
 10
64.63624059319768
 20
43.60459942307817
 30
0.0
 40
0.000005
  1
0.0
100
AcDbAttribute
  2
ROT1
 70
     1
  0
ATTRIB
  5
497
330
48F
100
AcDbEntity
  8
DTM
100
AcDbText
 10
64.63624059319768
 20
43.6046077564115
 30
0.0
 40
0.000005
  1
0.125
100
AcDbAttribute
  2
LLS1
 70
     1
  0
ATTRIB
  5
498
330
48F
100
AcDbEntity
  8
DTM
100
AcDbText
 10
64.63624059319768
 20
43.60461608974484
 30
0.0
 40
0.000005
  1
0.0625
100
AcDbAttribute
  2
LLO1
 70
     1
  0
ATTRIB
  5
499
330
48F
100
AcDbEntity
  8
DTM
100
AcDbText
 10
64.63624059319768
 20
43.60462442307816
 30
0.0
 40
0.000005
  1
0.5
100
AcDbAttribute
  2
LLI1
 70
     1
  0
ATTRIB
  5
49A
330
48F
100
AcDbEntity
  8
DTM
100
AcDbText
 10
64.63621059319769
 20
43.6045577564115
 30
0.0
 40
0.000005
  1
0.0
100
AcDbAttribute
  2
FRM4
 70
     1
  0
ATTRIB
  5
49B
330
48F
100
AcDbEntity
  8
DTM
100
AcDbText
 10
64.63621059319769
 20
43.60456608974484
 30
0.0
 40
0.000005
  1
0.0
100
AcDbAttribute
  2
FRM3
 70
     1
  0
ATTRIB
  5
49C
330
48F
100
AcDbEntity
  8
DTM
100
AcDbText
 10
64.63621059319769
 20
43.60457442307816
 30
0.0
 40
0.000005
  1
0.0
100
AcDbAttribute
  2
FRM2
 70
     1
  0
ATTRIB
  5
49D
330
48F
100
AcDbEntity
  8
DTM
100
AcDbText
 10
64.63621059319769
 20
43.6045827564115
 30
0.0
 40
0.000005
  1
0.0
100
AcDbAttribute
  2
FRM1
 70
     1
  0
ATTRIB
  5
49E
330
48F
100
AcDbEntity
  8
DTM
100
AcDbText
 10
64.63621059319769
 20
43.60459108974483
 30
0.0
 40
0.000005
  1
1.0
100
AcDbAttribute
  2
DLF1
 70
     1
  0
ATTRIB
  5
49F
330
48F
100
AcDbEntity
  8
DTM
100
AcDbText
 10
64.63621059319769
 20
43.60459942307817
 30
0.0
 40
0.000005
  1
0.0
100
AcDbAttribute
  2
BSE2
 70
     1
  0
ATTRIB
  5
4A0
330
48F
100
AcDbEntity
  8
DTM
100
AcDbText
 10
64.63621059319769
 20
43.6046077564115
 30
0.0
 40
0.000005
  1
0.0
100
AcDbAttribute
  2
BSE1
 70
     1
  0
ATTRIB
  5
4A1
330
48F
100
AcDbEntity
  8
DTM
100
AcDbText
 10
64.63621059319769
 20
43.60461608974484
 30
0.0
 40
0.000005
  1
1.0
100
AcDbAttribute
  2
BDR1
 70
     1
  0
ATTRIB
  5
4A2
330
48F
100
AcDbEntity
  8
DTM
100
AcDbText
 10
64.63621059319769
 20
43.60462442307816
 30
0.0
 40
0.000005
  1
0.0
100
AcDbAttribute
  2
ABS1
 70
     1
  0
SEQEND
  5
4A3
330
48F
100
AcDbEntity
  8
0
  0
INSERT
  5
4A4
330
1E
100
AcDbEntity
  8
0
100
AcDbBlockReference
 66
     1
  2
DTM
 10
64.63621059319769
 20
43.60454942307817
 30
0.0
  0
ATTRIB
  5
4A5
330
4A4
100
AcDbEntity
  8
DTM
100
AcDbText
 10
64.63621059319769
 20
43.60454942307817
 30
0.0
 40
0.000005
  1
DTM
100
AcDbAttribute
  2
LAY1
 70
     1
  0
ATTRIB
  5
4A6
330
4A4
100
AcDbEntity
  8
DTM
100
AcDbText
 10
64.63624059319768
 20
43.6045577564115
 30
0.0
 40
0.000005
  1
0.25
100
AcDbAttribute
  2
ZIG1
 70
     1
  0
ATTRIB
  5
4A7
330
4A4
100
AcDbEntity
  8
DTM
100
AcDbText
 10
64.63624059319768
 20
43.60456608974484
 30
0.0
 40
0.000005
  1
0.75
100
AcDbAttribute
  2
ZAG1
 70
     1
  0
ATTRIB
  5
4A8
330
4A4
100
AcDbEntity
  8
DTM
100
AcDbText
 10
64.63624059319768
 20
43.60457442307816
 30
0.0
 40
0.000005
  1
0.125
100
AcDbAttribute
  2
TXT1
 70
     1
  0
ATTRIB
  5
4A9
330
4A4
100
AcDbEntity
  8
DTM
100
AcDbText
 10
64.63624059319768
 20
43.6045827564115
 30
0.0
 40
0.000005
  1
STANDARD
100
AcDbAttribute
  2
STY1
 70
     1
  0
ATTRIB
  5
4AA
330
4A4
100
AcDbEntity
  8
DTM
100
AcDbText
 10
64.63624059319768
 20
43.60459108974483
 30
0.0
 40
0.000005
  1
1.0
100
AcDbAttribute
  2
SCL1
 70
     1
  0
ATTRIB
  5
4AB
330
4A4
100
AcDbEntity
  8
DTM
100
AcDbText
 10
64.63624059319768
 20
43.60459942307817
 30
0.0
 40
0.000005
  1
0.0
100
AcDbAttribute
  2
ROT1
 70
     1
  0
ATTRIB
  5
4AC
330
4A4
100
AcDbEntity
  8
DTM
100
AcDbText
 10
64.63624059319768
 20
43.6046077564115
 30
0.0
 40
0.000005
  1
0.125
100
AcDbAttribute
  2
LLS1
 70
     1
  0
ATTRIB
  5
4AD
330
4A4
100
AcDbEntity
  8
DTM
100
AcDbText
 10
64.63624059319768
 20
43.60461608974484
 30
0.0
 40
0.000005
  1
0.0625
100
AcDbAttribute
  2
LLO1
 70
     1
  0
ATTRIB
  5
4AE
330
4A4
100
AcDbEntity
  8
DTM
100
AcDbText
 10
64.63624059319768
 20
43.60462442307816
 30
0.0
 40
0.000005
  1
0.5
100
AcDbAttribute
  2
LLI1
 70
     1
  0
ATTRIB
  5
4AF
330
4A4
100
AcDbEntity
  8
DTM
100
AcDbText
 10
64.63621059319769
 20
43.6045577564115
 30
0.0
 40
0.000005
  1
0.0
100
AcDbAttribute
  2
FRM4
 70
     1
  0
ATTRIB
  5
4B0
330
4A4
100
AcDbEntity
  8
DTM
100
AcDbText
 10
64.63621059319769
 20
43.60456608974484
 30
0.0
 40
0.000005
  1
0.0
100
AcDbAttribute
  2
FRM3
 70
     1
  0
ATTRIB
  5
4B1
330
4A4
100
AcDbEntity
  8
DTM
100
AcDbText
 10
64.63621059319769
 20
43.60457442307816
 30
0.0
 40
0.000005
  1
0.0
100
AcDbAttribute
  2
FRM2
 70
     1
  0
ATTRIB
  5
4B2
330
4A4
100
AcDbEntity
  8
DTM
100
AcDbText
 10
64.63621059319769
 20
43.6045827564115
 30
0.0
 40
0.000005
  1
0.0
100
AcDbAttribute
  2
FRM1
 70
     1
  0
ATTRIB
  5
4B3
330
4A4
100
AcDbEntity
  8
DTM
100
AcDbText
 10
64.63621059319769
 20
43.60459108974483
 30
0.0
 40
0.000005
  1
1.0
100
AcDbAttribute
  2
DLF1
 70
     1
  0
ATTRIB
  5
4B4
330
4A4
100
AcDbEntity
  8
DTM
100
AcDbText
 10
64.63621059319769
 20
43.60459942307817
 30
0.0
 40
0.000005
  1
0.0
100
AcDbAttribute
  2
BSE2
 70
     1
  0
ATTRIB
  5
4B5
330
4A4
100
AcDbEntity
  8
DTM
100
AcDbText
 10
64.63621059319769
 20
43.6046077564115
 30
0.0
 40
0.000005
  1
0.0
100
AcDbAttribute
  2
BSE1
 70
     1
  0
ATTRIB
  5
4B6
330
4A4
100
AcDbEntity
  8
DTM
100
AcDbText
 10
64.63621059319769
 20
43.60461608974484
 30
0.0
 40
0.000005
  1
1.0
100
AcDbAttribute
  2
BDR1
 70
     1
  0
ATTRIB
  5
4B7
330
4A4
100
AcDbEntity
  8
DTM
100
AcDbText
 10
64.63621059319769
 20
43.60462442307816
 30
0.0
 40
0.000005
  1
0.0
100
AcDbAttribute
  2
ABS1
 70
     1
  0
SEQEND
  5
4B8
330
4A4
100
AcDbEntity
  8
STP-SHIFT
  0
INSERT
  5
4B9
330
1E
100
AcDbEntity
  8
0
100
AcDbBlockReference
 66
     1
  2
DTM
 10
64.63621059319769
 20
43.60454942307817
 30
0.0
  0
ATTRIB
  5
4BA
330
4B9
100
AcDbEntity
  8
DTM
100
AcDbText
 10
64.63621059319769
 20
43.60454942307817
 30
0.0
 40
0.000005
  1
DTM
100
AcDbAttribute
  2
LAY1
 70
     1
  0
ATTRIB
  5
4BB
330
4B9
100
AcDbEntity
  8
DTM
100
AcDbText
 10
64.63624059319768
 20
43.6045577564115
 30
0.0
 40
0.000005
  1
0.25
100
AcDbAttribute
  2
ZIG1
 70
     1
  0
ATTRIB
  5
4BC
330
4B9
100
AcDbEntity
  8
DTM
100
AcDbText
 10
64.63624059319768
 20
43.60456608974484
 30
0.0
 40
0.000005
  1
0.75
100
AcDbAttribute
  2
ZAG1
 70
     1
  0
ATTRIB
  5
4BD
330
4B9
100
AcDbEntity
  8
DTM
100
AcDbText
 10
64.63624059319768
 20
43.60457442307816
 30
0.0
 40
0.000005
  1
0.125
100
AcDbAttribute
  2
TXT1
 70
     1
  0
ATTRIB
  5
4BE
330
4B9
100
AcDbEntity
  8
DTM
100
AcDbText
 10
64.63624059319768
 20
43.6045827564115
 30
0.0
 40
0.000005
  1
STANDARD
100
AcDbAttribute
  2
STY1
 70
     1
  0
ATTRIB
  5
4BF
330
4B9
100
AcDbEntity
  8
DTM
100
AcDbText
 10
64.63624059319768
 20
43.60459108974483
 30
0.0
 40
0.000005
  1
1.0
100
AcDbAttribute
  2
SCL1
 70
     1
  0
ATTRIB
  5
4C0
330
4B9
100
AcDbEntity
  8
DTM
100
AcDbText
 10
64.63624059319768
 20
43.60459942307817
 30
0.0
 40
0.000005
  1
0.0
100
AcDbAttribute
  2
ROT1
 70
     1
  0
ATTRIB
  5
4C1
330
4B9
100
AcDbEntity
  8
DTM
100
AcDbText
 10
64.63624059319768
 20
43.6046077564115
 30
0.0
 40
0.000005
  1
0.125
100
AcDbAttribute
  2
LLS1
 70
     1
  0
ATTRIB
  5
4C2
330
4B9
100
AcDbEntity
  8
DTM
100
AcDbText
 10
64.63624059319768
 20
43.60461608974484
 30
0.0
 40
0.000005
  1
0.0625
100
AcDbAttribute
  2
LLO1
 70
     1
  0
ATTRIB
  5
4C3
330
4B9
100
AcDbEntity
  8
DTM
100
AcDbText
 10
64.63624059319768
 20
43.60462442307816
 30
0.0
 40
0.000005
  1
0.5
100
AcDbAttribute
  2
LLI1
 70
     1
  0
ATTRIB
  5
4C4
330
4B9
100
AcDbEntity
  8
DTM
100
AcDbText
 10
64.63621059319769
 20
43.6045577564115
 30
0.0
 40
0.000005
  1
0.0
100
AcDbAttribute
  2
FRM4
 70
     1
  0
ATTRIB
  5
4C5
330
4B9
100
AcDbEntity
  8
DTM
100
AcDbText
 10
64.63621059319769
 20
43.60456608974484
 30
0.0
 40
0.000005
  1
0.0
100
AcDbAttribute
  2
FRM3
 70
     1
  0
ATTRIB
  5
4C6
330
4B9
100
AcDbEntity
  8
DTM
100
AcDbText
 10
64.63621059319769
 20
43.60457442307816
 30
0.0
 40
0.000005
  1
0.0
100
AcDbAttribute
  2
FRM2
 70
     1
  0
ATTRIB
  5
4C7
330
4B9
100
AcDbEntity
  8
DTM
100
AcDbText
 10
64.63621059319769
 20
43.6045827564115
 30
0.0
 40
0.000005
  1
0.0
100
AcDbAttribute
  2
FRM1
 70
     1
  0
ATTRIB
  5
4C8
330
4B9
100
AcDbEntity
  8
DTM
100
AcDbText
 10
64.63621059319769
 20
43.60459108974483
 30
0.0
 40
0.000005
  1
1.0
100
AcDbAttribute
  2
DLF1
 70
     1
  0
ATTRIB
  5
4C9
330
4B9
100
AcDbEntity
  8
DTM
100
AcDbText
 10
64.63621059319769
 20
43.60459942307817
 30
0.0
 40
0.000005
  1
0.0
100
AcDbAttribute
  2
BSE2
 70
     1
  0
ATTRIB
  5
4CA
330
4B9
100
AcDbEntity
  8
DTM
100
AcDbText
 10
64.63621059319769
 20
43.6046077564115
 30
0.0
 40
0.000005
  1
0.0
100
AcDbAttribute
  2
BSE1
 70
     1
  0
ATTRIB
  5
4CB
330
4B9
100
AcDbEntity
  8
DTM
100
AcDbText
 10
64.63621059319769
 20
43.60461608974484
 30
0.0
 40
0.000005
  1
1.0
100
AcDbAttribute
  2
BDR1
 70
     1
  0
ATTRIB
  5
4CC
330
4B9
100
AcDbEntity
  8
DTM
100
AcDbText
 10
64.63621059319769
 20
43.60462442307816
 30
0.0
 40
0.000005
  1
0.0
100
AcDbAttribute
  2
ABS1
 70
     1
  0
SEQEND
  5
4CD
330
4B9
100
AcDbEntity
  8
0
  0
INSERT
  5
4CE
330
1E
100
AcDbEntity
  8
0
100
AcDbBlockReference
 66
     1
  2
DTM
 10
64.63621059319769
 20
43.60454942307817
 30
0.0
  0
ATTRIB
  5
4CF
330
4CE
100
AcDbEntity
  8
DTM
100
AcDbText
 10
64.63621059319769
 20
43.60454942307817
 30
0.0
 40
0.000005
  1
DTM
100
AcDbAttribute
  2
LAY1
 70
     1
  0
ATTRIB
  5
4D0
330
4CE
100
AcDbEntity
  8
DTM
100
AcDbText
 10
64.63624059319768
 20
43.6045577564115
 30
0.0
 40
0.000005
  1
0.25
100
AcDbAttribute
  2
ZIG1
 70
     1
  0
ATTRIB
  5
4D1
330
4CE
100
AcDbEntity
  8
DTM
100
AcDbText
 10
64.63624059319768
 20
43.60456608974484
 30
0.0
 40
0.000005
  1
0.75
100
AcDbAttribute
  2
ZAG1
 70
     1
  0
ATTRIB
  5
4D2
330
4CE
100
AcDbEntity
  8
DTM
100
AcDbText
 10
64.63624059319768
 20
43.60457442307816
 30
0.0
 40
0.000005
  1
0.125
100
AcDbAttribute
  2
TXT1
 70
     1
  0
ATTRIB
  5
4D3
330
4CE
100
AcDbEntity
  8
DTM
100
AcDbText
 10
64.63624059319768
 20
43.6045827564115
 30
0.0
 40
0.000005
  1
STANDARD
100
AcDbAttribute
  2
STY1
 70
     1
  0
ATTRIB
  5
4D4
330
4CE
100
AcDbEntity
  8
DTM
100
AcDbText
 10
64.63624059319768
 20
43.60459108974483
 30
0.0
 40
0.000005
  1
1.0
100
AcDbAttribute
  2
SCL1
 70
     1
  0
ATTRIB
  5
4D5
330
4CE
100
AcDbEntity
  8
DTM
100
AcDbText
 10
64.63624059319768
 20
43.60459942307817
 30
0.0
 40
0.000005
  1
0.0
100
AcDbAttribute
  2
ROT1
 70
     1
  0
ATTRIB
  5
4D6
330
4CE
100
AcDbEntity
  8
DTM
100
AcDbText
 10
64.63624059319768
 20
43.6046077564115
 30
0.0
 40
0.000005
  1
0.125
100
AcDbAttribute
  2
LLS1
 70
     1
  0
ATTRIB
  5
4D7
330
4CE
100
AcDbEntity
  8
DTM
100
AcDbText
 10
64.63624059319768
 20
43.60461608974484
 30
0.0
 40
0.000005
  1
0.0625
100
AcDbAttribute
  2
LLO1
 70
     1
  0
ATTRIB
  5
4D8
330
4CE
100
AcDbEntity
  8
DTM
100
AcDbText
 10
64.63624059319768
 20
43.60462442307816
 30
0.0
 40
0.000005
  1
0.5
100
AcDbAttribute
  2
LLI1
 70
     1
  0
ATTRIB
  5
4D9
330
4CE
100
AcDbEntity
  8
DTM
100
AcDbText
 10
64.63621059319769
 20
43.6045577564115
 30
0.0
 40
0.000005
  1
0.0
100
AcDbAttribute
  2
FRM4
 70
     1
  0
ATTRIB
  5
4DA
330
4CE
100
AcDbEntity
  8
DTM
100
AcDbText
 10
64.63621059319769
 20
43.60456608974484
 30
0.0
 40
0.000005
  1
0.0
100
AcDbAttribute
  2
FRM3
 70
     1
  0
ATTRIB
  5
4DB
330
4CE
100
AcDbEntity
  8
DTM
100
AcDbText
 10
64.63621059319769
 20
43.60457442307816
 30
0.0
 40
0.000005
  1
0.0
100
AcDbAttribute
  2
FRM2
 70
     1
  0
ATTRIB
  5
4DC
330
4CE
100
AcDbEntity
  8
DTM
100
AcDbText
 10
64.63621059319769
 20
43.6045827564115
 30
0.0
 40
0.000005
  1
0.0
100
AcDbAttribute
  2
FRM1
 70
     1
  0
ATTRIB
  5
4DD
330
4CE
100
AcDbEntity
  8
DTM
100
AcDbText
 10
64.63621059319769
 20
43.60459108974483
 30
0.0
 40
0.000005
  1
1.0
100
AcDbAttribute
  2
DLF1
 70
     1
  0
ATTRIB
  5
4DE
330
4CE
100
AcDbEntity
  8
DTM
100
AcDbText
 10
64.63621059319769
 20
43.60459942307817
 30
0.0
 40
0.000005
  1
0.0
100
AcDbAttribute
  2
BSE2
 70
     1
  0
ATTRIB
  5
4DF
330
4CE
100
AcDbEntity
  8
DTM
100
AcDbText
 10
64.63621059319769
 20
43.6046077564115
 30
0.0
 40
0.000005
  1
0.0
100
AcDbAttribute
  2
BSE1
 70
     1
  0
ATTRIB
  5
4E0
330
4CE
100
AcDbEntity
  8
DTM
100
AcDbText
 10
64.63621059319769
 20
43.60461608974484
 30
0.0
 40
0.000005
  1
1.0
100
AcDbAttribute
  2
BDR1
 70
     1
  0
ATTRIB
  5
4E1
330
4CE
100
AcDbEntity
  8
DTM
100
AcDbText
 10
64.63621059319769
 20
43.60462442307816
 30
0.0
 40
0.000005
  1
0.0
100
AcDbAttribute
  2
ABS1
 70
     1
  0
SEQEND
  5
4E2
330
4CE
100
AcDbEntity
  8
STP-SHIFT
  0
INSERT
  5
4E3
330
1E
100
AcDbEntity
  8
0
100
AcDbBlockReference
 66
     1
  2
DTM
 10
74.13044967770448
 20
43.71905879449624
 30
0.0
  0
ATTRIB
  5
4E4
330
4E3
100
AcDbEntity
  8
DTM
100
AcDbText
 10
74.13044967770448
 20
43.71905879449624
 30
0.0
 40
0.000005
  1
DTM
100
AcDbAttribute
  2
LAY1
 70
     1
  0
ATTRIB
  5
4E5
330
4E3
100
AcDbEntity
  8
DTM
100
AcDbText
 10
74.13047967770449
 20
43.71906712782956
 30
0.0
 40
0.000005
  1
0.25
100
AcDbAttribute
  2
ZIG1
 70
     1
  0
ATTRIB
  5
4E6
330
4E3
100
AcDbEntity
  8
DTM
100
AcDbText
 10
74.13047967770449
 20
43.7190754611629
 30
0.0
 40
0.000005
  1
0.75
100
AcDbAttribute
  2
ZAG1
 70
     1
  0
ATTRIB
  5
4E7
330
4E3
100
AcDbEntity
  8
DTM
100
AcDbText
 10
74.13047967770449
 20
43.71908379449623
 30
0.0
 40
0.000005
  1
0.125
100
AcDbAttribute
  2
TXT1
 70
     1
  0
ATTRIB
  5
4E8
330
4E3
100
AcDbEntity
  8
DTM
100
AcDbText
 10
74.13047967770449
 20
43.71909212782957
 30
0.0
 40
0.000005
  1
STANDARD
100
AcDbAttribute
  2
STY1
 70
     1
  0
ATTRIB
  5
4E9
330
4E3
100
AcDbEntity
  8
DTM
100
AcDbText
 10
74.13047967770449
 20
43.7191004611629
 30
0.0
 40
0.000005
  1
1.0
100
AcDbAttribute
  2
SCL1
 70
     1
  0
ATTRIB
  5
4EA
330
4E3
100
AcDbEntity
  8
DTM
100
AcDbText
 10
74.13047967770449
 20
43.71910879449624
 30
0.0
 40
0.000005
  1
0.0
100
AcDbAttribute
  2
ROT1
 70
     1
  0
ATTRIB
  5
4EB
330
4E3
100
AcDbEntity
  8
DTM
100
AcDbText
 10
74.13047967770449
 20
43.71911712782956
 30
0.0
 40
0.000005
  1
0.125
100
AcDbAttribute
  2
LLS1
 70
     1
  0
ATTRIB
  5
4EC
330
4E3
100
AcDbEntity
  8
DTM
100
AcDbText
 10
74.13047967770449
 20
43.71912546116289
 30
0.0
 40
0.000005
  1
0.0625
100
AcDbAttribute
  2
LLO1
 70
     1
  0
ATTRIB
  5
4ED
330
4E3
100
AcDbEntity
  8
DTM
100
AcDbText
 10
74.13047967770449
 20
43.71913379449623
 30
0.0
 40
0.000005
  1
0.5
100
AcDbAttribute
  2
LLI1
 70
     1
  0
ATTRIB
  5
4EE
330
4E3
100
AcDbEntity
  8
DTM
100
AcDbText
 10
74.13044967770448
 20
43.71906712782956
 30
0.0
 40
0.000005
  1
0.0
100
AcDbAttribute
  2
FRM4
 70
     1
  0
ATTRIB
  5
4EF
330
4E3
100
AcDbEntity
  8
DTM
100
AcDbText
 10
74.13044967770448
 20
43.7190754611629
 30
0.0
 40
0.000005
  1
0.0
100
AcDbAttribute
  2
FRM3
 70
     1
  0
ATTRIB
  5
4F0
330
4E3
100
AcDbEntity
  8
DTM
100
AcDbText
 10
74.13044967770448
 20
43.71908379449623
 30
0.0
 40
0.000005
  1
0.0
100
AcDbAttribute
  2
FRM2
 70
     1
  0
ATTRIB
  5
4F1
330
4E3
100
AcDbEntity
  8
DTM
100
AcDbText
 10
74.13044967770448
 20
43.71909212782957
 30
0.0
 40
0.000005
  1
0.0
100
AcDbAttribute
  2
FRM1
 70
     1
  0
ATTRIB
  5
4F2
330
4E3
100
AcDbEntity
  8
DTM
100
AcDbText
 10
74.13044967770448
 20
43.7191004611629
 30
0.0
 40
0.000005
  1
1.0
100
AcDbAttribute
  2
DLF1
 70
     1
  0
ATTRIB
  5
4F3
330
4E3
100
AcDbEntity
  8
DTM
100
AcDbText
 10
74.13044967770448
 20
43.71910879449624
 30
0.0
 40
0.000005
  1
0.0
100
AcDbAttribute
  2
BSE2
 70
     1
  0
ATTRIB
  5
4F4
330
4E3
100
AcDbEntity
  8
DTM
100
AcDbText
 10
74.13044967770448
 20
43.71911712782956
 30
0.0
 40
0.000005
  1
0.0
100
AcDbAttribute
  2
BSE1
 70
     1
  0
ATTRIB
  5
4F5
330
4E3
100
AcDbEntity
  8
DTM
100
AcDbText
 10
74.13044967770448
 20
43.71912546116289
 30
0.0
 40
0.000005
  1
1.0
100
AcDbAttribute
  2
BDR1
 70
     1
  0
ATTRIB
  5
4F6
330
4E3
100
AcDbEntity
  8
DTM
100
AcDbText
 10
74.13044967770448
 20
43.71913379449623
 30
0.0
 40
0.000005
  1
0.0
100
AcDbAttribute
  2
ABS1
 70
     1
  0
SEQEND
  5
4F7
330
4E3
100
AcDbEntity
  8
0
  0
INSERT
  5
4F8
330
1E
100
AcDbEntity
  8
0
100
AcDbBlockReference
 66
     1
  2
DTM
 10
74.13044967770448
 20
43.71905879449624
 30
0.0
  0
ATTRIB
  5
4F9
330
4F8
100
AcDbEntity
  8
DTM
100
AcDbText
 10
74.13044967770448
 20
43.71905879449624
 30
0.0
 40
0.000005
  1
DTM
100
AcDbAttribute
  2
LAY1
 70
     1
  0
ATTRIB
  5
4FA
330
4F8
100
AcDbEntity
  8
DTM
100
AcDbText
 10
74.13047967770449
 20
43.71906712782956
 30
0.0
 40
0.000005
  1
0.25
100
AcDbAttribute
  2
ZIG1
 70
     1
  0
ATTRIB
  5
4FB
330
4F8
100
AcDbEntity
  8
DTM
100
AcDbText
 10
74.13047967770449
 20
43.7190754611629
 30
0.0
 40
0.000005
  1
0.75
100
AcDbAttribute
  2
ZAG1
 70
     1
  0
ATTRIB
  5
4FC
330
4F8
100
AcDbEntity
  8
DTM
100
AcDbText
 10
74.13047967770449
 20
43.71908379449623
 30
0.0
 40
0.000005
  1
0.125
100
AcDbAttribute
  2
TXT1
 70
     1
  0
ATTRIB
  5
4FD
330
4F8
100
AcDbEntity
  8
DTM
100
AcDbText
 10
74.13047967770449
 20
43.71909212782957
 30
0.0
 40
0.000005
  1
STANDARD
100
AcDbAttribute
  2
STY1
 70
     1
  0
ATTRIB
  5
4FE
330
4F8
100
AcDbEntity
  8
DTM
100
AcDbText
 10
74.13047967770449
 20
43.7191004611629
 30
0.0
 40
0.000005
  1
1.0
100
AcDbAttribute
  2
SCL1
 70
     1
  0
ATTRIB
  5
4FF
330
4F8
100
AcDbEntity
  8
DTM
100
AcDbText
 10
74.13047967770449
 20
43.71910879449624
 30
0.0
 40
0.000005
  1
0.0
100
AcDbAttribute
  2
ROT1
 70
     1
  0
ATTRIB
  5
500
330
4F8
100
AcDbEntity
  8
DTM
100
AcDbText
 10
74.13047967770449
 20
43.71911712782956
 30
0.0
 40
0.000005
  1
0.125
100
AcDbAttribute
  2
LLS1
 70
     1
  0
ATTRIB
  5
501
330
4F8
100
AcDbEntity
  8
DTM
100
AcDbText
 10
74.13047967770449
 20
43.71912546116289
 30
0.0
 40
0.000005
  1
0.0625
100
AcDbAttribute
  2
LLO1
 70
     1
  0
ATTRIB
  5
502
330
4F8
100
AcDbEntity
  8
DTM
100
AcDbText
 10
74.13047967770449
 20
43.71913379449623
 30
0.0
 40
0.000005
  1
0.5
100
AcDbAttribute
  2
LLI1
 70
     1
  0
ATTRIB
  5
503
330
4F8
100
AcDbEntity
  8
DTM
100
AcDbText
 10
74.13044967770448
 20
43.71906712782956
 30
0.0
 40
0.000005
  1
0.0
100
AcDbAttribute
  2
FRM4
 70
     1
  0
ATTRIB
  5
504
330
4F8
100
AcDbEntity
  8
DTM
100
AcDbText
 10
74.13044967770448
 20
43.7190754611629
 30
0.0
 40
0.000005
  1
0.0
100
AcDbAttribute
  2
FRM3
 70
     1
  0
ATTRIB
  5
505
330
4F8
100
AcDbEntity
  8
DTM
100
AcDbText
 10
74.13044967770448
 20
43.71908379449623
 30
0.0
 40
0.000005
  1
0.0
100
AcDbAttribute
  2
FRM2
 70
     1
  0
ATTRIB
  5
506
330
4F8
100
AcDbEntity
  8
DTM
100
AcDbText
 10
74.13044967770448
 20
43.71909212782957
 30
0.0
 40
0.000005
  1
0.0
100
AcDbAttribute
  2
FRM1
 70
     1
  0
ATTRIB
  5
507
330
4F8
100
AcDbEntity
  8
DTM
100
AcDbText
 10
74.13044967770448
 20
43.7191004611629
 30
0.0
 40
0.000005
  1
1.0
100
AcDbAttribute
  2
DLF1
 70
     1
  0
ATTRIB
  5
508
330
4F8
100
AcDbEntity
  8
DTM
100
AcDbText
 10
74.13044967770448
 20
43.71910879449624
 30
0.0
 40
0.000005
  1
0.0
100
AcDbAttribute
  2
BSE2
 70
     1
  0
ATTRIB
  5
509
330
4F8
100
AcDbEntity
  8
DTM
100
AcDbText
 10
74.13044967770448
 20
43.71911712782956
 30
0.0
 40
0.000005
  1
0.0
100
AcDbAttribute
  2
BSE1
 70
     1
  0
ATTRIB
  5
50A
330
4F8
100
AcDbEntity
  8
DTM
100
AcDbText
 10
74.13044967770448
 20
43.71912546116289
 30
0.0
 40
0.000005
  1
1.0
100
AcDbAttribute
  2
BDR1
 70
     1
  0
ATTRIB
  5
50B
330
4F8
100
AcDbEntity
  8
DTM
100
AcDbText
 10
74.13044967770448
 20
43.71913379449623
 30
0.0
 40
0.000005
  1
0.0
100
AcDbAttribute
  2
ABS1
 70
     1
  0
SEQEND
  5
50C
330
4F8
100
AcDbEntity
  8
STP-SHIFT
  0
INSERT
  5
50D
330
1E
100
AcDbEntity
  8
0
100
AcDbBlockReference
 66
     1
  2
DTM
 10
74.13044967770448
 20
43.71905879449624
 30
0.0
  0
ATTRIB
  5
50E
330
50D
100
AcDbEntity
  8
DTM
100
AcDbText
 10
74.13044967770448
 20
43.71905879449624
 30
0.0
 40
0.000005
  1
DTM
100
AcDbAttribute
  2
LAY1
 70
     1
  0
ATTRIB
  5
50F
330
50D
100
AcDbEntity
  8
DTM
100
AcDbText
 10
74.13047967770449
 20
43.71906712782956
 30
0.0
 40
0.000005
  1
0.25
100
AcDbAttribute
  2
ZIG1
 70
     1
  0
ATTRIB
  5
510
330
50D
100
AcDbEntity
  8
DTM
100
AcDbText
 10
74.13047967770449
 20
43.7190754611629
 30
0.0
 40
0.000005
  1
0.75
100
AcDbAttribute
  2
ZAG1
 70
     1
  0
ATTRIB
  5
511
330
50D
100
AcDbEntity
  8
DTM
100
AcDbText
 10
74.13047967770449
 20
43.71908379449623
 30
0.0
 40
0.000005
  1
0.125
100
AcDbAttribute
  2
TXT1
 70
     1
  0
ATTRIB
  5
512
330
50D
100
AcDbEntity
  8
DTM
100
AcDbText
 10
74.13047967770449
 20
43.71909212782957
 30
0.0
 40
0.000005
  1
STANDARD
100
AcDbAttribute
  2
STY1
 70
     1
  0
ATTRIB
  5
513
330
50D
100
AcDbEntity
  8
DTM
100
AcDbText
 10
74.13047967770449
 20
43.7191004611629
 30
0.0
 40
0.000005
  1
1.0
100
AcDbAttribute
  2
SCL1
 70
     1
  0
ATTRIB
  5
514
330
50D
100
AcDbEntity
  8
DTM
100
AcDbText
 10
74.13047967770449
 20
43.71910879449624
 30
0.0
 40
0.000005
  1
0.0
100
AcDbAttribute
  2
ROT1
 70
     1
  0
ATTRIB
  5
515
330
50D
100
AcDbEntity
  8
DTM
100
AcDbText
 10
74.13047967770449
 20
43.71911712782956
 30
0.0
 40
0.000005
  1
0.125
100
AcDbAttribute
  2
LLS1
 70
     1
  0
ATTRIB
  5
516
330
50D
100
AcDbEntity
  8
DTM
100
AcDbText
 10
74.13047967770449
 20
43.71912546116289
 30
0.0
 40
0.000005
  1
0.0625
100
AcDbAttribute
  2
LLO1
 70
     1
  0
ATTRIB
  5
517
330
50D
100
AcDbEntity
  8
DTM
100
AcDbText
 10
74.13047967770449
 20
43.71913379449623
 30
0.0
 40
0.000005
  1
0.5
100
AcDbAttribute
  2
LLI1
 70
     1
  0
ATTRIB
  5
518
330
50D
100
AcDbEntity
  8
DTM
100
AcDbText
 10
74.13044967770448
 20
43.71906712782956
 30
0.0
 40
0.000005
  1
0.0
100
AcDbAttribute
  2
FRM4
 70
     1
  0
ATTRIB
  5
519
330
50D
100
AcDbEntity
  8
DTM
100
AcDbText
 10
74.13044967770448
 20
43.7190754611629
 30
0.0
 40
0.000005
  1
0.0
100
AcDbAttribute
  2
FRM3
 70
     1
  0
ATTRIB
  5
51A
330
50D
100
AcDbEntity
  8
DTM
100
AcDbText
 10
74.13044967770448
 20
43.71908379449623
 30
0.0
 40
0.000005
  1
0.0
100
AcDbAttribute
  2
FRM2
 70
     1
  0
ATTRIB
  5
51B
330
50D
100
AcDbEntity
  8
DTM
100
AcDbText
 10
74.13044967770448
 20
43.71909212782957
 30
0.0
 40
0.000005
  1
0.0
100
AcDbAttribute
  2
FRM1
 70
     1
  0
ATTRIB
  5
51C
330
50D
100
AcDbEntity
  8
DTM
100
AcDbText
 10
74.13044967770448
 20
43.7191004611629
 30
0.0
 40
0.000005
  1
1.0
100
AcDbAttribute
  2
DLF1
 70
     1
  0
ATTRIB
  5
51D
330
50D
100
AcDbEntity
  8
DTM
100
AcDbText
 10
74.13044967770448
 20
43.71910879449624
 30
0.0
 40
0.000005
  1
0.0
100
AcDbAttribute
  2
BSE2
 70
     1
  0
ATTRIB
  5
51E
330
50D
100
AcDbEntity
  8
DTM
100
AcDbText
 10
74.13044967770448
 20
43.71911712782956
 30
0.0
 40
0.000005
  1
0.0
100
AcDbAttribute
  2
BSE1
 70
     1
  0
ATTRIB
  5
51F
330
50D
100
AcDbEntity
  8
DTM
100
AcDbText
 10
74.13044967770448
 20
43.71912546116289
 30
0.0
 40
0.000005
  1
1.0
100
AcDbAttribute
  2
BDR1
 70
     1
  0
ATTRIB
  5
520
330
50D
100
AcDbEntity
  8
DTM
100
AcDbText
 10
74.13044967770448
 20
43.71913379449623
 30
0.0
 40
0.000005
  1
0.0
100
AcDbAttribute
  2
ABS1
 70
     1
  0
SEQEND
  5
521
330
50D
100
AcDbEntity
  8
0
  0
INSERT
  5
522
330
1E
100
AcDbEntity
  8
0
100
AcDbBlockReference
 66
     1
  2
DTM
 10
74.13044967770448
 20
43.71905879449624
 30
0.0
  0
ATTRIB
  5
523
330
522
100
AcDbEntity
  8
DTM
100
AcDbText
 10
74.13044967770448
 20
43.71905879449624
 30
0.0
 40
0.000005
  1
DTM
100
AcDbAttribute
  2
LAY1
 70
     1
  0
ATTRIB
  5
524
330
522
100
AcDbEntity
  8
DTM
100
AcDbText
 10
74.13047967770449
 20
43.71906712782956
 30
0.0
 40
0.000005
  1
0.25
100
AcDbAttribute
  2
ZIG1
 70
     1
  0
ATTRIB
  5
525
330
522
100
AcDbEntity
  8
DTM
100
AcDbText
 10
74.13047967770449
 20
43.7190754611629
 30
0.0
 40
0.000005
  1
0.75
100
AcDbAttribute
  2
ZAG1
 70
     1
  0
ATTRIB
  5
526
330
522
100
AcDbEntity
  8
DTM
100
AcDbText
 10
74.13047967770449
 20
43.71908379449623
 30
0.0
 40
0.000005
  1
0.125
100
AcDbAttribute
  2
TXT1
 70
     1
  0
ATTRIB
  5
527
330
522
100
AcDbEntity
  8
DTM
100
AcDbText
 10
74.13047967770449
 20
43.71909212782957
 30
0.0
 40
0.000005
  1
STANDARD
100
AcDbAttribute
  2
STY1
 70
     1
  0
ATTRIB
  5
528
330
522
100
AcDbEntity
  8
DTM
100
AcDbText
 10
74.13047967770449
 20
43.7191004611629
 30
0.0
 40
0.000005
  1
1.0
100
AcDbAttribute
  2
SCL1
 70
     1
  0
ATTRIB
  5
529
330
522
100
AcDbEntity
  8
DTM
100
AcDbText
 10
74.13047967770449
 20
43.71910879449624
 30
0.0
 40
0.000005
  1
0.0
100
AcDbAttribute
  2
ROT1
 70
     1
  0
ATTRIB
  5
52A
330
522
100
AcDbEntity
  8
DTM
100
AcDbText
 10
74.13047967770449
 20
43.71911712782956
 30
0.0
 40
0.000005
  1
0.125
100
AcDbAttribute
  2
LLS1
 70
     1
  0
ATTRIB
  5
52B
330
522
100
AcDbEntity
  8
DTM
100
AcDbText
 10
74.13047967770449
 20
43.71912546116289
 30
0.0
 40
0.000005
  1
0.0625
100
AcDbAttribute
  2
LLO1
 70
     1
  0
ATTRIB
  5
52C
330
522
100
AcDbEntity
  8
DTM
100
AcDbText
 10
74.13047967770449
 20
43.71913379449623
 30
0.0
 40
0.000005
  1
0.5
100
AcDbAttribute
  2
LLI1
 70
     1
  0
ATTRIB
  5
52D
330
522
100
AcDbEntity
  8
DTM
100
AcDbText
 10
74.13044967770448
 20
43.71906712782956
 30
0.0
 40
0.000005
  1
0.0
100
AcDbAttribute
  2
FRM4
 70
     1
  0
ATTRIB
  5
52E
330
522
100
AcDbEntity
  8
DTM
100
AcDbText
 10
74.13044967770448
 20
43.7190754611629
 30
0.0
 40
0.000005
  1
0.0
100
AcDbAttribute
  2
FRM3
 70
     1
  0
ATTRIB
  5
52F
330
522
100
AcDbEntity
  8
DTM
100
AcDbText
 10
74.13044967770448
 20
43.71908379449623
 30
0.0
 40
0.000005
  1
0.0
100
AcDbAttribute
  2
FRM2
 70
     1
  0
ATTRIB
  5
530
330
522
100
AcDbEntity
  8
DTM
100
AcDbText
 10
74.13044967770448
 20
43.71909212782957
 30
0.0
 40
0.000005
  1
0.0
100
AcDbAttribute
  2
FRM1
 70
     1
  0
ATTRIB
  5
531
330
522
100
AcDbEntity
  8
DTM
100
AcDbText
 10
74.13044967770448
 20
43.7191004611629
 30
0.0
 40
0.000005
  1
1.0
100
AcDbAttribute
  2
DLF1
 70
     1
  0
ATTRIB
  5
532
330
522
100
AcDbEntity
  8
DTM
100
AcDbText
 10
74.13044967770448
 20
43.71910879449624
 30
0.0
 40
0.000005
  1
0.0
100
AcDbAttribute
  2
BSE2
 70
     1
  0
ATTRIB
  5
533
330
522
100
AcDbEntity
  8
DTM
100
AcDbText
 10
74.13044967770448
 20
43.71911712782956
 30
0.0
 40
0.000005
  1
0.0
100
AcDbAttribute
  2
BSE1
 70
     1
  0
ATTRIB
  5
534
330
522
100
AcDbEntity
  8
DTM
100
AcDbText
 10
74.13044967770448
 20
43.71912546116289
 30
0.0
 40
0.000005
  1
1.0
100
AcDbAttribute
  2
BDR1
 70
     1
  0
ATTRIB
  5
535
330
522
100
AcDbEntity
  8
DTM
100
AcDbText
 10
74.13044967770448
 20
43.71913379449623
 30
0.0
 40
0.000005
  1
0.0
100
AcDbAttribute
  2
ABS1
 70
     1
  0
SEQEND
  5
536
330
522
100
AcDbEntity
  8
STP-SHIFT
  0
INSERT
  5
537
330
1E
100
AcDbEntity
  8
0
100
AcDbBlockReference
 66
     1
  2
DTM
 10
22.65302415477804
 20
-3.541860413952819
 30
0.0
  0
ATTRIB
  5
538
330
537
100
AcDbEntity
  8
DTM
100
AcDbText
 10
22.65302415477804
 20
-3.541860413952819
 30
0.0
 40
0.000005
  1
DTM
100
AcDbAttribute
  2
LAY1
 70
     1
  0
ATTRIB
  5
539
330
537
100
AcDbEntity
  8
DTM
100
AcDbText
 10
22.65305415477804
 20
-3.541852080619485
 30
0.0
 40
0.000005
  1
0.25
100
AcDbAttribute
  2
ZIG1
 70
     1
  0
ATTRIB
  5
53A
330
537
100
AcDbEntity
  8
DTM
100
AcDbText
 10
22.65305415477804
 20
-3.541843747286151
 30
0.0
 40
0.000005
  1
0.75
100
AcDbAttribute
  2
ZAG1
 70
     1
  0
ATTRIB
  5
53B
330
537
100
AcDbEntity
  8
DTM
100
AcDbText
 10
22.65305415477804
 20
-3.541835413952818
 30
0.0
 40
0.000005
  1
0.125
100
AcDbAttribute
  2
TXT1
 70
     1
  0
ATTRIB
  5
53C
330
537
100
AcDbEntity
  8
DTM
100
AcDbText
 10
22.65305415477804
 20
-3.541827080619486
 30
0.0
 40
0.000005
  1
STANDARD
100
AcDbAttribute
  2
STY1
 70
     1
  0
ATTRIB
  5
53D
330
537
100
AcDbEntity
  8
DTM
100
AcDbText
 10
22.65305415477804
 20
-3.541818747286152
 30
0.0
 40
0.000005
  1
1.0
100
AcDbAttribute
  2
SCL1
 70
     1
  0
ATTRIB
  5
53E
330
537
100
AcDbEntity
  8
DTM
100
AcDbText
 10
22.65305415477804
 20
-3.541810413952819
 30
0.0
 40
0.000005
  1
0.0
100
AcDbAttribute
  2
ROT1
 70
     1
  0
ATTRIB
  5
53F
330
537
100
AcDbEntity
  8
DTM
100
AcDbText
 10
22.65305415477804
 20
-3.541802080619485
 30
0.0
 40
0.000005
  1
0.125
100
AcDbAttribute
  2
LLS1
 70
     1
  0
ATTRIB
  5
540
330
537
100
AcDbEntity
  8
DTM
100
AcDbText
 10
22.65305415477804
 20
-3.541793747286151
 30
0.0
 40
0.000005
  1
0.0625
100
AcDbAttribute
  2
LLO1
 70
     1
  0
ATTRIB
  5
541
330
537
100
AcDbEntity
  8
DTM
100
AcDbText
 10
22.65305415477804
 20
-3.541785413952818
 30
0.0
 40
0.000005
  1
0.5
100
AcDbAttribute
  2
LLI1
 70
     1
  0
ATTRIB
  5
542
330
537
100
AcDbEntity
  8
DTM
100
AcDbText
 10
22.65302415477804
 20
-3.541852080619485
 30
0.0
 40
0.000005
  1
0.0
100
AcDbAttribute
  2
FRM4
 70
     1
  0
ATTRIB
  5
543
330
537
100
AcDbEntity
  8
DTM
100
AcDbText
 10
22.65302415477804
 20
-3.541843747286151
 30
0.0
 40
0.000005
  1
0.0
100
AcDbAttribute
  2
FRM3
 70
     1
  0
ATTRIB
  5
544
330
537
100
AcDbEntity
  8
DTM
100
AcDbText
 10
22.65302415477804
 20
-3.541835413952818
 30
0.0
 40
0.000005
  1
0.0
100
AcDbAttribute
  2
FRM2
 70
     1
  0
ATTRIB
  5
545
330
537
100
AcDbEntity
  8
DTM
100
AcDbText
 10
22.65302415477804
 20
-3.541827080619486
 30
0.0
 40
0.000005
  1
0.0
100
AcDbAttribute
  2
FRM1
 70
     1
  0
ATTRIB
  5
546
330
537
100
AcDbEntity
  8
DTM
100
AcDbText
 10
22.65302415477804
 20
-3.541818747286152
 30
0.0
 40
0.000005
  1
1.0
100
AcDbAttribute
  2
DLF1
 70
     1
  0
ATTRIB
  5
547
330
537
100
AcDbEntity
  8
DTM
100
AcDbText
 10
22.65302415477804
 20
-3.541810413952819
 30
0.0
 40
0.000005
  1
0.0
100
AcDbAttribute
  2
BSE2
 70
     1
  0
ATTRIB
  5
548
330
537
100
AcDbEntity
  8
DTM
100
AcDbText
 10
22.65302415477804
 20
-3.541802080619485
 30
0.0
 40
0.000005
  1
0.0
100
AcDbAttribute
  2
BSE1
 70
     1
  0
ATTRIB
  5
549
330
537
100
AcDbEntity
  8
DTM
100
AcDbText
 10
22.65302415477804
 20
-3.541793747286151
 30
0.0
 40
0.000005
  1
1.0
100
AcDbAttribute
  2
BDR1
 70
     1
  0
ATTRIB
  5
54A
330
537
100
AcDbEntity
  8
DTM
100
AcDbText
 10
22.65302415477804
 20
-3.541785413952818
 30
0.0
 40
0.000005
  1
0.0
100
AcDbAttribute
  2
ABS1
 70
     1
  0
SEQEND
  5
54B
330
537
100
AcDbEntity
  8
0
  0
INSERT
  5
54C
330
1E
100
AcDbEntity
  8
0
100
AcDbBlockReference
 66
     1
  2
DTM
 10
22.65302415477804
 20
-3.541860413952819
 30
0.0
  0
ATTRIB
  5
54D
330
54C
100
AcDbEntity
  8
DTM
100
AcDbText
 10
22.65302415477804
 20
-3.541860413952819
 30
0.0
 40
0.000005
  1
DTM
100
AcDbAttribute
  2
LAY1
 70
     1
  0
ATTRIB
  5
54E
330
54C
100
AcDbEntity
  8
DTM
100
AcDbText
 10
22.65305415477804
 20
-3.541852080619485
 30
0.0
 40
0.000005
  1
0.25
100
AcDbAttribute
  2
ZIG1
 70
     1
  0
ATTRIB
  5
54F
330
54C
100
AcDbEntity
  8
DTM
100
AcDbText
 10
22.65305415477804
 20
-3.541843747286151
 30
0.0
 40
0.000005
  1
0.75
100
AcDbAttribute
  2
ZAG1
 70
     1
  0
ATTRIB
  5
550
330
54C
100
AcDbEntity
  8
DTM
100
AcDbText
 10
22.65305415477804
 20
-3.541835413952818
 30
0.0
 40
0.000005
  1
0.125
100
AcDbAttribute
  2
TXT1
 70
     1
  0
ATTRIB
  5
551
330
54C
100
AcDbEntity
  8
DTM
100
AcDbText
 10
22.65305415477804
 20
-3.541827080619486
 30
0.0
 40
0.000005
  1
STANDARD
100
AcDbAttribute
  2
STY1
 70
     1
  0
ATTRIB
  5
552
330
54C
100
AcDbEntity
  8
DTM
100
AcDbText
 10
22.65305415477804
 20
-3.541818747286152
 30
0.0
 40
0.000005
  1
1.0
100
AcDbAttribute
  2
SCL1
 70
     1
  0
ATTRIB
  5
553
330
54C
100
AcDbEntity
  8
DTM
100
AcDbText
 10
22.65305415477804
 20
-3.541810413952819
 30
0.0
 40
0.000005
  1
0.0
100
AcDbAttribute
  2
ROT1
 70
     1
  0
ATTRIB
  5
554
330
54C
100
AcDbEntity
  8
DTM
100
AcDbText
 10
22.65305415477804
 20
-3.541802080619485
 30
0.0
 40
0.000005
  1
0.125
100
AcDbAttribute
  2
LLS1
 70
     1
  0
ATTRIB
  5
555
330
54C
100
AcDbEntity
  8
DTM
100
AcDbText
 10
22.65305415477804
 20
-3.541793747286151
 30
0.0
 40
0.000005
  1
0.0625
100
AcDbAttribute
  2
LLO1
 70
     1
  0
ATTRIB
  5
556
330
54C
100
AcDbEntity
  8
DTM
100
AcDbText
 10
22.65305415477804
 20
-3.541785413952818
 30
0.0
 40
0.000005
  1
0.5
100
AcDbAttribute
  2
LLI1
 70
     1
  0
ATTRIB
  5
557
330
54C
100
AcDbEntity
  8
DTM
100
AcDbText
 10
22.65302415477804
 20
-3.541852080619485
 30
0.0
 40
0.000005
  1
0.0
100
AcDbAttribute
  2
FRM4
 70
     1
  0
ATTRIB
  5
558
330
54C
100
AcDbEntity
  8
DTM
100
AcDbText
 10
22.65302415477804
 20
-3.541843747286151
 30
0.0
 40
0.000005
  1
0.0
100
AcDbAttribute
  2
FRM3
 70
     1
  0
ATTRIB
  5
559
330
54C
100
AcDbEntity
  8
DTM
100
AcDbText
 10
22.65302415477804
 20
-3.541835413952818
 30
0.0
 40
0.000005
  1
0.0
100
AcDbAttribute
  2
FRM2
 70
     1
  0
ATTRIB
  5
55A
330
54C
100
AcDbEntity
  8
DTM
100
AcDbText
 10
22.65302415477804
 20
-3.541827080619486
 30
0.0
 40
0.000005
  1
0.0
100
AcDbAttribute
  2
FRM1
 70
     1
  0
ATTRIB
  5
55B
330
54C
100
AcDbEntity
  8
DTM
100
AcDbText
 10
22.65302415477804
 20
-3.541818747286152
 30
0.0
 40
0.000005
  1
1.0
100
AcDbAttribute
  2
DLF1
 70
     1
  0
ATTRIB
  5
55C
330
54C
100
AcDbEntity
  8
DTM
100
AcDbText
 10
22.65302415477804
 20
-3.541810413952819
 30
0.0
 40
0.000005
  1
0.0
100
AcDbAttribute
  2
BSE2
 70
     1
  0
ATTRIB
  5
55D
330
54C
100
AcDbEntity
  8
DTM
100
AcDbText
 10
22.65302415477804
 20
-3.541802080619485
 30
0.0
 40
0.000005
  1
0.0
100
AcDbAttribute
  2
BSE1
 70
     1
  0
ATTRIB
  5
55E
330
54C
100
AcDbEntity
  8
DTM
100
AcDbText
 10
22.65302415477804
 20
-3.541793747286151
 30
0.0
 40
0.000005
  1
1.0
100
AcDbAttribute
  2
BDR1
 70
     1
  0
ATTRIB
  5
55F
330
54C
100
AcDbEntity
  8
DTM
100
AcDbText
 10
22.65302415477804
 20
-3.541785413952818
 30
0.0
 40
0.000005
  1
0.0
100
AcDbAttribute
  2
ABS1
 70
     1
  0
SEQEND
  5
560
330
54C
100
AcDbEntity
  8
STP-SHIFT
  0
INSERT
  5
561
330
1E
100
AcDbEntity
  8
0
100
AcDbBlockReference
 66
     1
  2
DTM
 10
25.62226693425955
 20
8.551183563786307
 30
0.0
  0
ATTRIB
  5
562
330
561
100
AcDbEntity
  8
DTM
100
AcDbText
 10
25.62226693425955
 20
8.551183563786307
 30
0.0
 40
0.000005
  1
DTM
100
AcDbAttribute
  2
LAY1
 70
     1
  0
ATTRIB
  5
563
330
561
100
AcDbEntity
  8
DTM
100
AcDbText
 10
25.62229693425955
 20
8.55119189711964
 30
0.0
 40
0.000005
  1
0.25
100
AcDbAttribute
  2
ZIG1
 70
     1
  0
ATTRIB
  5
564
330
561
100
AcDbEntity
  8
DTM
100
AcDbText
 10
25.62229693425955
 20
8.551200230452974
 30
0.0
 40
0.000005
  1
0.75
100
AcDbAttribute
  2
ZAG1
 70
     1
  0
ATTRIB
  5
565
330
561
100
AcDbEntity
  8
DTM
100
AcDbText
 10
25.62229693425955
 20
8.551208563786307
 30
0.0
 40
0.000005
  1
0.125
100
AcDbAttribute
  2
TXT1
 70
     1
  0
ATTRIB
  5
566
330
561
100
AcDbEntity
  8
DTM
100
AcDbText
 10
25.62229693425955
 20
8.551216897119639
 30
0.0
 40
0.000005
  1
STANDARD
100
AcDbAttribute
  2
STY1
 70
     1
  0
ATTRIB
  5
567
330
561
100
AcDbEntity
  8
DTM
100
AcDbText
 10
25.62229693425955
 20
8.551225230452973
 30
0.0
 40
0.000005
  1
1.0
100
AcDbAttribute
  2
SCL1
 70
     1
  0
ATTRIB
  5
568
330
561
100
AcDbEntity
  8
DTM
100
AcDbText
 10
25.62229693425955
 20
8.551233563786306
 30
0.0
 40
0.000005
  1
0.0
100
AcDbAttribute
  2
ROT1
 70
     1
  0
ATTRIB
  5
569
330
561
100
AcDbEntity
  8
DTM
100
AcDbText
 10
25.62229693425955
 20
8.55124189711964
 30
0.0
 40
0.000005
  1
0.125
100
AcDbAttribute
  2
LLS1
 70
     1
  0
ATTRIB
  5
56A
330
561
100
AcDbEntity
  8
DTM
100
AcDbText
 10
25.62229693425955
 20
8.551250230452974
 30
0.0
 40
0.000005
  1
0.0625
100
AcDbAttribute
  2
LLO1
 70
     1
  0
ATTRIB
  5
56B
330
561
100
AcDbEntity
  8
DTM
100
AcDbText
 10
25.62229693425955
 20
8.551258563786307
 30
0.0
 40
0.000005
  1
0.5
100
AcDbAttribute
  2
LLI1
 70
     1
  0
ATTRIB
  5
56C
330
561
100
AcDbEntity
  8
DTM
100
AcDbText
 10
25.62226693425955
 20
8.55119189711964
 30
0.0
 40
0.000005
  1
0.0
100
AcDbAttribute
  2
FRM4
 70
     1
  0
ATTRIB
  5
56D
330
561
100
AcDbEntity
  8
DTM
100
AcDbText
 10
25.62226693425955
 20
8.551200230452974
 30
0.0
 40
0.000005
  1
0.0
100
AcDbAttribute
  2
FRM3
 70
     1
  0
ATTRIB
  5
56E
330
561
100
AcDbEntity
  8
DTM
100
AcDbText
 10
25.62226693425955
 20
8.551208563786307
 30
0.0
 40
0.000005
  1
0.0
100
AcDbAttribute
  2
FRM2
 70
     1
  0
ATTRIB
  5
56F
330
561
100
AcDbEntity
  8
DTM
100
AcDbText
 10
25.62226693425955
 20
8.551216897119639
 30
0.0
 40
0.000005
  1
0.0
100
AcDbAttribute
  2
FRM1
 70
     1
  0
ATTRIB
  5
570
330
561
100
AcDbEntity
  8
DTM
100
AcDbText
 10
25.62226693425955
 20
8.551225230452973
 30
0.0
 40
0.000005
  1
1.0
100
AcDbAttribute
  2
DLF1
 70
     1
  0
ATTRIB
  5
571
330
561
100
AcDbEntity
  8
DTM
100
AcDbText
 10
25.62226693425955
 20
8.551233563786306
 30
0.0
 40
0.000005
  1
0.0
100
AcDbAttribute
  2
BSE2
 70
     1
  0
ATTRIB
  5
572
330
561
100
AcDbEntity
  8
DTM
100
AcDbText
 10
25.62226693425955
 20
8.55124189711964
 30
0.0
 40
0.000005
  1
0.0
100
AcDbAttribute
  2
BSE1
 70
     1
  0
ATTRIB
  5
573
330
561
100
AcDbEntity
  8
DTM
100
AcDbText
 10
25.62226693425955
 20
8.551250230452974
 30
0.0
 40
0.000005
  1
1.0
100
AcDbAttribute
  2
BDR1
 70
     1
  0
ATTRIB
  5
574
330
561
100
AcDbEntity
  8
DTM
100
AcDbText
 10
25.62226693425955
 20
8.551258563786307
 30
0.0
 40
0.000005
  1
0.0
100
AcDbAttribute
  2
ABS1
 70
     1
  0
SEQEND
  5
575
330
561
100
AcDbEntity
  8
0
  0
TEXT
  5
576
330
1E
100
AcDbEntity
  8
0
100
AcDbText
 10
29.48226693425955
 20
16.48868356378631
 30
0.0
 40
0.125
  1

100
AcDbText
  0
CIRCLE
  5
5E9
330
1E
100
AcDbEntity
  8
0
100
AcDbCircle
 10
0.8198197519999972
 20
1.017209753000007
 30
0.0
 40
0.078
  0
CIRCLE
  5
5EA
330
1E
100
AcDbEntity
  8
0
100
AcDbCircle
 10
0.8198197519999972
 20
4.647668753000001
 30
0.0
 40
0.078
  0
CIRCLE
  5
5EB
330
1E
100
AcDbEntity
  8
0
100
AcDbCircle
 10
0.8198197519999972
 20
8.278128752999999
 30
0.0
 40
0.078
  0
CIRCLE
  5
5EC
330
1E
100
AcDbEntity
  8
0
100
AcDbCircle
 10
1.194819751999997
 20
1.767209753000007
 30
0.0
 40
0.078
  0
CIRCLE
  5
5ED
330
1E
100
AcDbEntity
  8
0
100
AcDbCircle
 10
1.194819751999997
 20
5.397668753000001
 30
0.0
 40
0.078
  0
CIRCLE
  5
5EE
330
1E
100
AcDbEntity
  8
0
100
AcDbCircle
 10
1.194819751999997
 20
9.028128752999999
 30
0.0
 40
0.078
  0
LINE
  5
5EF
330
1E
100
AcDbEntity
  8
0
100
AcDbLine
 10
2.944819751999997
 20
10.090628753
 30
0.0
 11
0.4448197519999972
 21
10.090628753
 31
0.0
  0
CIRCLE
  5
60D
330
1E
100
AcDbEntity
  8
0
100
AcDbCircle
 10
3.227430859999998
 20
9.715628752999999
 30
0.0
 40
0.10935
  0
CIRCLE
  5
60E
330
1E
100
AcDbEntity
  8
0
100
AcDbCircle
 10
2.852430859999998
 20
8.871878752999999
 30
0.0
 40
0.10935
  0
CIRCLE
  5
60F
330
1E
100
AcDbEntity
  8
0
100
AcDbCircle
 10
3.227430859999998
 20
7.965628752999999
 30
0.0
 40
0.10935
  0
CIRCLE
  5
610
330
1E
100
AcDbEntity
  8
0
100
AcDbCircle
 10
2.852430859999998
 20
7.121978753000002
 30
0.0
 40
0.10935
  0
CIRCLE
  5
611
330
1E
100
AcDbEntity
  8
0
100
AcDbCircle
 10
3.227430859999998
 20
6.215628753000001
 30
0.0
 40
0.10935
  0
CIRCLE
  5
612
330
1E
100
AcDbEntity
  8
0
100
AcDbCircle
 10
2.852430859999998
 20
5.371878753000001
 30
0.0
 40
0.10935
  0
CIRCLE
  5
613
330
1E
100
AcDbEntity
  8
0
100
AcDbCircle
 10
3.227430859999998
 20
4.465628753000001
 30
0.0
 40
0.10935
  0
CIRCLE
  5
614
330
1E
100
AcDbEntity
  8
0
100
AcDbCircle
 10
3.227430859999998
 20
2.715628753000001
 30
0.0
 40
0.10935
  0
CIRCLE
  5
615
330
1E
100
AcDbEntity
  8
0
100
AcDbCircle
 10
-3.535220104000004
 20
2.715628753000001
 30
0.0
 40
0.10935
  0
CIRCLE
  5
616
330
1E
100
AcDbEntity
  8
0
100
AcDbCircle
 10
-3.535220104000004
 20
4.465628753000001
 30
0.0
 40
0.10935
  0
CIRCLE
  5
617
330
1E
100
AcDbEntity
  8
0
100
AcDbCircle
 10
-3.160220104000004
 20
5.371878753000001
 30
0.0
 40
0.10935
  0
CIRCLE
  5
618
330
1E
100
AcDbEntity
  8
0
100
AcDbCircle
 10
-3.535220104000004
 20
6.215628753000001
 30
0.0
 40
0.10935
  0
CIRCLE
  5
619
330
1E
100
AcDbEntity
  8
0
100
AcDbCircle
 10
-3.160220104000004
 20
7.121978753000002
 30
0.0
 40
0.10935
  0
CIRCLE
  5
61A
330
1E
100
AcDbEntity
  8
0
100
AcDbCircle
 10
-3.535220104000004
 20
7.965628752999999
 30
0.0
 40
0.10935
  0
CIRCLE
  5
61B
330
1E
100
AcDbEntity
  8
0
100
AcDbCircle
 10
-3.160220104000004
 20
8.871878752999999
 30
0.0
 40
0.10935
  0
CIRCLE
  5
61C
330
1E
100
AcDbEntity
  8
0
100
AcDbCircle
 10
-3.535220104000004
 20
9.715628752999999
 30
0.0
 40
0.10935
  0
ARC
  5
61D
330
1E
100
AcDbEntity
  8
0
100
AcDbCircle
 10
0.2573197519999972
 20
0.1174999999999997
 30
0.0
 40
0.1875
100
AcDbArc
 50
270.0
 51
0.0
  0
ARC
  5
61E
330
1E
100
AcDbEntity
  8
0
100
AcDbCircle
 10
2.172430859999997
 20
0.1174999999999997
 30
0.0
 40
0.1875
100
AcDbArc
 50
270.0
 51
0.0
  0
ARC
  5
61F
330
1E
100
AcDbEntity
  8
0
100
AcDbCircle
 10
-1.797611107000002
 20
0.1174999999999997
 30
0.0
 40
0.1875
100
AcDbArc
 50
180.0
 51
270.0
  0
ENDSEC
  0
SECTION
  2
OBJECTS
  0
DICTIONARY
  5
C
330
0
100
AcDbDictionary
281
     1
  3
ACAD_COLOR
350
6FE
  3
ACAD_GROUP
350
D
  3
ACAD_LAYOUT
350
19
  3
ACAD_MATERIAL
350
6FD
  3
ACAD_MLINESTYLE
350
16
  3
ACAD_PLOTSETTINGS
350
18
  3
ACAD_PLOTSTYLENAME
350
E
  3
ACAD_TABLESTYLE
350
6FF
  3
ACDBHEADERROUNDTRIPXREC
350
728
  3
AcDbVariableDictionary
350
714
  0
DICTIONARY
  5
6FE
102
{ACAD_REACTORS
330
C
102
}
330
C
100
AcDbDictionary
281
     1
  0
DICTIONARY
  5
D
102
{ACAD_REACTORS
330
C
102
}
330
C
100
AcDbDictionary
281
     1
  0
DICTIONARY
  5
19
102
{ACAD_REACTORS
330
C
102
}
330
C
100
AcDbDictionary
281
     1
  3
Layout1
350
1D
  3
Model
350
21
  0
DICTIONARY
  5
6FD
102
{ACAD_REACTORS
330
C
102
}
330
C
100
AcDbDictionary
281
     1
  0
DICTIONARY
  5
16
102
{ACAD_REACTORS
330
C
102
}
330
C
100
AcDbDictionary
281
     1
  3
Standard
350
17
  0
DICTIONARY
  5
18
102
{ACAD_REACTORS
330
C
102
}
330
C
100
AcDbDictionary
281
     1
  0
ACDBDICTIONARYWDFLT
  5
E
102
{ACAD_REACTORS
330
C
102
}
330
C
100
AcDbDictionary
281
     1
  3
Normal
350
F
100
AcDbDictionaryWithDefault
340
F
  0
DICTIONARY
  5
6FF
102
{ACAD_REACTORS
330
C
102
}
330
C
100
AcDbDictionary
281
     1
  3
Standard
350
700
  0
DICTIONARY
  5
728
102
{ACAD_REACTORS
330
C
102
}
330
C
100
AcDbDictionary
281
     1
  3
COLORDICT
350
729
  3
MATERIALDICT
350
72A
  0
DICTIONARY
  5
714
102
{ACAD_REACTORS
330
C
102
}
330
C
100
AcDbDictionary
281
     1
  3
CTABLESTYLE
350
715
  0
LAYOUT
  5
1D
102
{ACAD_REACTORS
330
19
102
}
102
{ACAD_XDICTIONARY
360
72B
102
}
330
19
100
AcDbPlotSettings
  1

  2
HP LaserJet 2100 Series PS
  4

  6

 40
0.0
 41
0.0
 42
0.0
 43
0.0
 44
0.0
 45
0.0
 46
0.0
 47
0.0
 48
0.0
 49
0.0
140
0.0
141
0.0
142
1.0
143
1.0
 70
   688
 72
     0
 73
     0
 74
     5
  7
monochrome.ctb
 75
    16
147
1.0
148
0.0
149
0.0
100
AcDbLayout
  1
Layout1
 70
     0
 71
     1
 10
0.0
 20
0.0
 11
12.0
 21
9.0
 12
0.0
 22
0.0
 32
0.0
 14
1.000000000000000E+20
 24
1.000000000000000E+20
 34
1.000000000000000E+20
 15
-1.000000000000000E+20
 25
-1.000000000000000E+20
 35
-1.000000000000000E+20
146
0.0
 13
0.0
 23
0.0
 33
0.0
 16
1.0
 26
0.0
 36
0.0
 17
0.0
 27
1.0
 37
0.0
 76
     0
330
1A
  0
LAYOUT
  5
21
102
{ACAD_REACTORS
330
19
102
}
102
{ACAD_XDICTIONARY
360
72D
102
}
330
19
100
AcDbPlotSettings
  1

  2
HP LaserJet 2100 Series PS
  4

  6

 40
0.0
 41
0.0
 42
0.0
 43
0.0
 44
0.0
 45
0.0
 46
0.0
 47
0.0
 48
0.0
 49
0.0
140
0.0
141
0.0
142
1.0
143
1.0
 70
  1712
 72
     0
 73
     0
 74
     0
  7
monochrome.ctb
 75
     0
147
1.0
148
0.0
149
0.0
100
AcDbLayout
  1
Model
 70
     1
 71
     0
 10
0.0
 20
0.0
 11
12.0
 21
9.0
 12
0.0
 22
0.0
 32
0.0
 14
0.0
 24
0.0
 34
0.0
 15
0.0
 25
0.0
 35
0.0
146
0.0
 13
0.0
 23
0.0
 33
0.0
 16
1.0
 26
0.0
 36
0.0
 17
0.0
 27
1.0
 37
0.0
 76
     0
330
1E
  0
MLINESTYLE
  5
17
102
{ACAD_REACTORS
330
16
102
}
330
16
100
AcDbMlineStyle
  2
STANDARD
 70
     0
  3

 62
   256
 51
90.0
 52
90.0
 71
     2
 49
0.5
 62
   256
  6
BYLAYER
 49
-0.5
 62
   256
  6
BYLAYER
  0
ACDBPLACEHOLDER
  5
F
102
{ACAD_REACTORS
330
E
102
}
330
E
  0
ACAD_PROXY_OBJECT
  5
700
102
{ACAD_REACTORS
330
6FF
102
}
330
6FF
100
AcDbProxyObject
 90
      499
 91
      503
 95
   983063
 70
     0
 93
     1841
310
4214DD185B99185C9928B81E85EB51B8AE3F2E07A17AD46E2B8FC02B5E8DC0F42B1CFD028000000C1008070000C3001FDFF8000000C1003FBFF000000182007F7FE00000030400FEFFC00000060801FDFF8000000C1003FBFF00000018200000000000000681FA0B0000001820100E000186003FBFF000000182007F7FE000
310
00030400FEFFC00000060801FDFF8000000C1003FBFF000000182007F7FE000000304000AD7A3703D0AC73F4160000003040201C00030C007F7FE00000030400FEFFC00000060801FDFF8000000C1003FBFF000000182007F7FE00000030400FEFFC000000608000
340
11
340
11
340
11
 94
        0
  0
XRECORD
  5
729
102
{ACAD_REACTORS
330
728
102
}
330
728
100
AcDbXrecord
340
6FE
  0
XRECORD
  5
72A
102
{ACAD_REACTORS
330
728
102
}
330
728
100
AcDbXrecord
340
6FD
  0
DICTIONARYVAR
  5
715
102
{ACAD_REACTORS
330
714
102
}
330
714
100
DictionaryVariables
280
     0
  1
STANDARD
  0
DICTIONARY
  5
72B
330
1D
100
AcDbDictionary
280
     1
281
     1
  3
ACAD_XREC_ROUNDTRIP
360
72C
  0
DICTIONARY
  5
72D
330
21
100
AcDbDictionary
280
     1
281
     1
  3
ACAD_XREC_ROUNDTRIP
360
72E
  0
XRECORD
  5
72C
102
{ACAD_REACTORS
330
72B
102
}
330
72B
100
AcDbXrecord
102
SHADEPLOT
 70
     0
102
SHADEPLOTRESLEVEL
 70
     2
102
SHADEPLOTCUSTOMDPI
 70
   300
  0
XRECORD
  5
72E
102
{ACAD_REACTORS
330
72D
102
}
330
72D
100
AcDbXrecord
102
SHADEPLOT
 70
     0
102
SHADEPLOTRESLEVEL
 70
     2
102
SHADEPLOTCUSTOMDPI
 70
   300
  0
ENDSEC
  0
EOF
