  0
SECTION
  2
HEADER
  9
$ACADVER
  1
AC1015
  9
$ACADMAINTVER
 70
     6
  9
$DWGCODEPAGE
  3
ANSI_1252
  9
$INSBASE
 10
0.0
 20
0.0
 30
0.0
  9
$EXTMIN
 10
4.498309623235485
 20
10.78417975593379
 30
-0.0015258207003583
  9
$EXTMAX
 10
12.96880627791489
 20
14.84912113897633
 30
0.0000000349246037
  9
$LIMMIN
 10
0.0
 20
0.0
  9
$LIMMAX
 10
31.5
 20
24.0
  9
$ORTHOMODE
 70
     1
  9
$REGENMODE
 70
     1
  9
$FILLMODE
 70
     1
  9
$QTEXTMODE
 70
     0
  9
$MIRRTEXT
 70
     0
  9
$LTSCALE
 40
1.0
  9
$ATTMODE
 70
     1
  9
$TEXTSIZE
 40
0.27
  9
$TRACEWID
 40
0.05
  9
$TEXTSTYLE
  7
STANDARD
  9
$CLAYER
  8
0
  9
$CELTYPE
  6
BYLAYER
  9
$CECOLOR
 62
   256
  9
$CELTSCALE
 40
1.0
  9
$DISPSILH
 70
     0
  9
$DIMSCALE
 40
1.0
  9
$DIMASZ
 40
0.375
  9
$DIMEXO
 40
0.0625
  9
$DIMDLI
 40
0.75
  9
$DIMRND
 40
0.0
  9
$DIMDLE
 40
0.0
  9
$DIMEXE
 40
0.18
  9
$DIMTP
 40
0.0
  9
$DIMTM
 40
0.0
  9
$DIMTXT
 40
0.27
  9
$DIMCEN
 40
-0.06
  9
$DIMTSZ
 40
0.0
  9
$DIMTOL
 70
     0
  9
$DIMLIM
 70
     0
  9
$DIMTIH
 70
     1
  9
$DIMTOH
 70
     1
  9
$DIMSE1
 70
     0
  9
$DIMSE2
 70
     0
  9
$DIMTAD
 70
     0
  9
$DIMZIN
 70
     0
  9
$DIMBLK
  1

  9
$DIMASO
 70
     0
  9
$DIMSHO
 70
     0
  9
$DIMPOST
  1

  9
$DIMAPOST
  1

  9
$DIMALT
 70
     0
  9
$DIMALTD
 70
     2
  9
$DIMALTF
 40
25.4
  9
$DIMLFAC
 40
1.0
  9
$DIMTOFL
 70
     0
  9
$DIMTVP
 40
0.0
  9
$DIMTIX
 70
     0
  9
$DIMSOXD
 70
     0
  9
$DIMSAH
 70
     0
  9
$DIMBLK1
  1

  9
$DIMBLK2
  1

  9
$DIMSTYLE
  2
STANDARD
  9
$DIMCLRD
 70
     0
  9
$DIMCLRE
 70
     0
  9
$DIMCLRT
 70
     0
  9
$DIMTFAC
 40
1.0
  9
$DIMGAP
 40
0.09
  9
$DIMJUST
 70
     0
  9
$DIMSD1
 70
     0
  9
$DIMSD2
 70
     0
  9
$DIMTOLJ
 70
     1
  9
$DIMTZIN
 70
     0
  9
$DIMALTZ
 70
     0
  9
$DIMALTTZ
 70
     0
  9
$DIMUPT
 70
     0
  9
$DIMDEC
 70
     5
  9
$DIMTDEC
 70
     5
  9
$DIMALTU
 70
     2
  9
$DIMALTTD
 70
     2
  9
$DIMTXSTY
  7
STANDARD
  9
$DIMAUNIT
 70
     0
  9
$DIMADEC
 70
     0
  9
$DIMALTRND
 40
0.0
  9
$DIMAZIN
 70
     0
  9
$DIMDSEP
 70
    46
  9
$DIMATFIT
 70
     3
  9
$DIMFRAC
 70
     2
  9
$DIMLDRBLK
  1

  9
$DIMLUNIT
 70
     5
  9
$DIMLWD
 70
    -2
  9
$DIMLWE
 70
    -2
  9
$DIMTMOVE
 70
     2
  9
$LUNITS
 70
     2
  9
$LUPREC
 70
     3
  9
$SKETCHINC
 40
0.1
  9
$FILLETRAD
 40
0.0
  9
$AUNITS
 70
     0
  9
$AUPREC
 70
     0
  9
$MENU
  1
ACAD
  9
$ELEVATION
 40
0.0
  9
$PELEVATION
 40
0.0
  9
$THICKNESS
 40
0.0
  9
$LIMCHECK
 70
     0
  9
$CHAMFERA
 40
0.0
  9
$CHAMFERB
 40
0.0
  9
$CHAMFERC
 40
0.0
  9
$CHAMFERD
 40
0.0
  9
$SKPOLY
 70
     0
  9
$TDCREATE
 40
2450305.009580324
  9
$TDUCREATE
 40
2450305.342913657
  9
$TDUPDATE
 40
2454160.941212199
  9
$TDUUPDATE
 40
2454161.274545532
  9
$TDINDWG
 40
0.3535966551
  9
$TDUSRTIMER
 40
0.3535966551
  9
$USRTIMER
 70
     1
  9
$ANGBASE
 50
0.0
  9
$ANGDIR
 70
     0
  9
$PDMODE
 70
     0
  9
$PDSIZE
 40
0.0
  9
$PLINEWID
 40
0.0
  9
$SPLFRAME
 70
     0
  9
$SPLINETYPE
 70
     6
  9
$SPLINESEGS
 70
     8
  9
$HANDSEED
  5
2042
  9
$SURFTAB1
 70
     6
  9
$SURFTAB2
 70
     6
  9
$SURFTYPE
 70
     6
  9
$SURFU
 70
     6
  9
$SURFV
 70
     6
  9
$UCSBASE
  2

  9
$UCSNAME
  2

  9
$UCSORG
 10
0.0
 20
0.0
 30
0.0
  9
$UCSXDIR
 10
1.0
 20
0.0
 30
0.0
  9
$UCSYDIR
 10
0.0
 20
1.0
 30
0.0
  9
$UCSORTHOREF
  2

  9
$UCSORTHOVIEW
 70
     0
  9
$UCSORGTOP
 10
0.0
 20
0.0
 30
0.0
  9
$UCSORGBOTTOM
 10
0.0
 20
0.0
 30
0.0
  9
$UCSORGLEFT
 10
0.0
 20
0.0
 30
0.0
  9
$UCSORGRIGHT
 10
0.0
 20
0.0
 30
0.0
  9
$UCSORGFRONT
 10
0.0
 20
0.0
 30
0.0
  9
$UCSORGBACK
 10
0.0
 20
0.0
 30
0.0
  9
$PUCSBASE
  2

  9
$PUCSNAME
  2

  9
$PUCSORG
 10
0.0
 20
0.0
 30
0.0
  9
$PUCSXDIR
 10
1.0
 20
0.0
 30
0.0
  9
$PUCSYDIR
 10
0.0
 20
1.0
 30
0.0
  9
$PUCSORTHOREF
  2

  9
$PUCSORTHOVIEW
 70
     0
  9
$PUCSORGTOP
 10
0.0
 20
0.0
 30
0.0
  9
$PUCSORGBOTTOM
 10
0.0
 20
0.0
 30
0.0
  9
$PUCSORGLEFT
 10
0.0
 20
0.0
 30
0.0
  9
$PUCSORGRIGHT
 10
0.0
 20
0.0
 30
0.0
  9
$PUCSORGFRONT
 10
0.0
 20
0.0
 30
0.0
  9
$PUCSORGBACK
 10
0.0
 20
0.0
 30
0.0
  9
$USERI1
 70
     0
  9
$USERI2
 70
     0
  9
$USERI3
 70
     0
  9
$USERI4
 70
     0
  9
$USERI5
 70
     0
  9
$USERR1
 40
0.0
  9
$USERR2
 40
0.0
  9
$USERR3
 40
0.0
  9
$USERR4
 40
0.0
  9
$USERR5
 40
0.0
  9
$WORLDVIEW
 70
     1
  9
$SHADEDGE
 70
     3
  9
$SHADEDIF
 70
    70
  9
$TILEMODE
 70
     1
  9
$MAXACTVP
 70
    16
  9
$PINSBASE
 10
0.0
 20
0.0
 30
0.0
  9
$PLIMCHECK
 70
     0
  9
$PEXTMIN
 10
1.000000000000000E+20
 20
1.000000000000000E+20
 30
1.000000000000000E+20
  9
$PEXTMAX
 10
-1.000000000000000E+20
 20
-1.000000000000000E+20
 30
-1.000000000000000E+20
  9
$PLIMMIN
 10
0.0
 20
0.0
  9
$PLIMMAX
 10
12.0
 20
9.0
  9
$UNITMODE
 70
     0
  9
$VISRETAIN
 70
     0
  9
$PLINEGEN
 70
     0
  9
$PSLTSCALE
 70
     0
  9
$TREEDEPTH
 70
  3020
  9
$CMLSTYLE
  2
STANDARD
  9
$CMLJUST
 70
     0
  9
$CMLSCALE
 40
1.0
  9
$PROXYGRAPHICS
 70
     1
  9
$MEASUREMENT
 70
     0
  9
$CELWEIGHT
370
    -1
  9
$ENDCAPS
280
     0
  9
$JOINSTYLE
280
     0
  9
$LWDISPLAY
290
     0
  9
$INSUNITS
 70
     0
  9
$HYPERLINKBASE
  1

  9
$STYLESHEET
  1

  9
$XEDIT
290
     1
  9
$CEPSNTYPE
380
     0
  9
$PSTYLEMODE
290
     1
  9
$FINGERPRINTGUID
  2
{44082B7C-C9DC-4B17-A477-44FE47AA08EB}
  9
$VERSIONGUID
  2
{A69ABF77-1C47-45C7-9429-6751F63D50B8}
  9
$EXTNAMES
290
     1
  9
$PSVPSCALE
 40
0.0
  9
$OLESTARTUP
290
     0
  0
ENDSEC
  0
SECTION
  2
CLASSES
  0
CLASS
  1
DICTIONARYVAR
  2
AcDbDictionaryVar
  3
AutoCAD 2000
 90
        0
280
     0
281
     0
  0
CLASS
  1
LWPOLYLINE
  2
AcDbPolyline
  3
AutoCAD 2000
 90
        0
280
     0
281
     1
  0
CLASS
  1
ACDBDICTIONARYWDFLT
  2
AcDbDictionaryWithDefault
  3
AutoCAD 2000
 90
        0
280
     0
281
     0
  0
CLASS
  1
ACDBPLACEHOLDER
  2
AcDbPlaceHolder
  3
ObjectDBX Classes
 90
        0
280
     0
281
     0
  0
CLASS
  1
LAYOUT
  2
AcDbLayout
  3
ObjectDBX Classes
 90
        0
280
     0
281
     0
  0
CLASS
  1
LONG_TRANSACTION
  2
AcDbLongTransaction
  3
ObjectDBX Classes
 90
   -65536
280
     1
281
     0
  0
CLASS
  1
LWPOLYLINE
  2
AcDbPolyline
  3
AutoCAD 2000
 90
        0
280
     0
281
     1
  0
CLASS
  1
HATCH
  2
AcDbHatch
  3
AutoCAD 2000
 90
        0
280
     0
281
     1
  0
CLASS
  1
XRECORD
  2
AcDbXrecord
  3
AutoCAD 2000
 90
        0
280
     0
281
     0
  0
CLASS
  1
LONG_TRANSACTION
  2
AcDbLongTransaction
  3
ObjectDBX Classes
 90
   -65536
280
     1
281
     0
  0
CLASS
  1
LWPOLYLINE
  2
AcDbPolyline
  3
AutoCAD 2000
 90
        0
280
     0
281
     1
  0
CLASS
  1
HATCH
  2
AcDbHatch
  3
AutoCAD 2000
 90
        0
280
     0
281
     1
  0
CLASS
  1
XRECORD
  2
AcDbXrecord
  3
AutoCAD 2000
 90
        0
280
     0
281
     0
  0
CLASS
  1
LONG_TRANSACTION
  2
AcDbLongTransaction
  3
ObjectDBX Classes
 90
   -65536
280
     1
281
     0
  0
CLASS
  1
LWPOLYLINE
  2
AcDbPolyline
  3
AutoCAD 2000
 90
        0
280
     0
281
     1
  0
CLASS
  1
HATCH
  2
AcDbHatch
  3
AutoCAD 2000
 90
        0
280
     0
281
     1
  0
CLASS
  1
XRECORD
  2
AcDbXrecord
  3
AutoCAD 2000
 90
        0
280
     0
281
     0
  0
CLASS
  1
SORTENTSTABLE
  2
AcDbSortentsTable
  3
AutoCAD 2000
 90
        0
280
     0
281
     0
  0
CLASS
  1
TABLESTYLE
  2
AcDbTableStyle
  3
ObjectDBX Classes
 90
     2047
280
     1
281
     0
  0
ENDSEC
  0
SECTION
  2
TABLES
  0
TABLE
  2
VPORT
  5
4FB
330
0
100
AcDbSymbolTable
 70
     2
  0
VPORT
  5
2032
330
4FB
100
AcDbSymbolTableRecord
100
AcDbViewportTableRecord
  2
*Active
 70
     0
 10
0.0
 20
0.0
 11
1.0
 21
1.0
 12
15.75
 22
12.0
 13
0.0
 23
0.0
 14
0.0625
 24
0.0625
 15
0.5
 25
0.5
 16
0.0
 26
0.0
 36
1.0
 17
0.0
 27
0.0
 37
0.0
 40
24.2993762993763
 41
1.814583333333333
 42
50.0
 43
0.0
 44
0.0
 50
0.0
 51
0.0
 71
     0
 72
   100
 73
     1
 74
     0
 75
     0
 76
     0
 77
     0
 78
     0
281
     0
 65
     1
110
0.0
120
0.0
130
0.0
111
1.0
121
0.0
131
0.0
112
0.0
122
1.0
132
0.0
 79
     0
146
0.0
  0
ENDTAB
  0
TABLE
  2
LTYPE
  5
4F8
330
0
100
AcDbSymbolTable
 70
     3
  0
LTYPE
  5
504
330
4F8
100
AcDbSymbolTableRecord
100
AcDbLinetypeTableRecord
  2
BYBLOCK
 70
     0
  3

 72
    65
 73
     0
 40
0.0
  0
LTYPE
  5
505
330
4F8
100
AcDbSymbolTableRecord
100
AcDbLinetypeTableRecord
  2
BYLAYER
 70
     0
  3

 72
    65
 73
     0
 40
0.0
  0
LTYPE
  5
506
330
4F8
100
AcDbSymbolTableRecord
100
AcDbLinetypeTableRecord
  2
CONTINUOUS
 70
     0
  3
Solid line
 72
    65
 73
     0
 40
0.0
  0
LTYPE
  5
533
330
4F8
100
AcDbSymbolTableRecord
100
AcDbLinetypeTableRecord
  2
HIDDEN
 70
     0
  3
__ __ __ __ __ __ __ __ __ __ __ __ __ __ __ __
 72
    65
 73
     2
 40
0.375
 49
0.25
 74
     0
 49
-0.125
 74
     0
  0
ENDTAB
  0
TABLE
  2
LAYER
  5
4F5
330
0
100
AcDbSymbolTable
 70
     3
  0
LAYER
  5
501
330
4F5
100
AcDbSymbolTableRecord
100
AcDbLayerTableRecord
  2
0
 70
     0
 62
     7
  6
CONTINUOUS
370
    -3
390
626
  0
ENDTAB
  0
TABLE
  2
STYLE
  5
4F6
330
0
100
AcDbSymbolTable
 70
     1
  0
STYLE
  5
502
330
4F6
100
AcDbSymbolTableRecord
100
AcDbTextStyleTableRecord
  2
STANDARD
 70
     0
 40
0.0
 41
1.0
 50
0.0
 71
     0
 42
0.27
  3
TXT
  4

  0
ENDTAB
  0
TABLE
  2
VIEW
  5
4F9
330
0
100
AcDbSymbolTable
 70
     4
  0
VIEW
  5
537
330
4F9
100
AcDbSymbolTableRecord
100
AcDbViewTableRecord
  2
PLOTTER
 70
     0
 40
23.625
 10
17.01330184198921
 20
11.8125
 41
1.0
 11
0.0
 21
0.0
 31
1.0
 12
0.0
 22
0.0
 32
0.0
 42
50.0
 43
0.0
 44
0.0
 50
0.0
 71
     0
281
     0
 72
     0
  0
VIEW
  5
538
330
4F9
100
AcDbSymbolTableRecord
100
AcDbViewTableRecord
  2
UPPER
 70
     0
 40
10.92682926829268
 10
12.68329970046198
 20
16.68292682926829
 41
1.0
 11
0.0
 21
0.0
 31
1.0
 12
0.0
 22
0.0
 32
0.0
 42
50.0
 43
0.0
 44
0.0
 50
0.0
 71
     0
281
     0
 72
     0
  0
VIEW
  5
539
330
4F9
100
AcDbSymbolTableRecord
100
AcDbViewTableRecord
  2
LEFT
 70
     0
 40
5.446009389671362
 10
10.90014360505218
 20
8.479102255811291
 41
1.0
 11
0.0
 21
0.0
 31
1.0
 12
0.0
 22
0.0
 32
0.0
 42
50.0
 43
0.0
 44
0.0
 50
0.0
 71
     0
281
     0
 72
     0
  0
VIEW
  5
53A
330
4F9
100
AcDbSymbolTableRecord
100
AcDbViewTableRecord
  2
RIGHT
 70
     0
 40
10.21596244131455
 10
22.88218731978697
 20
10.27871292797435
 41
1.0
 11
0.0
 21
0.0
 31
1.0
 12
0.0
 22
0.0
 32
0.0
 42
50.0
 43
0.0
 44
0.0
 50
0.0
 71
     0
281
     0
 72
     0
  0
ENDTAB
  0
TABLE
  2
UCS
  5
4FA
330
0
100
AcDbSymbolTable
 70
     0
  0
ENDTAB
  0
TABLE
  2
APPID
  5
4FC
330
0
100
AcDbSymbolTable
 70
     5
  0
APPID
  5
503
330
4FC
100
AcDbSymbolTableRecord
100
AcDbRegAppTableRecord
  2
ACAD
 70
     0
  0
APPID
  5
7C1
330
4FC
100
AcDbSymbolTableRecord
100
AcDbRegAppTableRecord
  2
DCO15
 70
     0
  0
APPID
  5
851
330
4FC
100
AcDbSymbolTableRecord
100
AcDbRegAppTableRecord
  2
AcAecLayerStandard
 70
     0
  0
APPID
  5
852
330
4FC
100
AcDbSymbolTableRecord
100
AcDbRegAppTableRecord
  2
ACAD_PSEXT
 70
     0
  0
APPID
  5
1290
330
4FC
100
AcDbSymbolTableRecord
100
AcDbRegAppTableRecord
  2
RAK
 70
     0
  0
ENDTAB
  0
TABLE
  2
DIMSTYLE
  5
4FD
330
0
100
AcDbSymbolTable
 70
     1
100
AcDbDimStyleTable
  0
DIMSTYLE
105
558
330
4FD
100
AcDbSymbolTableRecord
100
AcDbDimStyleTableRecord
  2
STANDARD
 70
     0
  3

  4

340
502
  0
ENDTAB
  0
TABLE
  2
BLOCK_RECORD
  5
4F4
330
0
100
AcDbSymbolTable
 70
     0
  0
BLOCK_RECORD
  5
50A
330
4F4
100
AcDbSymbolTableRecord
100
AcDbBlockTableRecord
  2
*MODEL_SPACE
340
629
  0
BLOCK_RECORD
  5
507
330
4F4
100
AcDbSymbolTableRecord
100
AcDbBlockTableRecord
  2
*PAPER_SPACE
340
62A
  0
ENDTAB
  0
ENDSEC
  0
SECTION
  2
BLOCKS
  0
BLOCK
  5
550
330
50A
100
AcDbEntity
  8
0
100
AcDbBlockBegin
  2
*MODEL_SPACE
 70
     0
 10
0.0
 20
0.0
 30
0.0
  3
*MODEL_SPACE
  1

  4

  0
ENDBLK
  5
551
330
50A
100
AcDbEntity
  8
0
100
AcDbBlockEnd
  0
BLOCK
  5
54E
330
507
100
AcDbEntity
 67
     1
  8
0
100
AcDbBlockBegin
  2
*PAPER_SPACE
 70
     0
 10
0.0
 20
0.0
 30
0.0
  3
*PAPER_SPACE
  1

  4

  0
ENDBLK
  5
54F
330
507
100
AcDbEntity
 67
     1
  8
0
100
AcDbBlockEnd
  0
ENDSEC
  0
SECTION
  2
ENTITIES
  0
TEXT
  5
CE
330
50A
100
AcDbEntity
  8
0
100
AcDbText
 10
9.860040913637929
 20
20.93053558724526
 30
0.0
 40
0.27
  1
   
 11
9.860040913637929
 21
21.06553558724526
 31
0.0
100
AcDbText
 73
     2
  0
TEXT
  5
EC
330
50A
100
AcDbEntity
  8
0
100
AcDbText
 10
26.00773490355874
 20
4.47821562795092
 30
0.0
 40
0.2565
  1

100
AcDbText
  0
LINE
  5
1FC0
330
50A
100
AcDbEntity
  8
0
100
AcDbLine
 10
4.499944684166827
 20
14.76588978470905
 30
0.0
 11
6.934294684166844
 21
14.76478717126717
 31
0.0
  0
LINE
  5
1FC1
330
50A
100
AcDbEntity
  8
0
100
AcDbLine
 10
4.499944684166827
 20
14.56275753751271
 30
0.0
 11
6.934294684166844
 21
14.55885853470905
 31
0.0
  0
LINE
  5
1FC2
330
50A
100
AcDbEntity
  8
0
100
AcDbLine
 10
4.499944684166827
 20
14.76588978470905
 30
0.0
 11
4.499944684166827
 21
14.56283978470906
 31
0.0
  0
LINE
  5
1FC3
330
50A
100
AcDbEntity
  8
0
100
AcDbLine
 10
4.945544684164958
 20
14.56208383621324
 30
0.0
 11
4.945544684164958
 21
14.76588978470905
 31
0.0
  0
LINE
  5
1FC4
330
50A
100
AcDbEntity
  8
0
100
AcDbLine
 10
12.96864468416683
 20
14.56275753751271
 30
0.0
 11
10.53429468416681
 21
14.55885853470905
 31
0.0
  0
LINE
  5
1FC5
330
50A
100
AcDbEntity
  8
0
100
AcDbLine
 10
12.96864468416683
 20
14.76588978470905
 30
0.0
 11
10.53429468416681
 21
14.76478717126717
 31
0.0
  0
LINE
  5
1FC6
330
50A
100
AcDbEntity
  8
0
100
AcDbLine
 10
7.35961192215359
 20
14.46674439917844
 30
0.0
 11
7.359309268250147
 21
10.95510624839832
 31
0.0
  0
LINE
  5
1FC7
330
50A
100
AcDbEntity
  8
0
100
AcDbLine
 10
10.10929468416685
 20
14.45338978470905
 30
0.0
 11
10.10929468416686
 21
10.95512083248168
 31
0.0
  0
LINE
  5
1FC8
330
50A
100
AcDbEntity
  8
0
100
AcDbLine
 10
7.184294684166847
 20
11.13012083248162
 30
0.0
 11
7.184294684166844
 21
14.30885853470905
 31
0.0
  0
LINE
  5
1FC9
330
50A
100
AcDbEntity
  8
0
100
AcDbLine
 10
10.28429468416681
 20
11.13012083248163
 30
0.0
 11
10.28429468416681
 21
14.30885853470905
 31
0.0
  0
LWPOLYLINE
  5
1FCA
330
50A
100
AcDbEntity
  8
0
100
AcDbPolyline
 90
       10
 70
     0
 43
0.0
 10
10.09105494002387
 20
12.29622775919314
 10
10.09082852032388
 20
12.25744819519314
 10
10.08990598272388
 20
12.22121038039314
 10
10.08758848192388
 20
12.18821479529314
 10
10.08295067642388
 20
12.15858587289314
 10
10.07507613062388
 20
12.13339615989315
 10
10.06323090292388
 20
12.11340469849314
 10
10.04647928252388
 20
12.09867400459314
 10
10.02431022152388
 20
12.08969827469315
 10
9.996939659223877
 20
12.08673489419314
  0
LWPOLYLINE
  5
1FCB
330
50A
100
AcDbEntity
  8
0
100
AcDbPolyline
 90
       11
 70
     0
 43
0.0
 10
10.09107081352388
 20
12.33574633229314
 10
10.09105494002387
 20
12.25572062419314
 10
10.09082852032388
 20
12.17816149609314
 10
10.08990598272388
 20
12.10568586649314
 10
10.08758848192388
 20
12.03969469649314
 10
10.08295067642388
 20
11.98043685159314
 10
10.07507613062388
 20
11.93005742559314
 10
10.06323090292388
 20
11.89007450279314
 10
10.04647928252388
 20
11.86061311489315
 10
10.02431022152388
 20
11.84266165519314
 10
9.996939659223877
 20
11.83673489419314
  0
LWPOLYLINE
  5
1FCC
330
50A
100
AcDbEntity
  8
0
100
AcDbPolyline
 90
       10
 70
     0
 43
0.0
 10
7.471451967823896
 20
12.08673489419314
 10
7.444081405023894
 20
12.08969827479314
 10
7.421912343723896
 20
12.09867400499314
 10
7.405160723323888
 20
12.11340469949314
 10
7.393315495723897
 20
12.13339616159314
 10
7.385440950123893
 20
12.15858587549315
 10
7.380803144823894
 20
12.18821479889314
 10
7.378485644223893
 20
12.22121038489314
 10
7.377563106623896
 20
12.25744820079314
 10
7.377336687023892
 20
12.29622776589314
  0
LWPOLYLINE
  5
1FCD
330
50A
100
AcDbEntity
  8
0
100
AcDbPolyline
 90
       11
 70
     0
 43
0.0
 10
7.471451967823896
 20
11.83673489419314
 10
7.444081405023894
 20
11.84266165539314
 10
7.421912343723896
 20
11.86061311579314
 10
7.405160723323888
 20
11.89007450479314
 10
7.393315495723897
 20
11.93005742899314
 10
7.385440950123893
 20
11.98043685679314
 10
7.380803144823894
 20
12.03969470349314
 10
7.378485644223893
 20
12.10568587559314
 10
7.377563106623896
 20
12.17816150739315
 10
7.377336687023892
 20
12.25572063749314
 10
7.377320813523895
 20
12.33574634729314
  0
LINE
  5
1FCE
330
50A
100
AcDbEntity
  8
0
  6
HIDDEN
100
AcDbLine
 10
9.62054468416685
 20
12.53588978471085
 30
0.0
 11
7.848044684166842
 21
12.53588978471085
 31
0.0
  0
LINE
  5
1FCF
330
50A
100
AcDbEntity
  8
0
  6
HIDDEN
100
AcDbLine
 10
9.620544684166879
 20
13.22338978471086
 30
0.0
 11
7.848044684166842
 21
13.22338978471086
 31
0.0
  0
LINE
  5
1FD0
330
50A
100
AcDbEntity
  8
0
  6
Continuous
100
AcDbLine
 10
7.640544684166805
 20
14.73463978470906
 30
0.0
 11
9.828044684166848
 21
14.73463978470905
 31
0.0
  0
LINE
  5
1FD1
330
50A
100
AcDbEntity
  8
0
100
AcDbLine
 10
7.515826967823927
 20
13.83673489419314
 30
0.0
 11
9.952564659223921
 21
13.83673489419314
 31
0.0
  0
LINE
  5
1FD2
330
50A
100
AcDbEntity
  8
0
  6
HIDDEN
100
AcDbLine
 10
7.515826967823927
 20
13.58673489419314
 30
0.0
 11
9.952564659223921
 21
13.58673489419314
 31
0.0
  0
CIRCLE
  5
1FD3
330
50A
100
AcDbEntity
  8
0
  6
HIDDEN
100
AcDbCircle
 10
7.862548317826331
 20
14.25963978471085
 30
0.0
 40
0.1875
  0
CIRCLE
  5
1FD4
330
50A
100
AcDbEntity
  8
0
  6
HIDDEN
100
AcDbCircle
 10
7.862548317826331
 20
14.25963978471085
 30
0.0
 40
0.34375
  0
ARC
  5
1FD5
330
50A
100
AcDbEntity
  8
0
100
AcDbCircle
 10
6.934294684166844
 20
14.30885853470905
 30
0.0
 40
0.25
100
AcDbArc
 50
0.0
 51
90.00000000000003
  0
ARC
  5
1FD6
330
50A
100
AcDbEntity
  8
0
100
AcDbCircle
 10
6.902567064608869
 20
14.30885853470905
 30
0.0
 40
0.45703125
100
AcDbArc
 50
0.0
 51
86.01926126028694
  0
ARC
  5
1FD7
330
50A
100
AcDbEntity
  8
0
  6
Continuous
100
AcDbCircle
 10
7.640544684166805
 20
14.45338978470905
 30
0.0
 40
0.28125
100
AcDbArc
 50
90.00000000000003
 51
180.0
  0
ARC
  5
1FD8
330
50A
100
AcDbEntity
  8
0
  6
HIDDEN
100
AcDbCircle
 10
7.848044684166844
 20
12.87963978471085
 30
0.0
 40
0.34375
100
AcDbArc
 50
90.00000000000003
 51
270.0
  0
LINE
  5
1FD9
330
50A
100
AcDbEntity
  8
0
100
AcDbLine
 10
7.377320813523895
 20
13.17173483739315
 30
0.0
 11
7.377320813523895
 21
13.33673489419314
 31
0.0
  0
LWPOLYLINE
  5
1FDA
330
50A
100
AcDbEntity
  8
0
100
AcDbPolyline
 90
       11
 70
     0
 43
0.0
 10
7.377320813523895
 20
13.33772353389314
 10
7.377336687123894
 20
13.41774923299314
 10
7.377563107023896
 20
13.49530835039314
 10
7.378485645423893
 20
13.56778396879314
 10
7.380803147123892
 20
13.63377512839314
 10
7.385440953623892
 20
13.69303296339314
 10
7.393315500223892
 20
13.74341238029314
 10
7.405160728223891
 20
13.78339529569314
 10
7.421912348223891
 20
13.81285667809314
 10
7.444081407923889
 20
13.83080813439314
 10
7.471451967823896
 20
13.83673489419314
  0
LWPOLYLINE
  5
1FDB
330
50A
100
AcDbEntity
  8
0
100
AcDbPolyline
 90
       10
 70
     0
 43
0.0
 10
7.377336687123894
 20
13.37724206359314
 10
7.377563107023896
 20
13.41602162229314
 10
7.378485645423893
 20
13.45225943149314
 10
7.380803147123892
 20
13.48525501129314
 10
7.385440953623892
 20
13.51488392879314
 10
7.393315500223892
 20
13.54007363729314
 10
7.405160728223891
 20
13.56006509499314
 10
7.421912348223891
 20
13.57479578619314
 10
7.444081407923889
 20
13.58377151429314
 10
7.471451967823896
 20
13.58673489419314
  0
LINE
  5
1FDC
330
50A
100
AcDbEntity
  8
0
100
AcDbLine
 10
7.377320618323893
 20
13.33673489419314
 30
0.0
 11
7.377321010523893
 21
13.33772353379314
 31
0.0
  0
LINE
  5
1FDD
330
50A
100
AcDbEntity
  8
0
100
AcDbLine
 10
7.447320911973897
 20
12.51735983739315
 30
0.0
 11
7.447320911973897
 21
13.15610983739315
 31
0.0
  0
ARC
  5
1FDE
330
50A
100
AcDbEntity
  8
0
100
AcDbCircle
 10
7.431695911973897
 20
13.15610983739315
 30
0.0
 40
0.015625
100
AcDbArc
 50
359.9999999999998
 51
89.99999999999982
  0
LINE
  5
1FDF
330
50A
100
AcDbEntity
  8
0
100
AcDbLine
 10
7.431695911973897
 20
13.17173483739315
 30
0.0
 11
7.377320813523895
 21
13.17173483739315
 31
0.0
  0
ARC
  5
1FE0
330
50A
100
AcDbEntity
  8
0
100
AcDbCircle
 10
7.431695911973897
 20
12.51735983739315
 30
0.0
 40
0.015625
100
AcDbArc
 50
269.9999999999998
 51
359.9999999999998
  0
LINE
  5
1FE1
330
50A
100
AcDbEntity
  8
0
100
AcDbLine
 10
7.377320813523895
 20
12.33574634729314
 30
0.0
 11
7.377320813523895
 21
12.50173483739315
 31
0.0
  0
LINE
  5
1FE2
330
50A
100
AcDbEntity
  8
0
100
AcDbLine
 10
7.377320813523895
 20
12.50173483739315
 30
0.0
 11
7.431695911973897
 21
12.50173483739315
 31
0.0
  0
CIRCLE
  5
1FE3
330
50A
100
AcDbEntity
  8
0
  6
HIDDEN
100
AcDbCircle
 10
9.606041050507313
 20
14.25963978471085
 30
0.0
 40
0.1875
  0
CIRCLE
  5
1FE4
330
50A
100
AcDbEntity
  8
0
  6
HIDDEN
100
AcDbCircle
 10
9.606041050507313
 20
14.25963978471085
 30
0.0
 40
0.34375
  0
ARC
  5
1FE5
330
50A
100
AcDbEntity
  8
0
100
AcDbCircle
 10
10.56602230372478
 20
14.30885853470905
 30
0.0
 40
0.45703125
100
AcDbArc
 50
93.98073873971303
 51
180.0
  0
ARC
  5
1FE6
330
50A
100
AcDbEntity
  8
0
  6
Continuous
100
AcDbCircle
 10
9.828044684166848
 20
14.45338978470905
 30
0.0
 40
0.28125
100
AcDbArc
 50
0.0
 51
90.00000000000003
  0
ARC
  5
1FE7
330
50A
100
AcDbEntity
  8
0
100
AcDbCircle
 10
10.53429468416681
 20
14.30885853470905
 30
0.0
 40
0.25
100
AcDbArc
 50
90.00000000000003
 51
180.0
  0
CIRCLE
  5
1FE8
330
50A
100
AcDbEntity
  8
0
100
AcDbCircle
 10
8.7383400239609
 20
12.87963978471085
 30
0.0
 40
0.34375
  0
ARC
  5
1FE9
330
50A
100
AcDbEntity
  8
0
  6
HIDDEN
100
AcDbCircle
 10
9.620544684166852
 20
12.87963978471085
 30
0.0
 40
0.34375
100
AcDbArc
 50
270.0
 51
90.00000000000003
  0
LINE
  5
1FEA
330
50A
100
AcDbEntity
  8
0
100
AcDbLine
 10
10.09107081352388
 20
13.33772334249314
 30
0.0
 11
10.09107078090523
 21
13.17173483739314
 31
0.0
  0
LWPOLYLINE
  5
1FEB
330
50A
100
AcDbEntity
  8
0
100
AcDbPolyline
 90
       11
 70
     0
 43
0.0
 10
9.996939659223877
 20
13.83673489419314
 10
10.02431022502388
 20
13.83080813159314
 10
10.04647928802388
 20
13.81285666679314
 10
10.06323090892388
 20
13.78339527089314
 10
10.07507613612388
 20
13.74341233719315
 10
10.08295068072388
 20
13.69303289799314
 10
10.08758848472388
 20
13.63377503869314
 10
10.08990598412388
 20
13.56778385329314
 10
10.09082852092388
 20
13.49530820739314
 10
10.09105494002387
 20
13.41774906369314
 10
10.09107081352388
 20
13.33772334249314
  0
LWPOLYLINE
  5
1FEC
330
50A
100
AcDbEntity
  8
0
100
AcDbPolyline
 90
       10
 70
     0
 43
0.0
 10
9.996939659223877
 20
13.58673489419314
 10
10.02431022502388
 20
13.58377151289314
 10
10.04647928802388
 20
13.57479578049314
 10
10.06323090892388
 20
13.56006508249314
 10
10.07507613612388
 20
13.54007361569314
 10
10.08295068072388
 20
13.51488389609314
 10
10.08758848472388
 20
13.48525496649314
 10
10.08990598412388
 20
13.45225937379314
 10
10.09082852092388
 20
13.41602155079314
 10
10.09105494002387
 20
13.37724197899314
  0
LINE
  5
1FED
330
50A
100
AcDbEntity
  8
0
100
AcDbLine
 10
10.02107071507388
 20
12.51735983739314
 30
0.0
 11
10.02107071507388
 21
13.15610983739314
 31
0.0
  0
ARC
  5
1FEE
330
50A
100
AcDbEntity
  8
0
100
AcDbCircle
 10
10.03669571507388
 20
13.15610983739314
 30
0.0
 40
0.015625
100
AcDbArc
 50
90.00000000000003
 51
180.0
  0
LINE
  5
1FEF
330
50A
100
AcDbEntity
  8
0
100
AcDbLine
 10
10.03669571507388
 20
13.17173483739314
 30
0.0
 11
10.09107078090523
 21
13.17173483739314
 31
0.0
  0
LINE
  5
1FF0
330
50A
100
AcDbEntity
  8
0
100
AcDbLine
 10
10.09107064924253
 20
12.50173483739314
 30
0.0
 11
10.09107061662388
 21
12.33574633229314
 31
0.0
  0
ARC
  5
1FF1
330
50A
100
AcDbEntity
  8
0
100
AcDbCircle
 10
10.03669571507388
 20
12.51735983739314
 30
0.0
 40
0.015625
100
AcDbArc
 50
180.0
 51
270.0
  0
LINE
  5
1FF2
330
50A
100
AcDbEntity
  8
0
100
AcDbLine
 10
10.09107064924253
 20
12.50173483739314
 30
0.0
 11
10.03669571507388
 21
12.50173483739314
 31
0.0
  0
LINE
  5
1FF3
330
50A
100
AcDbEntity
  8
0
  6
Continuous
100
AcDbLine
 10
9.940063636396044
 20
10.78588978471086
 30
0.0
 11
7.528525731937609
 21
10.78588978471086
 31
0.0
  0
LINE
  5
1FF4
330
50A
100
AcDbEntity
  8
0
  6
HIDDEN
100
AcDbLine
 10
7.502141686423926
 20
12.08821658449314
 30
0.0
 11
9.952564659223921
 21
12.08673489419314
 31
0.0
  0
LINE
  5
1FF5
330
50A
100
AcDbEntity
  8
0
100
AcDbLine
 10
7.515826967823927
 20
11.83673489419314
 30
0.0
 11
9.952564659223921
 21
11.83673489419314
 31
0.0
  0
CIRCLE
  5
1FF6
330
50A
100
AcDbEntity
  8
0
  6
HIDDEN
100
AcDbCircle
 10
7.862548317826331
 20
11.49963978471085
 30
0.0
 40
0.1875
  0
CIRCLE
  5
1FF7
330
50A
100
AcDbEntity
  8
0
  6
HIDDEN
100
AcDbCircle
 10
7.862548317826331
 20
11.49963978471085
 30
0.0
 40
0.34375
  0
LINE
  5
1FF8
330
50A
100
AcDbEntity
  8
0
100
AcDbLine
 10
7.184294684166845
 20
11.13012083248162
 30
0.0
 11
7.528525731937624
 21
10.78588978471085
 31
0.0
  0
CIRCLE
  5
1FF9
330
50A
100
AcDbEntity
  8
0
  6
HIDDEN
100
AcDbCircle
 10
9.606041050507313
 20
11.49963978471085
 30
0.0
 40
0.1875
  0
CIRCLE
  5
1FFA
330
50A
100
AcDbEntity
  8
0
  6
HIDDEN
100
AcDbCircle
 10
9.606041050507313
 20
11.49963978471085
 30
0.0
 40
0.34375
  0
LINE
  5
1FFB
330
50A
100
AcDbEntity
  8
0
100
AcDbLine
 10
10.28429468416681
 20
11.13012083248162
 30
0.0
 11
9.94006363639603
 21
10.78588978471085
 31
0.0
  0
LINE
  5
1FFC
330
50A
100
AcDbEntity
  8
0
100
AcDbLine
 10
12.5230446841687
 20
14.56208383621324
 30
0.0
 11
12.5230446841687
 21
14.76588978470905
 31
0.0
  0
LINE
  5
1FFD
330
50A
100
AcDbEntity
  8
0
100
AcDbLine
 10
12.96864468416683
 20
14.76588978470905
 30
0.0
 11
12.96864468416683
 21
14.56283978470906
 31
0.0
  0
ENDSEC
  0
SECTION
  2
OBJECTS
  0
DICTIONARY
  5
4FF
330
0
100
AcDbDictionary
281
     1
  3
ACAD_COLOR
350
202D
  3
ACAD_GROUP
350
500
  3
ACAD_LAYOUT
350
627
  3
ACAD_MATERIAL
350
202C
  3
ACAD_MLINESTYLE
350
50D
  3
ACAD_PLOTSETTINGS
350
628
  3
ACAD_PLOTSTYLENAME
350
625
  3
ACAD_TABLESTYLE
350
202E
  3
ACDBHEADERROUNDTRIPXREC
350
203B
  3
ACDBVARIABLEDICTIONARY
350
552
  3
ASE_INDEX_DICTIONARY
350
1E42
  0
DICTIONARY
  5
202D
102
{ACAD_REACTORS
330
4FF
102
}
330
4FF
100
AcDbDictionary
281
     1
  0
DICTIONARY
  5
500
102
{ACAD_REACTORS
330
4FF
102
}
330
4FF
100
AcDbDictionary
281
     1
  0
DICTIONARY
  5
627
102
{ACAD_REACTORS
330
4FF
102
}
330
4FF
100
AcDbDictionary
281
     1
  3
Layout1
350
62A
  3
Model
350
629
  0
DICTIONARY
  5
202C
102
{ACAD_REACTORS
330
4FF
102
}
330
4FF
100
AcDbDictionary
281
     1
  0
DICTIONARY
  5
50D
102
{ACAD_REACTORS
330
4FF
102
}
330
4FF
100
AcDbDictionary
281
     1
  3
STANDARD
350
50E
  0
DICTIONARY
  5
628
102
{ACAD_REACTORS
330
4FF
102
}
330
4FF
100
AcDbDictionary
281
     1
  0
ACDBDICTIONARYWDFLT
  5
625
102
{ACAD_REACTORS
330
4FF
102
}
330
4FF
100
AcDbDictionary
281
     1
  3
Normal
350
626
100
AcDbDictionaryWithDefault
340
626
  0
DICTIONARY
  5
202E
102
{ACAD_REACTORS
330
4FF
102
}
330
4FF
100
AcDbDictionary
281
     1
  3
Standard
350
202F
  0
DICTIONARY
  5
203B
102
{ACAD_REACTORS
330
4FF
102
}
330
4FF
100
AcDbDictionary
281
     1
  3
COLORDICT
350
203C
  3
MATERIALDICT
350
203D
  0
DICTIONARY
  5
552
102
{ACAD_REACTORS
330
4FF
102
}
330
4FF
100
AcDbDictionary
281
     1
  3
CTABLESTYLE
350
2038
  3
DIMADEC
350
553
  0
DICTIONARY
  5
1E42
102
{ACAD_REACTORS
330
4FF
102
}
330
4FF
100
AcDbDictionary
281
     1
  3
ASEBlockHierarchyIndexRecord
350
1E43
1001
DCO15
1040
1583223876.328
  0
LAYOUT
  5
62A
102
{ACAD_REACTORS
330
627
102
}
102
{ACAD_XDICTIONARY
360
203E
102
}
330
627
100
AcDbPlotSettings
  1

  2
C:\ACAD2000\plotters\HP LaserJet 2100 Series PS.pc3
  4

  6

 40
0.0
 41
0.0
 42
0.0
 43
0.0
 44
0.0
 45
0.0
 46
0.0
 47
0.0
 48
0.0
 49
0.0
140
0.0
141
0.0
142
1.0
143
1.0
 70
   688
 72
     0
 73
     0
 74
     5
  7

 75
    16
147
1.0
148
0.0
149
0.0
100
AcDbLayout
  1
Layout1
 70
     0
 71
     1
 10
0.0
 20
0.0
 11
12.0
 21
9.0
 12
0.0
 22
0.0
 32
0.0
 14
1.000000000000000E+20
 24
1.000000000000000E+20
 34
1.000000000000000E+20
 15
-1.000000000000000E+20
 25
-1.000000000000000E+20
 35
-1.000000000000000E+20
146
0.0
 13
0.0
 23
0.0
 33
0.0
 16
1.0
 26
0.0
 36
0.0
 17
0.0
 27
1.0
 37
0.0
 76
     0
330
507
  0
LAYOUT
  5
629
102
{ACAD_REACTORS
330
627
102
}
102
{ACAD_XDICTIONARY
360
2040
102
}
330
627
100
AcDbPlotSettings
  1

  2
HP LaserJet 2100 Series PS
  4
Letter
  6
PLOTTER
 40
5.365749835968018
 41
5.365735054016113
 42
3.175003051757813
 43
3.17498779296875
 44
210.4813232421875
 45
273.9813232421875
 46
0.0
 47
0.254
 48
0.0
 49
0.0
140
0.0
141
0.0
142
1.0
143
3.0187099052458
 70
 28340
 72
     0
 73
     1
 74
     2
  7

 75
     0
147
0.3312673398203112
148
0.0
149
0.0
100
AcDbLayout
  1
Model
 70
     1
 71
     0
 10
0.0
 20
0.0
 11
12.0
 21
9.0
 12
0.0
 22
0.0
 32
0.0
 14
0.0
 24
0.0
 34
0.0
 15
0.0
 25
0.0
 35
0.0
146
0.0
 13
0.0
 23
0.0
 33
0.0
 16
1.0
 26
0.0
 36
0.0
 17
0.0
 27
1.0
 37
0.0
 76
     0
330
50A
  0
MLINESTYLE
  5
50E
102
{ACAD_REACTORS
330
50D
102
}
330
50D
100
AcDbMlineStyle
  2
STANDARD
 70
     0
  3

 62
   256
 51
90.0
 52
90.0
 71
     2
 49
0.5
 62
   256
  6
BYLAYER
 49
-0.5
 62
   256
  6
BYLAYER
  0
ACDBPLACEHOLDER
  5
626
102
{ACAD_REACTORS
330
625
102
}
330
625
  0
ACAD_PROXY_OBJECT
  5
202F
102
{ACAD_REACTORS
330
202E
102
}
330
202E
100
AcDbProxyObject
 90
      499
 91
      518
 95
   983063
 70
     0
 93
     1841
310
4214DD185B99185C9928B81E85EB51B8AE3F2E07A17AD46E2B8FC02B5E8DC0F42B1CFD028000000C1008070000C3001FDFF8000000C1003FBFF000000182007F7FE00000030400FEFFC00000060801FDFF8000000C1003FBFF00000018200000000000000681FA0B0000001820100E000186003FBFF000000182007F7FE000
310
00030400FEFFC00000060801FDFF8000000C1003FBFF000000182007F7FE000000304000AD7A3703D0AC73F4160000003040201C00030C007F7FE00000030400FEFFC00000060801FDFF8000000C1003FBFF000000182007F7FE00000030400FEFFC000000608000
340
502
340
502
340
502
 94
        0
  0
XRECORD
  5
203C
102
{ACAD_REACTORS
330
203B
102
}
330
203B
100
AcDbXrecord
340
202D
  0
XRECORD
  5
203D
102
{ACAD_REACTORS
330
203B
102
}
330
203B
100
AcDbXrecord
340
202C
  0
DICTIONARYVAR
  5
2038
102
{ACAD_REACTORS
330
552
102
}
330
552
100
DictionaryVariables
280
     0
  1
STANDARD
  0
DICTIONARYVAR
  5
553
102
{ACAD_REACTORS
330
552
102
}
330
552
100
DictionaryVariables
280
     0
  1
0
  0
XRECORD
  5
1E43
102
{ACAD_REACTORS
330
1E42
102
}
330
1E42
100
AcDbXrecord
280
     1
330
0
330
0
330
0
330
0
330
0
330
0
  0
DICTIONARY
  5
203E
330
62A
100
AcDbDictionary
280
     1
281
     1
  3
ACAD_XREC_ROUNDTRIP
360
203F
  0
DICTIONARY
  5
2040
330
629
100
AcDbDictionary
280
     1
281
     1
  3
ACAD_XREC_ROUNDTRIP
360
2041
  0
XRECORD
  5
203F
102
{ACAD_REACTORS
330
203E
102
}
330
203E
100
AcDbXrecord
102
SHADEPLOT
 70
     0
102
SHADEPLOTRESLEVEL
 70
     2
102
SHADEPLOTCUSTOMDPI
 70
   300
  0
XRECORD
  5
2041
102
{ACAD_REACTORS
330
2040
102
}
330
2040
100
AcDbXrecord
102
SHADEPLOT
 70
     0
102
SHADEPLOTRESLEVEL
 70
     2
102
SHADEPLOTCUSTOMDPI
 70
   300
  0
ENDSEC
  0
EOF
