  0
SECTION
  2
HEADER
  9
$ACADVER
  1
AC1015
  9
$ACADMAINTVER
 70
     6
  9
$DWGCODEPAGE
  3
ANSI_1252
  9
$INSBASE
 10
0.0
 20
0.0
 30
0.0
  9
$EXTMIN
 10
-4.337473908909253
 20
2.507376352117299
 30
0.0
  9
$EXTMAX
 10
21.93106327724293
 20
14.84857359464758
 30
0.0
  9
$LIMMIN
 10
0.0
 20
0.0
  9
$LIMMAX
 10
31.5
 20
24.0
  9
$ORTHOMODE
 70
     1
  9
$REGENMODE
 70
     1
  9
$FILLMODE
 70
     1
  9
$QTEXTMODE
 70
     0
  9
$MIRRTEXT
 70
     0
  9
$LTSCALE
 40
1.0
  9
$ATTMODE
 70
     1
  9
$TEXTSIZE
 40
0.27
  9
$TRACEWID
 40
0.05
  9
$TEXTSTYLE
  7
STANDARD
  9
$CLAYER
  8
0
  9
$CELTYPE
  6
BYLAYER
  9
$CECOLOR
 62
   256
  9
$CELTSCALE
 40
1.0
  9
$DISPSILH
 70
     0
  9
$DIMSCALE
 40
1.0
  9
$DIMASZ
 40
0.375
  9
$DIMEXO
 40
0.0625
  9
$DIMDLI
 40
0.75
  9
$DIMRND
 40
0.0
  9
$DIMDLE
 40
0.0
  9
$DIMEXE
 40
0.18
  9
$DIMTP
 40
0.0
  9
$DIMTM
 40
0.0
  9
$DIMTXT
 40
0.27
  9
$DIMCEN
 40
-0.06
  9
$DIMTSZ
 40
0.0
  9
$DIMTOL
 70
     0
  9
$DIMLIM
 70
     0
  9
$DIMTIH
 70
     1
  9
$DIMTOH
 70
     1
  9
$DIMSE1
 70
     0
  9
$DIMSE2
 70
     0
  9
$DIMTAD
 70
     0
  9
$DIMZIN
 70
     0
  9
$DIMBLK
  1

  9
$DIMASO
 70
     0
  9
$DIMSHO
 70
     0
  9
$DIMPOST
  1

  9
$DIMAPOST
  1

  9
$DIMALT
 70
     0
  9
$DIMALTD
 70
     2
  9
$DIMALTF
 40
25.4
  9
$DIMLFAC
 40
1.0
  9
$DIMTOFL
 70
     0
  9
$DIMTVP
 40
0.0
  9
$DIMTIX
 70
     0
  9
$DIMSOXD
 70
     0
  9
$DIMSAH
 70
     0
  9
$DIMBLK1
  1

  9
$DIMBLK2
  1

  9
$DIMSTYLE
  2
STANDARD
  9
$DIMCLRD
 70
     0
  9
$DIMCLRE
 70
     0
  9
$DIMCLRT
 70
     0
  9
$DIMTFAC
 40
1.0
  9
$DIMGAP
 40
0.09
  9
$DIMJUST
 70
     0
  9
$DIMSD1
 70
     0
  9
$DIMSD2
 70
     0
  9
$DIMTOLJ
 70
     1
  9
$DIMTZIN
 70
     0
  9
$DIMALTZ
 70
     0
  9
$DIMALTTZ
 70
     0
  9
$DIMUPT
 70
     0
  9
$DIMDEC
 70
     5
  9
$DIMTDEC
 70
     5
  9
$DIMALTU
 70
     2
  9
$DIMALTTD
 70
     2
  9
$DIMTXSTY
  7
STANDARD
  9
$DIMAUNIT
 70
     0
  9
$DIMADEC
 70
     0
  9
$DIMALTRND
 40
0.0
  9
$DIMAZIN
 70
     0
  9
$DIMDSEP
 70
    46
  9
$DIMATFIT
 70
     3
  9
$DIMFRAC
 70
     2
  9
$DIMLDRBLK
  1

  9
$DIMLUNIT
 70
     5
  9
$DIMLWD
 70
    -2
  9
$DIMLWE
 70
    -2
  9
$DIMTMOVE
 70
     2
  9
$LUNITS
 70
     2
  9
$LUPREC
 70
     3
  9
$SKETCHINC
 40
0.1
  9
$FILLETRAD
 40
0.0
  9
$AUNITS
 70
     0
  9
$AUPREC
 70
     0
  9
$MENU
  1
ACAD
  9
$ELEVATION
 40
0.0
  9
$PELEVATION
 40
0.0
  9
$THICKNESS
 40
0.0
  9
$LIMCHECK
 70
     0
  9
$CHAMFERA
 40
0.0
  9
$CHAMFERB
 40
0.0
  9
$CHAMFERC
 40
0.0
  9
$CHAMFERD
 40
0.0
  9
$SKPOLY
 70
     0
  9
$TDCREATE
 40
2450305.009580324
  9
$TDUCREATE
 40
2450305.342913657
  9
$TDUPDATE
 40
2454160.939286551
  9
$TDUUPDATE
 40
2454161.272619885
  9
$TDINDWG
 40
0.3560253935
  9
$TDUSRTIMER
 40
0.3560253935
  9
$USRTIMER
 70
     1
  9
$ANGBASE
 50
0.0
  9
$ANGDIR
 70
     0
  9
$PDMODE
 70
     0
  9
$PDSIZE
 40
0.0
  9
$PLINEWID
 40
0.0
  9
$SPLFRAME
 70
     0
  9
$SPLINETYPE
 70
     6
  9
$SPLINESEGS
 70
     8
  9
$HANDSEED
  5
2224
  9
$SURFTAB1
 70
     6
  9
$SURFTAB2
 70
     6
  9
$SURFTYPE
 70
     6
  9
$SURFU
 70
     6
  9
$SURFV
 70
     6
  9
$UCSBASE
  2

  9
$UCSNAME
  2

  9
$UCSORG
 10
0.0
 20
0.0
 30
0.0
  9
$UCSXDIR
 10
1.0
 20
0.0
 30
0.0
  9
$UCSYDIR
 10
0.0
 20
1.0
 30
0.0
  9
$UCSORTHOREF
  2

  9
$UCSORTHOVIEW
 70
     0
  9
$UCSORGTOP
 10
0.0
 20
0.0
 30
0.0
  9
$UCSORGBOTTOM
 10
0.0
 20
0.0
 30
0.0
  9
$UCSORGLEFT
 10
0.0
 20
0.0
 30
0.0
  9
$UCSORGRIGHT
 10
0.0
 20
0.0
 30
0.0
  9
$UCSORGFRONT
 10
0.0
 20
0.0
 30
0.0
  9
$UCSORGBACK
 10
0.0
 20
0.0
 30
0.0
  9
$PUCSBASE
  2

  9
$PUCSNAME
  2

  9
$PUCSORG
 10
0.0
 20
0.0
 30
0.0
  9
$PUCSXDIR
 10
1.0
 20
0.0
 30
0.0
  9
$PUCSYDIR
 10
0.0
 20
1.0
 30
0.0
  9
$PUCSORTHOREF
  2

  9
$PUCSORTHOVIEW
 70
     0
  9
$PUCSORGTOP
 10
0.0
 20
0.0
 30
0.0
  9
$PUCSORGBOTTOM
 10
0.0
 20
0.0
 30
0.0
  9
$PUCSORGLEFT
 10
0.0
 20
0.0
 30
0.0
  9
$PUCSORGRIGHT
 10
0.0
 20
0.0
 30
0.0
  9
$PUCSORGFRONT
 10
0.0
 20
0.0
 30
0.0
  9
$PUCSORGBACK
 10
0.0
 20
0.0
 30
0.0
  9
$USERI1
 70
     0
  9
$USERI2
 70
     0
  9
$USERI3
 70
     0
  9
$USERI4
 70
     0
  9
$USERI5
 70
     0
  9
$USERR1
 40
0.0
  9
$USERR2
 40
0.0
  9
$USERR3
 40
0.0
  9
$USERR4
 40
0.0
  9
$USERR5
 40
0.0
  9
$WORLDVIEW
 70
     1
  9
$SHADEDGE
 70
     3
  9
$SHADEDIF
 70
    70
  9
$TILEMODE
 70
     1
  9
$MAXACTVP
 70
    16
  9
$PINSBASE
 10
0.0
 20
0.0
 30
0.0
  9
$PLIMCHECK
 70
     0
  9
$PEXTMIN
 10
1.000000000000000E+20
 20
1.000000000000000E+20
 30
1.000000000000000E+20
  9
$PEXTMAX
 10
-1.000000000000000E+20
 20
-1.000000000000000E+20
 30
-1.000000000000000E+20
  9
$PLIMMIN
 10
0.0
 20
0.0
  9
$PLIMMAX
 10
12.0
 20
9.0
  9
$UNITMODE
 70
     0
  9
$VISRETAIN
 70
     0
  9
$PLINEGEN
 70
     0
  9
$PSLTSCALE
 70
     0
  9
$TREEDEPTH
 70
  3020
  9
$CMLSTYLE
  2
STANDARD
  9
$CMLJUST
 70
     0
  9
$CMLSCALE
 40
1.0
  9
$PROXYGRAPHICS
 70
     1
  9
$MEASUREMENT
 70
     0
  9
$CELWEIGHT
370
    -1
  9
$ENDCAPS
280
     0
  9
$JOINSTYLE
280
     0
  9
$LWDISPLAY
290
     0
  9
$INSUNITS
 70
     0
  9
$HYPERLINKBASE
  1

  9
$STYLESHEET
  1

  9
$XEDIT
290
     1
  9
$CEPSNTYPE
380
     0
  9
$PSTYLEMODE
290
     1
  9
$FINGERPRINTGUID
  2
{44082B7C-C9DC-4B17-A477-44FE47AA08EB}
  9
$VERSIONGUID
  2
{BEA5D43C-5366-4E6A-AF11-6131283C4CF5}
  9
$EXTNAMES
290
     1
  9
$PSVPSCALE
 40
0.0
  9
$OLESTARTUP
290
     0
  0
ENDSEC
  0
SECTION
  2
CLASSES
  0
CLASS
  1
DICTIONARYVAR
  2
AcDbDictionaryVar
  3
AutoCAD 2000
 90
        0
280
     0
281
     0
  0
CLASS
  1
LWPOLYLINE
  2
AcDbPolyline
  3
AutoCAD 2000
 90
        0
280
     0
281
     1
  0
CLASS
  1
ACDBDICTIONARYWDFLT
  2
AcDbDictionaryWithDefault
  3
AutoCAD 2000
 90
        0
280
     0
281
     0
  0
CLASS
  1
ACDBPLACEHOLDER
  2
AcDbPlaceHolder
  3
ObjectDBX Classes
 90
        0
280
     0
281
     0
  0
CLASS
  1
LAYOUT
  2
AcDbLayout
  3
ObjectDBX Classes
 90
        0
280
     0
281
     0
  0
CLASS
  1
LONG_TRANSACTION
  2
AcDbLongTransaction
  3
ObjectDBX Classes
 90
   -65536
280
     1
281
     0
  0
CLASS
  1
LWPOLYLINE
  2
AcDbPolyline
  3
AutoCAD 2000
 90
        0
280
     0
281
     1
  0
CLASS
  1
HATCH
  2
AcDbHatch
  3
AutoCAD 2000
 90
        0
280
     0
281
     1
  0
CLASS
  1
XRECORD
  2
AcDbXrecord
  3
AutoCAD 2000
 90
        0
280
     0
281
     0
  0
CLASS
  1
LONG_TRANSACTION
  2
AcDbLongTransaction
  3
ObjectDBX Classes
 90
   -65536
280
     1
281
     0
  0
CLASS
  1
LWPOLYLINE
  2
AcDbPolyline
  3
AutoCAD 2000
 90
        0
280
     0
281
     1
  0
CLASS
  1
HATCH
  2
AcDbHatch
  3
AutoCAD 2000
 90
        0
280
     0
281
     1
  0
CLASS
  1
XRECORD
  2
AcDbXrecord
  3
AutoCAD 2000
 90
        0
280
     0
281
     0
  0
CLASS
  1
LONG_TRANSACTION
  2
AcDbLongTransaction
  3
ObjectDBX Classes
 90
   -65536
280
     1
281
     0
  0
CLASS
  1
LWPOLYLINE
  2
AcDbPolyline
  3
AutoCAD 2000
 90
        0
280
     0
281
     1
  0
CLASS
  1
HATCH
  2
AcDbHatch
  3
AutoCAD 2000
 90
        0
280
     0
281
     1
  0
CLASS
  1
XRECORD
  2
AcDbXrecord
  3
AutoCAD 2000
 90
        0
280
     0
281
     0
  0
CLASS
  1
SORTENTSTABLE
  2
AcDbSortentsTable
  3
AutoCAD 2000
 90
        0
280
     0
281
     0
  0
CLASS
  1
TABLESTYLE
  2
AcDbTableStyle
  3
ObjectDBX Classes
 90
     2047
280
     1
281
     0
  0
ENDSEC
  0
SECTION
  2
TABLES
  0
TABLE
  2
VPORT
  5
4FB
330
0
100
AcDbSymbolTable
 70
     2
  0
VPORT
  5
2214
330
4FB
100
AcDbSymbolTableRecord
100
AcDbViewportTableRecord
  2
*Active
 70
     0
 10
0.0
 20
0.0
 11
1.0
 21
1.0
 12
14.19098226710301
 22
12.0
 13
0.0
 23
0.0
 14
0.0625
 24
0.0625
 15
0.5
 25
0.5
 16
0.0
 26
0.0
 36
1.0
 17
0.0
 27
0.0
 37
0.0
 40
24.29447852760736
 41
1.814583333333333
 42
50.0
 43
0.0
 44
0.0
 50
0.0
 51
0.0
 71
     0
 72
   100
 73
     1
 74
     0
 75
     0
 76
     0
 77
     0
 78
     0
281
     0
 65
     1
110
0.0
120
0.0
130
0.0
111
1.0
121
0.0
131
0.0
112
0.0
122
1.0
132
0.0
 79
     0
146
0.0
  0
ENDTAB
  0
TABLE
  2
LTYPE
  5
4F8
330
0
100
AcDbSymbolTable
 70
     2
  0
LTYPE
  5
504
330
4F8
100
AcDbSymbolTableRecord
100
AcDbLinetypeTableRecord
  2
BYBLOCK
 70
     0
  3

 72
    65
 73
     0
 40
0.0
  0
LTYPE
  5
505
330
4F8
100
AcDbSymbolTableRecord
100
AcDbLinetypeTableRecord
  2
BYLAYER
 70
     0
  3

 72
    65
 73
     0
 40
0.0
  0
LTYPE
  5
506
330
4F8
100
AcDbSymbolTableRecord
100
AcDbLinetypeTableRecord
  2
CONTINUOUS
 70
     0
  3
Solid line
 72
    65
 73
     0
 40
0.0
  0
LTYPE
  5
533
330
4F8
100
AcDbSymbolTableRecord
100
AcDbLinetypeTableRecord
  2
HIDDEN
 70
     0
  3
__ __ __ __ __ __ __ __ __ __ __ __ __ __ __ __
 72
    65
 73
     2
 40
0.375
 49
0.25
 74
     0
 49
-0.125
 74
     0
  0
ENDTAB
  0
TABLE
  2
LAYER
  5
4F5
102
{ACAD_XDICTIONARY
360
2028
102
}
330
0
100
AcDbSymbolTable
 70
     3
  0
LAYER
  5
501
330
4F5
100
AcDbSymbolTableRecord
100
AcDbLayerTableRecord
  2
0
 70
     0
 62
     7
  6
CONTINUOUS
370
    -3
390
626
  0
ENDTAB
  0
TABLE
  2
STYLE
  5
4F6
330
0
100
AcDbSymbolTable
 70
     1
  0
STYLE
  5
502
330
4F6
100
AcDbSymbolTableRecord
100
AcDbTextStyleTableRecord
  2
STANDARD
 70
     0
 40
0.0
 41
1.0
 50
0.0
 71
     0
 42
0.27
  3
TXT
  4

  0
ENDTAB
  0
TABLE
  2
VIEW
  5
4F9
330
0
100
AcDbSymbolTable
 70
     4
  0
VIEW
  5
537
330
4F9
100
AcDbSymbolTableRecord
100
AcDbViewTableRecord
  2
PLOTTER
 70
     0
 40
23.625
 10
17.01330184198921
 20
11.8125
 41
1.0
 11
0.0
 21
0.0
 31
1.0
 12
0.0
 22
0.0
 32
0.0
 42
50.0
 43
0.0
 44
0.0
 50
0.0
 71
     0
281
     0
 72
     0
  0
VIEW
  5
538
330
4F9
100
AcDbSymbolTableRecord
100
AcDbViewTableRecord
  2
UPPER
 70
     0
 40
10.92682926829268
 10
12.68329970046198
 20
16.68292682926829
 41
1.0
 11
0.0
 21
0.0
 31
1.0
 12
0.0
 22
0.0
 32
0.0
 42
50.0
 43
0.0
 44
0.0
 50
0.0
 71
     0
281
     0
 72
     0
  0
VIEW
  5
539
330
4F9
100
AcDbSymbolTableRecord
100
AcDbViewTableRecord
  2
LEFT
 70
     0
 40
5.446009389671362
 10
10.90014360505218
 20
8.479102255811291
 41
1.0
 11
0.0
 21
0.0
 31
1.0
 12
0.0
 22
0.0
 32
0.0
 42
50.0
 43
0.0
 44
0.0
 50
0.0
 71
     0
281
     0
 72
     0
  0
VIEW
  5
53A
330
4F9
100
AcDbSymbolTableRecord
100
AcDbViewTableRecord
  2
RIGHT
 70
     0
 40
10.21596244131455
 10
22.88218731978697
 20
10.27871292797435
 41
1.0
 11
0.0
 21
0.0
 31
1.0
 12
0.0
 22
0.0
 32
0.0
 42
50.0
 43
0.0
 44
0.0
 50
0.0
 71
     0
281
     0
 72
     0
  0
ENDTAB
  0
TABLE
  2
UCS
  5
4FA
330
0
100
AcDbSymbolTable
 70
     0
  0
ENDTAB
  0
TABLE
  2
APPID
  5
4FC
330
0
100
AcDbSymbolTable
 70
     5
  0
APPID
  5
503
330
4FC
100
AcDbSymbolTableRecord
100
AcDbRegAppTableRecord
  2
ACAD
 70
     0
  0
APPID
  5
7C1
330
4FC
100
AcDbSymbolTableRecord
100
AcDbRegAppTableRecord
  2
DCO15
 70
     0
  0
APPID
  5
851
330
4FC
100
AcDbSymbolTableRecord
100
AcDbRegAppTableRecord
  2
AcAecLayerStandard
 70
     0
  0
APPID
  5
852
330
4FC
100
AcDbSymbolTableRecord
100
AcDbRegAppTableRecord
  2
ACAD_PSEXT
 70
     0
  0
APPID
  5
1290
330
4FC
100
AcDbSymbolTableRecord
100
AcDbRegAppTableRecord
  2
RAK
 70
     0
  0
ENDTAB
  0
TABLE
  2
DIMSTYLE
  5
4FD
330
0
100
AcDbSymbolTable
 70
     1
100
AcDbDimStyleTable
  0
DIMSTYLE
105
558
330
4FD
100
AcDbSymbolTableRecord
100
AcDbDimStyleTableRecord
  2
STANDARD
 70
     0
  3

  4

340
502
  0
ENDTAB
  0
TABLE
  2
BLOCK_RECORD
  5
4F4
330
0
100
AcDbSymbolTable
 70
     1
  0
BLOCK_RECORD
  5
50A
330
4F4
100
AcDbSymbolTableRecord
100
AcDbBlockTableRecord
  2
*MODEL_SPACE
340
629
  0
BLOCK_RECORD
  5
507
330
4F4
100
AcDbSymbolTableRecord
100
AcDbBlockTableRecord
  2
*PAPER_SPACE
340
62A
  0
ENDTAB
  0
ENDSEC
  0
SECTION
  2
BLOCKS
  0
BLOCK
  5
550
330
50A
100
AcDbEntity
  8
0
100
AcDbBlockBegin
  2
*MODEL_SPACE
 70
     0
 10
0.0
 20
0.0
 30
0.0
  3
*MODEL_SPACE
  1

  4

  0
ENDBLK
  5
551
330
50A
100
AcDbEntity
  8
0
100
AcDbBlockEnd
  0
BLOCK
  5
54E
330
507
100
AcDbEntity
 67
     1
  8
0
100
AcDbBlockBegin
  2
*PAPER_SPACE
 70
     0
 10
0.0
 20
0.0
 30
0.0
  3
*PAPER_SPACE
  1

  4

  0
ENDBLK
  5
54F
330
507
100
AcDbEntity
 67
     1
  8
0
100
AcDbBlockEnd
  0
ENDSEC
  0
SECTION
  2
ENTITIES
  0
TEXT
  5
CE
330
50A
100
AcDbEntity
  8
0
100
AcDbText
 10
9.860040913637929
 20
20.93053558724526
 30
0.0
 40
0.27
  1
   
 11
9.860040913637929
 21
21.06553558724526
 31
0.0
100
AcDbText
 73
     2
  0
TEXT
  5
EC
330
50A
100
AcDbEntity
  8
0
100
AcDbText
 10
26.00773490355874
 20
4.47821562795092
 30
0.0
 40
0.2565
  1

100
AcDbText
  0
LINE
  5
1209
330
50A
100
AcDbEntity
  8
0
  6
HIDDEN
100
AcDbLine
 10
20.51356327724473
 20
3.846486791937032
 30
0.0
 11
19.51356327724473
 21
3.846486791937032
 31
0.0
  0
LINE
  5
120A
330
50A
100
AcDbEntity
  8
0
  6
HIDDEN
100
AcDbLine
 10
20.51356327724473
 20
4.081486791937032
 30
0.0
 11
19.51356327724473
 21
4.081486791937032
 31
0.0
  0
LINE
  5
120B
330
50A
100
AcDbEntity
  8
0
  6
HIDDEN
100
AcDbLine
 10
19.02856327724471
 20
3.596486791937032
 30
0.0
 11
19.02856327724471
 21
2.706495350837024
 31
0.0
  0
LINE
  5
120C
330
50A
100
AcDbEntity
  8
0
  6
HIDDEN
100
AcDbLine
 10
19.26356327724473
 20
3.596486791937032
 30
0.0
 11
19.26356327724473
 21
2.706495350837024
 31
0.0
  0
ARC
  5
120D
330
50A
100
AcDbEntity
  8
0
  6
HIDDEN
100
AcDbCircle
 10
19.51356327724473
 20
3.596486791937032
 30
0.0
 40
0.485
100
AcDbArc
 50
90.0
 51
180.0
  0
LINE
  5
120E
330
50A
100
AcDbEntity
  8
0
  6
HIDDEN
100
AcDbLine
 10
19.54481327724473
 20
3.846486791937032
 30
0.0
 11
19.54481327724473
 21
4.081486791937032
 31
0.0
  0
ARC
  5
120F
330
50A
100
AcDbEntity
  8
0
  6
HIDDEN
100
AcDbCircle
 10
19.51356327724473
 20
3.596486791937032
 30
0.0
 40
0.25
100
AcDbArc
 50
90.0
 51
180.0
  0
ARC
  5
1210
330
50A
100
AcDbEntity
  8
0
  6
HIDDEN
100
AcDbCircle
 10
20.51356327724473
 20
3.596486791937032
 30
0.0
 40
0.485
100
AcDbArc
 50
0.0
 51
90.0
  0
LINE
  5
1211
330
50A
100
AcDbEntity
  8
0
  6
HIDDEN
100
AcDbLine
 10
20.48231327724473
 20
3.846486791937032
 30
0.0
 11
20.48231327724473
 21
4.081486791937032
 31
0.0
  0
ARC
  5
1212
330
50A
100
AcDbEntity
  8
0
  6
HIDDEN
100
AcDbCircle
 10
20.51356327724473
 20
3.596486791937032
 30
0.0
 40
0.25
100
AcDbArc
 50
0.0
 51
90.0
  0
LINE
  5
1213
330
50A
100
AcDbEntity
  8
0
  6
HIDDEN
100
AcDbLine
 10
20.76356327724473
 20
3.596486791937032
 30
0.0
 11
20.76356327724473
 21
2.706495350837024
 31
0.0
  0
LINE
  5
1214
330
50A
100
AcDbEntity
  8
0
  6
HIDDEN
100
AcDbLine
 10
20.99856327724471
 20
3.596486791937032
 30
0.0
 11
20.99856327724471
 21
2.706495350837024
 31
0.0
  0
LINE
  5
1701
330
50A
100
AcDbEntity
  8
0
100
AcDbLine
 10
10.28429468416681
 20
6.709531513416231
 30
0.0
 11
10.28429468416681
 21
4.057381513416225
 31
0.0
  0
LINE
  5
1702
330
50A
100
AcDbEntity
  8
0
100
AcDbLine
 10
10.10929468416686
 20
6.709531513416231
 30
0.0
 11
10.1092946841668
 21
4.057381513416225
 31
0.0
  0
LINE
  5
1703
330
50A
100
AcDbEntity
  8
0
100
AcDbLine
 10
7.359294684166855
 20
6.709531513416231
 30
0.0
 11
7.359294684166854
 21
4.053381513416213
 31
0.0
  0
LINE
  5
17A7
330
50A
100
AcDbEntity
  8
0
100
AcDbLine
 10
19.99320285272613
 20
6.709531513416209
 30
0.0
 11
21.93106327724293
 21
6.709531513416216
 31
0.0
  0
ARC
  5
17A9
330
50A
100
AcDbEntity
  8
0
100
AcDbCircle
 10
20.01356327724473
 20
2.655629788416761
 30
0.0
 40
0.34375
100
AcDbArc
 50
0.0
 51
180.0
  0
LINE
  5
17BB
330
50A
100
AcDbEntity
  8
0
100
AcDbLine
 10
17.91981327724473
 20
3.188966839377017
 30
0.0
 11
19.99320285272613
 21
6.709531513416209
 31
0.0
  0
LINE
  5
17C8
330
50A
100
AcDbEntity
  8
0
100
AcDbLine
 10
17.91981327724473
 20
2.507381513416213
 30
0.0
 11
19.66981327724473
 21
2.507381513416213
 31
0.0
  0
LINE
  5
17C9
330
50A
100
AcDbEntity
  8
0
  6
HIDDEN
100
AcDbLine
 10
19.66981327724473
 20
2.682381513416239
 30
0.0
 11
17.928952572834
 21
2.68238151341621
 31
0.0
  0
LINE
  5
17CE
330
50A
100
AcDbEntity
  8
0
100
AcDbLine
 10
17.91981327724473
 20
2.507381513416213
 30
0.0
 11
17.91981327724473
 21
3.188966839377024
 31
0.0
  0
LINE
  5
17CF
330
50A
100
AcDbEntity
  8
0
100
AcDbLine
 10
19.66981327724473
 20
2.507381513416213
 30
0.0
 11
19.66981327724473
 21
2.689531513416235
 31
0.0
  0
LINE
  5
17E1
330
50A
100
AcDbEntity
  8
0
100
AcDbLine
 10
21.75926327724293
 20
6.709531513416216
 30
0.0
 11
21.75926327724293
 21
3.209531513416238
 31
0.0
  0
LINE
  5
17E2
330
50A
100
AcDbEntity
  8
0
100
AcDbLine
 10
21.93106327724293
 20
6.709531513416216
 30
0.0
 11
21.93106327724293
 21
3.209531513416231
 31
0.0
  0
LINE
  5
17F4
330
50A
100
AcDbEntity
  8
0
100
AcDbLine
 10
20.35731327724474
 20
2.507381513416213
 30
0.0
 11
21.89856327724293
 21
2.507381513416213
 31
0.0
  0
LINE
  5
17F5
330
50A
100
AcDbEntity
  8
0
  6
HIDDEN
100
AcDbLine
 10
21.86731327724293
 20
2.682381513416267
 30
0.0
 11
20.38856327724474
 21
2.682381513416253
 31
0.0
  0
ARC
  5
17F8
330
50A
100
AcDbEntity
  8
0
100
AcDbCircle
 10
21.80606327724293
 20
3.803281513416202
 30
0.0
 40
0.28125
100
AcDbArc
 50
99.57857297385344
 51
225.0000000000019
  0
LINE
  5
17F9
330
50A
100
AcDbEntity
  8
0
100
AcDbLine
 10
20.35731327724474
 20
2.507381513416213
 30
0.0
 11
20.35731327724474
 21
2.689531513416235
 31
0.0
  0
LINE
  5
17FA
330
50A
100
AcDbEntity
  8
0
  6
HIDDEN
100
AcDbLine
 10
21.75926327724293
 20
3.452333948998799
 30
0.0
 11
21.93106327724293
 21
3.280533948998816
 31
0.0
  0
LINE
  5
17FB
330
50A
100
AcDbEntity
  8
0
100
AcDbLine
 10
21.89856327724293
 20
3.209531513416231
 30
0.0
 11
21.89856327724293
 21
2.507381513416213
 31
0.0
  0
LINE
  5
17FC
330
50A
100
AcDbEntity
  8
0
100
AcDbLine
 10
21.75926327724293
 20
3.209531513416238
 30
0.0
 11
21.93106327724293
 21
3.209531513416231
 31
0.0
  0
LINE
  5
17FD
330
50A
100
AcDbEntity
  8
0
100
AcDbLine
 10
21.75926327724293
 20
3.709531513416209
 30
0.0
 11
21.93106327724293
 21
3.709531513416209
 31
0.0
  0
LINE
  5
17FE
330
50A
100
AcDbEntity
  8
0
100
AcDbLine
 10
21.60718949503421
 20
3.604407731207509
 30
0.0
 11
21.75926327724293
 21
3.452333948998799
 31
0.0
  0
LINE
  5
1806
330
50A
100
AcDbEntity
  8
0
100
AcDbLine
 10
21.75926327724293
 20
6.209531513416231
 30
0.0
 11
21.93106327724293
 21
6.209531513416231
 31
0.0
  0
CIRCLE
  5
1C79
330
50A
100
AcDbEntity
  8
0
100
AcDbCircle
 10
11.2177946841669
 20
4.116501173416232
 30
0.0
 40
0.1325
  0
ARC
  5
1C7A
330
50A
100
AcDbEntity
  8
0
100
AcDbCircle
 10
10.29154468416504
 20
3.804001173416197
 30
0.0
 40
0.28125
100
AcDbArc
 50
45.00000000000215
 51
130.5141111763474
  0
LINE
  5
1C7B
330
50A
100
AcDbEntity
  8
0
100
AcDbLine
 10
12.9677946841669
 20
6.272751173416232
 30
0.0
 11
12.9677946841669
 21
3.699527868712853
 31
0.0
  0
LINE
  5
1C80
330
50A
100
AcDbEntity
  8
0
100
AcDbLine
 10
4.500794684166799
 20
6.272751173416236
 30
0.0
 11
4.500794684166799
 21
3.699527868712867
 31
0.0
  0
ARC
  5
1C81
330
50A
100
AcDbEntity
  8
0
100
AcDbCircle
 10
7.177044684168655
 20
3.804001173416197
 30
0.0
 40
0.28125
100
AcDbArc
 50
49.48588882365065
 51
134.9999999999978
  0
LINE
  5
1C82
330
50A
100
AcDbEntity
  8
0
100
AcDbLine
 10
6.133770424454635
 20
3.21025117341626
 30
0.0
 11
4.990071379463435
 21
3.210251173416243
 31
0.0
  0
CIRCLE
  5
1C83
330
50A
100
AcDbEntity
  8
0
100
AcDbCircle
 10
4.938294684166833
 20
3.77275117341626
 30
0.0
 40
0.1325
  0
LINE
  5
1C84
330
50A
100
AcDbEntity
  8
0
100
AcDbLine
 10
4.53740633651848
 20
3.611139521064548
 30
0.0
 11
4.901683031815116
 21
3.246862825767924
 31
0.0
  0
ARC
  5
1C85
330
50A
100
AcDbEntity
  8
0
100
AcDbCircle
 10
4.990071379463434
 20
3.335251173416243
 30
0.0
 40
0.125
100
AcDbArc
 50
225.0000000000008
 51
270.000000000001
  0
ARC
  5
1C86
330
50A
100
AcDbEntity
  8
0
100
AcDbCircle
 10
4.625794684166799
 20
3.699527868712867
 30
0.0
 40
0.125
100
AcDbArc
 50
180.0
 51
225.0000000000008
  0
LINE
  5
1C87
330
50A
100
AcDbEntity
  8
0
100
AcDbLine
 10
10.49041846637373
 20
4.002874955624918
 30
0.0
 11
11.24643059623075
 21
3.246862825767941
 31
0.0
  0
LINE
  5
1C88
330
50A
100
AcDbEntity
  8
0
100
AcDbLine
 10
7.369294684166842
 20
4.05338151341622
 30
0.0
 11
10.09929468416683
 21
4.05338151341622
 31
0.0
  0
LINE
  5
1C89
330
50A
100
AcDbEntity
  8
0
  6
HIDDEN
100
AcDbLine
 10
7.369294684166842
 20
3.818381513416206
 30
0.0
 11
10.09929468416683
 21
3.818381513416206
 31
0.0
  0
ARC
  5
1C8D
330
50A
100
AcDbEntity
  8
0
100
AcDbCircle
 10
8.734294684166851
 20
4.05737635212585
 30
0.0
 40
1.550000000008551
100
AcDbArc
 50
179.999809212803
 51
0.0001907871969726
  0
ARC
  5
1C8E
330
50A
100
AcDbEntity
  8
0
100
AcDbCircle
 10
8.734297600875323
 20
4.053376276325895
 30
0.0
 40
1.375002916718442
100
AcDbArc
 50
179.9997817727013
 51
0.1668967410626167
  0
LINE
  5
1C8F
330
50A
100
AcDbEntity
  8
0
100
AcDbLine
 10
6.978170901959961
 20
4.002874955624918
 30
0.0
 11
6.222158772102951
 21
3.246862825767941
 31
0.0
  0
CIRCLE
  5
1C90
330
50A
100
AcDbEntity
  8
0
100
AcDbCircle
 10
5.813294684166797
 20
3.710251173416232
 30
0.0
 40
0.1325
  0
ARC
  5
1C91
330
50A
100
AcDbEntity
  8
0
100
AcDbCircle
 10
6.133770424454633
 20
3.33525117341626
 30
0.0
 40
0.125
100
AcDbArc
 50
270.000000000001
 51
314.9999999999987
  0
LINE
  5
1CAB
330
50A
100
AcDbEntity
  8
0
100
AcDbLine
 10
7.369294684166842
 20
4.05338151341622
 30
0.0
 11
7.369294684166842
 21
3.818381513416206
 31
0.0
  0
LINE
  5
1CAD
330
50A
100
AcDbEntity
  8
0
100
AcDbLine
 10
7.429294684166845
 20
3.818381513416206
 30
0.0
 11
7.429294684166845
 21
4.05338151341622
 31
0.0
  0
LINE
  5
1CBB
330
50A
100
AcDbEntity
  8
0
  6
HIDDEN
100
AcDbLine
 10
8.265544684166823
 20
4.05338151341622
 30
0.0
 11
8.265544684166823
 21
3.818381513416206
 31
0.0
  0
LINE
  5
1CBC
330
50A
100
AcDbEntity
  8
0
  6
HIDDEN
100
AcDbLine
 10
9.203044684166823
 20
4.05338151341622
 30
0.0
 11
9.203044684166823
 21
3.818381513416206
 31
0.0
  0
LINE
  5
1CDA
330
50A
100
AcDbEntity
  8
0
100
AcDbLine
 10
10.03929468416683
 20
3.818381513416206
 30
0.0
 11
10.03929468416683
 21
4.05338151341622
 31
0.0
  0
LINE
  5
1CE3
330
50A
100
AcDbEntity
  8
0
100
AcDbLine
 10
10.09929468416683
 20
4.05338151341622
 30
0.0
 11
10.09929468416683
 21
3.818381513416206
 31
0.0
  0
LINE
  5
1CE4
330
50A
100
AcDbEntity
  8
0
100
AcDbLine
 10
11.33481894387906
 20
3.21025117341626
 30
0.0
 11
12.47851798887026
 21
3.210251173416229
 31
0.0
  0
ARC
  5
1CE5
330
50A
100
AcDbEntity
  8
0
100
AcDbCircle
 10
11.33481894387906
 20
3.33525117341626
 30
0.0
 40
0.125
100
AcDbArc
 50
225.0000000000013
 51
269.9999999999984
  0
CIRCLE
  5
1CE6
330
50A
100
AcDbEntity
  8
0
100
AcDbCircle
 10
12.0927946841669
 20
3.710251173416232
 30
0.0
 40
0.1325
  0
LINE
  5
1CE7
330
50A
100
AcDbEntity
  8
0
100
AcDbLine
 10
12.93118303181522
 20
3.61113952106453
 30
0.0
 11
12.56690633651858
 21
3.246862825767909
 31
0.0
  0
ARC
  5
1CE8
330
50A
100
AcDbEntity
  8
0
100
AcDbCircle
 10
12.47851798887026
 20
3.335251173416229
 30
0.0
 40
0.125
100
AcDbArc
 50
269.9999999999984
 51
314.9999999999992
  0
ARC
  5
1CE9
330
50A
100
AcDbEntity
  8
0
100
AcDbCircle
 10
12.8427946841669
 20
3.699527868712853
 30
0.0
 40
0.125
100
AcDbArc
 50
314.999999999999
 51
0.0
  0
LINE
  5
1CEA
330
50A
100
AcDbEntity
  8
0
100
AcDbLine
 10
7.359294684166851
 20
6.710251173416246
 30
0.0
 11
4.938294684166797
 21
6.710251173416236
 31
0.0
  0
CIRCLE
  5
1CEB
330
50A
100
AcDbEntity
  8
0
100
AcDbCircle
 10
4.938294684166799
 20
4.835251173416232
 30
0.0
 40
0.1325
  0
LINE
  5
1CEC
330
50A
100
AcDbEntity
  8
0
100
AcDbLine
 10
4.938294684166797
 20
6.710251173416236
 30
0.0
 11
4.500794684166799
 21
6.272751173416236
 31
0.0
  0
CIRCLE
  5
1CED
330
50A
100
AcDbEntity
  8
0
100
AcDbCircle
 10
5.18829468426965
 20
6.210251173416374
 30
0.0
 40
0.1325
  0
LINE
  5
1CEE
330
50A
100
AcDbEntity
  8
0
100
AcDbLine
 10
10.10929468416685
 20
6.710251173416232
 30
0.0
 11
12.5302946841669
 21
6.710251173416232
 31
0.0
  0
CIRCLE
  5
1CEF
330
50A
100
AcDbEntity
  8
0
100
AcDbCircle
 10
6.063294684166799
 20
6.022751173416232
 30
0.0
 40
0.1325
  0
CIRCLE
  5
1CF0
330
50A
100
AcDbEntity
  8
0
100
AcDbCircle
 10
5.969544684166799
 20
4.897751173416232
 30
0.0
 40
0.1325
  0
CIRCLE
  5
1CF1
330
50A
100
AcDbEntity
  8
0
100
AcDbCircle
 10
6.688294684166797
 20
4.522751173416232
 30
0.0
 40
0.1325
  0
CIRCLE
  5
1CF2
330
50A
100
AcDbEntity
  8
0
100
AcDbCircle
 10
6.688294684166799
 20
5.647751173416232
 30
0.0
 40
0.1325
  0
CIRCLE
  5
1CF3
330
50A
100
AcDbEntity
  8
0
100
AcDbCircle
 10
10.7802946841669
 20
5.085251173416232
 30
0.0
 40
0.1325
  0
CIRCLE
  5
1CF4
330
50A
100
AcDbEntity
  8
0
100
AcDbCircle
 10
11.4677946841669
 20
5.460251173416232
 30
0.0
 40
0.1325
  0
CIRCLE
  5
1CF5
330
50A
100
AcDbEntity
  8
0
100
AcDbCircle
 10
12.5302946841669
 20
4.272751173416232
 30
0.0
 40
0.1325
  0
CIRCLE
  5
1CF6
330
50A
100
AcDbEntity
  8
0
100
AcDbCircle
 10
12.4052946841669
 20
5.522751173416232
 30
0.0
 40
0.1325
  0
CIRCLE
  5
1CF7
330
50A
100
AcDbEntity
  8
0
100
AcDbCircle
 10
11.8427946841669
 20
6.116501173416232
 30
0.0
 40
0.1325
  0
CIRCLE
  5
1CF8
330
50A
100
AcDbEntity
  8
0
100
AcDbCircle
 10
10.7802946841669
 20
6.304001173416232
 30
0.0
 40
0.1325
  0
LINE
  5
1CF9
330
50A
100
AcDbEntity
  8
0
100
AcDbLine
 10
12.5302946841669
 20
6.710251173416232
 30
0.0
 11
12.9677946841669
 21
6.272751173416232
 31
0.0
  0
LINE
  5
1D0C
330
50A
100
AcDbEntity
  8
0
100
AcDbLine
 10
7.184294684166893
 20
6.709531513416231
 30
0.0
 11
7.184294684166893
 21
4.057381513416225
 31
0.0
  0
CIRCLE
  5
1D2D
330
50A
100
AcDbEntity
  8
0
100
AcDbCircle
 10
18.62442398165546
 20
2.898549530119173
 30
0.0
 40
0.34375
  0
CIRCLE
  5
1D2E
330
50A
100
AcDbEntity
  8
0
  6
HIDDEN
100
AcDbCircle
 10
18.62442398165546
 20
2.898549530119173
 30
0.0
 40
0.176
  0
CIRCLE
  5
1D2F
330
50A
100
AcDbEntity
  8
0
100
AcDbCircle
 10
21.38442398165546
 20
2.898549530119169
 30
0.0
 40
0.34375
  0
CIRCLE
  5
1D30
330
50A
100
AcDbEntity
  8
0
  6
HIDDEN
100
AcDbCircle
 10
21.38442398165546
 20
2.898549530119169
 30
0.0
 40
0.176
  0
ARC
  5
1D31
330
50A
100
AcDbEntity
  8
0
100
AcDbCircle
 10
20.01356327724473
 20
2.690251173416243
 30
0.0
 40
0.34375
100
AcDbArc
 50
0.0
 51
180.0
  0
LINE
  5
1FC0
330
50A
100
AcDbEntity
  8
0
100
AcDbLine
 10
4.499944684166827
 20
14.76588978470905
 30
0.0
 11
6.934294684166844
 21
14.76478717126717
 31
0.0
  0
LINE
  5
1FC1
330
50A
100
AcDbEntity
  8
0
100
AcDbLine
 10
4.499944684166827
 20
14.56275753751271
 30
0.0
 11
6.934294684166844
 21
14.55885853470905
 31
0.0
  0
LINE
  5
1FC2
330
50A
100
AcDbEntity
  8
0
100
AcDbLine
 10
4.499944684166827
 20
14.76588978470905
 30
0.0
 11
4.499944684166827
 21
14.56283978470906
 31
0.0
  0
LINE
  5
1FC3
330
50A
100
AcDbEntity
  8
0
100
AcDbLine
 10
4.945544684164958
 20
14.56208383621324
 30
0.0
 11
4.945544684164958
 21
14.76588978470905
 31
0.0
  0
LINE
  5
1FC4
330
50A
100
AcDbEntity
  8
0
100
AcDbLine
 10
12.96864468416683
 20
14.56275753751271
 30
0.0
 11
10.53429468416681
 21
14.55885853470905
 31
0.0
  0
LINE
  5
1FC5
330
50A
100
AcDbEntity
  8
0
100
AcDbLine
 10
12.96864468416683
 20
14.76588978470905
 30
0.0
 11
10.53429468416681
 21
14.76478717126717
 31
0.0
  0
LINE
  5
1FC6
330
50A
100
AcDbEntity
  8
0
100
AcDbLine
 10
7.35961192215359
 20
14.46674439917844
 30
0.0
 11
7.359309268250147
 21
10.95510624839832
 31
0.0
  0
LINE
  5
1FC7
330
50A
100
AcDbEntity
  8
0
100
AcDbLine
 10
10.10929468416685
 20
14.45338978470905
 30
0.0
 11
10.10929468416686
 21
10.95512083248168
 31
0.0
  0
LINE
  5
1FC8
330
50A
100
AcDbEntity
  8
0
100
AcDbLine
 10
7.184294684166847
 20
11.13012083248162
 30
0.0
 11
7.184294684166844
 21
14.30885853470905
 31
0.0
  0
LINE
  5
1FC9
330
50A
100
AcDbEntity
  8
0
100
AcDbLine
 10
10.28429468416681
 20
11.13012083248163
 30
0.0
 11
10.28429468416681
 21
14.30885853470905
 31
0.0
  0
LWPOLYLINE
  5
1FCA
330
50A
100
AcDbEntity
  8
0
100
AcDbPolyline
 90
       10
 70
     0
 43
0.0
 10
10.09105494002387
 20
12.29622775919314
 10
10.09082852032388
 20
12.25744819519314
 10
10.08990598272388
 20
12.22121038039314
 10
10.08758848192388
 20
12.18821479529314
 10
10.08295067642388
 20
12.15858587289314
 10
10.07507613062388
 20
12.13339615989315
 10
10.06323090292388
 20
12.11340469849314
 10
10.04647928252388
 20
12.09867400459314
 10
10.02431022152388
 20
12.08969827469315
 10
9.996939659223877
 20
12.08673489419314
  0
LWPOLYLINE
  5
1FCB
330
50A
100
AcDbEntity
  8
0
100
AcDbPolyline
 90
       11
 70
     0
 43
0.0
 10
10.09107081352388
 20
12.33574633229314
 10
10.09105494002387
 20
12.25572062419314
 10
10.09082852032388
 20
12.17816149609314
 10
10.08990598272388
 20
12.10568586649314
 10
10.08758848192388
 20
12.03969469649314
 10
10.08295067642388
 20
11.98043685159314
 10
10.07507613062388
 20
11.93005742559314
 10
10.06323090292388
 20
11.89007450279314
 10
10.04647928252388
 20
11.86061311489315
 10
10.02431022152388
 20
11.84266165519314
 10
9.996939659223877
 20
11.83673489419314
  0
LWPOLYLINE
  5
1FCC
330
50A
100
AcDbEntity
  8
0
100
AcDbPolyline
 90
       10
 70
     0
 43
0.0
 10
7.471451967823896
 20
12.08673489419314
 10
7.444081405023894
 20
12.08969827479314
 10
7.421912343723896
 20
12.09867400499314
 10
7.405160723323888
 20
12.11340469949314
 10
7.393315495723897
 20
12.13339616159314
 10
7.385440950123893
 20
12.15858587549315
 10
7.380803144823894
 20
12.18821479889314
 10
7.378485644223893
 20
12.22121038489314
 10
7.377563106623896
 20
12.25744820079314
 10
7.377336687023892
 20
12.29622776589314
  0
LWPOLYLINE
  5
1FCD
330
50A
100
AcDbEntity
  8
0
100
AcDbPolyline
 90
       11
 70
     0
 43
0.0
 10
7.471451967823896
 20
11.83673489419314
 10
7.444081405023894
 20
11.84266165539314
 10
7.421912343723896
 20
11.86061311579314
 10
7.405160723323888
 20
11.89007450479314
 10
7.393315495723897
 20
11.93005742899314
 10
7.385440950123893
 20
11.98043685679314
 10
7.380803144823894
 20
12.03969470349314
 10
7.378485644223893
 20
12.10568587559314
 10
7.377563106623896
 20
12.17816150739315
 10
7.377336687023892
 20
12.25572063749314
 10
7.377320813523895
 20
12.33574634729314
  0
LINE
  5
1FCE
330
50A
100
AcDbEntity
  8
0
  6
HIDDEN
100
AcDbLine
 10
9.62054468416685
 20
12.53588978471085
 30
0.0
 11
7.848044684166842
 21
12.53588978471085
 31
0.0
  0
LINE
  5
1FCF
330
50A
100
AcDbEntity
  8
0
  6
HIDDEN
100
AcDbLine
 10
9.620544684166879
 20
13.22338978471086
 30
0.0
 11
7.848044684166842
 21
13.22338978471086
 31
0.0
  0
LINE
  5
1FD0
330
50A
100
AcDbEntity
  8
0
100
AcDbLine
 10
7.640544684166805
 20
14.73463978470906
 30
0.0
 11
9.828044684166848
 21
14.73463978470905
 31
0.0
  0
LINE
  5
1FD1
330
50A
100
AcDbEntity
  8
0
100
AcDbLine
 10
7.515826967823927
 20
13.83673489419314
 30
0.0
 11
9.952564659223921
 21
13.83673489419314
 31
0.0
  0
LINE
  5
1FD2
330
50A
100
AcDbEntity
  8
0
  6
HIDDEN
100
AcDbLine
 10
7.515826967823927
 20
13.58673489419314
 30
0.0
 11
9.952564659223921
 21
13.58673489419314
 31
0.0
  0
CIRCLE
  5
1FD3
330
50A
100
AcDbEntity
  8
0
  6
HIDDEN
100
AcDbCircle
 10
7.862548317826331
 20
14.25963978471085
 30
0.0
 40
0.1875
  0
CIRCLE
  5
1FD4
330
50A
100
AcDbEntity
  8
0
  6
HIDDEN
100
AcDbCircle
 10
7.862548317826331
 20
14.25963978471085
 30
0.0
 40
0.34375
  0
ARC
  5
1FD5
330
50A
100
AcDbEntity
  8
0
100
AcDbCircle
 10
6.934294684166844
 20
14.30885853470905
 30
0.0
 40
0.25
100
AcDbArc
 50
0.0
 51
90.00000000000003
  0
ARC
  5
1FD6
330
50A
100
AcDbEntity
  8
0
100
AcDbCircle
 10
6.902567064608869
 20
14.30885853470905
 30
0.0
 40
0.45703125
100
AcDbArc
 50
0.0
 51
86.01926126028694
  0
ARC
  5
1FD7
330
50A
100
AcDbEntity
  8
0
100
AcDbCircle
 10
7.640544684166805
 20
14.45338978470905
 30
0.0
 40
0.28125
100
AcDbArc
 50
90.00000000000003
 51
180.0
  0
ARC
  5
1FD8
330
50A
100
AcDbEntity
  8
0
  6
HIDDEN
100
AcDbCircle
 10
7.848044684166844
 20
12.87963978471085
 30
0.0
 40
0.34375
100
AcDbArc
 50
90.00000000000003
 51
270.0
  0
LINE
  5
1FD9
330
50A
100
AcDbEntity
  8
0
100
AcDbLine
 10
7.377320813523895
 20
13.17173483739315
 30
0.0
 11
7.377320813523895
 21
13.33673489419314
 31
0.0
  0
LWPOLYLINE
  5
1FDA
330
50A
100
AcDbEntity
  8
0
100
AcDbPolyline
 90
       11
 70
     0
 43
0.0
 10
7.377320813523895
 20
13.33772353389314
 10
7.377336687123894
 20
13.41774923299314
 10
7.377563107023896
 20
13.49530835039314
 10
7.378485645423893
 20
13.56778396879314
 10
7.380803147123892
 20
13.63377512839314
 10
7.385440953623892
 20
13.69303296339314
 10
7.393315500223892
 20
13.74341238029314
 10
7.405160728223891
 20
13.78339529569314
 10
7.421912348223891
 20
13.81285667809314
 10
7.444081407923889
 20
13.83080813439314
 10
7.471451967823896
 20
13.83673489419314
  0
LWPOLYLINE
  5
1FDB
330
50A
100
AcDbEntity
  8
0
100
AcDbPolyline
 90
       10
 70
     0
 43
0.0
 10
7.377336687123894
 20
13.37724206359314
 10
7.377563107023896
 20
13.41602162229314
 10
7.378485645423893
 20
13.45225943149314
 10
7.380803147123892
 20
13.48525501129314
 10
7.385440953623892
 20
13.51488392879314
 10
7.393315500223892
 20
13.54007363729314
 10
7.405160728223891
 20
13.56006509499314
 10
7.421912348223891
 20
13.57479578619314
 10
7.444081407923889
 20
13.58377151429314
 10
7.471451967823896
 20
13.58673489419314
  0
LINE
  5
1FDC
330
50A
100
AcDbEntity
  8
0
100
AcDbLine
 10
7.377320618323893
 20
13.33673489419314
 30
0.0
 11
7.377321010523893
 21
13.33772353379314
 31
0.0
  0
LINE
  5
1FDD
330
50A
100
AcDbEntity
  8
0
100
AcDbLine
 10
7.447320911973897
 20
12.51735983739315
 30
0.0
 11
7.447320911973897
 21
13.15610983739315
 31
0.0
  0
ARC
  5
1FDE
330
50A
100
AcDbEntity
  8
0
100
AcDbCircle
 10
7.431695911973897
 20
13.15610983739315
 30
0.0
 40
0.015625
100
AcDbArc
 50
359.9999999999998
 51
89.99999999999982
  0
LINE
  5
1FDF
330
50A
100
AcDbEntity
  8
0
100
AcDbLine
 10
7.431695911973897
 20
13.17173483739315
 30
0.0
 11
7.377320813523895
 21
13.17173483739315
 31
0.0
  0
ARC
  5
1FE0
330
50A
100
AcDbEntity
  8
0
100
AcDbCircle
 10
7.431695911973897
 20
12.51735983739315
 30
0.0
 40
0.015625
100
AcDbArc
 50
269.9999999999998
 51
359.9999999999998
  0
LINE
  5
1FE1
330
50A
100
AcDbEntity
  8
0
100
AcDbLine
 10
7.377320813523895
 20
12.33574634729314
 30
0.0
 11
7.377320813523895
 21
12.50173483739315
 31
0.0
  0
LINE
  5
1FE2
330
50A
100
AcDbEntity
  8
0
100
AcDbLine
 10
7.377320813523895
 20
12.50173483739315
 30
0.0
 11
7.431695911973897
 21
12.50173483739315
 31
0.0
  0
CIRCLE
  5
1FE3
330
50A
100
AcDbEntity
  8
0
  6
HIDDEN
100
AcDbCircle
 10
9.606041050507313
 20
14.25963978471085
 30
0.0
 40
0.1875
  0
CIRCLE
  5
1FE4
330
50A
100
AcDbEntity
  8
0
  6
HIDDEN
100
AcDbCircle
 10
9.606041050507313
 20
14.25963978471085
 30
0.0
 40
0.34375
  0
ARC
  5
1FE5
330
50A
100
AcDbEntity
  8
0
100
AcDbCircle
 10
10.56602230372478
 20
14.30885853470905
 30
0.0
 40
0.45703125
100
AcDbArc
 50
93.98073873971303
 51
180.0
  0
ARC
  5
1FE6
330
50A
100
AcDbEntity
  8
0
100
AcDbCircle
 10
9.828044684166848
 20
14.45338978470905
 30
0.0
 40
0.28125
100
AcDbArc
 50
0.0
 51
90.00000000000003
  0
ARC
  5
1FE7
330
50A
100
AcDbEntity
  8
0
100
AcDbCircle
 10
10.53429468416681
 20
14.30885853470905
 30
0.0
 40
0.25
100
AcDbArc
 50
90.00000000000003
 51
180.0
  0
CIRCLE
  5
1FE8
330
50A
100
AcDbEntity
  8
0
100
AcDbCircle
 10
8.7383400239609
 20
12.87963978471085
 30
0.0
 40
0.34375
  0
ARC
  5
1FE9
330
50A
100
AcDbEntity
  8
0
  6
HIDDEN
100
AcDbCircle
 10
9.620544684166852
 20
12.87963978471085
 30
0.0
 40
0.34375
100
AcDbArc
 50
270.0
 51
90.00000000000003
  0
LINE
  5
1FEA
330
50A
100
AcDbEntity
  8
0
100
AcDbLine
 10
10.09107081352388
 20
13.33772334249314
 30
0.0
 11
10.09107078090523
 21
13.17173483739314
 31
0.0
  0
LWPOLYLINE
  5
1FEB
330
50A
100
AcDbEntity
  8
0
100
AcDbPolyline
 90
       11
 70
     0
 43
0.0
 10
9.996939659223877
 20
13.83673489419314
 10
10.02431022502388
 20
13.83080813159314
 10
10.04647928802388
 20
13.81285666679314
 10
10.06323090892388
 20
13.78339527089314
 10
10.07507613612388
 20
13.74341233719315
 10
10.08295068072388
 20
13.69303289799314
 10
10.08758848472388
 20
13.63377503869314
 10
10.08990598412388
 20
13.56778385329314
 10
10.09082852092388
 20
13.49530820739314
 10
10.09105494002387
 20
13.41774906369314
 10
10.09107081352388
 20
13.33772334249314
  0
LWPOLYLINE
  5
1FEC
330
50A
100
AcDbEntity
  8
0
100
AcDbPolyline
 90
       10
 70
     0
 43
0.0
 10
9.996939659223877
 20
13.58673489419314
 10
10.02431022502388
 20
13.58377151289314
 10
10.04647928802388
 20
13.57479578049314
 10
10.06323090892388
 20
13.56006508249314
 10
10.07507613612388
 20
13.54007361569314
 10
10.08295068072388
 20
13.51488389609314
 10
10.08758848472388
 20
13.48525496649314
 10
10.08990598412388
 20
13.45225937379314
 10
10.09082852092388
 20
13.41602155079314
 10
10.09105494002387
 20
13.37724197899314
  0
LINE
  5
1FED
330
50A
100
AcDbEntity
  8
0
100
AcDbLine
 10
10.02107071507388
 20
12.51735983739314
 30
0.0
 11
10.02107071507388
 21
13.15610983739314
 31
0.0
  0
ARC
  5
1FEE
330
50A
100
AcDbEntity
  8
0
100
AcDbCircle
 10
10.03669571507388
 20
13.15610983739314
 30
0.0
 40
0.015625
100
AcDbArc
 50
90.00000000000003
 51
180.0
  0
LINE
  5
1FEF
330
50A
100
AcDbEntity
  8
0
100
AcDbLine
 10
10.03669571507388
 20
13.17173483739314
 30
0.0
 11
10.09107078090523
 21
13.17173483739314
 31
0.0
  0
LINE
  5
1FF0
330
50A
100
AcDbEntity
  8
0
100
AcDbLine
 10
10.09107064924253
 20
12.50173483739314
 30
0.0
 11
10.09107061662388
 21
12.33574633229314
 31
0.0
  0
ARC
  5
1FF1
330
50A
100
AcDbEntity
  8
0
100
AcDbCircle
 10
10.03669571507388
 20
12.51735983739314
 30
0.0
 40
0.015625
100
AcDbArc
 50
180.0
 51
270.0
  0
LINE
  5
1FF2
330
50A
100
AcDbEntity
  8
0
100
AcDbLine
 10
10.09107064924253
 20
12.50173483739314
 30
0.0
 11
10.03669571507388
 21
12.50173483739314
 31
0.0
  0
LINE
  5
1FF3
330
50A
100
AcDbEntity
  8
0
100
AcDbLine
 10
9.940063636396044
 20
10.78588978471086
 30
0.0
 11
7.528525731937609
 21
10.78588978471086
 31
0.0
  0
LINE
  5
1FF4
330
50A
100
AcDbEntity
  8
0
  6
HIDDEN
100
AcDbLine
 10
7.502141686423926
 20
12.08821658449314
 30
0.0
 11
9.952564659223921
 21
12.08673489419314
 31
0.0
  0
LINE
  5
1FF5
330
50A
100
AcDbEntity
  8
0
100
AcDbLine
 10
7.515826967823927
 20
11.83673489419314
 30
0.0
 11
9.952564659223921
 21
11.83673489419314
 31
0.0
  0
CIRCLE
  5
1FF6
330
50A
100
AcDbEntity
  8
0
  6
HIDDEN
100
AcDbCircle
 10
7.862548317826331
 20
11.49963978471085
 30
0.0
 40
0.1875
  0
CIRCLE
  5
1FF7
330
50A
100
AcDbEntity
  8
0
  6
HIDDEN
100
AcDbCircle
 10
7.862548317826331
 20
11.49963978471085
 30
0.0
 40
0.34375
  0
LINE
  5
1FF8
330
50A
100
AcDbEntity
  8
0
100
AcDbLine
 10
7.184294684166845
 20
11.13012083248162
 30
0.0
 11
7.528525731937624
 21
10.78588978471085
 31
0.0
  0
CIRCLE
  5
1FF9
330
50A
100
AcDbEntity
  8
0
  6
HIDDEN
100
AcDbCircle
 10
9.606041050507313
 20
11.49963978471085
 30
0.0
 40
0.1875
  0
CIRCLE
  5
1FFA
330
50A
100
AcDbEntity
  8
0
  6
HIDDEN
100
AcDbCircle
 10
9.606041050507313
 20
11.49963978471085
 30
0.0
 40
0.34375
  0
LINE
  5
1FFB
330
50A
100
AcDbEntity
  8
0
100
AcDbLine
 10
10.28429468416681
 20
11.13012083248162
 30
0.0
 11
9.94006363639603
 21
10.78588978471085
 31
0.0
  0
LINE
  5
1FFC
330
50A
100
AcDbEntity
  8
0
100
AcDbLine
 10
12.5230446841687
 20
14.56208383621324
 30
0.0
 11
12.5230446841687
 21
14.76588978470905
 31
0.0
  0
LINE
  5
1FFD
330
50A
100
AcDbEntity
  8
0
100
AcDbLine
 10
12.96864468416683
 20
14.76588978470905
 30
0.0
 11
12.96864468416683
 21
14.56283978470906
 31
0.0
  0
LINE
  5
2000
330
50A
100
AcDbEntity
  8
0
100
AcDbLine
 10
-4.337473908909253
 20
6.709531513416216
 30
0.0
 11
-4.337473908909253
 21
3.209531513416231
 31
0.0
  0
LINE
  5
2001
330
50A
100
AcDbEntity
  8
0
100
AcDbLine
 10
-4.165673908909255
 20
6.709531513416216
 30
0.0
 11
-4.165673908909255
 21
3.209531513416238
 31
0.0
  0
LINE
  5
2002
330
50A
100
AcDbEntity
  8
0
100
AcDbLine
 10
-0.3262239089110501
 20
3.188966839377017
 30
0.0
 11
-2.399613484392454
 21
6.709531513416209
 31
0.0
  0
ARC
  5
2003
330
50A
100
AcDbEntity
  8
0
  6
HIDDEN
100
AcDbCircle
 10
-2.919973908911054
 20
3.596486791937032
 30
0.0
 40
0.485
100
AcDbArc
 50
90.0
 51
180.0
  0
ARC
  5
2004
330
50A
100
AcDbEntity
  8
0
  6
HIDDEN
100
AcDbCircle
 10
-2.919973908911054
 20
3.596486791937032
 30
0.0
 40
0.25
100
AcDbArc
 50
90.0
 51
180.0
  0
LINE
  5
2005
330
50A
100
AcDbEntity
  8
0
100
AcDbLine
 10
-4.273723908909254
 20
2.682381513416267
 30
0.0
 11
-2.794973908911068
 21
2.682381513416253
 31
0.0
  0
LINE
  5
2006
330
50A
100
AcDbEntity
  8
0
100
AcDbLine
 10
-2.763723908911068
 20
2.507381513416213
 30
0.0
 11
-4.304973908909254
 21
2.507381513416213
 31
0.0
  0
LINE
  5
2007
330
50A
100
AcDbEntity
  8
0
100
AcDbLine
 10
-2.076223908911054
 20
2.682381513416239
 30
0.0
 11
-0.3353632045003252
 21
2.68238151341621
 31
0.0
  0
LINE
  5
2008
330
50A
100
AcDbEntity
  8
0
100
AcDbLine
 10
-0.3262239089110501
 20
2.507381513416213
 30
0.0
 11
-2.076223908911057
 21
2.507381513416213
 31
0.0
  0
LINE
  5
2009
330
50A
100
AcDbEntity
  8
0
100
AcDbLine
 10
-0.3262239089110537
 20
2.507381513416213
 30
0.0
 11
-0.3262239089110537
 21
3.188966839377024
 31
0.0
  0
CIRCLE
  5
200A
330
50A
100
AcDbEntity
  8
0
100
AcDbCircle
 10
-1.030834613321787
 20
2.898549530119173
 30
0.0
 40
0.34375
  0
LINE
  5
200B
330
50A
100
AcDbEntity
  8
0
100
AcDbLine
 10
-2.763723908911068
 20
2.507381513416213
 30
0.0
 11
-2.763723908911068
 21
2.689531513416235
 31
0.0
  0
LINE
  5
200C
330
50A
100
AcDbEntity
  8
0
100
AcDbLine
 10
-2.076223908911054
 20
2.507381513416213
 30
0.0
 11
-2.076223908911054
 21
2.689531513416235
 31
0.0
  0
ARC
  5
200D
330
50A
100
AcDbEntity
  8
0
  6
HIDDEN
100
AcDbCircle
 10
-1.919973908911054
 20
3.596486791937032
 30
0.0
 40
0.485
100
AcDbArc
 50
0.000000000000007
 51
90.0
  0
ARC
  5
200E
330
50A
100
AcDbEntity
  8
0
  6
HIDDEN
100
AcDbCircle
 10
-1.919973908911054
 20
3.596486791937032
 30
0.0
 40
0.25
100
AcDbArc
 50
0.000000000000007
 51
90.0
  0
LINE
  5
200F
330
50A
100
AcDbEntity
  8
0
  6
HIDDEN
100
AcDbLine
 10
-1.43497390891104
 20
3.596486791937032
 30
0.0
 11
-1.43497390891104
 21
2.706495350837024
 31
0.0
  0
LINE
  5
2010
330
50A
100
AcDbEntity
  8
0
  6
HIDDEN
100
AcDbLine
 10
-1.669973908911054
 20
3.596486791937032
 30
0.0
 11
-1.669973908911054
 21
2.706495350837024
 31
0.0
  0
CIRCLE
  5
2011
330
50A
100
AcDbEntity
  8
0
  6
HIDDEN
100
AcDbCircle
 10
-1.030834613321787
 20
2.898549530119173
 30
0.0
 40
0.176
  0
ARC
  5
2012
330
50A
100
AcDbEntity
  8
0
100
AcDbCircle
 10
-2.419973908911057
 20
2.690251173416243
 30
0.0
 40
0.34375
100
AcDbArc
 50
0.000000000000007
 51
180.0
  0
ARC
  5
2013
330
50A
100
AcDbEntity
  8
0
100
AcDbCircle
 10
-2.419973908911054
 20
2.655629788416761
 30
0.0
 40
0.34375
100
AcDbArc
 50
0.000000000000007
 51
180.0
  0
LINE
  5
2014
330
50A
100
AcDbEntity
  8
0
  6
HIDDEN
100
AcDbLine
 10
-2.919973908911054
 20
3.846486791937032
 30
0.0
 11
-1.919973908911054
 21
3.846486791937032
 31
0.0
  0
LINE
  5
2015
330
50A
100
AcDbEntity
  8
0
  6
HIDDEN
100
AcDbLine
 10
-2.919973908911054
 20
4.081486791937032
 30
0.0
 11
-1.919973908911054
 21
4.081486791937032
 31
0.0
  0
LINE
  5
2016
330
50A
100
AcDbEntity
  8
0
  6
HIDDEN
100
AcDbLine
 10
-1.951223908911054
 20
3.846486791937032
 30
0.0
 11
-1.951223908911054
 21
4.081486791937032
 31
0.0
  0
LINE
  5
2017
330
50A
100
AcDbEntity
  8
0
  6
HIDDEN
100
AcDbLine
 10
-2.888723908911054
 20
3.846486791937032
 30
0.0
 11
-2.888723908911054
 21
4.081486791937032
 31
0.0
  0
CIRCLE
  5
2018
330
50A
100
AcDbEntity
  8
0
100
AcDbCircle
 10
-3.790834613321785
 20
2.898549530119169
 30
0.0
 40
0.34375
  0
LINE
  5
2019
330
50A
100
AcDbEntity
  8
0
100
AcDbLine
 10
-4.304973908909254
 20
3.209531513416231
 30
0.0
 11
-4.304973908909254
 21
2.507381513416213
 31
0.0
  0
LINE
  5
201A
330
50A
100
AcDbEntity
  8
0
  6
HIDDEN
100
AcDbLine
 10
-4.165673908909255
 20
3.452333948998799
 30
0.0
 11
-4.337473908909253
 21
3.280533948998816
 31
0.0
  0
LINE
  5
201B
330
50A
100
AcDbEntity
  8
0
100
AcDbLine
 10
-4.165673908909255
 20
3.709531513416209
 30
0.0
 11
-4.337473908909253
 21
3.709531513416209
 31
0.0
  0
LINE
  5
201C
330
50A
100
AcDbEntity
  8
0
100
AcDbLine
 10
-4.165673908909255
 20
3.209531513416238
 30
0.0
 11
-4.337473908909253
 21
3.209531513416231
 31
0.0
  0
LINE
  5
201D
330
50A
100
AcDbEntity
  8
0
  6
HIDDEN
100
AcDbLine
 10
-3.169973908911054
 20
3.596486791937032
 30
0.0
 11
-3.169973908911054
 21
2.706495350837024
 31
0.0
  0
LINE
  5
201E
330
50A
100
AcDbEntity
  8
0
  6
HIDDEN
100
AcDbLine
 10
-3.404973908911039
 20
3.596486791937032
 30
0.0
 11
-3.404973908911039
 21
2.706495350837024
 31
0.0
  0
LINE
  5
201F
330
50A
100
AcDbEntity
  8
0
100
AcDbLine
 10
-4.013600126700531
 20
3.604407731207509
 30
0.0
 11
-4.165673908909255
 21
3.452333948998799
 31
0.0
  0
CIRCLE
  5
2020
330
50A
100
AcDbEntity
  8
0
  6
HIDDEN
100
AcDbCircle
 10
-3.790834613321785
 20
2.898549530119169
 30
0.0
 40
0.176
  0
ARC
  5
2021
330
50A
100
AcDbEntity
  8
0
100
AcDbCircle
 10
-4.212473908909253
 20
3.803281513416202
 30
0.0
 40
0.28125
100
AcDbArc
 50
314.9999999999981
 51
80.42142702614657
  0
LINE
  5
2022
330
50A
100
AcDbEntity
  8
0
100
AcDbLine
 10
-2.399613484392454
 20
6.709531513416209
 30
0.0
 11
-4.337473908909253
 21
6.709531513416216
 31
0.0
  0
LINE
  5
2023
330
50A
100
AcDbEntity
  8
0
100
AcDbLine
 10
-4.165673908909255
 20
6.209531513416231
 30
0.0
 11
-4.337473908909253
 21
6.209531513416231
 31
0.0
  0
ARC
  5
219E
330
50A
100
AcDbEntity
  8
0
100
AcDbCircle
 10
7.717405421146021
 20
2.724740538967464
 30
0.0
 40
0.4557388376990849
100
AcDbArc
 50
17.1976932234312
 51
87.80230677656974
  0
ARC
  5
219F
330
50A
100
AcDbEntity
  8
0
  6
HIDDEN
100
AcDbCircle
 10
7.743832442663586
 20
2.782827126882674
 30
0.0
 40
0.2233388076534065
100
AcDbArc
 50
9.190720798200001
 51
93.91142119367157
  0
ARC
  5
21A0
330
50A
100
AcDbEntity
  8
0
100
AcDbCircle
 10
7.694859116659965
 20
3.204958444587315
 30
0.0
 40
0.03125
100
AcDbArc
 50
219.1519756839774
 51
279.7764983190777
  0
LINE
  5
21A1
330
50A
100
AcDbEntity
  8
0
100
AcDbLine
 10
7.700165531927462
 20
3.174162268574551
 30
0.0
 11
7.734881901720259
 21
3.180144163035226
 31
0.0
  0
LINE
  5
21A2
330
50A
100
AcDbEntity
  8
0
  6
HIDDEN
100
AcDbLine
 10
7.695250413388424
 20
3.155830036270845
 30
0.0
 11
7.565706801058747
 21
3.044208118599722
 31
0.0
  0
ARC
  5
21A3
330
50A
100
AcDbEntity
  8
0
  6
HIDDEN
100
AcDbCircle
 10
7.694254452745623
 20
3.204958562833906
 30
0.0
 40
0.20225
100
AcDbArc
 50
219.1519756839772
 51
279.7764983190776
  0
ARC
  5
21A4
330
50A
100
AcDbEntity
  8
0
  6
HIDDEN
100
AcDbCircle
 10
8.246068705298915
 20
2.899282145343752
 30
0.0
 40
0.2931163881517439
100
AcDbArc
 50
195.9978087183382
 51
241.0849752879364
  0
LINE
  5
21A5
330
50A
100
AcDbEntity
  8
0
100
AcDbLine
 10
8.155975488334223
 20
2.824406987634144
 30
0.0
 11
8.152768297004728
 21
2.859488654024214
 31
0.0
  0
ARC
  5
21A6
330
50A
100
AcDbEntity
  8
0
100
AcDbCircle
 10
8.187095711428329
 20
2.827252020950684
 30
0.0
 40
0.03125
100
AcDbArc
 50
185.2235016809221
 51
245.8480243160226
  0
ARC
  5
21AC
330
50A
100
AcDbEntity
  8
0
  6
HIDDEN
100
AcDbCircle
 10
9.695012485412383
 20
2.80142889532003
 30
0.0
 40
0.1875
100
AcDbArc
 50
80.22350168092231
 51
174.7764983190776
  0
ARC
  5
21AD
330
50A
100
AcDbEntity
  8
0
100
AcDbCircle
 10
9.755189784858233
 20
2.724740538967464
 30
0.0
 40
0.4557388376990849
100
AcDbArc
 50
92.19769322343026
 51
162.8023067765688
  0
ARC
  5
21AE
330
50A
100
AcDbEntity
  8
0
  6
HIDDEN
100
AcDbCircle
 10
9.226526500705338
 20
2.899282145343752
 30
0.0
 40
0.2931163881517439
100
AcDbArc
 50
298.9150247120636
 51
344.0021912816618
  0
ARC
  5
21B0
330
50A
100
AcDbEntity
  8
0
100
AcDbCircle
 10
9.285499494575925
 20
2.827252020950684
 30
0.0
 40
0.03125
100
AcDbArc
 50
294.1519756839774
 51
354.776498319078
  0
LINE
  5
21B1
330
50A
100
AcDbEntity
  8
0
100
AcDbLine
 10
9.316619717670031
 20
2.824406987634144
 30
0.0
 11
9.319826908999525
 21
2.859488654024214
 31
0.0
  0
ARC
  5
21B2
330
50A
100
AcDbEntity
  8
0
  6
HIDDEN
100
AcDbCircle
 10
9.718843941912121
 20
3.286940013940394
 30
0.0
 40
0.3008406371906545
100
AcDbArc
 50
271.5251380393863
 51
315.8152768223147
  0
LINE
  5
21B3
330
50A
100
AcDbEntity
  8
0
  6
HIDDEN
100
AcDbLine
 10
9.77734479261583
 20
3.155830036270845
 30
0.0
 11
9.906888404945507
 21
3.044208118599722
 31
0.0
  0
LINE
  5
21B4
330
50A
100
AcDbEntity
  8
0
100
AcDbLine
 10
9.772429674076792
 20
3.174162268574551
 30
0.0
 11
9.737713304283995
 21
3.180144163035226
 31
0.0
  0
ARC
  5
21B5
330
50A
100
AcDbEntity
  8
0
100
AcDbCircle
 10
9.777736089344289
 20
3.204958444587315
 30
0.0
 40
0.03125
100
AcDbArc
 50
260.2235016809223
 51
320.8480243160227
  0
ENDSEC
  0
SECTION
  2
OBJECTS
  0
DICTIONARY
  5
4FF
330
0
100
AcDbDictionary
281
     1
  3
ACAD_COLOR
350
220F
  3
ACAD_GROUP
350
500
  3
ACAD_LAYOUT
350
627
  3
ACAD_MATERIAL
350
220E
  3
ACAD_MLINESTYLE
350
50D
  3
ACAD_PLOTSETTINGS
350
628
  3
ACAD_PLOTSTYLENAME
350
625
  3
ACAD_TABLESTYLE
350
2210
  3
ACDBHEADERROUNDTRIPXREC
350
221D
  3
ACDBVARIABLEDICTIONARY
350
552
  3
ASE_INDEX_DICTIONARY
350
1E42
  0
DICTIONARY
  5
2028
330
4F5
100
AcDbDictionary
280
     1
281
     1
  3
ACAD_LAYERFILTERS
360
2029
  0
DICTIONARY
  5
220F
102
{ACAD_REACTORS
330
4FF
102
}
330
4FF
100
AcDbDictionary
281
     1
  0
DICTIONARY
  5
500
102
{ACAD_REACTORS
330
4FF
102
}
330
4FF
100
AcDbDictionary
281
     1
  0
DICTIONARY
  5
627
102
{ACAD_REACTORS
330
4FF
102
}
330
4FF
100
AcDbDictionary
281
     1
  3
Layout1
350
62A
  3
Model
350
629
  0
DICTIONARY
  5
220E
102
{ACAD_REACTORS
330
4FF
102
}
330
4FF
100
AcDbDictionary
281
     1
  0
DICTIONARY
  5
50D
102
{ACAD_REACTORS
330
4FF
102
}
330
4FF
100
AcDbDictionary
281
     1
  3
STANDARD
350
50E
  0
DICTIONARY
  5
628
102
{ACAD_REACTORS
330
4FF
102
}
330
4FF
100
AcDbDictionary
281
     1
  0
ACDBDICTIONARYWDFLT
  5
625
102
{ACAD_REACTORS
330
4FF
102
}
330
4FF
100
AcDbDictionary
281
     1
  3
Normal
350
626
100
AcDbDictionaryWithDefault
340
626
  0
DICTIONARY
  5
2210
102
{ACAD_REACTORS
330
4FF
102
}
330
4FF
100
AcDbDictionary
281
     1
  3
Standard
350
2211
  0
DICTIONARY
  5
221D
102
{ACAD_REACTORS
330
4FF
102
}
330
4FF
100
AcDbDictionary
281
     1
  3
COLORDICT
350
221E
  3
MATERIALDICT
350
221F
  0
DICTIONARY
  5
552
102
{ACAD_REACTORS
330
4FF
102
}
330
4FF
100
AcDbDictionary
281
     1
  3
CTABLESTYLE
350
221A
  3
DIMADEC
350
553
  0
DICTIONARY
  5
1E42
102
{ACAD_REACTORS
330
4FF
102
}
330
4FF
100
AcDbDictionary
281
     1
  3
ASEBlockHierarchyIndexRecord
350
1E43
1001
DCO15
1040
1583223876.328
  0
DICTIONARY
  5
2029
102
{ACAD_REACTORS
330
2028
102
}
330
2028
100
AcDbDictionary
280
     1
281
     1
  3
0
360
202A
  3
0DWI
360
202B
  3
1
360
202C
  3
1-STM
360
202D
  3
10
360
202E
  3
11
360
202F
  3
131
360
2030
  3
1st
360
2031
  3
1st Floor
360
2032
  3
1STM
360
2033
  3
2
360
2034
  3
204
360
2035
  3
22
360
2036
  3
251
360
2037
  3
252
360
2038
  3
253
360
2039
  3
2nd
360
203A
  3
2nd Floor
360
203B
  3
2nd Floor Electrical
360
203C
  3
3
360
203D
  3
30
360
203E
  3
3D
360
203F
  3
3rd
360
2040
  3
4
360
2041
  3
40
360
2042
  3
4th
360
2043
  3
8
360
2044
  3
9
360
2045
  3
a
360
2046
  3
A-
360
2047
  3
A-DOOR
360
2048
  3
A-FURN
360
2049
  3
A-WALL
360
204A
  3
A2A
360
204B
  3
A2B
360
204C
  3
A2C
360
204D
  3
A3A
360
204E
  3
A3B
360
204F
  3
A3C
360
2050
  3
A4A
360
2051
  3
A4B
360
2052
  3
A4C
360
2053
  3
A5A
360
2054
  3
A5B
360
2055
  3
A5C
360
2056
  3
A6A
360
2057
  3
A6B
360
2058
  3
A6C
360
2059
  3
all
360
205A
  3
All Options
360
205B
  3
All Thawed & On
360
205C
  3
ALL8
360
205D
  3
ALLON
360
205E
  3
an_details
360
205F
  3
ARCH
360
2060
  3
asdsdf
360
2061
  3
at
360
2062
  3
audit
360
2063
  3
awallext
360
2064
  3
awallfdn
360
2065
  3
b
360
2066
  3
base
360
2067
  3
BASE PLAN
360
2068
  3
baseline
360
2069
  3
basement
360
206A
  3
bl
360
206B
  3
BLUE
360
206C
  3
bndy
360
206D
  3
Building Lines
360
206E
  3
buildingtext
360
206F
  3
C-PTS
360
2070
  3
Cabinets
360
2071
  3
CEILING
360
2072
  3
CEILINGC
360
2073
  3
CIVIL
360
2074
  3
CL
360
2075
  3
cl-alley
360
2076
  3
clg
360
2077
  3
CMU
360
2078
  3
color
360
2079
  3
COLOR 15
360
207A
  3
color 254
360
207B
  3
color 9
360
207C
  3
COLOR10
360
207D
  3
COLOR132
360
207E
  3
COMP
360
207F
  3
con
360
2080
  3
construction
360
2081
  3
CONT
360
2082
  3
contour
360
2083
  3
CONTOURS
360
2084
  3
CRA-FUN
360
2085
  3
curb
360
2086
  3
current viewport frozen
360
2087
  3
CURRENT VP FROZEN
360
2088
  3
dawn
360
2089
  3
DD125
360
208A
  3
demo
360
208B
  3
Demo Layers
360
208C
  3
dim
360
208D
  3
DIMSONLY
360
208E
  3
DITCH
360
208F
  3
DOORBADGES
360
2090
  3
doors
360
2091
  3
DWI
360
2092
  3
e
360
2093
  3
E1A
360
2094
  3
E1B
360
2095
  3
E1C
360
2096
  3
E2A
360
2097
  3
E2B
360
2098
  3
E2C
360
2099
  3
ea
360
209A
  3
ELEC
360
209B
  3
Electrical
360
209C
  3
Elev_
360
209D
  3
elevation
360
209E
  3
ELEVATIONS
360
209F
  3
EOS
360
20A0
  3
esm
360
20A1
  3
ESMT
360
20A2
  3
ex
360
20A3
  3
Ex2
360
20A4
  3
exg
360
20A5
  3
EXIST
360
20A6
  3
existing
360
20A7
  3
existing1
360
20A8
  3
existing2
360
20A9
  3
exit
360
20AA
  3
EXTRA
360
20AB
  3
f
360
20AC
  3
fence
360
20AD
  3
filter10
360
20AE
  3
filter13
360
20AF
  3
FINAL PLAT
360
20B0
  3
FIREPROT
360
20B1
  3
First
360
20B2
  3
First Floor
360
20B3
  3
FIT
360
20B4
  3
FITTING
360
20B5
  3
FITTINGS
360
20B6
  3
Fixtures
360
20B7
  3
Flood
360
20B8
  3
FLOOR FINISH
360
20B9
  3
Floor plan
360
20BA
  3
FLOORFINISH
360
20BB
  3
Foundation
360
20BC
  3
FRAME1
360
20BD
  3
freeze
360
20BE
  3
Frez Layers
360
20BF
  3
FROZEN
360
20C0
  3
frozen layers
360
20C1
  3
FURN
360
20C2
  3
FURNITURE
360
20C3
  3
GAS
360
20C4
  3
GENERAL
360
20C5
  3
GORDY
360
20C6
  3
green
360
20C7
  3
grid
360
20C8
  3
GS-DesignWorkshop
360
20C9
  3
HANDICAP
360
20CA
  3
hatch
360
20CB
  3
HEADER
360
20CC
  3
HLA
360
20CD
  3
inlet
360
20CE
  3
int
360
20CF
  3
INTERIOR
360
20D0
  3
K
360
20D1
  3
Kinko Space Plan
360
20D5
  3
Kinko's Data-Comm Layout
360
20D2
  3
Kinko's Equipment Layout
360
20D3
  3
Kinko's Merchandise Layout
360
20D4
  3
LBL
360
20D6
  3
Lites
360
20D7
  3
locked
360
20D8
  3
LOT
360
20D9
  3
lots
360
20DA
  3
lower floor
360
20DB
  3
LS
360
20DC
  3
LSG
360
20DD
  3
MAGENTA
360
20DE
  3
MAIN
360
20DF
  3
Main Floor
360
20E0
  3
MECH
360
20E1
  3
METAL
360
20E2
  3
MEZ
360
20E3
  3
MH
360
20E4
  3
Misc
360
20E5
  3
MP
360
20E6
  3
mtl
360
20E7
  3
NAME
360
20E8
  3
NAMES
360
20E9
  3
new
360
20EA
  3
new1
360
20EB
  3
new2
360
20EC
  3
No Xrefs
360
20EE
  3
NO-PLOT
360
20ED
  3
non-visible
360
20EF
  3
non-xref
360
20F0
  3
notes
360
20F1
  3
NUMS
360
20F2
  3
OFF
360
20F3
  3
off layers
360
20F4
  3
OFF THAW
360
20F5
  3
OLD
360
20F6
  3
on
360
20F7
  3
oPTION
360
20F8
  3
Option 1
360
20F9
  3
Option 2
360
20FA
  3
Option 3
360
20FB
  3
Options
360
20FC
  3
p-
360
20FD
  3
p1
360
20FE
  3
p2
360
20FF
  3
p3
360
2100
  3
p4
360
2101
  3
pads
360
2102
  3
Pattern
360
2103
  3
Patterns
360
2104
  3
PAV
360
2105
  3
pen1
360
2106
  3
pen2
360
2107
  3
pen3
360
2108
  3
pen4
360
2109
  3
pen5
360
210A
  3
PH1
360
210B
  3
PH2
360
210C
  3
PH3
360
210D
  3
PH5
360
210E
  3
Phase 1
360
210F
  3
Phase 2
360
2110
  3
PIPE
360
2111
  3
pl
360
2112
  3
PLAN
360
2113
  3
Plans
360
2114
  3
PLUM
360
2115
  3
plumb
360
2116
  3
PLUMBING
360
2117
  3
Point layers
360
2118
  3
points
360
2119
  3
profiles
360
211A
  3
PROP
360
211B
  3
proposed
360
211C
  3
ps2-ref
360
211D
  3
pt
360
211E
  3
PTS
360
211F
  3
quadbuildings
360
2120
  3
QUADGRID
360
2121
  3
quadlightinh
360
2122
  3
quadroads
360
2123
  3
quadtrees
360
2124
  3
quadtunnels
360
2125
  3
quadutilities
360
2126
  3
quadwalks&curbs
360
2127
  3
R2
360
2128
  3
rcp
360
2129
  3
rds
360
212A
  3
red
360
212B
  3
Reflected Cieling
360
212C
  3
REFRIG
360
212D
  3
reqw
360
212E
  3
retainingwalls
360
212F
  3
rf
360
2130
  3
RIP-RAP
360
2131
  3
Roof
360
2132
  3
roomnames
360
2133
  3
row
360
2134
  3
s-layers
360
2135
  3
s-llayers
360
2136
  3
S-SITE
360
2137
  3
SAN
360
2138
  3
San Sew
360
213A
  3
san-sew
360
2139
  3
SAN. SEW.
360
213B
  3
Sanitary Sewer
360
213C
  3
sanswr
360
213D
  3
SECO
360
213E
  3
SECOND
360
213F
  3
Second Floor
360
2140
  3
secondfloor
360
2141
  3
septic
360
2142
  3
shade off
360
2143
  3
Show ALL (ABND)
360
2144
  3
Show ALL (DETL)
360
2145
  3
Show ALL (EXST)
360
2146
  3
Show ALL (FUTR)
360
2147
  3
Show ALL (PKNG)
360
2148
  3
Show ALL (PROP)
360
2149
  3
Show ALL (ROAD)
360
214A
  3
Show ALL (STRU)
360
214B
  3
Show all BORDERS
360
214C
  3
Show all PATTERNS
360
214D
  3
Show all Rendering
360
214E
  3
SHT
360
214F
  3
Silte Layers
360
2150
  3
Site
360
2151
  3
Slab
360
2152
  3
Slayers
360
2153
  3
Square Footage
360
2154
  3
ss
360
2155
  3
SSMH
360
2156
  3
STA
360
2157
  3
STAIRS
360
2158
  3
Standard Layers
360
2159
  3
stations
360
215A
  3
STM
360
215B
  3
STRBASE
360
215C
  3
STREET
360
215D
  3
STRU
360
215E
  3
STRUCTURALFOUNDATION
360
215F
  3
stucco
360
2160
  3
SURVEY
360
2161
  3
SW
360
2162
  3
SYM
360
2163
  3
SYMBOLLEGEND
360
2164
  3
TEMP
360
2165
  3
TEXT
360
2166
  3
thaw
360
2167
  3
thawed
360
2168
  3
THAWEDandON
360
2169
  3
tree
360
216A
  3
TURNER
360
216B
  3
Upper Floor
360
216C
  3
UpperNew
360
216D
  3
utilitytext
360
216E
  3
visible
360
216F
  3
WALK
360
2170
  3
wall
360
2171
  3
WALLS
360
2172
  3
WALLSONLY
360
2173
  3
WAT
360
2174
  3
WATER
360
2175
  3
WATER FITTINGS
360
2176
  3
WaterShed
360
2177
  3
white
360
2178
  3
WW
360
2179
  3
Xref
360
217A
  3
XX
360
217B
  0
LAYOUT
  5
62A
102
{ACAD_REACTORS
330
627
102
}
102
{ACAD_XDICTIONARY
360
2220
102
}
330
627
100
AcDbPlotSettings
  1

  2
C:\ACAD2000\plotters\HP LaserJet 2100 Series PS.pc3
  4

  6

 40
0.0
 41
0.0
 42
0.0
 43
0.0
 44
0.0
 45
0.0
 46
0.0
 47
0.0
 48
0.0
 49
0.0
140
0.0
141
0.0
142
1.0
143
1.0
 70
   688
 72
     0
 73
     0
 74
     5
  7

 75
    16
147
1.0
148
0.0
149
0.0
100
AcDbLayout
  1
Layout1
 70
     0
 71
     1
 10
0.0
 20
0.0
 11
12.0
 21
9.0
 12
0.0
 22
0.0
 32
0.0
 14
1.000000000000000E+20
 24
1.000000000000000E+20
 34
1.000000000000000E+20
 15
-1.000000000000000E+20
 25
-1.000000000000000E+20
 35
-1.000000000000000E+20
146
0.0
 13
0.0
 23
0.0
 33
0.0
 16
1.0
 26
0.0
 36
0.0
 17
0.0
 27
1.0
 37
0.0
 76
     0
330
507
  0
LAYOUT
  5
629
102
{ACAD_REACTORS
330
627
102
}
102
{ACAD_XDICTIONARY
360
2222
102
}
330
627
100
AcDbPlotSettings
  1

  2
HP LaserJet 2100 Series PS
  4
Letter
  6
PLOTTER
 40
5.365749835968018
 41
5.365735054016113
 42
3.175003051757813
 43
3.17498779296875
 44
210.4813232421875
 45
273.9813232421875
 46
0.0
 47
0.254
 48
0.0
 49
0.0
140
0.0
141
0.0
142
1.0
143
3.0187099052458
 70
 28340
 72
     0
 73
     1
 74
     2
  7

 75
     0
147
0.3312673398203112
148
0.0
149
0.0
100
AcDbLayout
  1
Model
 70
     1
 71
     0
 10
0.0
 20
0.0
 11
12.0
 21
9.0
 12
0.0
 22
0.0
 32
0.0
 14
0.0
 24
0.0
 34
0.0
 15
0.0
 25
0.0
 35
0.0
146
0.0
 13
0.0
 23
0.0
 33
0.0
 16
1.0
 26
0.0
 36
0.0
 17
0.0
 27
1.0
 37
0.0
 76
     0
330
50A
  0
MLINESTYLE
  5
50E
102
{ACAD_REACTORS
330
50D
102
}
330
50D
100
AcDbMlineStyle
  2
STANDARD
 70
     0
  3

 62
   256
 51
90.0
 52
90.0
 71
     2
 49
0.5
 62
   256
  6
BYLAYER
 49
-0.5
 62
   256
  6
BYLAYER
  0
ACDBPLACEHOLDER
  5
626
102
{ACAD_REACTORS
330
625
102
}
330
625
  0
ACAD_PROXY_OBJECT
  5
2211
102
{ACAD_REACTORS
330
2210
102
}
330
2210
100
AcDbProxyObject
 90
      499
 91
      518
 95
   983063
 70
     0
 93
     1841
310
4214DD185B99185C9928B81E85EB51B8AE3F2E07A17AD46E2B8FC02B5E8DC0F42B1CFD028000000C1008070000C3001FDFF8000000C1003FBFF000000182007F7FE00000030400FEFFC00000060801FDFF8000000C1003FBFF00000018200000000000000681FA0B0000001820100E000186003FBFF000000182007F7FE000
310
00030400FEFFC00000060801FDFF8000000C1003FBFF000000182007F7FE000000304000AD7A3703D0AC73F4160000003040201C00030C007F7FE00000030400FEFFC00000060801FDFF8000000C1003FBFF000000182007F7FE00000030400FEFFC000000608000
340
502
340
502
340
502
 94
        0
  0
XRECORD
  5
221E
102
{ACAD_REACTORS
330
221D
102
}
330
221D
100
AcDbXrecord
340
220F
  0
XRECORD
  5
221F
102
{ACAD_REACTORS
330
221D
102
}
330
221D
100
AcDbXrecord
340
220E
  0
DICTIONARYVAR
  5
221A
102
{ACAD_REACTORS
330
552
102
}
330
552
100
DictionaryVariables
280
     0
  1
STANDARD
  0
DICTIONARYVAR
  5
553
102
{ACAD_REACTORS
330
552
102
}
330
552
100
DictionaryVariables
280
     0
  1
0
  0
XRECORD
  5
1E43
102
{ACAD_REACTORS
330
1E42
102
}
330
1E42
100
AcDbXrecord
280
     1
330
0
330
0
330
0
330
0
330
0
330
0
  0
XRECORD
  5
202A
102
{ACAD_REACTORS
330
2029
102
}
330
2029
100
AcDbXrecord
280
     1
  1
0
  1
*0
  1
*
  1
*
 70
     0
  1
*
  1
*
  0
XRECORD
  5
202B
102
{ACAD_REACTORS
330
2029
102
}
330
2029
100
AcDbXrecord
280
     1
  1
0DWI
  1
0DWI*
  1
*
  1
*
 70
     0
  1
*
  1
*
  0
XRECORD
  5
202C
102
{ACAD_REACTORS
330
2029
102
}
330
2029
100
AcDbXrecord
280
     1
  1
1
  1
*
  1
*
  1
*
 70
    64
  1
*
  1
*
  0
XRECORD
  5
202D
102
{ACAD_REACTORS
330
2029
102
}
330
2029
100
AcDbXrecord
280
     1
  1
1-STM
  1
*990661-STM*
  1
*
  1
*
 70
     0
  1
*
  1
*
  0
XRECORD
  5
202E
102
{ACAD_REACTORS
330
2029
102
}
330
2029
100
AcDbXrecord
280
     1
  1
10
  1
*
  1
10
  1
*
 70
     0
  1
*
  1
*
  0
XRECORD
  5
202F
102
{ACAD_REACTORS
330
2029
102
}
330
2029
100
AcDbXrecord
280
     1
  1
11
  1
*
  1
11
  1
*
 70
     0
  1
*
  1
*
  0
XRECORD
  5
2030
102
{ACAD_REACTORS
330
2029
102
}
330
2029
100
AcDbXrecord
280
     1
  1
131
  1
*
  1
*131*
  1
*
 70
     0
  1
*
  1
*
  0
XRECORD
  5
2031
102
{ACAD_REACTORS
330
2029
102
}
330
2029
100
AcDbXrecord
280
     1
  1
1st
  1
1st*
  1
*
  1
*
 70
     0
  1
*
  1
*
  0
XRECORD
  5
2032
102
{ACAD_REACTORS
330
2029
102
}
330
2029
100
AcDbXrecord
280
     1
  1
1st Floor
  1
1*
  1
*
  1
*
 70
     0
  1
*
  1
*
  0
XRECORD
  5
2033
102
{ACAD_REACTORS
330
2029
102
}
330
2029
100
AcDbXrecord
280
     1
  1
1STM
  1
*1STM*
  1
*
  1
*
 70
     0
  1
*
  1
*
  0
XRECORD
  5
2034
102
{ACAD_REACTORS
330
2029
102
}
330
2029
100
AcDbXrecord
280
     1
  1
2
  1
*2
  1
*
  1
*
 70
     0
  1
*
  1
*
  0
XRECORD
  5
2035
102
{ACAD_REACTORS
330
2029
102
}
330
2029
100
AcDbXrecord
280
     1
  1
204
  1
*204*
  1
*
  1
*
 70
     0
  1
*
  1
*
  0
XRECORD
  5
2036
102
{ACAD_REACTORS
330
2029
102
}
330
2029
100
AcDbXrecord
280
     1
  1
22
  1
*
  1
*22*
  1
*
 70
     0
  1
*
  1
*
  0
XRECORD
  5
2037
102
{ACAD_REACTORS
330
2029
102
}
330
2029
100
AcDbXrecord
280
     1
  1
251
  1
*
  1
251
  1
*
 70
     0
  1
*
  1
*
  0
XRECORD
  5
2038
102
{ACAD_REACTORS
330
2029
102
}
330
2029
100
AcDbXrecord
280
     1
  1
252
  1
*
  1
252
  1
*
 70
     0
  1
*
  1
*
  0
XRECORD
  5
2039
102
{ACAD_REACTORS
330
2029
102
}
330
2029
100
AcDbXrecord
280
     1
  1
253
  1
*
  1
253
  1
*
 70
     0
  1
*
  1
*
  0
XRECORD
  5
203A
102
{ACAD_REACTORS
330
2029
102
}
330
2029
100
AcDbXrecord
280
     1
  1
2nd
  1
2nd*
  1
*
  1
*
 70
     0
  1
*
  1
*
  0
XRECORD
  5
203B
102
{ACAD_REACTORS
330
2029
102
}
330
2029
100
AcDbXrecord
280
     1
  1
2nd Floor
  1
2*
  1
*
  1
*
 70
     0
  1
*
  1
*
  0
XRECORD
  5
203C
102
{ACAD_REACTORS
330
2029
102
}
330
2029
100
AcDbXrecord
280
     1
  1
2nd Floor Electrical
  1
2*Elec*,2*Powr*,2*Lite*
  1
*
  1
*
 70
     0
  1
*
  1
*
  0
XRECORD
  5
203D
102
{ACAD_REACTORS
330
2029
102
}
330
2029
100
AcDbXrecord
280
     1
  1
3
  1
*
  1
*3
  1
*
 70
     0
  1
*
  1
*
  0
XRECORD
  5
203E
102
{ACAD_REACTORS
330
2029
102
}
330
2029
100
AcDbXrecord
280
     1
  1
30
  1
*
  1
*30
  1
*
 70
     0
  1
*
  1
*
  0
XRECORD
  5
203F
102
{ACAD_REACTORS
330
2029
102
}
330
2029
100
AcDbXrecord
280
     1
  1
3D
  1
*3D*
  1
*
  1
*
 70
     0
  1
*
  1
*
  0
XRECORD
  5
2040
102
{ACAD_REACTORS
330
2029
102
}
330
2029
100
AcDbXrecord
280
     1
  1
3rd
  1
3rd*
  1
*
  1
*
 70
     0
  1
*
  1
*
  0
XRECORD
  5
2041
102
{ACAD_REACTORS
330
2029
102
}
330
2029
100
AcDbXrecord
280
     1
  1
4
  1
*
  1
4*
  1
*
 70
     0
  1
*
  1
*
  0
XRECORD
  5
2042
102
{ACAD_REACTORS
330
2029
102
}
330
2029
100
AcDbXrecord
280
     1
  1
40
  1
*
  1
*40
  1
*
 70
     0
  1
*
  1
*
  0
XRECORD
  5
2043
102
{ACAD_REACTORS
330
2029
102
}
330
2029
100
AcDbXrecord
280
     1
  1
4th
  1
*4th
  1
*
  1
*
 70
     0
  1
*
  1
*
  0
XRECORD
  5
2044
102
{ACAD_REACTORS
330
2029
102
}
330
2029
100
AcDbXrecord
280
     1
  1
8
  1
*
  1
8
  1
*
 70
     0
  1
*
  1
*
  0
XRECORD
  5
2045
102
{ACAD_REACTORS
330
2029
102
}
330
2029
100
AcDbXrecord
280
     1
  1
9
  1
*
  1
9
  1
*
 70
     0
  1
*
  1
*
  0
XRECORD
  5
2046
102
{ACAD_REACTORS
330
2029
102
}
330
2029
100
AcDbXrecord
280
     1
  1
a
  1
a*
  1
*
  1
*
 70
     0
  1
*
  1
*
  0
XRECORD
  5
2047
102
{ACAD_REACTORS
330
2029
102
}
330
2029
100
AcDbXrecord
280
     1
  1
A-
  1
*
  1
*
  1
*
 70
     0
  1
*
  1
*
  0
XRECORD
  5
2048
102
{ACAD_REACTORS
330
2029
102
}
330
2029
100
AcDbXrecord
280
     1
  1
A-DOOR
  1
*
  1
*
  1
*
 70
     0
  1
*
  1
*
  0
XRECORD
  5
2049
102
{ACAD_REACTORS
330
2029
102
}
330
2029
100
AcDbXrecord
280
     1
  1
A-FURN
  1
*
  1
*
  1
*
 70
     0
  1
*
  1
*
  0
XRECORD
  5
204A
102
{ACAD_REACTORS
330
2029
102
}
330
2029
100
AcDbXrecord
280
     1
  1
A-WALL
  1
*A-WALL*
  1
*
  1
*
 70
     0
  1
*
  1
*
  0
XRECORD
  5
204B
102
{ACAD_REACTORS
330
2029
102
}
330
2029
100
AcDbXrecord
280
     1
  1
A2A
  1
*-B-*,*-C-*,*APPLI*,E-*,*ELEC*
  1
*
  1
*
 70
     0
  1
*
  1
*
  0
XRECORD
  5
204C
102
{ACAD_REACTORS
330
2029
102
}
330
2029
100
AcDbXrecord
280
     1
  1
A2B
  1
*-A-*,*-C-*,*APPLI*,E-*,*ELEC*
  1
*
  1
*
 70
     0
  1
*
  1
*
  0
XRECORD
  5
204D
102
{ACAD_REACTORS
330
2029
102
}
330
2029
100
AcDbXrecord
280
     1
  1
A2C
  1
*-A-*,*-B-*,*APPLI*,E-*,*ELEC*
  1
*
  1
*
 70
     0
  1
*
  1
*
  0
XRECORD
  5
204E
102
{ACAD_REACTORS
330
2029
102
}
330
2029
100
AcDbXrecord
280
     1
  1
A3A
  1
*-4-*,*-B-*,*-C-*,*BEAM*,*ROOF*,*TRUS*,E-*,*ELEC*
  1
*
  1
*
 70
     0
  1
*
  1
*
  0
XRECORD
  5
204F
102
{ACAD_REACTORS
330
2029
102
}
330
2029
100
AcDbXrecord
280
     1
  1
A3B
  1
*-4-*,*-A-*,*-C-*,*BEAM*,*ROOF*,*TRUS*,E-*,*ELEC*
  1
*
  1
*
 70
     0
  1
*
  1
*
  0
XRECORD
  5
2050
102
{ACAD_REACTORS
330
2029
102
}
330
2029
100
AcDbXrecord
280
     1
  1
A3C
  1
*-4-*,*-A-*,*-B-*,*BEAM*,*ROOF*,*TRUS*,E-*,*ELEC*
  1
*
  1
*
 70
     0
  1
*
  1
*
  0
XRECORD
  5
2051
102
{ACAD_REACTORS
330
2029
102
}
330
2029
100
AcDbXrecord
280
     1
  1
A4A
  1
*-3-*,*-B-*,*-C-*,*DIM*,*APPLI*,*HATCH*,E-*,*ELEC*
  1
*
  1
*
 70
     0
  1
*
  1
*
  0
XRECORD
  5
2052
102
{ACAD_REACTORS
330
2029
102
}
330
2029
100
AcDbXrecord
280
     1
  1
A4B
  1
*-3-*,*-A-*,*-C-*,*DIM*,*APPLI*,*HATCH*,E-*,*ELEC*
  1
*
  1
*
 70
     0
  1
*
  1
*
  0
XRECORD
  5
2053
102
{ACAD_REACTORS
330
2029
102
}
330
2029
100
AcDbXrecord
280
     1
  1
A4C
  1
*-3-*,*-A-*,*-B-*,*DIM*,*APPLI*,*HATCH*,E-*,*ELEC*
  1
*
  1
*
 70
     0
  1
*
  1
*
  0
XRECORD
  5
2054
102
{ACAD_REACTORS
330
2029
102
}
330
2029
100
AcDbXrecord
280
     1
  1
A5A
  1
*-6-*,*-B-*,*-C-*,*BEAM*,*ROOF*,*TRUS*,E-*
  1
*
  1
*
 70
     0
  1
*
  1
*
  0
XRECORD
  5
2055
102
{ACAD_REACTORS
330
2029
102
}
330
2029
100
AcDbXrecord
280
     1
  1
A5B
  1
*-6-*,*-A-*,*-C-*,*BEAM*,*ROOF*,*TRUS*,E-*
  1
*
  1
*
 70
     0
  1
*
  1
*
  0
XRECORD
  5
2056
102
{ACAD_REACTORS
330
2029
102
}
330
2029
100
AcDbXrecord
280
     1
  1
A5C
  1
*-6-*,*-A-*,*-B-*,*BEAM*,*ROOF*,*TRUS*,E-*
  1
*
  1
*
 70
     0
  1
*
  1
*
  0
XRECORD
  5
2057
102
{ACAD_REACTORS
330
2029
102
}
330
2029
100
AcDbXrecord
280
     1
  1
A6A
  1
*-5-*,*-B-*,*-C-*,*DIM*,*APPLI*,*HATCH*,E-*,*ELEC*
  1
*
  1
*
 70
     0
  1
*
  1
*
  0
XRECORD
  5
2058
102
{ACAD_REACTORS
330
2029
102
}
330
2029
100
AcDbXrecord
280
     1
  1
A6B
  1
*-5-*,*-A-*,*-C-*,*DIM*,*APPLI*,*HATCH*,E-*,*ELEC*
  1
*
  1
*
 70
     0
  1
*
  1
*
  0
XRECORD
  5
2059
102
{ACAD_REACTORS
330
2029
102
}
330
2029
100
AcDbXrecord
280
     1
  1
A6C
  1
*-5-*,*-A-*,*-B-*,*DIM*,*APPLI*,*HATCH*,E-*,*ELEC*
  1
*
  1
*
 70
     0
  1
*
  1
*
  0
XRECORD
  5
205A
102
{ACAD_REACTORS
330
2029
102
}
330
2029
100
AcDbXrecord
280
     1
  1
all
  1
*
  1
*
  1
*
 70
     0
  1
*
  1
*
  0
XRECORD
  5
205B
102
{ACAD_REACTORS
330
2029
102
}
330
2029
100
AcDbXrecord
280
     1
  1
All Options
  1
Option*
  1
*
  1
*
 70
     0
  1
*
  1
*
  0
XRECORD
  5
205C
102
{ACAD_REACTORS
330
2029
102
}
330
2029
100
AcDbXrecord
280
     1
  1
All Thawed & On
  1
*
  1
*
  1
*
 70
    13
  1
*
  1
*
  0
XRECORD
  5
205D
102
{ACAD_REACTORS
330
2029
102
}
330
2029
100
AcDbXrecord
280
     1
  1
ALL8
  1
*
  1
8
  1
*
 70
     0
  1
*
  1
*
  0
XRECORD
  5
205E
102
{ACAD_REACTORS
330
2029
102
}
330
2029
100
AcDbXrecord
280
     1
  1
ALLON
  1
*
  1
*
  1
*
 70
    13
  1
*
  1
*
  0
XRECORD
  5
205F
102
{ACAD_REACTORS
330
2029
102
}
330
2029
100
AcDbXrecord
280
     1
  1
an_details
  1
*an_details
  1
*
  1
*
 70
     0
  1
*
  1
*
  0
XRECORD
  5
2060
102
{ACAD_REACTORS
330
2029
102
}
330
2029
100
AcDbXrecord
280
     1
  1
ARCH
  1
A*
  1
*
  1
*
 70
     0
  1
*
  1
*
  0
XRECORD
  5
2061
102
{ACAD_REACTORS
330
2029
102
}
330
2029
100
AcDbXrecord
280
     1
  1
asdsdf
  1
*
  1
*
  1
*
 70
     5
  1
*
  1
*
  0
XRECORD
  5
2062
102
{ACAD_REACTORS
330
2029
102
}
330
2029
100
AcDbXrecord
280
     1
  1
at
  1
*at*
  1
*
  1
*
 70
     0
  1
*
  1
*
  0
XRECORD
  5
2063
102
{ACAD_REACTORS
330
2029
102
}
330
2029
100
AcDbXrecord
280
     1
  1
audit
  1
*audit*
  1
*
  1
*
 70
     0
  1
*
  1
*
  0
XRECORD
  5
2064
102
{ACAD_REACTORS
330
2029
102
}
330
2029
100
AcDbXrecord
280
     1
  1
awallext
  1
*a-wall-ext,*a-wall-fdn
  1
*
  1
*
 70
     0
  1
*
  1
*
  0
XRECORD
  5
2065
102
{ACAD_REACTORS
330
2029
102
}
330
2029
100
AcDbXrecord
280
     1
  1
awallfdn
  1
*a-wall-fdn
  1
*
  1
*
 70
     0
  1
*
  1
*
  0
XRECORD
  5
2066
102
{ACAD_REACTORS
330
2029
102
}
330
2029
100
AcDbXrecord
280
     1
  1
b
  1
*topo01b*
  1
*
  1
*
 70
     0
  1
*
  1
*
  0
XRECORD
  5
2067
102
{ACAD_REACTORS
330
2029
102
}
330
2029
100
AcDbXrecord
280
     1
  1
base
  1
base*
  1
*
  1
*
 70
     0
  1
*
  1
*
  0
XRECORD
  5
2068
102
{ACAD_REACTORS
330
2029
102
}
330
2029
100
AcDbXrecord
280
     1
  1
BASE PLAN
  1
99440*
  1
*
  1
*
 70
     0
  1
*
  1
*
  0
XRECORD
  5
2069
102
{ACAD_REACTORS
330
2029
102
}
330
2029
100
AcDbXrecord
280
     1
  1
baseline
  1
*base*
  1
*
  1
*
 70
     0
  1
*
  1
*
  0
XRECORD
  5
206A
102
{ACAD_REACTORS
330
2029
102
}
330
2029
100
AcDbXrecord
280
     1
  1
basement
  1
*floor-1
  1
*
  1
*
 70
     4
  1
*
  1
*
  0
XRECORD
  5
206B
102
{ACAD_REACTORS
330
2029
102
}
330
2029
100
AcDbXrecord
280
     1
  1
bl
  1
*bl
  1
*
  1
*
 70
     0
  1
*
  1
*
  0
XRECORD
  5
206C
102
{ACAD_REACTORS
330
2029
102
}
330
2029
100
AcDbXrecord
280
     1
  1
BLUE
  1
*
  1
BLUE
  1
*
 70
     0
  1
*
  1
*
  0
XRECORD
  5
206D
102
{ACAD_REACTORS
330
2029
102
}
330
2029
100
AcDbXrecord
280
     1
  1
bndy
  1
*bndy
  1
*
  1
*
 70
     0
  1
*
  1
*
  0
XRECORD
  5
206E
102
{ACAD_REACTORS
330
2029
102
}
330
2029
100
AcDbXrecord
280
     1
  1
Building Lines
  1
*bl*
  1
*
  1
*
 70
     0
  1
*
  1
*
  0
XRECORD
  5
206F
102
{ACAD_REACTORS
330
2029
102
}
330
2029
100
AcDbXrecord
280
     1
  1
buildingtext
  1
*bl-tx,*rd-tx
  1
*
  1
*
 70
    13
  1
*
  1
*
  0
XRECORD
  5
2070
102
{ACAD_REACTORS
330
2029
102
}
330
2029
100
AcDbXrecord
280
     1
  1
C-PTS
  1
C-PTS*
  1
*
  1
*
 70
     0
  1
*
  1
*
  0
XRECORD
  5
2071
102
{ACAD_REACTORS
330
2029
102
}
330
2029
100
AcDbXrecord
280
     1
  1
Cabinets
  1
*Cab*
  1
*
  1
*
 70
     0
  1
*
  1
*
  0
XRECORD
  5
2072
102
{ACAD_REACTORS
330
2029
102
}
330
2029
100
AcDbXrecord
280
     1
  1
CEILING
  1
CRA-CLG*
  1
*
  1
*
 70
     0
  1
*
  1
*
  0
XRECORD
  5
2073
102
{ACAD_REACTORS
330
2029
102
}
330
2029
100
AcDbXrecord
280
     1
  1
CEILINGC
  1
CRA-CLG*
  1
*
  1
*
 70
     0
  1
*
  1
*
  0
XRECORD
  5
2074
102
{ACAD_REACTORS
330
2029
102
}
330
2029
100
AcDbXrecord
280
     1
  1
CIVIL
  1
c*
  1
*
  1
*
 70
     0
  1
*
  1
*
  0
XRECORD
  5
2075
102
{ACAD_REACTORS
330
2029
102
}
330
2029
100
AcDbXrecord
280
     1
  1
CL
  1
*CL*
  1
*
  1
*
 70
     0
  1
*
  1
*
  0
XRECORD
  5
2076
102
{ACAD_REACTORS
330
2029
102
}
330
2029
100
AcDbXrecord
280
     1
  1
cl-alley
  1
*cl-alley
  1
*
  1
*
 70
     0
  1
*
  1
*
  0
XRECORD
  5
2077
102
{ACAD_REACTORS
330
2029
102
}
330
2029
100
AcDbXrecord
280
     1
  1
clg
  1
*clg*
  1
*
  1
*
 70
     0
  1
*
  1
*
  0
XRECORD
  5
2078
102
{ACAD_REACTORS
330
2029
102
}
330
2029
100
AcDbXrecord
280
     1
  1
CMU
  1
*cmu*
  1
*
  1
*
 70
     0
  1
*
  1
*
  0
XRECORD
  5
2079
102
{ACAD_REACTORS
330
2029
102
}
330
2029
100
AcDbXrecord
280
     1
  1
color
  1
*white
  1
*
  1
*
 70
     0
  1
*
  1
*
  0
XRECORD
  5
207A
102
{ACAD_REACTORS
330
2029
102
}
330
2029
100
AcDbXrecord
280
     1
  1
COLOR 15
  1
*
  1
15
  1
*
 70
     0
  1
*
  1
*
  0
XRECORD
  5
207B
102
{ACAD_REACTORS
330
2029
102
}
330
2029
100
AcDbXrecord
280
     1
  1
color 254
  1
*
  1
254
  1
*
 70
     0
  1
*
  1
*
  0
XRECORD
  5
207C
102
{ACAD_REACTORS
330
2029
102
}
330
2029
100
AcDbXrecord
280
     1
  1
color 9
  1
*
  1
9
  1
*
 70
     0
  1
*
  1
*
  0
XRECORD
  5
207D
102
{ACAD_REACTORS
330
2029
102
}
330
2029
100
AcDbXrecord
280
     1
  1
COLOR10
  1
*
  1
10
  1
*
 70
     0
  1
*
  1
*
  0
XRECORD
  5
207E
102
{ACAD_REACTORS
330
2029
102
}
330
2029
100
AcDbXrecord
280
     1
  1
COLOR132
  1
*
  1
13
  1
*
 70
     0
  1
*
  1
*
  0
XRECORD
  5
207F
102
{ACAD_REACTORS
330
2029
102
}
330
2029
100
AcDbXrecord
280
     1
  1
COMP
  1
_comp*
  1
*
  1
*
 70
     0
  1
*
  1
*
  0
XRECORD
  5
2080
102
{ACAD_REACTORS
330
2029
102
}
330
2029
100
AcDbXrecord
280
     1
  1
con
  1
*con*
  1
*
  1
*
 70
     0
  1
*
  1
*
  0
XRECORD
  5
2081
102
{ACAD_REACTORS
330
2029
102
}
330
2029
100
AcDbXrecord
280
     1
  1
construction
  1
reference
  1
*
  1
*
 70
  3075
  1
*
  1
*
  0
XRECORD
  5
2082
102
{ACAD_REACTORS
330
2029
102
}
330
2029
100
AcDbXrecord
280
     1
  1
CONT
  1
*CONT*
  1
*
  1
*
 70
     0
  1
*
  1
*
  0
XRECORD
  5
2083
102
{ACAD_REACTORS
330
2029
102
}
330
2029
100
AcDbXrecord
280
     1
  1
contour
  1
*cont*
  1
*
  1
*
 70
     0
  1
*
  1
*
  0
XRECORD
  5
2084
102
{ACAD_REACTORS
330
2029
102
}
330
2029
100
AcDbXrecord
280
     1
  1
CONTOURS
  1
*CONT*
  1
*
  1
*
 70
     0
  1
*
  1
*
  0
XRECORD
  5
2085
102
{ACAD_REACTORS
330
2029
102
}
330
2029
100
AcDbXrecord
280
     1
  1
CRA-FUN
  1
CRA-FUN*
  1
*
  1
*
 70
     0
  1
*
  1
*
  0
XRECORD
  5
2086
102
{ACAD_REACTORS
330
2029
102
}
330
2029
100
AcDbXrecord
280
     1
  1
curb
  1
*curb*,*edge*
  1
*
  1
*
 70
     0
  1
*
  1
*
  0
XRECORD
  5
2087
102
{ACAD_REACTORS
330
2029
102
}
330
2029
100
AcDbXrecord
280
     1
  1
current viewport frozen
  1
*
  1
*
  1
*
 70
    16
  1
*
  1
*
  0
XRECORD
  5
2088
102
{ACAD_REACTORS
330
2029
102
}
330
2029
100
AcDbXrecord
280
     1
  1
CURRENT VP FROZEN
  1
*
  1
*
  1
*
 70
    16
  1
*
  1
*
  0
XRECORD
  5
2089
102
{ACAD_REACTORS
330
2029
102
}
330
2029
100
AcDbXrecord
280
     1
  1
dawn
  1
*catchbasinare*
  1
*
  1
*
 70
     0
  1
*
  1
*
  0
XRECORD
  5
208A
102
{ACAD_REACTORS
330
2029
102
}
330
2029
100
AcDbXrecord
280
     1
  1
DD125
  1
8326*
  1
*
  1
*
 70
     0
  1
*
  1
*
  0
XRECORD
  5
208B
102
{ACAD_REACTORS
330
2029
102
}
330
2029
100
AcDbXrecord
280
     1
  1
demo
  1
*demo
  1
*
  1
*
 70
     0
  1
*
  1
*
  0
XRECORD
  5
208C
102
{ACAD_REACTORS
330
2029
102
}
330
2029
100
AcDbXrecord
280
     1
  1
Demo Layers
  1
?-DM-*
  1
*
  1
*
 70
     0
  1
*
  1
*
  0
XRECORD
  5
208D
102
{ACAD_REACTORS
330
2029
102
}
330
2029
100
AcDbXrecord
280
     1
  1
dim
  1
*dim*
  1
*
  1
*
 70
     0
  1
*
  1
*
  0
XRECORD
  5
208E
102
{ACAD_REACTORS
330
2029
102
}
330
2029
100
AcDbXrecord
280
     1
  1
DIMSONLY
  1
*DIMS*
  1
*
  1
*
 70
     0
  1
*
  1
*
  0
XRECORD
  5
208F
102
{ACAD_REACTORS
330
2029
102
}
330
2029
100
AcDbXrecord
280
     1
  1
DITCH
  1
*DITCH*
  1
*
  1
*
 70
     0
  1
*
  1
*
  0
XRECORD
  5
2090
102
{ACAD_REACTORS
330
2029
102
}
330
2029
100
AcDbXrecord
280
     1
  1
DOORBADGES
  1
*DOOR*
  1
*
  1
*
 70
     0
  1
*
  1
*
  0
XRECORD
  5
2091
102
{ACAD_REACTORS
330
2029
102
}
330
2029
100
AcDbXrecord
280
     1
  1
doors
  1
*door
  1
*
  1
*
 70
     0
  1
*
  1
*
  0
XRECORD
  5
2092
102
{ACAD_REACTORS
330
2029
102
}
330
2029
100
AcDbXrecord
280
     1
  1
DWI
  1
ODWI*
  1
*
  1
*
 70
     0
  1
*
  1
*
  0
XRECORD
  5
2093
102
{ACAD_REACTORS
330
2029
102
}
330
2029
100
AcDbXrecord
280
     1
  1
e
  1
*-E*
  1
*
  1
*
 70
     0
  1
*
  1
*
  0
XRECORD
  5
2094
102
{ACAD_REACTORS
330
2029
102
}
330
2029
100
AcDbXrecord
280
     1
  1
E1A
  1
*-4-*,*-3-*,*-B-*,*-C-*,*BEAM*,*ROOF*,*TRUS*,*DIM*,*HATCH*
  1
*
  1
*
 70
     0
  1
*
  1
*
  0
XRECORD
  5
2095
102
{ACAD_REACTORS
330
2029
102
}
330
2029
100
AcDbXrecord
280
     1
  1
E1B
  1
*-4-*,*-3-*,*-A-*,*-C-*,*BEAM*,*ROOF*,*TRUS*,*DIM*,*HATCH*
  1
*
  1
*
 70
     0
  1
*
  1
*
  0
XRECORD
  5
2096
102
{ACAD_REACTORS
330
2029
102
}
330
2029
100
AcDbXrecord
280
     1
  1
E1C
  1
*-4-*,*-3-*,*-A-*,*-B-*,*BEAM*,*ROOF*,*TRUS*,*DIM*,*HATCH*
  1
*
  1
*
 70
     0
  1
*
  1
*
  0
XRECORD
  5
2097
102
{ACAD_REACTORS
330
2029
102
}
330
2029
100
AcDbXrecord
280
     1
  1
E2A
  1
*-5-*,*-6-*,*-B-*,*-C-*,*BEAM*,*ROOF*,*TRUS*,*DIM*,*HATCH*
  1
*
  1
*
 70
     0
  1
*
  1
*
  0
XRECORD
  5
2098
102
{ACAD_REACTORS
330
2029
102
}
330
2029
100
AcDbXrecord
280
     1
  1
E2B
  1
*-5-*,*-6-*,*-A-*,*-C-*,*BEAM*,*ROOF*,*TRUS*,*DIM*,*HATCH*
  1
*
  1
*
 70
     0
  1
*
  1
*
  0
XRECORD
  5
2099
102
{ACAD_REACTORS
330
2029
102
}
330
2029
100
AcDbXrecord
280
     1
  1
E2C
  1
*-5-*,*-6-*,*-A-*,*-B-*,*BEAM*,*ROOF*,*TRUS*,*DIM*,*HATCH*
  1
*
  1
*
 70
     0
  1
*
  1
*
  0
XRECORD
  5
209A
102
{ACAD_REACTORS
330
2029
102
}
330
2029
100
AcDbXrecord
280
     1
  1
ea
  1
*ea*
  1
*
  1
*
 70
     0
  1
*
  1
*
  0
XRECORD
  5
209B
102
{ACAD_REACTORS
330
2029
102
}
330
2029
100
AcDbXrecord
280
     1
  1
ELEC
  1
e*
  1
*
  1
*
 70
     0
  1
*
  1
*
  0
XRECORD
  5
209C
102
{ACAD_REACTORS
330
2029
102
}
330
2029
100
AcDbXrecord
280
     1
  1
Electrical
  1
E*
  1
*
  1
*
 70
     0
  1
*
  1
*
  0
XRECORD
  5
209D
102
{ACAD_REACTORS
330
2029
102
}
330
2029
100
AcDbXrecord
280
     1
  1
Elev_
  1
Elev_*
  1
*
  1
*
 70
     0
  1
*
  1
*
  0
XRECORD
  5
209E
102
{ACAD_REACTORS
330
2029
102
}
330
2029
100
AcDbXrecord
280
     1
  1
elevation
  1
XSE02-E*
  1
*
  1
*
 70
     0
  1
*
  1
*
  0
XRECORD
  5
209F
102
{ACAD_REACTORS
330
2029
102
}
330
2029
100
AcDbXrecord
280
     1
  1
ELEVATIONS
  1
*ELEV*
  1
*
  1
*
 70
     0
  1
*
  1
*
  0
XRECORD
  5
20A0
102
{ACAD_REACTORS
330
2029
102
}
330
2029
100
AcDbXrecord
280
     1
  1
EOS
  1
*a-wall-ext
  1
*
  1
*
 70
     0
  1
*
  1
*
  0
XRECORD
  5
20A1
102
{ACAD_REACTORS
330
2029
102
}
330
2029
100
AcDbXrecord
280
     1
  1
esm
  1
*esm*
  1
*
  1
*
 70
     0
  1
*
  1
*
  0
XRECORD
  5
20A2
102
{ACAD_REACTORS
330
2029
102
}
330
2029
100
AcDbXrecord
280
     1
  1
ESMT
  1
*ESMT*
  1
*
  1
*
 70
     0
  1
*
  1
*
  0
XRECORD
  5
20A3
102
{ACAD_REACTORS
330
2029
102
}
330
2029
100
AcDbXrecord
280
     1
  1
ex
  1
*ex*
  1
*
  1
*
 70
     0
  1
*
  1
*
  0
XRECORD
  5
20A4
102
{ACAD_REACTORS
330
2029
102
}
330
2029
100
AcDbXrecord
280
     1
  1
Ex2
  1
ae2*
  1
*
  1
*
 70
     0
  1
*
  1
*
  0
XRECORD
  5
20A5
102
{ACAD_REACTORS
330
2029
102
}
330
2029
100
AcDbXrecord
280
     1
  1
exg
  1
*exg
  1
*
  1
*
 70
     0
  1
*
  1
*
  0
XRECORD
  5
20A6
102
{ACAD_REACTORS
330
2029
102
}
330
2029
100
AcDbXrecord
280
     1
  1
EXIST
  1
EX*
  1
*
  1
*
 70
     0
  1
*
  1
*
  0
XRECORD
  5
20A7
102
{ACAD_REACTORS
330
2029
102
}
330
2029
100
AcDbXrecord
280
     1
  1
existing
  1
*E
  1
*
  1
*
 70
     0
  1
*
  1
*
  0
XRECORD
  5
20A8
102
{ACAD_REACTORS
330
2029
102
}
330
2029
100
AcDbXrecord
280
     1
  1
existing1
  1
a1e*
  1
*
  1
*
 70
     0
  1
*
  1
*
  0
XRECORD
  5
20A9
102
{ACAD_REACTORS
330
2029
102
}
330
2029
100
AcDbXrecord
280
     1
  1
existing2
  1
a2e*
  1
*
  1
*
 70
     0
  1
*
  1
*
  0
XRECORD
  5
20AA
102
{ACAD_REACTORS
330
2029
102
}
330
2029
100
AcDbXrecord
280
     1
  1
exit
  1
*exit
  1
*
  1
*
 70
     0
  1
*
  1
*
  0
XRECORD
  5
20AB
102
{ACAD_REACTORS
330
2029
102
}
330
2029
100
AcDbXrecord
280
     1
  1
EXTRA
  1
x*
  1
*
  1
*
 70
     0
  1
*
  1
*
  0
XRECORD
  5
20AC
102
{ACAD_REACTORS
330
2029
102
}
330
2029
100
AcDbXrecord
280
     1
  1
f
  1
*
  1
*
  1
*
 70
     4
  1
*
  1
*
  0
XRECORD
  5
20AD
102
{ACAD_REACTORS
330
2029
102
}
330
2029
100
AcDbXrecord
280
     1
  1
fence
  1
*building*
  1
*
  1
*
 70
     0
  1
*
  1
*
  0
XRECORD
  5
20AE
102
{ACAD_REACTORS
330
2029
102
}
330
2029
100
AcDbXrecord
280
     1
  1
filter10
  1
*
  1
10
  1
*
 70
     0
  1
*
  1
*
  0
XRECORD
  5
20AF
102
{ACAD_REACTORS
330
2029
102
}
330
2029
100
AcDbXrecord
280
     1
  1
filter13
  1
*
  1
13
  1
*
 70
     0
  1
*
  1
*
  0
XRECORD
  5
20B0
102
{ACAD_REACTORS
330
2029
102
}
330
2029
100
AcDbXrecord
280
     1
  1
FINAL PLAT
  1
*DESC*
  1
*
  1
*
 70
     3
  1
*
  1
*
  0
XRECORD
  5
20B1
102
{ACAD_REACTORS
330
2029
102
}
330
2029
100
AcDbXrecord
280
     1
  1
FIREPROT
  1
f*
  1
*
  1
*
 70
     0
  1
*
  1
*
  0
XRECORD
  5
20B2
102
{ACAD_REACTORS
330
2029
102
}
330
2029
100
AcDbXrecord
280
     1
  1
First
  1
*First*
  1
*
  1
*
 70
     0
  1
*
  1
*
  0
XRECORD
  5
20B3
102
{ACAD_REACTORS
330
2029
102
}
330
2029
100
AcDbXrecord
280
     1
  1
First Floor
  1
A-*
  1
*
  1
*
 70
     0
  1
*
  1
*
  0
XRECORD
  5
20B4
102
{ACAD_REACTORS
330
2029
102
}
330
2029
100
AcDbXrecord
280
     1
  1
FIT
  1
*FIT*
  1
*
  1
*
 70
     0
  1
*
  1
*
  0
XRECORD
  5
20B5
102
{ACAD_REACTORS
330
2029
102
}
330
2029
100
AcDbXrecord
280
     1
  1
FITTING
  1
*FIT*
  1
*
  1
*
 70
     0
  1
*
  1
*
  0
XRECORD
  5
20B6
102
{ACAD_REACTORS
330
2029
102
}
330
2029
100
AcDbXrecord
280
     1
  1
FITTINGS
  1
*FIT*
  1
*
  1
*
 70
     0
  1
*
  1
*
  0
XRECORD
  5
20B7
102
{ACAD_REACTORS
330
2029
102
}
330
2029
100
AcDbXrecord
280
     1
  1
Fixtures
  1
*pfix*
  1
*
  1
*
 70
     0
  1
*
  1
*
  0
XRECORD
  5
20B8
102
{ACAD_REACTORS
330
2029
102
}
330
2029
100
AcDbXrecord
280
     1
  1
Flood
  1
*100*
  1
*
  1
*
 70
     0
  1
*
  1
*
  0
XRECORD
  5
20B9
102
{ACAD_REACTORS
330
2029
102
}
330
2029
100
AcDbXrecord
280
     1
  1
FLOOR FINISH
  1
CRA-FR-FIN*
  1
*
  1
*
 70
     0
  1
*
  1
*
  0
XRECORD
  5
20BA
102
{ACAD_REACTORS
330
2029
102
}
330
2029
100
AcDbXrecord
280
     1
  1
Floor plan
  1
1A*
  1
*
  1
*
 70
    12
  1
*
  1
*
  0
XRECORD
  5
20BB
102
{ACAD_REACTORS
330
2029
102
}
330
2029
100
AcDbXrecord
280
     1
  1
FLOORFINISH
  1
CRA-FR*
  1
*
  1
*
 70
     0
  1
*
  1
*
  0
XRECORD
  5
20BC
102
{ACAD_REACTORS
330
2029
102
}
330
2029
100
AcDbXrecord
280
     1
  1
Foundation
  1
*Fnd*
  1
*
  1
*
 70
     0
  1
*
  1
*
  0
XRECORD
  5
20BD
102
{ACAD_REACTORS
330
2029
102
}
330
2029
100
AcDbXrecord
280
     1
  1
FRAME1
  1
*1*
  1
*
  1
*
 70
     0
  1
*
  1
*
  0
XRECORD
  5
20BE
102
{ACAD_REACTORS
330
2029
102
}
330
2029
100
AcDbXrecord
280
     1
  1
freeze
  1
*freeze
  1
*
  1
*
 70
     0
  1
*
  1
*
  0
XRECORD
  5
20BF
102
{ACAD_REACTORS
330
2029
102
}
330
2029
100
AcDbXrecord
280
     1
  1
Frez Layers
  1
*-Frez*
  1
*
  1
*
 70
     0
  1
*
  1
*
  0
XRECORD
  5
20C0
102
{ACAD_REACTORS
330
2029
102
}
330
2029
100
AcDbXrecord
280
     1
  1
FROZEN
  1
*
  1
*
  1
*
 70
     4
  1
*
  1
*
  0
XRECORD
  5
20C1
102
{ACAD_REACTORS
330
2029
102
}
330
2029
100
AcDbXrecord
280
     1
  1
frozen layers
  1
*
  1
*
  1
*
 70
     4
  1
*
  1
*
  0
XRECORD
  5
20C2
102
{ACAD_REACTORS
330
2029
102
}
330
2029
100
AcDbXrecord
280
     1
  1
FURN
  1
FURN
  1
*
  1
*
 70
     0
  1
*
  1
*
  0
XRECORD
  5
20C3
102
{ACAD_REACTORS
330
2029
102
}
330
2029
100
AcDbXrecord
280
     1
  1
FURNITURE
  1
CRA-FUN*
  1
*
  1
*
 70
     0
  1
*
  1
*
  0
XRECORD
  5
20C4
102
{ACAD_REACTORS
330
2029
102
}
330
2029
100
AcDbXrecord
280
     1
  1
GAS
  1
*GAS*
  1
*
  1
*
 70
     0
  1
*
  1
*
  0
XRECORD
  5
20C5
102
{ACAD_REACTORS
330
2029
102
}
330
2029
100
AcDbXrecord
280
     1
  1
GENERAL
  1
g*
  1
*
  1
*
 70
     0
  1
*
  1
*
  0
XRECORD
  5
20C6
102
{ACAD_REACTORS
330
2029
102
}
330
2029
100
AcDbXrecord
280
     1
  1
GORDY
  1
00MAG
  1
*
  1
*
 70
     0
  1
*
  1
*
  0
XRECORD
  5
20C7
102
{ACAD_REACTORS
330
2029
102
}
330
2029
100
AcDbXrecord
280
     1
  1
green
  1
*
  1
green
  1
*
 70
     0
  1
*
  1
*
  0
XRECORD
  5
20C8
102
{ACAD_REACTORS
330
2029
102
}
330
2029
100
AcDbXrecord
280
     1
  1
grid
  1
*grid*
  1
*
  1
*
 70
     0
  1
*
  1
*
  0
XRECORD
  5
20C9
102
{ACAD_REACTORS
330
2029
102
}
330
2029
100
AcDbXrecord
280
     1
  1
GS-DesignWorkshop
  1
GS-0DWI*
  1
*
  1
*
 70
    12
  1
*
  1
*
  0
XRECORD
  5
20CA
102
{ACAD_REACTORS
330
2029
102
}
330
2029
100
AcDbXrecord
280
     1
  1
HANDICAP
  1
*HC*
  1
*
  1
*
 70
     0
  1
*
  1
*
  0
XRECORD
  5
20CB
102
{ACAD_REACTORS
330
2029
102
}
330
2029
100
AcDbXrecord
280
     1
  1
hatch
  1
*hatch*
  1
*
  1
*
 70
     0
  1
*
  1
*
  0
XRECORD
  5
20CC
102
{ACAD_REACTORS
330
2029
102
}
330
2029
100
AcDbXrecord
280
     1
  1
HEADER
  1
*HDR*
  1
*
  1
*
 70
     0
  1
*
  1
*
  0
XRECORD
  5
20CD
102
{ACAD_REACTORS
330
2029
102
}
330
2029
100
AcDbXrecord
280
     1
  1
HLA
  1
HLA*
  1
*
  1
*
 70
     0
  1
*
  1
*
  0
XRECORD
  5
20CE
102
{ACAD_REACTORS
330
2029
102
}
330
2029
100
AcDbXrecord
280
     1
  1
inlet
  1
*inl*
  1
*
  1
*
 70
     0
  1
*
  1
*
  0
XRECORD
  5
20CF
102
{ACAD_REACTORS
330
2029
102
}
330
2029
100
AcDbXrecord
280
     1
  1
int
  1
*int*
  1
*
  1
*
 70
     0
  1
*
  1
*
  0
XRECORD
  5
20D0
102
{ACAD_REACTORS
330
2029
102
}
330
2029
100
AcDbXrecord
280
     1
  1
INTERIOR
  1
*INT*
  1
*
  1
*
 70
     0
  1
*
  1
*
  0
XRECORD
  5
20D1
102
{ACAD_REACTORS
330
2029
102
}
330
2029
100
AcDbXrecord
280
     1
  1
K
  1
*PROP
  1
*
  1
*
 70
     0
  1
*
  1
*
  0
XRECORD
  5
20D5
102
{ACAD_REACTORS
330
2029
102
}
330
2029
100
AcDbXrecord
280
     1
  1
Kinko Space Plan
  1
*
  1
*
  1
*
 70
     0
  1
*
  1
*
  0
XRECORD
  5
20D2
102
{ACAD_REACTORS
330
2029
102
}
330
2029
100
AcDbXrecord
280
     1
  1
Kinko's Data-Comm Layout
  1
E-POWR-CABL,E-POWR-DIMS,E-POWR-TEXT,A-EQPM-TEXT,A-FLOR-TEXT,A-FLOR-DIMS,A-WALL-PRHT,D-DEMO,A-COLS,A-COLS-GRID,A-DOOR,A-GLAZ,A-GLAZ-EXTR,A-GLAZ-INTR,A-WALL-FULL,Q-EQPM-OUTLN,Q-FIXT-OUTLN,Q-FIXT-WHL,Q-FIXT-TEXT,Q-EQPM-TEXT,E-POWR-JBOX,Q-MERC-OUTLN,
  1
*
  1
*
 70
     0
  1
*
  1
*
  0
XRECORD
  5
20D3
102
{ACAD_REACTORS
330
2029
102
}
330
2029
100
AcDbXrecord
280
     1
  1
Kinko's Equipment Layout
  1
A-EQPM-TEXT,D-DEMO,A-WALL-PRHT,A-FLOR-TEXT,A-FLOR-OVHD,A-AREA,Q-EQPM-ANC,Q-EQPM-COP,Q-EQPM-FIX,A-COLS,A-COLS-GRID,A-DOOR,A-FLOR-CASE,A-FLOR-DIMS,A-FLOR-PFIX,A-GLAZ-EXTR,A-GLAZ-INTR,A-WALL-FULL,
  1
*
  1
*
 70
     0
  1
*
  1
*
  0
XRECORD
  5
20D4
102
{ACAD_REACTORS
330
2029
102
}
330
2029
100
AcDbXrecord
280
     1
  1
Kinko's Merchandise Layout
  1
A-COLS,A-COLS-GRID,A-DOOR,A-EQPM-TEXT,A-FLOR-CASE,A-FLOR-TEXT,A-WALL-FULL,A-WALL-PRHT,Q-EQPM-ANC,Q-EQPM-COP,Q-EQPM-FIX,Q-EQPM-MERC,Q-GUARD,
  1
*
  1
*
 70
     0
  1
*
  1
*
  0
XRECORD
  5
20D6
102
{ACAD_REACTORS
330
2029
102
}
330
2029
100
AcDbXrecord
280
     1
  1
LBL
  1
*lbl*
  1
*
  1
*
 70
     0
  1
*
  1
*
  0
XRECORD
  5
20D7
102
{ACAD_REACTORS
330
2029
102
}
330
2029
100
AcDbXrecord
280
     1
  1
Lites
  1
*Lite*
  1
*
  1
*
 70
     0
  1
*
  1
*
  0
XRECORD
  5
20D8
102
{ACAD_REACTORS
330
2029
102
}
330
2029
100
AcDbXrecord
280
     1
  1
locked
  1
*
  1
*
  1
*
 70
   256
  1
*
  1
*
  0
XRECORD
  5
20D9
102
{ACAD_REACTORS
330
2029
102
}
330
2029
100
AcDbXrecord
280
     1
  1
LOT
  1
*LOT*
  1
*
  1
*
 70
     0
  1
*
  1
*
  0
XRECORD
  5
20DA
102
{ACAD_REACTORS
330
2029
102
}
330
2029
100
AcDbXrecord
280
     1
  1
lots
  1
*lots
  1
*
  1
*
 70
     0
  1
*
  1
*
  0
XRECORD
  5
20DB
102
{ACAD_REACTORS
330
2029
102
}
330
2029
100
AcDbXrecord
280
     1
  1
lower floor
  1
b-*,c-*
  1
*
  1
*
 70
     0
  1
*
  1
*
  0
XRECORD
  5
20DC
102
{ACAD_REACTORS
330
2029
102
}
330
2029
100
AcDbXrecord
280
     1
  1
LS
  1
*LAND*
  1
*
  1
*
 70
     0
  1
*
  1
*
  0
XRECORD
  5
20DD
102
{ACAD_REACTORS
330
2029
102
}
330
2029
100
AcDbXrecord
280
     1
  1
LSG
  1
*LSG*
  1
*
  1
*
 70
     0
  1
*
  1
*
  0
XRECORD
  5
20DE
102
{ACAD_REACTORS
330
2029
102
}
330
2029
100
AcDbXrecord
280
     1
  1
MAGENTA
  1
*
  1
MAGENTA
  1
*
 70
     0
  1
*
  1
*
  0
XRECORD
  5
20DF
102
{ACAD_REACTORS
330
2029
102
}
330
2029
100
AcDbXrecord
280
     1
  1
MAIN
  1
*MAIN
  1
*
  1
*
 70
     0
  1
*
  1
*
  0
XRECORD
  5
20E0
102
{ACAD_REACTORS
330
2029
102
}
330
2029
100
AcDbXrecord
280
     1
  1
Main Floor
  1
M*
  1
*
  1
*
 70
     0
  1
*
  1
*
  0
XRECORD
  5
20E1
102
{ACAD_REACTORS
330
2029
102
}
330
2029
100
AcDbXrecord
280
     1
  1
MECH
  1
1flrplnX|m*
  1
*
  1
*
 70
     0
  1
*
  1
*
  0
XRECORD
  5
20E2
102
{ACAD_REACTORS
330
2029
102
}
330
2029
100
AcDbXrecord
280
     1
  1
METAL
  1
*mtl*
  1
*
  1
*
 70
     0
  1
*
  1
*
  0
XRECORD
  5
20E3
102
{ACAD_REACTORS
330
2029
102
}
330
2029
100
AcDbXrecord
280
     1
  1
MEZ
  1
*MEZ*
  1
*
  1
*
 70
     0
  1
*
  1
*
  0
XRECORD
  5
20E4
102
{ACAD_REACTORS
330
2029
102
}
330
2029
100
AcDbXrecord
280
     1
  1
MH
  1
*MH*
  1
*
  1
*
 70
     0
  1
*
  1
*
  0
XRECORD
  5
20E5
102
{ACAD_REACTORS
330
2029
102
}
330
2029
100
AcDbXrecord
280
     1
  1
Misc
  1
*-pr-*
  1
*
  1
*
 70
     0
  1
*
  1
*
  0
XRECORD
  5
20E6
102
{ACAD_REACTORS
330
2029
102
}
330
2029
100
AcDbXrecord
280
     1
  1
MP
  1
*MP*
  1
*
  1
*
 70
     0
  1
*
  1
*
  0
XRECORD
  5
20E7
102
{ACAD_REACTORS
330
2029
102
}
330
2029
100
AcDbXrecord
280
     1
  1
mtl
  1
*mtl*
  1
*
  1
*
 70
     0
  1
*
  1
*
  0
XRECORD
  5
20E8
102
{ACAD_REACTORS
330
2029
102
}
330
2029
100
AcDbXrecord
280
     1
  1
NAME
  1
*NAME*
  1
*
  1
*
 70
     0
  1
*
  1
*
  0
XRECORD
  5
20E9
102
{ACAD_REACTORS
330
2029
102
}
330
2029
100
AcDbXrecord
280
     1
  1
NAMES
  1
*NAME*
  1
*
  1
*
 70
     0
  1
*
  1
*
  0
XRECORD
  5
20EA
102
{ACAD_REACTORS
330
2029
102
}
330
2029
100
AcDbXrecord
280
     1
  1
new
  1
*new*
  1
*
  1
*
 70
     0
  1
*
  1
*
  0
XRECORD
  5
20EB
102
{ACAD_REACTORS
330
2029
102
}
330
2029
100
AcDbXrecord
280
     1
  1
new1
  1
a1n*
  1
*
  1
*
 70
     0
  1
*
  1
*
  0
XRECORD
  5
20EC
102
{ACAD_REACTORS
330
2029
102
}
330
2029
100
AcDbXrecord
280
     1
  1
new2
  1
a2n*
  1
*
  1
*
 70
     0
  1
*
  1
*
  0
XRECORD
  5
20EE
102
{ACAD_REACTORS
330
2029
102
}
330
2029
100
AcDbXrecord
280
     1
  1
No Xrefs
  1
*
  1
*
  1
*
 70
     0
  1
*
  1
*
  0
XRECORD
  5
20ED
102
{ACAD_REACTORS
330
2029
102
}
330
2029
100
AcDbXrecord
280
     1
  1
NO-PLOT
  1
*
  1
*
  1
*
 70
  3072
  1
*
  1
*
  0
XRECORD
  5
20EF
102
{ACAD_REACTORS
330
2029
102
}
330
2029
100
AcDbXrecord
280
     1
  1
non-visible
  1
*
  1
*
  1
*
 70
     4
  1
*
  1
*
  0
XRECORD
  5
20F0
102
{ACAD_REACTORS
330
2029
102
}
330
2029
100
AcDbXrecord
280
     1
  1
non-xref
  1
~*|*
  1
*
  1
*
 70
     0
  1
*
  1
*
  0
XRECORD
  5
20F1
102
{ACAD_REACTORS
330
2029
102
}
330
2029
100
AcDbXrecord
280
     1
  1
notes
  1
*note
  1
*
  1
*
 70
     0
  1
*
  1
*
  0
XRECORD
  5
20F2
102
{ACAD_REACTORS
330
2029
102
}
330
2029
100
AcDbXrecord
280
     1
  1
NUMS
  1
*NUM*
  1
*
  1
*
 70
     0
  1
*
  1
*
  0
XRECORD
  5
20F3
102
{ACAD_REACTORS
330
2029
102
}
330
2029
100
AcDbXrecord
280
     1
  1
OFF
  1
*
  1
*
  1
*
 70
     3
  1
*
  1
*
  0
XRECORD
  5
20F4
102
{ACAD_REACTORS
330
2029
102
}
330
2029
100
AcDbXrecord
280
     1
  1
off layers
  1
*
  1
*
  1
*
 70
     3
  1
*
  1
*
  0
XRECORD
  5
20F5
102
{ACAD_REACTORS
330
2029
102
}
330
2029
100
AcDbXrecord
280
     1
  1
OFF THAW
  1
*
  1
*
  1
*
 70
    15
  1
*
  1
*
  0
XRECORD
  5
20F6
102
{ACAD_REACTORS
330
2029
102
}
330
2029
100
AcDbXrecord
280
     1
  1
OLD
  1
*OLD*
  1
*
  1
*
 70
     0
  1
*
  1
*
  0
XRECORD
  5
20F7
102
{ACAD_REACTORS
330
2029
102
}
330
2029
100
AcDbXrecord
280
     1
  1
on
  1
*
  1
*
  1
*
 70
    13
  1
*
  1
*
  0
XRECORD
  5
20F8
102
{ACAD_REACTORS
330
2029
102
}
330
2029
100
AcDbXrecord
280
     1
  1
oPTION
  1
??????O*
  1
*
  1
*
 70
     0
  1
*
  1
*
  0
XRECORD
  5
20F9
102
{ACAD_REACTORS
330
2029
102
}
330
2029
100
AcDbXrecord
280
     1
  1
Option 1
  1
Option 1 *
  1
*
  1
*
 70
     0
  1
*
  1
*
  0
XRECORD
  5
20FA
102
{ACAD_REACTORS
330
2029
102
}
330
2029
100
AcDbXrecord
280
     1
  1
Option 2
  1
Option 2 *
  1
*
  1
*
 70
     0
  1
*
  1
*
  0
XRECORD
  5
20FB
102
{ACAD_REACTORS
330
2029
102
}
330
2029
100
AcDbXrecord
280
     1
  1
Option 3
  1
Option 3 *
  1
*
  1
*
 70
     0
  1
*
  1
*
  0
XRECORD
  5
20FC
102
{ACAD_REACTORS
330
2029
102
}
330
2029
100
AcDbXrecord
280
     1
  1
Options
  1
O-*
  1
*
  1
*
 70
     0
  1
*
  1
*
  0
XRECORD
  5
20FD
102
{ACAD_REACTORS
330
2029
102
}
330
2029
100
AcDbXrecord
280
     1
  1
p-
  1
*p-*
  1
*
  1
*
 70
     0
  1
*
  1
*
  0
XRECORD
  5
20FE
102
{ACAD_REACTORS
330
2029
102
}
330
2029
100
AcDbXrecord
280
     1
  1
p1
  1
*
  1
212*
  1
*
 70
     0
  1
*
  1
*
  0
XRECORD
  5
20FF
102
{ACAD_REACTORS
330
2029
102
}
330
2029
100
AcDbXrecord
280
     1
  1
p2
  1
*
  1
53*
  1
*
 70
     0
  1
*
  1
*
  0
XRECORD
  5
2100
102
{ACAD_REACTORS
330
2029
102
}
330
2029
100
AcDbXrecord
280
     1
  1
p3
  1
*
  1
95*
  1
*
 70
     0
  1
*
  1
*
  0
XRECORD
  5
2101
102
{ACAD_REACTORS
330
2029
102
}
330
2029
100
AcDbXrecord
280
     1
  1
p4
  1
*
  1
8*
  1
*
 70
     0
  1
*
  1
*
  0
XRECORD
  5
2102
102
{ACAD_REACTORS
330
2029
102
}
330
2029
100
AcDbXrecord
280
     1
  1
pads
  1
*pads
  1
*
  1
*
 70
     0
  1
*
  1
*
  0
XRECORD
  5
2103
102
{ACAD_REACTORS
330
2029
102
}
330
2029
100
AcDbXrecord
280
     1
  1
Pattern
  1
*pat*
  1
*
  1
*
 70
     0
  1
*
  1
*
  0
XRECORD
  5
2104
102
{ACAD_REACTORS
330
2029
102
}
330
2029
100
AcDbXrecord
280
     1
  1
Patterns
  1
*pat
  1
*
  1
*
 70
     0
  1
*
  1
*
  0
XRECORD
  5
2105
102
{ACAD_REACTORS
330
2029
102
}
330
2029
100
AcDbXrecord
280
     1
  1
PAV
  1
*PAV*
  1
*
  1
*
 70
     0
  1
*
  1
*
  0
XRECORD
  5
2106
102
{ACAD_REACTORS
330
2029
102
}
330
2029
100
AcDbXrecord
280
     1
  1
pen1
  1
*
  1
red*
  1
*
 70
     0
  1
*
  1
*
  0
XRECORD
  5
2107
102
{ACAD_REACTORS
330
2029
102
}
330
2029
100
AcDbXrecord
280
     1
  1
pen2
  1
*
  1
yellow*
  1
*
 70
     0
  1
*
  1
*
  0
XRECORD
  5
2108
102
{ACAD_REACTORS
330
2029
102
}
330
2029
100
AcDbXrecord
280
     1
  1
pen3
  1
*
  1
green*
  1
*
 70
     0
  1
*
  1
*
  0
XRECORD
  5
2109
102
{ACAD_REACTORS
330
2029
102
}
330
2029
100
AcDbXrecord
280
     1
  1
pen4
  1
*
  1
5*
  1
*
 70
     0
  1
*
  1
*
  0
XRECORD
  5
210A
102
{ACAD_REACTORS
330
2029
102
}
330
2029
100
AcDbXrecord
280
     1
  1
pen5
  1
*
  1
14*
  1
*
 70
     0
  1
*
  1
*
  0
XRECORD
  5
210B
102
{ACAD_REACTORS
330
2029
102
}
330
2029
100
AcDbXrecord
280
     1
  1
PH1
  1
*PH1*
  1
*
  1
*
 70
     0
  1
*
  1
*
  0
XRECORD
  5
210C
102
{ACAD_REACTORS
330
2029
102
}
330
2029
100
AcDbXrecord
280
     1
  1
PH2
  1
*PH2*
  1
*
  1
*
 70
     0
  1
*
  1
*
  0
XRECORD
  5
210D
102
{ACAD_REACTORS
330
2029
102
}
330
2029
100
AcDbXrecord
280
     1
  1
PH3
  1
*PH3*
  1
*
  1
*
 70
     0
  1
*
  1
*
  0
XRECORD
  5
210E
102
{ACAD_REACTORS
330
2029
102
}
330
2029
100
AcDbXrecord
280
     1
  1
PH5
  1
*PH5*
  1
*
  1
*
 70
     0
  1
*
  1
*
  0
XRECORD
  5
210F
102
{ACAD_REACTORS
330
2029
102
}
330
2029
100
AcDbXrecord
280
     1
  1
Phase 1
  1
PH1*
  1
*
  1
*
 70
     0
  1
*
  1
*
  0
XRECORD
  5
2110
102
{ACAD_REACTORS
330
2029
102
}
330
2029
100
AcDbXrecord
280
     1
  1
Phase 2
  1
PH2*
  1
*
  1
*
 70
     0
  1
*
  1
*
  0
XRECORD
  5
2111
102
{ACAD_REACTORS
330
2029
102
}
330
2029
100
AcDbXrecord
280
     1
  1
PIPE
  1
*PIPE*
  1
*
  1
*
 70
     0
  1
*
  1
*
  0
XRECORD
  5
2112
102
{ACAD_REACTORS
330
2029
102
}
330
2029
100
AcDbXrecord
280
     1
  1
pl
  1
*pl*
  1
*
  1
*
 70
     0
  1
*
  1
*
  0
XRECORD
  5
2113
102
{ACAD_REACTORS
330
2029
102
}
330
2029
100
AcDbXrecord
280
     1
  1
PLAN
  1
*PLAN|*
  1
*
  1
*
 70
     0
  1
*
  1
*
  0
XRECORD
  5
2114
102
{ACAD_REACTORS
330
2029
102
}
330
2029
100
AcDbXrecord
280
     1
  1
Plans
  1
*conpl*
  1
*
  1
*
 70
     0
  1
*
  1
*
  0
XRECORD
  5
2115
102
{ACAD_REACTORS
330
2029
102
}
330
2029
100
AcDbXrecord
280
     1
  1
PLUM
  1
p*
  1
*
  1
*
 70
     0
  1
*
  1
*
  0
XRECORD
  5
2116
102
{ACAD_REACTORS
330
2029
102
}
330
2029
100
AcDbXrecord
280
     1
  1
plumb
  1
MECH_PLBG_
  1
*
  1
*
 70
     0
  1
*
  1
*
  0
XRECORD
  5
2117
102
{ACAD_REACTORS
330
2029
102
}
330
2029
100
AcDbXrecord
280
     1
  1
PLUMBING
  1
MECH_PLBG_
  1
*
  1
*
 70
     0
  1
*
  1
*
  0
XRECORD
  5
2118
102
{ACAD_REACTORS
330
2029
102
}
330
2029
100
AcDbXrecord
280
     1
  1
Point layers
  1
PT*
  1
*
  1
*
 70
     0
  1
*
  1
*
  0
XRECORD
  5
2119
102
{ACAD_REACTORS
330
2029
102
}
330
2029
100
AcDbXrecord
280
     1
  1
points
  1
*points*,*pts*,*pnts*
  1
*
  1
*
 70
     0
  1
*
  1
*
  0
XRECORD
  5
211A
102
{ACAD_REACTORS
330
2029
102
}
330
2029
100
AcDbXrecord
280
     1
  1
profiles
  1
*conpr*
  1
*
  1
*
 70
     0
  1
*
  1
*
  0
XRECORD
  5
211B
102
{ACAD_REACTORS
330
2029
102
}
330
2029
100
AcDbXrecord
280
     1
  1
PROP
  1
2*
  1
*
  1
*
 70
     0
  1
*
  1
*
  0
XRECORD
  5
211C
102
{ACAD_REACTORS
330
2029
102
}
330
2029
100
AcDbXrecord
280
     1
  1
proposed
  1
pr*
  1
*
  1
*
 70
     0
  1
*
  1
*
  0
XRECORD
  5
211D
102
{ACAD_REACTORS
330
2029
102
}
330
2029
100
AcDbXrecord
280
     1
  1
ps2-ref
  1
*
  1
13
  1
*
 70
     0
  1
*
  1
*
  0
XRECORD
  5
211E
102
{ACAD_REACTORS
330
2029
102
}
330
2029
100
AcDbXrecord
280
     1
  1
pt
  1
*pt*
  1
*
  1
*
 70
     0
  1
*
  1
*
  0
XRECORD
  5
211F
102
{ACAD_REACTORS
330
2029
102
}
330
2029
100
AcDbXrecord
280
     1
  1
PTS
  1
*PTS
  1
*
  1
*
 70
     0
  1
*
  1
*
  0
XRECORD
  5
2120
102
{ACAD_REACTORS
330
2029
102
}
330
2029
100
AcDbXrecord
280
     1
  1
quadbuildings
  1
xqd*bl*
  1
*
  1
*
 70
     0
  1
*
  1
*
  0
XRECORD
  5
2121
102
{ACAD_REACTORS
330
2029
102
}
330
2029
100
AcDbXrecord
280
     1
  1
QUADGRID
  1
*QG*
  1
*
  1
*
 70
     0
  1
*
  1
*
  0
XRECORD
  5
2122
102
{ACAD_REACTORS
330
2029
102
}
330
2029
100
AcDbXrecord
280
     1
  1
quadlightinh
  1
qde*lt*
  1
*
  1
*
 70
    13
  1
*
  1
*
  0
XRECORD
  5
2123
102
{ACAD_REACTORS
330
2029
102
}
330
2029
100
AcDbXrecord
280
     1
  1
quadroads
  1
xqd*rd*
  1
*
  1
*
 70
     0
  1
*
  1
*
  0
XRECORD
  5
2124
102
{ACAD_REACTORS
330
2029
102
}
330
2029
100
AcDbXrecord
280
     1
  1
quadtrees
  1
*pt*,*fc*
  1
*
  1
*
 70
     0
  1
*
  1
*
  0
XRECORD
  5
2125
102
{ACAD_REACTORS
330
2029
102
}
330
2029
100
AcDbXrecord
280
     1
  1
quadtunnels
  1
*tn*
  1
*
  1
*
 70
     0
  1
*
  1
*
  0
XRECORD
  5
2126
102
{ACAD_REACTORS
330
2029
102
}
330
2029
100
AcDbXrecord
280
     1
  1
quadutilities
  1
qde*
  1
*
  1
*
 70
    13
  1
*
  1
*
  0
XRECORD
  5
2127
102
{ACAD_REACTORS
330
2029
102
}
330
2029
100
AcDbXrecord
280
     1
  1
quadwalks&curbs
  1
xqd*wk*,xqd*cr*
  1
*
  1
*
 70
     0
  1
*
  1
*
  0
XRECORD
  5
2128
102
{ACAD_REACTORS
330
2029
102
}
330
2029
100
AcDbXrecord
280
     1
  1
R2
  1
R2*,RR2*
  1
*
  1
*
 70
     0
  1
*
  1
*
  0
XRECORD
  5
2129
102
{ACAD_REACTORS
330
2029
102
}
330
2029
100
AcDbXrecord
280
     1
  1
rcp
  1
*rcp*
  1
*
  1
*
 70
     0
  1
*
  1
*
  0
XRECORD
  5
212A
102
{ACAD_REACTORS
330
2029
102
}
330
2029
100
AcDbXrecord
280
     1
  1
rds
  1
*r*d*
  1
*
  1
*
 70
     0
  1
*
  1
*
  0
XRECORD
  5
212B
102
{ACAD_REACTORS
330
2029
102
}
330
2029
100
AcDbXrecord
280
     1
  1
red
  1
*ae*
  1
1
  1
*
 70
     0
  1
*
  1
*
  0
XRECORD
  5
212C
102
{ACAD_REACTORS
330
2029
102
}
330
2029
100
AcDbXrecord
280
     1
  1
Reflected Cieling
  1
1A-CLNG*
  1
*
  1
*
 70
     0
  1
*
  1
*
  0
XRECORD
  5
212D
102
{ACAD_REACTORS
330
2029
102
}
330
2029
100
AcDbXrecord
280
     1
  1
REFRIG
  1
r*
  1
*
  1
*
 70
     0
  1
*
  1
*
  0
XRECORD
  5
212E
102
{ACAD_REACTORS
330
2029
102
}
330
2029
100
AcDbXrecord
280
     1
  1
reqw
  1
*
  1
9
  1
*
 70
     0
  1
*
  1
*
  0
XRECORD
  5
212F
102
{ACAD_REACTORS
330
2029
102
}
330
2029
100
AcDbXrecord
280
     1
  1
retainingwalls
  1
xqd*rt*
  1
*
  1
*
 70
     0
  1
*
  1
*
  0
XRECORD
  5
2130
102
{ACAD_REACTORS
330
2029
102
}
330
2029
100
AcDbXrecord
280
     1
  1
rf
  1
*rf*
  1
*
  1
*
 70
     0
  1
*
  1
*
  0
XRECORD
  5
2131
102
{ACAD_REACTORS
330
2029
102
}
330
2029
100
AcDbXrecord
280
     1
  1
RIP-RAP
  1
*RIP-RAP*
  1
*
  1
*
 70
     0
  1
*
  1
*
  0
XRECORD
  5
2132
102
{ACAD_REACTORS
330
2029
102
}
330
2029
100
AcDbXrecord
280
     1
  1
Roof
  1
RF*
  1
*
  1
*
 70
     0
  1
*
  1
*
  0
XRECORD
  5
2133
102
{ACAD_REACTORS
330
2029
102
}
330
2029
100
AcDbXrecord
280
     1
  1
roomnames
  1
*roomn*
  1
*
  1
*
 70
     0
  1
*
  1
*
  0
XRECORD
  5
2134
102
{ACAD_REACTORS
330
2029
102
}
330
2029
100
AcDbXrecord
280
     1
  1
row
  1
*row
  1
*
  1
*
 70
     0
  1
*
  1
*
  0
XRECORD
  5
2135
102
{ACAD_REACTORS
330
2029
102
}
330
2029
100
AcDbXrecord
280
     1
  1
s-layers
  1
*s-*
  1
*
  1
*
 70
     0
  1
*
  1
*
  0
XRECORD
  5
2136
102
{ACAD_REACTORS
330
2029
102
}
330
2029
100
AcDbXrecord
280
     1
  1
s-llayers
  1
*
  1
*
  1
*
 70
     0
  1
*
  1
*
  0
XRECORD
  5
2137
102
{ACAD_REACTORS
330
2029
102
}
330
2029
100
AcDbXrecord
280
     1
  1
S-SITE
  1
*S-*
  1
*
  1
*
 70
     0
  1
*
  1
*
  0
XRECORD
  5
2138
102
{ACAD_REACTORS
330
2029
102
}
330
2029
100
AcDbXrecord
280
     1
  1
SAN
  1
*SAN*
  1
*
  1
*
 70
     0
  1
*
  1
*
  0
XRECORD
  5
213A
102
{ACAD_REACTORS
330
2029
102
}
330
2029
100
AcDbXrecord
280
     1
  1
San Sew
  1
*san-sew*
  1
*
  1
*
 70
     0
  1
*
  1
*
  0
XRECORD
  5
2139
102
{ACAD_REACTORS
330
2029
102
}
330
2029
100
AcDbXrecord
280
     1
  1
san-sew
  1
*san-sew*
  1
*
  1
*
 70
     0
  1
*
  1
*
  0
XRECORD
  5
213B
102
{ACAD_REACTORS
330
2029
102
}
330
2029
100
AcDbXrecord
280
     1
  1
SAN. SEW.
  1
*SAN*
  1
*
  1
*
 70
     0
  1
*
  1
*
  0
XRECORD
  5
213C
102
{ACAD_REACTORS
330
2029
102
}
330
2029
100
AcDbXrecord
280
     1
  1
Sanitary Sewer
  1
*sanswr*
  1
*
  1
*
 70
     0
  1
*
  1
*
  0
XRECORD
  5
213D
102
{ACAD_REACTORS
330
2029
102
}
330
2029
100
AcDbXrecord
280
     1
  1
sanswr
  1
*sanswr*
  1
*
  1
*
 70
     0
  1
*
  1
*
  0
XRECORD
  5
213E
102
{ACAD_REACTORS
330
2029
102
}
330
2029
100
AcDbXrecord
280
     1
  1
SECO
  1
*SECO
  1
*
  1
*
 70
     0
  1
*
  1
*
  0
XRECORD
  5
213F
102
{ACAD_REACTORS
330
2029
102
}
330
2029
100
AcDbXrecord
280
     1
  1
SECOND
  1
*SECO*
  1
*
  1
*
 70
     0
  1
*
  1
*
  0
XRECORD
  5
2140
102
{ACAD_REACTORS
330
2029
102
}
330
2029
100
AcDbXrecord
280
     1
  1
Second Floor
  1
A2*
  1
*
  1
*
 70
     0
  1
*
  1
*
  0
XRECORD
  5
2141
102
{ACAD_REACTORS
330
2029
102
}
330
2029
100
AcDbXrecord
280
     1
  1
secondfloor
  1
*2*
  1
*
  1
*
 70
  3335
  1
*
  1
*
  0
XRECORD
  5
2142
102
{ACAD_REACTORS
330
2029
102
}
330
2029
100
AcDbXrecord
280
     1
  1
septic
  1
*septic*
  1
*
  1
*
 70
     0
  1
*
  1
*
  0
XRECORD
  5
2143
102
{ACAD_REACTORS
330
2029
102
}
330
2029
100
AcDbXrecord
280
     1
  1
shade off
  1
*-shd*
  1
10
  1
*
 70
     3
  1
*
  1
*
  0
XRECORD
  5
2144
102
{ACAD_REACTORS
330
2029
102
}
330
2029
100
AcDbXrecord
280
     1
  1
Show ALL (ABND)
  1
*-ABND-*
  1
*
  1
*
 70
     0
  1
*
  1
*
  0
XRECORD
  5
2145
102
{ACAD_REACTORS
330
2029
102
}
330
2029
100
AcDbXrecord
280
     1
  1
Show ALL (DETL)
  1
*-DETL-*
  1
*
  1
*
 70
     0
  1
*
  1
*
  0
XRECORD
  5
2146
102
{ACAD_REACTORS
330
2029
102
}
330
2029
100
AcDbXrecord
280
     1
  1
Show ALL (EXST)
  1
*-EXST-*
  1
*
  1
*
 70
     0
  1
*
  1
*
  0
XRECORD
  5
2147
102
{ACAD_REACTORS
330
2029
102
}
330
2029
100
AcDbXrecord
280
     1
  1
Show ALL (FUTR)
  1
*-FUTR-*
  1
*
  1
*
 70
     0
  1
*
  1
*
  0
XRECORD
  5
2148
102
{ACAD_REACTORS
330
2029
102
}
330
2029
100
AcDbXrecord
280
     1
  1
Show ALL (PKNG)
  1
*-PKNG*
  1
*
  1
*
 70
     0
  1
*
  1
*
  0
XRECORD
  5
2149
102
{ACAD_REACTORS
330
2029
102
}
330
2029
100
AcDbXrecord
280
     1
  1
Show ALL (PROP)
  1
*-PROP*
  1
*
  1
*
 70
     0
  1
*
  1
*
  0
XRECORD
  5
214A
102
{ACAD_REACTORS
330
2029
102
}
330
2029
100
AcDbXrecord
280
     1
  1
Show ALL (ROAD)
  1
*-ROAD*
  1
*
  1
*
 70
     0
  1
*
  1
*
  0
XRECORD
  5
214B
102
{ACAD_REACTORS
330
2029
102
}
330
2029
100
AcDbXrecord
280
     1
  1
Show ALL (STRU)
  1
*-STRU*
  1
*
  1
*
 70
     0
  1
*
  1
*
  0
XRECORD
  5
214C
102
{ACAD_REACTORS
330
2029
102
}
330
2029
100
AcDbXrecord
280
     1
  1
Show all BORDERS
  1
*BRDR
  1
*
  1
*
 70
     0
  1
*
  1
*
  0
XRECORD
  5
214D
102
{ACAD_REACTORS
330
2029
102
}
330
2029
100
AcDbXrecord
280
     1
  1
Show all PATTERNS
  1
*PATT
  1
*
  1
*
 70
     0
  1
*
  1
*
  0
XRECORD
  5
214E
102
{ACAD_REACTORS
330
2029
102
}
330
2029
100
AcDbXrecord
280
     1
  1
Show all Rendering
  1
Render*
  1
*
  1
*
 70
     0
  1
*
  1
*
  0
XRECORD
  5
214F
102
{ACAD_REACTORS
330
2029
102
}
330
2029
100
AcDbXrecord
280
     1
  1
SHT
  1
*SHT*
  1
*
  1
*
 70
     0
  1
*
  1
*
  0
XRECORD
  5
2150
102
{ACAD_REACTORS
330
2029
102
}
330
2029
100
AcDbXrecord
280
     1
  1
Silte Layers
  1
?-??-*
  1
*
  1
*
 70
     0
  1
*
  1
*
  0
XRECORD
  5
2151
102
{ACAD_REACTORS
330
2029
102
}
330
2029
100
AcDbXrecord
280
     1
  1
Site
  1
*
  1
*
  1
*
 70
  1036
  1
*
  1
*
  0
XRECORD
  5
2152
102
{ACAD_REACTORS
330
2029
102
}
330
2029
100
AcDbXrecord
280
     1
  1
Slab
  1
*Slab*
  1
*
  1
*
 70
     0
  1
*
  1
*
  0
XRECORD
  5
2153
102
{ACAD_REACTORS
330
2029
102
}
330
2029
100
AcDbXrecord
280
     1
  1
Slayers
  1
s*
  1
*
  1
*
 70
     0
  1
*
  1
*
  0
XRECORD
  5
2154
102
{ACAD_REACTORS
330
2029
102
}
330
2029
100
AcDbXrecord
280
     1
  1
Square Footage
  1
*
  1
*
  1
*
 70
     0
  1
*
  1
*
  0
XRECORD
  5
2155
102
{ACAD_REACTORS
330
2029
102
}
330
2029
100
AcDbXrecord
280
     1
  1
ss
  1
*ss*
  1
*
  1
*
 70
     0
  1
*
  1
*
  0
XRECORD
  5
2156
102
{ACAD_REACTORS
330
2029
102
}
330
2029
100
AcDbXrecord
280
     1
  1
SSMH
  1
*SSMH*
  1
*
  1
*
 70
     0
  1
*
  1
*
  0
XRECORD
  5
2157
102
{ACAD_REACTORS
330
2029
102
}
330
2029
100
AcDbXrecord
280
     1
  1
STA
  1
*STA*
  1
*
  1
*
 70
     0
  1
*
  1
*
  0
XRECORD
  5
2158
102
{ACAD_REACTORS
330
2029
102
}
330
2029
100
AcDbXrecord
280
     1
  1
STAIRS
  1
*STAIR
  1
*
  1
*
 70
     0
  1
*
  1
*
  0
XRECORD
  5
2159
102
{ACAD_REACTORS
330
2029
102
}
330
2029
100
AcDbXrecord
280
     1
  1
Standard Layers
  1
?-??-*
  1
*
  1
*
 70
     0
  1
*
  1
*
  0
XRECORD
  5
215A
102
{ACAD_REACTORS
330
2029
102
}
330
2029
100
AcDbXrecord
280
     1
  1
stations
  1
*sta*
  1
*
  1
*
 70
     0
  1
*
  1
*
  0
XRECORD
  5
215B
102
{ACAD_REACTORS
330
2029
102
}
330
2029
100
AcDbXrecord
280
     1
  1
STM
  1
*STM*
  1
*
  1
*
 70
     0
  1
*
  1
*
  0
XRECORD
  5
215C
102
{ACAD_REACTORS
330
2029
102
}
330
2029
100
AcDbXrecord
280
     1
  1
STRBASE
  1
*
  1
*
  1
*
 70
     0
  1
*
  1
*
  0
XRECORD
  5
215D
102
{ACAD_REACTORS
330
2029
102
}
330
2029
100
AcDbXrecord
280
     1
  1
STREET
  1
-STREET*
  1
*
  1
*
 70
     0
  1
*
  1
*
  0
XRECORD
  5
215E
102
{ACAD_REACTORS
330
2029
102
}
330
2029
100
AcDbXrecord
280
     1
  1
STRU
  1
s*
  1
*
  1
*
 70
     0
  1
*
  1
*
  0
XRECORD
  5
215F
102
{ACAD_REACTORS
330
2029
102
}
330
2029
100
AcDbXrecord
280
     1
  1
STRUCTURALFOUNDATION
  1
*
  1
*
  1
*
 70
     0
  1
*
  1
*
  0
XRECORD
  5
2160
102
{ACAD_REACTORS
330
2029
102
}
330
2029
100
AcDbXrecord
280
     1
  1
stucco
  1
*stucco*
  1
*
  1
*
 70
    61
  1
*
  1
*
  0
XRECORD
  5
2161
102
{ACAD_REACTORS
330
2029
102
}
330
2029
100
AcDbXrecord
280
     1
  1
SURVEY
  1
SURVEY*
  1
*
  1
*
 70
     0
  1
*
  1
*
  0
XRECORD
  5
2162
102
{ACAD_REACTORS
330
2029
102
}
330
2029
100
AcDbXrecord
280
     1
  1
SW
  1
*SW*
  1
*
  1
*
 70
     0
  1
*
  1
*
  0
XRECORD
  5
2163
102
{ACAD_REACTORS
330
2029
102
}
330
2029
100
AcDbXrecord
280
     1
  1
SYM
  1
*WALL
  1
*
  1
*
 70
     0
  1
*
  1
*
  0
XRECORD
  5
2164
102
{ACAD_REACTORS
330
2029
102
}
330
2029
100
AcDbXrecord
280
     1
  1
SYMBOLLEGEND
  1
*SL,*SL*
  1
*
  1
*
 70
     0
  1
*
  1
*
  0
XRECORD
  5
2165
102
{ACAD_REACTORS
330
2029
102
}
330
2029
100
AcDbXrecord
280
     1
  1
TEMP
  1
*A-DOOR-IDEN
  1
*
  1
*
 70
     0
  1
*
  1
*
  0
XRECORD
  5
2166
102
{ACAD_REACTORS
330
2029
102
}
330
2029
100
AcDbXrecord
280
     1
  1
TEXT
  1
*TEXT
  1
*
  1
*
 70
     0
  1
*
  1
*
  0
XRECORD
  5
2167
102
{ACAD_REACTORS
330
2029
102
}
330
2029
100
AcDbXrecord
280
     1
  1
thaw
  1
*
  1
*
  1
*
 70
    12
  1
*
  1
*
  0
XRECORD
  5
2168
102
{ACAD_REACTORS
330
2029
102
}
330
2029
100
AcDbXrecord
280
     1
  1
thawed
  1
*
  1
*
  1
*
 70
    12
  1
*
  1
*
  0
XRECORD
  5
2169
102
{ACAD_REACTORS
330
2029
102
}
330
2029
100
AcDbXrecord
280
     1
  1
THAWEDandON
  1
*
  1
*
  1
*
 70
    13
  1
*
  1
*
  0
XRECORD
  5
216A
102
{ACAD_REACTORS
330
2029
102
}
330
2029
100
AcDbXrecord
280
     1
  1
tree
  1
*tre*
  1
*
  1
*
 70
     0
  1
*
  1
*
  0
XRECORD
  5
216B
102
{ACAD_REACTORS
330
2029
102
}
330
2029
100
AcDbXrecord
280
     1
  1
TURNER
  1
TRNR*
  1
*
  1
*
 70
     0
  1
*
  1
*
  0
XRECORD
  5
216C
102
{ACAD_REACTORS
330
2029
102
}
330
2029
100
AcDbXrecord
280
     1
  1
Upper Floor
  1
U*
  1
*
  1
*
 70
     0
  1
*
  1
*
  0
XRECORD
  5
216D
102
{ACAD_REACTORS
330
2029
102
}
330
2029
100
AcDbXrecord
280
     1
  1
UpperNew
  1
A?2*
  1
*
  1
*
 70
    16
  1
*
  1
*
  0
XRECORD
  5
216E
102
{ACAD_REACTORS
330
2029
102
}
330
2029
100
AcDbXrecord
280
     1
  1
utilitytext
  1
qde*tx
  1
*
  1
*
 70
    13
  1
*
  1
*
  0
XRECORD
  5
216F
102
{ACAD_REACTORS
330
2029
102
}
330
2029
100
AcDbXrecord
280
     1
  1
visible
  1
*
  1
*
  1
*
 70
     1
  1
*
  1
*
  0
XRECORD
  5
2170
102
{ACAD_REACTORS
330
2029
102
}
330
2029
100
AcDbXrecord
280
     1
  1
WALK
  1
*WALK*
  1
*
  1
*
 70
     0
  1
*
  1
*
  0
XRECORD
  5
2171
102
{ACAD_REACTORS
330
2029
102
}
330
2029
100
AcDbXrecord
280
     1
  1
wall
  1
*wa*
  1
*
  1
*
 70
     0
  1
*
  1
*
  0
XRECORD
  5
2172
102
{ACAD_REACTORS
330
2029
102
}
330
2029
100
AcDbXrecord
280
     1
  1
WALLS
  1
*WALL*
  1
*
  1
*
 70
     0
  1
*
  1
*
  0
XRECORD
  5
2173
102
{ACAD_REACTORS
330
2029
102
}
330
2029
100
AcDbXrecord
280
     1
  1
WALLSONLY
  1
*WALLS*
  1
*
  1
*
 70
     0
  1
*
  1
*
  0
XRECORD
  5
2174
102
{ACAD_REACTORS
330
2029
102
}
330
2029
100
AcDbXrecord
280
     1
  1
WAT
  1
*WAT*
  1
*
  1
*
 70
     0
  1
*
  1
*
  0
XRECORD
  5
2175
102
{ACAD_REACTORS
330
2029
102
}
330
2029
100
AcDbXrecord
280
     1
  1
WATER
  1
*WATER*
  1
*
  1
*
 70
     0
  1
*
  1
*
  0
XRECORD
  5
2176
102
{ACAD_REACTORS
330
2029
102
}
330
2029
100
AcDbXrecord
280
     1
  1
WATER FITTINGS
  1
*FIT*
  1
*
  1
*
 70
     0
  1
*
  1
*
  0
XRECORD
  5
2177
102
{ACAD_REACTORS
330
2029
102
}
330
2029
100
AcDbXrecord
280
     1
  1
WaterShed
  1
ws*
  1
*
  1
*
 70
     0
  1
*
  1
*
  0
XRECORD
  5
2178
102
{ACAD_REACTORS
330
2029
102
}
330
2029
100
AcDbXrecord
280
     1
  1
white
  1
*
  1
*white*
  1
*
 70
     1
  1
*
  1
*
  0
XRECORD
  5
2179
102
{ACAD_REACTORS
330
2029
102
}
330
2029
100
AcDbXrecord
280
     1
  1
WW
  1
*WW*
  1
*
  1
*
 70
     0
  1
*
  1
*
  0
XRECORD
  5
217A
102
{ACAD_REACTORS
330
2029
102
}
330
2029
100
AcDbXrecord
280
     1
  1
Xref
  1
Xref*
  1
*
  1
*
 70
     0
  1
*
  1
*
  0
XRECORD
  5
217B
102
{ACAD_REACTORS
330
2029
102
}
330
2029
100
AcDbXrecord
280
     1
  1
XX
  1
C-PR-*
  1
*
  1
*
 70
     0
  1
*
  1
*
  0
DICTIONARY
  5
2220
330
62A
100
AcDbDictionary
280
     1
281
     1
  3
ACAD_XREC_ROUNDTRIP
360
2221
  0
DICTIONARY
  5
2222
330
629
100
AcDbDictionary
280
     1
281
     1
  3
ACAD_XREC_ROUNDTRIP
360
2223
  0
XRECORD
  5
2221
102
{ACAD_REACTORS
330
2220
102
}
330
2220
100
AcDbXrecord
102
SHADEPLOT
 70
     0
102
SHADEPLOTRESLEVEL
 70
     2
102
SHADEPLOTCUSTOMDPI
 70
   300
  0
XRECORD
  5
2223
102
{ACAD_REACTORS
330
2222
102
}
330
2222
100
AcDbXrecord
102
SHADEPLOT
 70
     0
102
SHADEPLOTRESLEVEL
 70
     2
102
SHADEPLOTCUSTOMDPI
 70
   300
  0
ENDSEC
  0
EOF
