  0
SECTION
  2
HEADER
  9
$ACADVER
  1
AC1015
  9
$ACADMAINTVER
 70
     6
  9
$DWGCODEPAGE
  3
ANSI_1252
  9
$INSBASE
 10
0.0
 20
0.0
 30
0.0
  9
$EXTMIN
 10
-1.588633167498657
 20
6.001236338146242
 30
0.0
  9
$EXTMAX
 10
20.48239441775372
 20
16.7363517996305
 30
0.0
  9
$LIMMIN
 10
0.0
 20
0.0
  9
$LIMMAX
 10
31.5
 20
24.0
  9
$ORTHOMODE
 70
     1
  9
$REGENMODE
 70
     1
  9
$FILLMODE
 70
     1
  9
$QTEXTMODE
 70
     0
  9
$MIRRTEXT
 70
     0
  9
$LTSCALE
 40
1.0
  9
$ATTMODE
 70
     1
  9
$TEXTSIZE
 40
0.27
  9
$TRACEWID
 40
0.05
  9
$TEXTSTYLE
  7
STANDARD
  9
$CLAYER
  8
0
  9
$CELTYPE
  6
HIDDEN
  9
$CECOLOR
 62
   256
  9
$CELTSCALE
 40
1.0
  9
$DISPSILH
 70
     0
  9
$DIMSCALE
 40
1.0
  9
$DIMASZ
 40
0.375
  9
$DIMEXO
 40
0.0625
  9
$DIMDLI
 40
0.75
  9
$DIMRND
 40
0.0
  9
$DIMDLE
 40
0.0
  9
$DIMEXE
 40
0.18
  9
$DIMTP
 40
0.0
  9
$DIMTM
 40
0.0
  9
$DIMTXT
 40
0.27
  9
$DIMCEN
 40
-0.06
  9
$DIMTSZ
 40
0.0
  9
$DIMTOL
 70
     0
  9
$DIMLIM
 70
     0
  9
$DIMTIH
 70
     1
  9
$DIMTOH
 70
     1
  9
$DIMSE1
 70
     0
  9
$DIMSE2
 70
     0
  9
$DIMTAD
 70
     0
  9
$DIMZIN
 70
     0
  9
$DIMBLK
  1

  9
$DIMASO
 70
     0
  9
$DIMSHO
 70
     0
  9
$DIMPOST
  1

  9
$DIMAPOST
  1

  9
$DIMALT
 70
     0
  9
$DIMALTD
 70
     2
  9
$DIMALTF
 40
25.4
  9
$DIMLFAC
 40
1.0
  9
$DIMTOFL
 70
     0
  9
$DIMTVP
 40
0.0
  9
$DIMTIX
 70
     0
  9
$DIMSOXD
 70
     0
  9
$DIMSAH
 70
     0
  9
$DIMBLK1
  1

  9
$DIMBLK2
  1

  9
$DIMSTYLE
  2
STANDARD
  9
$DIMCLRD
 70
     0
  9
$DIMCLRE
 70
     0
  9
$DIMCLRT
 70
     0
  9
$DIMTFAC
 40
1.0
  9
$DIMGAP
 40
0.09
  9
$DIMJUST
 70
     0
  9
$DIMSD1
 70
     0
  9
$DIMSD2
 70
     0
  9
$DIMTOLJ
 70
     1
  9
$DIMTZIN
 70
     0
  9
$DIMALTZ
 70
     0
  9
$DIMALTTZ
 70
     0
  9
$DIMUPT
 70
     0
  9
$DIMDEC
 70
     5
  9
$DIMTDEC
 70
     5
  9
$DIMALTU
 70
     2
  9
$DIMALTTD
 70
     2
  9
$DIMTXSTY
  7
STANDARD
  9
$DIMAUNIT
 70
     0
  9
$DIMADEC
 70
     0
  9
$DIMALTRND
 40
0.0
  9
$DIMAZIN
 70
     0
  9
$DIMDSEP
 70
    46
  9
$DIMATFIT
 70
     3
  9
$DIMFRAC
 70
     2
  9
$DIMLDRBLK
  1

  9
$DIMLUNIT
 70
     5
  9
$DIMLWD
 70
    -2
  9
$DIMLWE
 70
    -2
  9
$DIMTMOVE
 70
     2
  9
$LUNITS
 70
     2
  9
$LUPREC
 70
     3
  9
$SKETCHINC
 40
0.1
  9
$FILLETRAD
 40
0.0
  9
$AUNITS
 70
     0
  9
$AUPREC
 70
     0
  9
$MENU
  1
ACAD
  9
$ELEVATION
 40
0.0
  9
$PELEVATION
 40
0.0
  9
$THICKNESS
 40
0.0
  9
$LIMCHECK
 70
     0
  9
$CHAMFERA
 40
0.0
  9
$CHAMFERB
 40
0.0
  9
$CHAMFERC
 40
0.0
  9
$CHAMFERD
 40
0.0
  9
$SKPOLY
 70
     0
  9
$TDCREATE
 40
2450305.009580324
  9
$TDUCREATE
 40
2450305.342913657
  9
$TDUPDATE
 40
2454160.939644803
  9
$TDUUPDATE
 40
2454161.272978137
  9
$TDINDWG
 40
0.372030625
  9
$TDUSRTIMER
 40
0.372030625
  9
$USRTIMER
 70
     1
  9
$ANGBASE
 50
0.0
  9
$ANGDIR
 70
     0
  9
$PDMODE
 70
     0
  9
$PDSIZE
 40
0.0
  9
$PLINEWID
 40
0.0
  9
$SPLFRAME
 70
     0
  9
$SPLINETYPE
 70
     6
  9
$SPLINESEGS
 70
     8
  9
$HANDSEED
  5
2BBE
  9
$SURFTAB1
 70
     6
  9
$SURFTAB2
 70
     6
  9
$SURFTYPE
 70
     6
  9
$SURFU
 70
     6
  9
$SURFV
 70
     6
  9
$UCSBASE
  2

  9
$UCSNAME
  2

  9
$UCSORG
 10
0.0
 20
0.0
 30
0.0
  9
$UCSXDIR
 10
1.0
 20
0.0
 30
0.0
  9
$UCSYDIR
 10
0.0
 20
1.0
 30
0.0
  9
$UCSORTHOREF
  2

  9
$UCSORTHOVIEW
 70
     0
  9
$UCSORGTOP
 10
0.0
 20
0.0
 30
0.0
  9
$UCSORGBOTTOM
 10
0.0
 20
0.0
 30
0.0
  9
$UCSORGLEFT
 10
0.0
 20
0.0
 30
0.0
  9
$UCSORGRIGHT
 10
0.0
 20
0.0
 30
0.0
  9
$UCSORGFRONT
 10
0.0
 20
0.0
 30
0.0
  9
$UCSORGBACK
 10
0.0
 20
0.0
 30
0.0
  9
$PUCSBASE
  2

  9
$PUCSNAME
  2

  9
$PUCSORG
 10
0.0
 20
0.0
 30
0.0
  9
$PUCSXDIR
 10
1.0
 20
0.0
 30
0.0
  9
$PUCSYDIR
 10
0.0
 20
1.0
 30
0.0
  9
$PUCSORTHOREF
  2

  9
$PUCSORTHOVIEW
 70
     0
  9
$PUCSORGTOP
 10
0.0
 20
0.0
 30
0.0
  9
$PUCSORGBOTTOM
 10
0.0
 20
0.0
 30
0.0
  9
$PUCSORGLEFT
 10
0.0
 20
0.0
 30
0.0
  9
$PUCSORGRIGHT
 10
0.0
 20
0.0
 30
0.0
  9
$PUCSORGFRONT
 10
0.0
 20
0.0
 30
0.0
  9
$PUCSORGBACK
 10
0.0
 20
0.0
 30
0.0
  9
$USERI1
 70
     0
  9
$USERI2
 70
     0
  9
$USERI3
 70
     0
  9
$USERI4
 70
     0
  9
$USERI5
 70
     0
  9
$USERR1
 40
0.0
  9
$USERR2
 40
0.0
  9
$USERR3
 40
0.0
  9
$USERR4
 40
0.0
  9
$USERR5
 40
0.0
  9
$WORLDVIEW
 70
     1
  9
$SHADEDGE
 70
     3
  9
$SHADEDIF
 70
    70
  9
$TILEMODE
 70
     1
  9
$MAXACTVP
 70
    16
  9
$PINSBASE
 10
0.0
 20
0.0
 30
0.0
  9
$PLIMCHECK
 70
     0
  9
$PEXTMIN
 10
1.000000000000000E+20
 20
1.000000000000000E+20
 30
1.000000000000000E+20
  9
$PEXTMAX
 10
-1.000000000000000E+20
 20
-1.000000000000000E+20
 30
-1.000000000000000E+20
  9
$PLIMMIN
 10
0.0
 20
0.0
  9
$PLIMMAX
 10
12.0
 20
9.0
  9
$UNITMODE
 70
     0
  9
$VISRETAIN
 70
     0
  9
$PLINEGEN
 70
     0
  9
$PSLTSCALE
 70
     0
  9
$TREEDEPTH
 70
  3020
  9
$CMLSTYLE
  2
STANDARD
  9
$CMLJUST
 70
     0
  9
$CMLSCALE
 40
1.0
  9
$PROXYGRAPHICS
 70
     1
  9
$MEASUREMENT
 70
     0
  9
$CELWEIGHT
370
    -1
  9
$ENDCAPS
280
     0
  9
$JOINSTYLE
280
     0
  9
$LWDISPLAY
290
     0
  9
$INSUNITS
 70
     0
  9
$HYPERLINKBASE
  1

  9
$STYLESHEET
  1

  9
$XEDIT
290
     1
  9
$CEPSNTYPE
380
     0
  9
$PSTYLEMODE
290
     1
  9
$FINGERPRINTGUID
  2
{44082B7C-C9DC-4B17-A477-44FE47AA08EB}
  9
$VERSIONGUID
  2
{47D6E5AD-BA53-4D0C-8375-41322878B4E5}
  9
$EXTNAMES
290
     1
  9
$PSVPSCALE
 40
0.0
  9
$OLESTARTUP
290
     0
  0
ENDSEC
  0
SECTION
  2
CLASSES
  0
CLASS
  1
DICTIONARYVAR
  2
AcDbDictionaryVar
  3
AutoCAD 2000
 90
        0
280
     0
281
     0
  0
CLASS
  1
LWPOLYLINE
  2
AcDbPolyline
  3
AutoCAD 2000
 90
        0
280
     0
281
     1
  0
CLASS
  1
ACDBDICTIONARYWDFLT
  2
AcDbDictionaryWithDefault
  3
AutoCAD 2000
 90
        0
280
     0
281
     0
  0
CLASS
  1
ACDBPLACEHOLDER
  2
AcDbPlaceHolder
  3
ObjectDBX Classes
 90
        0
280
     0
281
     0
  0
CLASS
  1
LAYOUT
  2
AcDbLayout
  3
ObjectDBX Classes
 90
        0
280
     0
281
     0
  0
CLASS
  1
LONG_TRANSACTION
  2
AcDbLongTransaction
  3
ObjectDBX Classes
 90
   -65536
280
     1
281
     0
  0
CLASS
  1
LWPOLYLINE
  2
AcDbPolyline
  3
AutoCAD 2000
 90
        0
280
     0
281
     1
  0
CLASS
  1
HATCH
  2
AcDbHatch
  3
AutoCAD 2000
 90
        0
280
     0
281
     1
  0
CLASS
  1
XRECORD
  2
AcDbXrecord
  3
AutoCAD 2000
 90
        0
280
     0
281
     0
  0
CLASS
  1
LONG_TRANSACTION
  2
AcDbLongTransaction
  3
ObjectDBX Classes
 90
   -65536
280
     1
281
     0
  0
CLASS
  1
LWPOLYLINE
  2
AcDbPolyline
  3
AutoCAD 2000
 90
        0
280
     0
281
     1
  0
CLASS
  1
HATCH
  2
AcDbHatch
  3
AutoCAD 2000
 90
        0
280
     0
281
     1
  0
CLASS
  1
XRECORD
  2
AcDbXrecord
  3
AutoCAD 2000
 90
        0
280
     0
281
     0
  0
CLASS
  1
LONG_TRANSACTION
  2
AcDbLongTransaction
  3
ObjectDBX Classes
 90
   -65536
280
     1
281
     0
  0
CLASS
  1
LWPOLYLINE
  2
AcDbPolyline
  3
AutoCAD 2000
 90
        0
280
     0
281
     1
  0
CLASS
  1
HATCH
  2
AcDbHatch
  3
AutoCAD 2000
 90
        0
280
     0
281
     1
  0
CLASS
  1
XRECORD
  2
AcDbXrecord
  3
AutoCAD 2000
 90
        0
280
     0
281
     0
  0
CLASS
  1
SORTENTSTABLE
  2
AcDbSortentsTable
  3
AutoCAD 2000
 90
        0
280
     0
281
     0
  0
CLASS
  1
TABLESTYLE
  2
AcDbTableStyle
  3
ObjectDBX Classes
 90
     2047
280
     1
281
     0
  0
ENDSEC
  0
SECTION
  2
TABLES
  0
TABLE
  2
VPORT
  5
4FB
330
0
100
AcDbSymbolTable
 70
     2
  0
VPORT
  5
2BAE
330
4FB
100
AcDbSymbolTableRecord
100
AcDbViewportTableRecord
  2
*Active
 70
     0
 10
0.0
 20
0.0
 11
1.0
 21
1.0
 12
14.95517856229645
 22
12.43681552962584
 13
0.0
 23
0.0
 14
0.0625
 24
0.0625
 15
0.5
 25
0.5
 16
0.0
 26
0.0
 36
1.0
 17
0.0
 27
0.0
 37
0.0
 40
25.21245458866344
 41
1.814583333333333
 42
50.0
 43
0.0
 44
0.0
 50
0.0
 51
0.0
 71
     0
 72
   100
 73
     1
 74
     0
 75
     0
 76
     0
 77
     0
 78
     0
281
     0
 65
     1
110
0.0
120
0.0
130
0.0
111
1.0
121
0.0
131
0.0
112
0.0
122
1.0
132
0.0
 79
     0
146
0.0
  0
ENDTAB
  0
TABLE
  2
LTYPE
  5
4F8
330
0
100
AcDbSymbolTable
 70
     3
  0
LTYPE
  5
504
330
4F8
100
AcDbSymbolTableRecord
100
AcDbLinetypeTableRecord
  2
BYBLOCK
 70
     0
  3

 72
    65
 73
     0
 40
0.0
  0
LTYPE
  5
505
330
4F8
100
AcDbSymbolTableRecord
100
AcDbLinetypeTableRecord
  2
BYLAYER
 70
     0
  3

 72
    65
 73
     0
 40
0.0
  0
LTYPE
  5
506
330
4F8
100
AcDbSymbolTableRecord
100
AcDbLinetypeTableRecord
  2
CONTINUOUS
 70
     0
  3
Solid line
 72
    65
 73
     0
 40
0.0
  0
LTYPE
  5
533
330
4F8
100
AcDbSymbolTableRecord
100
AcDbLinetypeTableRecord
  2
HIDDEN
 70
     0
  3
__ __ __ __ __ __ __ __ __ __ __ __ __ __ __ __
 72
    65
 73
     2
 40
0.375
 49
0.25
 74
     0
 49
-0.125
 74
     0
  0
LTYPE
  5
11CC
330
4F8
100
AcDbSymbolTableRecord
100
AcDbLinetypeTableRecord
  2
HIDDEN2
 70
     0
  3
Hidden (.5x) _ _ _ _ _ _ _ _ _ _ _ _ _ _ _ _ _
 72
    65
 73
     2
 40
0.1875
 49
0.125
 74
     0
 49
-0.0625
 74
     0
  0
ENDTAB
  0
TABLE
  2
LAYER
  5
4F5
102
{ACAD_XDICTIONARY
360
298C
102
}
330
0
100
AcDbSymbolTable
 70
     3
  0
LAYER
  5
501
330
4F5
100
AcDbSymbolTableRecord
100
AcDbLayerTableRecord
  2
0
 70
     0
 62
     7
  6
CONTINUOUS
370
    -3
390
626
  0
ENDTAB
  0
TABLE
  2
STYLE
  5
4F6
330
0
100
AcDbSymbolTable
 70
     3
  0
STYLE
  5
502
330
4F6
100
AcDbSymbolTableRecord
100
AcDbTextStyleTableRecord
  2
STANDARD
 70
     0
 40
0.0
 41
1.0
 50
0.0
 71
     0
 42
0.27
  3
TXT
  4

  0
ENDTAB
  0
TABLE
  2
VIEW
  5
4F9
330
0
100
AcDbSymbolTable
 70
     4
  0
VIEW
  5
537
330
4F9
100
AcDbSymbolTableRecord
100
AcDbViewTableRecord
  2
PLOTTER
 70
     0
 40
23.625
 10
17.01330184198921
 20
11.8125
 41
1.0
 11
0.0
 21
0.0
 31
1.0
 12
0.0
 22
0.0
 32
0.0
 42
50.0
 43
0.0
 44
0.0
 50
0.0
 71
     0
281
     0
 72
     0
  0
VIEW
  5
538
330
4F9
100
AcDbSymbolTableRecord
100
AcDbViewTableRecord
  2
UPPER
 70
     0
 40
10.92682926829268
 10
12.68329970046198
 20
16.68292682926829
 41
1.0
 11
0.0
 21
0.0
 31
1.0
 12
0.0
 22
0.0
 32
0.0
 42
50.0
 43
0.0
 44
0.0
 50
0.0
 71
     0
281
     0
 72
     0
  0
VIEW
  5
539
330
4F9
100
AcDbSymbolTableRecord
100
AcDbViewTableRecord
  2
LEFT
 70
     0
 40
5.446009389671362
 10
10.90014360505218
 20
8.479102255811291
 41
1.0
 11
0.0
 21
0.0
 31
1.0
 12
0.0
 22
0.0
 32
0.0
 42
50.0
 43
0.0
 44
0.0
 50
0.0
 71
     0
281
     0
 72
     0
  0
VIEW
  5
53A
330
4F9
100
AcDbSymbolTableRecord
100
AcDbViewTableRecord
  2
RIGHT
 70
     0
 40
10.21596244131455
 10
22.88218731978697
 20
10.27871292797435
 41
1.0
 11
0.0
 21
0.0
 31
1.0
 12
0.0
 22
0.0
 32
0.0
 42
50.0
 43
0.0
 44
0.0
 50
0.0
 71
     0
281
     0
 72
     0
  0
ENDTAB
  0
TABLE
  2
UCS
  5
4FA
330
0
100
AcDbSymbolTable
 70
     0
  0
ENDTAB
  0
TABLE
  2
APPID
  5
4FC
330
0
100
AcDbSymbolTable
 70
     5
  0
APPID
  5
503
330
4FC
100
AcDbSymbolTableRecord
100
AcDbRegAppTableRecord
  2
ACAD
 70
     0
  0
APPID
  5
7C1
330
4FC
100
AcDbSymbolTableRecord
100
AcDbRegAppTableRecord
  2
DCO15
 70
     0
  0
APPID
  5
851
330
4FC
100
AcDbSymbolTableRecord
100
AcDbRegAppTableRecord
  2
AcAecLayerStandard
 70
     0
  0
APPID
  5
852
330
4FC
100
AcDbSymbolTableRecord
100
AcDbRegAppTableRecord
  2
ACAD_PSEXT
 70
     0
  0
APPID
  5
1290
330
4FC
100
AcDbSymbolTableRecord
100
AcDbRegAppTableRecord
  2
RAK
 70
     0
  0
ENDTAB
  0
TABLE
  2
DIMSTYLE
  5
4FD
330
0
100
AcDbSymbolTable
 70
     1
100
AcDbDimStyleTable
  0
DIMSTYLE
105
558
330
4FD
100
AcDbSymbolTableRecord
100
AcDbDimStyleTableRecord
  2
STANDARD
 70
     0
  3

  4

340
502
  0
ENDTAB
  0
TABLE
  2
BLOCK_RECORD
  5
4F4
330
0
100
AcDbSymbolTable
 70
     0
  0
BLOCK_RECORD
  5
50A
330
4F4
100
AcDbSymbolTableRecord
100
AcDbBlockTableRecord
  2
*MODEL_SPACE
340
629
  0
BLOCK_RECORD
  5
507
330
4F4
100
AcDbSymbolTableRecord
100
AcDbBlockTableRecord
  2
*PAPER_SPACE
340
62A
  0
ENDTAB
  0
ENDSEC
  0
SECTION
  2
BLOCKS
  0
BLOCK
  5
550
330
50A
100
AcDbEntity
  8
0
100
AcDbBlockBegin
  2
*MODEL_SPACE
 70
     0
 10
0.0
 20
0.0
 30
0.0
  3
*MODEL_SPACE
  1

  4

  0
ENDBLK
  5
551
330
50A
100
AcDbEntity
  8
0
100
AcDbBlockEnd
  0
BLOCK
  5
54E
330
507
100
AcDbEntity
 67
     1
  8
0
100
AcDbBlockBegin
  2
*PAPER_SPACE
 70
     0
 10
0.0
 20
0.0
 30
0.0
  3
*PAPER_SPACE
  1

  4

  0
ENDBLK
  5
54F
330
507
100
AcDbEntity
 67
     1
  8
0
100
AcDbBlockEnd
  0
ENDSEC
  0
SECTION
  2
ENTITIES
  0
TEXT
  5
CE
330
50A
100
AcDbEntity
  8
0
100
AcDbText
 10
9.860040913637929
 20
20.93053558724526
 30
0.0
 40
0.27
  1
   
 11
9.860040913637929
 21
21.06553558724526
 31
0.0
100
AcDbText
 73
     2
  0
TEXT
  5
EC
330
50A
100
AcDbEntity
  8
0
100
AcDbText
 10
26.00773490355874
 20
4.47821562795092
 30
0.0
 40
0.2565
  1

100
AcDbText
  0
LINE
  5
1A8F
330
50A
100
AcDbEntity
  8
0
  6
Continuous
100
AcDbLine
 10
0.3492272570181427
 20
10.20338633814624
 30
0.0
 11
-1.588633167498657
 21
10.20338633814625
 31
0.0
  0
ARC
  5
1A91
330
50A
100
AcDbEntity
  8
0
  6
Continuous
100
AcDbCircle
 10
0.3288668324995427
 20
6.183386338146264
 30
0.0
 40
0.34375
100
AcDbArc
 50
0.000000000000007
 51
180.0
  0
ARC
  5
1A92
330
50A
100
AcDbEntity
  8
0
  6
Continuous
100
AcDbCircle
 10
0.3288668324995427
 20
6.14948461314679
 30
0.0
 40
0.34375
100
AcDbArc
 50
0.000000000000007
 51
180.0
  0
LINE
  5
1A93
330
50A
100
AcDbEntity
  8
0
  6
HIDDEN
100
AcDbLine
 10
-0.1711331675004573
 20
7.340341616667061
 30
0.0
 11
0.8288668324995427
 21
7.340341616667061
 31
0.0
  0
LINE
  5
1A94
330
50A
100
AcDbEntity
  8
0
  6
HIDDEN
100
AcDbLine
 10
-0.1711331675004573
 20
7.57534161666706
 30
0.0
 11
0.8288668324995427
 21
7.57534161666706
 31
0.0
  0
ARC
  5
1AAB
330
50A
100
AcDbEntity
  8
0
  6
HIDDEN
100
AcDbCircle
 10
0.8288668324995427
 20
7.090341616667061
 30
0.0
 40
0.485
100
AcDbArc
 50
0.000000000000007
 51
90.0
  0
LINE
  5
1AAC
330
50A
100
AcDbEntity
  8
0
  6
Continuous
100
AcDbLine
 10
2.422616832499546
 20
6.682821664107046
 30
0.0
 11
0.3492272570181427
 21
10.20338633814624
 31
0.0
  0
LINE
  5
1ABD
330
50A
100
AcDbEntity
  8
0
100
AcDbLine
 10
2.422616832499546
 20
6.001236338146242
 30
0.0
 11
0.6726168324995392
 21
6.001236338146242
 31
0.0
  0
LINE
  5
1ABE
330
50A
100
AcDbEntity
  8
0
  6
HIDDEN
100
AcDbLine
 10
0.6726168324995427
 20
6.176236338146268
 30
0.0
 11
2.413477536910271
 21
6.176236338146239
 31
0.0
  0
LINE
  5
1AC2
330
50A
100
AcDbEntity
  8
0
  6
Continuous
100
AcDbLine
 10
2.422616832499543
 20
6.001236338146242
 30
0.0
 11
2.422616832499543
 21
6.682821664107053
 31
0.0
  0
LINE
  5
1AC3
330
50A
100
AcDbEntity
  8
0
  6
HIDDEN
100
AcDbLine
 10
1.078866832499543
 20
7.090341616667061
 30
0.0
 11
1.078866832499543
 21
6.200350175567053
 31
0.0
  0
LINE
  5
1AC4
330
50A
100
AcDbEntity
  8
0
  6
HIDDEN
100
AcDbLine
 10
1.313866832499556
 20
7.090341616667061
 30
0.0
 11
1.313866832499556
 21
6.200350175567053
 31
0.0
  0
LINE
  5
1AC5
330
50A
100
AcDbEntity
  8
0
  6
Continuous
100
AcDbLine
 10
0.6726168324995427
 20
6.001236338146242
 30
0.0
 11
0.6726168324995427
 21
6.183386338146264
 31
0.0
  0
ARC
  5
1AC6
330
50A
100
AcDbEntity
  8
0
  6
HIDDEN
100
AcDbCircle
 10
0.8288668324995427
 20
7.090341616667061
 30
0.0
 40
0.25
100
AcDbArc
 50
0.000000000000007
 51
90.0
  0
LINE
  5
1AC7
330
50A
100
AcDbEntity
  8
0
  6
HIDDEN
100
AcDbLine
 10
0.7976168324995427
 20
7.340341616667061
 30
0.0
 11
0.7976168324995427
 21
7.57534161666706
 31
0.0
  0
ARC
  5
1ADA
330
50A
100
AcDbEntity
  8
0
  6
HIDDEN
100
AcDbCircle
 10
-0.1711331675004573
 20
7.090341616667061
 30
0.0
 40
0.485
100
AcDbArc
 50
90.0
 51
180.0
  0
LINE
  5
1ADB
330
50A
100
AcDbEntity
  8
0
  6
Continuous
100
AcDbLine
 10
-1.416833167498663
 20
7.574465244861706
 30
0.0
 11
-1.416833167498659
 21
6.946188773728827
 31
0.0
  0
LINE
  5
1ADC
330
50A
100
AcDbEntity
  8
0
  6
Continuous
100
AcDbLine
 10
-1.588633167498657
 20
10.20338633814625
 30
0.0
 11
-1.588633167498657
 21
6.70338633814626
 31
0.0
  0
LINE
  5
1AEC
330
50A
100
AcDbEntity
  8
0
100
AcDbLine
 10
-0.0148831675004715
 20
6.001236338146242
 30
0.0
 11
-1.556133167498658
 21
6.001236338146242
 31
0.0
  0
LINE
  5
1AED
330
50A
100
AcDbEntity
  8
0
  6
HIDDEN
100
AcDbLine
 10
-1.524883167498658
 20
6.176236338146296
 30
0.0
 11
-0.0461331675004715
 21
6.176236338146282
 31
0.0
  0
LINE
  5
1AF0
330
50A
100
AcDbEntity
  8
0
  6
HIDDEN
100
AcDbLine
 10
-0.4211331675004573
 20
7.090341616667061
 30
0.0
 11
-0.4211331675004573
 21
6.200350175567053
 31
0.0
  0
LINE
  5
1AF1
330
50A
100
AcDbEntity
  8
0
  6
HIDDEN
100
AcDbLine
 10
-0.6561331675004425
 20
7.090341616667061
 30
0.0
 11
-0.6561331675004425
 21
6.200350175567053
 31
0.0
  0
LINE
  5
1AF2
330
50A
100
AcDbEntity
  8
0
  6
Continuous
100
AcDbLine
 10
-0.0148831675004715
 20
6.001236338146242
 30
0.0
 11
-0.0148831675004715
 21
6.183386338146264
 31
0.0
  0
ARC
  5
1AF3
330
50A
100
AcDbEntity
  8
0
  6
HIDDEN
100
AcDbCircle
 10
-0.1711331675004573
 20
7.090341616667061
 30
0.0
 40
0.25
100
AcDbArc
 50
90.0
 51
180.0
  0
LINE
  5
1AF4
330
50A
100
AcDbEntity
  8
0
  6
HIDDEN
100
AcDbLine
 10
-0.1398831675004573
 20
7.340341616667061
 30
0.0
 11
-0.1398831675004573
 21
7.57534161666706
 31
0.0
  0
LINE
  5
1AF5
330
50A
100
AcDbEntity
  8
0
100
AcDbLine
 10
-1.556133167498658
 20
6.70338633814626
 30
0.0
 11
-1.556133167498658
 21
6.001236338146242
 31
0.0
  0
LINE
  5
1AF6
330
50A
100
AcDbEntity
  8
0
100
AcDbLine
 10
-1.416833167498659
 20
7.203386338146238
 30
0.0
 11
-1.588633167498657
 21
7.203386338146238
 31
0.0
  0
LINE
  5
1AF7
330
50A
100
AcDbEntity
  8
0
  6
Continuous
100
AcDbLine
 10
-1.416833167498659
 20
6.946188773728828
 30
0.0
 11
-1.588633167498657
 21
6.774388773728845
 31
0.0
  0
LINE
  5
1AF8
330
50A
100
AcDbEntity
  8
0
100
AcDbLine
 10
-1.416833167498659
 20
6.703386338146267
 30
0.0
 11
-1.588633167498657
 21
6.70338633814626
 31
0.0
  0
ARC
  5
1AF9
330
50A
100
AcDbEntity
  8
0
  6
Continuous
100
AcDbCircle
 10
-1.463633167498657
 20
7.297136338146231
 30
0.0
 40
0.28125
100
AcDbArc
 50
314.9999999999981
 51
80.42142702614657
  0
LINE
  5
1AFA
330
50A
100
AcDbEntity
  8
0
  6
Continuous
100
AcDbLine
 10
-1.264759385289935
 20
7.098262555937538
 30
0.0
 11
-1.416833167498659
 21
6.946188773728828
 31
0.0
  0
CIRCLE
  5
1F08
330
50A
100
AcDbEntity
  8
0
  6
Continuous
100
AcDbCircle
 10
10.60736333698379
 20
9.797855998146261
 30
0.0
 40
0.1325
  0
CIRCLE
  5
1F09
330
50A
100
AcDbEntity
  8
0
  6
Continuous
100
AcDbCircle
 10
10.60736333698379
 20
8.579105998146261
 30
0.0
 40
0.1325
  0
LINE
  5
1F0A
330
50A
100
AcDbEntity
  8
0
  6
Continuous
100
AcDbLine
 10
9.936363336983748
 20
10.20410599814626
 30
0.0
 11
12.35736333698379
 21
10.20410599814626
 31
0.0
  0
LINE
  5
1F0B
330
50A
100
AcDbEntity
  8
0
  6
Continuous
100
AcDbLine
 10
10.31748711919063
 20
7.496729780354947
 30
0.0
 11
11.07349924904764
 21
6.74071765049797
 31
0.0
  0
ARC
  5
1F14
330
50A
100
AcDbEntity
  8
0
  6
Continuous
100
AcDbCircle
 10
8.561363336983748
 20
7.547236338146238
 30
0.0
 40
1.374999999999999
100
AcDbArc
 50
179.9999999999999
 51
0.000000000000148
  0
ARC
  5
1F15
330
50A
100
AcDbEntity
  8
0
  6
Continuous
100
AcDbCircle
 10
8.561363336983746
 20
7.547236338146242
 30
0.0
 40
1.545999999999998
100
AcDbArc
 50
180.0
 51
0.0
  0
LINE
  5
1F17
330
50A
100
AcDbEntity
  8
0
  6
HIDDEN
100
AcDbLine
 10
7.196363336983737
 20
7.312236338146235
 30
0.0
 11
9.926363336983727
 21
7.312236338146235
 31
0.0
  0
LINE
  5
1F18
330
50A
100
AcDbEntity
  8
0
100
AcDbLine
 10
7.196363336983737
 20
7.547236338146249
 30
0.0
 11
9.926363336983727
 21
7.547236338146249
 31
0.0
  0
LINE
  5
1F1B
330
50A
100
AcDbEntity
  8
0
  6
Continuous
100
AcDbLine
 10
7.011363336983788
 20
10.20338633814626
 30
0.0
 11
7.011363336983788
 21
7.551236338146254
 31
0.0
  0
LINE
  5
1F1D
330
50A
100
AcDbEntity
  8
0
  6
Continuous
100
AcDbLine
 10
7.186363336983749
 20
10.20338633814626
 30
0.0
 11
7.186363336983749
 21
7.551236338146254
 31
0.0
  0
LINE
  5
1F34
330
50A
100
AcDbEntity
  8
0
  6
HIDDEN
100
AcDbLine
 10
7.256363336983739
 20
7.312236338146235
 30
0.0
 11
7.256363336983739
 21
7.547236338146249
 31
0.0
  0
LINE
  5
1F35
330
50A
100
AcDbEntity
  8
0
100
AcDbLine
 10
7.196363336983737
 20
7.547236338146249
 30
0.0
 11
7.196363336983737
 21
7.2928907557462
 31
0.0
  0
LWPOLYLINE
  5
1F3E
330
50A
100
AcDbEntity
  8
0
100
AcDbPolyline
 90
        5
 70
     0
 43
0.0
 10
7.236363336983757
 20
7.146830547646218
 10
7.218475371683738
 20
7.193813097746258
 10
7.206069606983746
 20
7.23479469704624
 10
7.198775880383735
 20
7.268225791446227
 10
7.196363336983737
 20
7.2928907557462
  0
LWPOLYLINE
  5
1F46
330
50A
100
AcDbEntity
  8
0
100
AcDbPolyline
 90
        4
 70
     0
 43
0.0
 10
7.236363336983757
 20
7.146830547646218
 10
7.246247306283735
 20
7.124194831946213
 10
7.257177469083743
 20
7.100910880446222
 10
7.269184943783742
 20
7.077236338146221
  0
LINE
  5
1F52
330
50A
100
AcDbEntity
  8
0
  6
HIDDEN
100
AcDbLine
 10
8.092613336983717
 20
7.547236338146249
 30
0.0
 11
8.092613336983717
 21
7.312236338146235
 31
0.0
  0
LINE
  5
1F5C
330
50A
100
AcDbEntity
  8
0
  6
Continuous
100
AcDbLine
 10
9.936363336983749
 20
10.20338633814626
 30
0.0
 11
9.936363336983693
 21
7.551236338146254
 31
0.0
  0
LINE
  5
1F5D
330
50A
100
AcDbEntity
  8
0
  6
Continuous
100
AcDbLine
 10
10.1113633369837
 20
10.20338633814626
 30
0.0
 11
10.1113633369837
 21
7.551236338146254
 31
0.0
  0
LINE
  5
1F64
330
50A
100
AcDbEntity
  8
0
  6
HIDDEN
100
AcDbLine
 10
9.030113336983717
 20
7.547236338146249
 30
0.0
 11
9.030113336983717
 21
7.312236338146235
 31
0.0
  0
ARC
  5
1F6B
330
50A
100
AcDbEntity
  8
0
  6
Continuous
100
AcDbCircle
 10
10.11861333698194
 20
7.297855998146225
 30
0.0
 40
0.28125
100
AcDbArc
 50
45.00000000000217
 51
130.5141111763474
  0
LINE
  5
1F6C
330
50A
100
AcDbEntity
  8
0
100
AcDbLine
 10
9.926363336983727
 20
7.547236338146249
 30
0.0
 11
9.926363336983727
 21
7.2928907557462
 31
0.0
  0
LINE
  5
1F6D
330
50A
100
AcDbEntity
  8
0
  6
HIDDEN
100
AcDbLine
 10
9.866363336983724
 20
7.312236338146235
 30
0.0
 11
9.866363336983724
 21
7.547236338146249
 31
0.0
  0
LWPOLYLINE
  5
1F76
330
50A
100
AcDbEntity
  8
0
100
AcDbPolyline
 90
        5
 70
     0
 43
0.0
 10
9.926363336983755
 20
7.2928907557462
 10
9.923950793583757
 20
7.268225791446227
 10
9.916657066983746
 20
7.23479469704624
 10
9.904251302283754
 20
7.193813097746258
 10
9.886363336983735
 20
7.146830547646218
  0
LWPOLYLINE
  5
1F84
330
50A
100
AcDbEntity
  8
0
100
AcDbPolyline
 90
        4
 70
     0
 43
0.0
 10
9.853541730283737
 20
7.077236338146221
 10
9.865549204883749
 20
7.100910880446222
 10
9.876479367683757
 20
7.124194831946213
 10
9.886363336983735
 20
7.146830547646218
  0
LINE
  5
1FAA
330
50A
100
AcDbEntity
  8
0
  6
Continuous
100
AcDbLine
 10
12.79486333698379
 20
9.766605998146261
 30
0.0
 11
12.79486333698379
 21
7.193382693442878
 31
0.0
  0
CIRCLE
  5
1FAC
330
50A
100
AcDbEntity
  8
0
  6
Continuous
100
AcDbCircle
 10
11.91986333698379
 20
7.204105998146261
 30
0.0
 40
0.1325
  0
LINE
  5
1FAD
330
50A
100
AcDbEntity
  8
0
  6
Continuous
100
AcDbLine
 10
11.16188759669596
 20
6.704105998146289
 30
0.0
 11
12.30558664168715
 21
6.704105998146254
 31
0.0
  0
ARC
  5
1FAF
330
50A
100
AcDbEntity
  8
0
  6
Continuous
100
AcDbCircle
 10
11.16188759669596
 20
6.829105998146289
 30
0.0
 40
0.125
100
AcDbArc
 50
225.0000000000013
 51
269.9999999999984
  0
CIRCLE
  5
1FB0
330
50A
100
AcDbEntity
  8
0
  6
Continuous
100
AcDbCircle
 10
11.04486333698379
 20
7.610355998146261
 30
0.0
 40
0.1325
  0
ARC
  5
1FB2
330
50A
100
AcDbEntity
  8
0
  6
Continuous
100
AcDbCircle
 10
12.30558664168716
 20
6.829105998146254
 30
0.0
 40
0.125
100
AcDbArc
 50
269.9999999999984
 51
314.9999999999993
  0
LINE
  5
1FB6
330
50A
100
AcDbEntity
  8
0
  6
Continuous
100
AcDbLine
 10
12.75825168463211
 20
7.104994345794559
 30
0.0
 11
12.39397498933547
 21
6.740717650497935
 31
0.0
  0
CIRCLE
  5
1FB7
330
50A
100
AcDbEntity
  8
0
  6
Continuous
100
AcDbCircle
 10
12.35736333698379
 20
7.766605998146261
 30
0.0
 40
0.1325
  0
ARC
  5
1FB8
330
50A
100
AcDbEntity
  8
0
  6
Continuous
100
AcDbCircle
 10
12.66986333698379
 20
7.193382693442878
 30
0.0
 40
0.125
100
AcDbArc
 50
314.999999999999
 51
0.0
  0
CIRCLE
  5
1FB9
330
50A
100
AcDbEntity
  8
0
  6
Continuous
100
AcDbCircle
 10
11.29486333698379
 20
8.954105998146261
 30
0.0
 40
0.1325
  0
CIRCLE
  5
1FBA
330
50A
100
AcDbEntity
  8
0
  6
Continuous
100
AcDbCircle
 10
11.66986333698379
 20
9.610355998146261
 30
0.0
 40
0.1325
  0
LINE
  5
1FBC
330
50A
100
AcDbEntity
  8
0
  6
Continuous
100
AcDbLine
 10
12.35736333698379
 20
10.20410599814626
 30
0.0
 11
12.79486333698379
 21
9.766605998146261
 31
0.0
  0
CIRCLE
  5
1FBD
330
50A
100
AcDbEntity
  8
0
  6
Continuous
100
AcDbCircle
 10
12.23236333698379
 20
9.016605998146261
 30
0.0
 40
0.1325
  0
CIRCLE
  5
2038
330
50A
100
AcDbEntity
  8
0
  6
Continuous
100
AcDbCircle
 10
1.708866832499538
 20
6.407486338146242
 30
0.0
 40
0.34375
  0
CIRCLE
  5
203E
330
50A
100
AcDbEntity
  8
0
  6
HIDDEN
100
AcDbCircle
 10
1.708866832499538
 20
6.407486338146242
 30
0.0
 40
0.176
  0
CIRCLE
  5
205C
330
50A
100
AcDbEntity
  8
0
  6
Continuous
100
AcDbCircle
 10
-1.05113316750046
 20
6.407486338146242
 30
0.0
 40
0.34375
  0
CIRCLE
  5
205D
330
50A
100
AcDbEntity
  8
0
  6
HIDDEN
100
AcDbCircle
 10
-1.05113316750046
 20
6.407486338146242
 30
0.0
 40
0.176
  0
LINE
  5
2142
330
50A
100
AcDbEntity
  8
0
  6
Continuous
100
AcDbLine
 10
7.011363336983791
 20
10.20410599814628
 30
0.0
 11
9.432363336983844
 21
10.20410599814627
 31
0.0
  0
CIRCLE
  5
2143
330
50A
100
AcDbEntity
  8
0
  6
Continuous
100
AcDbCircle
 10
9.432363336983844
 20
8.329105998146261
 30
0.0
 40
0.1325
  0
CIRCLE
  5
2144
330
50A
100
AcDbEntity
  8
0
  6
Continuous
100
AcDbCircle
 10
8.401113336983844
 20
8.391605998146261
 30
0.0
 40
0.1325
  0
LINE
  5
2145
330
50A
100
AcDbEntity
  8
0
  6
Continuous
100
AcDbLine
 10
9.869863336983844
 20
9.766605998146268
 30
0.0
 11
9.869863336983844
 21
7.547236338146249
 31
0.0
  0
LINE
  5
2146
330
50A
100
AcDbEntity
  8
0
  6
HIDDEN
100
AcDbLine
 10
9.833251684632163
 20
7.104994345794573
 30
0.0
 11
9.468974989335525
 21
6.740717650497949
 31
0.0
  0
ARC
  5
2147
330
50A
100
AcDbEntity
  8
0
  6
Continuous
100
AcDbCircle
 10
9.744863336983844
 20
7.193382693442892
 30
0.0
 40
0.125
100
AcDbArc
 50
314.9999999999993
 51
0.000000000000007
  0
CIRCLE
  5
2148
330
50A
100
AcDbEntity
  8
0
  6
Continuous
100
AcDbCircle
 10
8.557363336983844
 20
7.204105998146261
 30
0.0
 40
0.1325
  0
LINE
  5
2149
330
50A
100
AcDbEntity
  8
0
  6
HIDDEN
100
AcDbLine
 10
8.236887596696008
 20
6.704105998146289
 30
0.0
 11
9.380586641687206
 21
6.704105998146268
 31
0.0
  0
ARC
  5
214A
330
50A
100
AcDbEntity
  8
0
  6
HIDDEN
100
AcDbCircle
 10
9.380586641687209
 20
6.829105998146268
 30
0.0
 40
0.125
100
AcDbArc
 50
269.999999999999
 51
314.9999999999993
  0
CIRCLE
  5
214B
330
50A
100
AcDbEntity
  8
0
  6
Continuous
100
AcDbCircle
 10
9.432363336983809
 20
7.266605998146289
 30
0.0
 40
0.1325
  0
LINE
  5
214C
330
50A
100
AcDbEntity
  8
0
  6
HIDDEN
100
AcDbLine
 10
7.39248711919068
 20
7.496729780354947
 30
0.0
 11
8.148499249047692
 21
6.74071765049797
 31
0.0
  0
ARC
  5
214D
330
50A
100
AcDbEntity
  8
0
  6
HIDDEN
100
AcDbCircle
 10
8.236887596696011
 20
6.829105998146289
 30
0.0
 40
0.125
100
AcDbArc
 50
225.0000000000013
 51
269.999999999999
  0
CIRCLE
  5
214E
330
50A
100
AcDbEntity
  8
0
  6
Continuous
100
AcDbCircle
 10
7.682363336983844
 20
8.016605998146261
 30
0.0
 40
0.1325
  0
LINE
  5
214F
330
50A
100
AcDbEntity
  8
0
  6
Continuous
100
AcDbLine
 10
9.432363336983844
 20
10.20410599814627
 30
0.0
 11
9.869863336983844
 21
9.766605998146268
 31
0.0
  0
CIRCLE
  5
2150
330
50A
100
AcDbEntity
  8
0
  6
Continuous
100
AcDbCircle
 10
9.182363336880993
 20
9.704105998146403
 30
0.0
 40
0.1325
  0
CIRCLE
  5
2151
330
50A
100
AcDbEntity
  8
0
  6
Continuous
100
AcDbCircle
 10
7.682363336983844
 20
9.141605998146261
 30
0.0
 40
0.1325
  0
CIRCLE
  5
2152
330
50A
100
AcDbEntity
  8
0
  6
Continuous
100
AcDbCircle
 10
8.307363336983844
 20
9.516605998146261
 30
0.0
 40
0.1325
  0
ARC
  5
2153
330
50A
100
AcDbEntity
  8
0
  6
HIDDEN
100
AcDbCircle
 10
7.193613336981986
 20
7.297855998146225
 30
0.0
 40
0.28125
100
AcDbArc
 50
45.00000000000219
 51
130.5141111763493
  0
LINE
  5
2155
330
50A
100
AcDbEntity
  8
0
100
AcDbLine
 10
9.869863336983844
 20
7.547236338146249
 30
0.0
 11
9.869863336983844
 21
7.193382693442892
 31
0.0
  0
ARC
  5
2AFE
330
50A
100
AcDbEntity
  8
0
  6
HIDDEN
100
AcDbCircle
 10
7.582087412775234
 20
6.295136562856809
 30
0.0
 40
0.1875
100
AcDbArc
 50
5.223501680922443
 51
99.77649831907769
  0
ARC
  5
2AFF
330
50A
100
AcDbEntity
  8
0
  6
Continuous
100
AcDbCircle
 10
7.521910113329383
 20
6.218448206504244
 30
0.0
 40
0.4557388376990849
100
AcDbArc
 50
17.1976932234312
 51
87.80230677656964
  0
LINE
  5
2B00
330
50A
100
AcDbEntity
  8
0
  6
HIDDEN
100
AcDbLine
 10
7.499755105571786
 20
6.649537703807624
 30
0.0
 11
7.37021149324211
 21
6.537915786136502
 31
0.0
  0
LINE
  5
2B01
330
50A
100
AcDbEntity
  8
0
100
AcDbLine
 10
7.504670224110825
 20
6.66786993611133
 30
0.0
 11
7.539386593903622
 21
6.673851830572005
 31
0.0
  0
ARC
  5
2B02
330
50A
100
AcDbEntity
  8
0
100
AcDbCircle
 10
7.499363808843327
 20
6.698666112124094
 30
0.0
 40
0.03125
100
AcDbArc
 50
219.1519756839774
 51
279.7764983190777
  0
ARC
  5
2B03
330
50A
100
AcDbEntity
  8
0
100
AcDbCircle
 10
7.991600403611692
 20
6.320959688487463
 30
0.0
 40
0.03125
100
AcDbArc
 50
185.2235016809221
 51
245.8480243160226
  0
LINE
  5
2B04
330
50A
100
AcDbEntity
  8
0
100
AcDbLine
 10
7.960480180517585
 20
6.318114655170923
 30
0.0
 11
7.957272989188091
 21
6.353196321560994
 31
0.0
  0
ARC
  5
2B05
330
50A
100
AcDbEntity
  8
0
  6
HIDDEN
100
AcDbCircle
 10
8.050573397482278
 20
6.392989812880531
 30
0.0
 40
0.2931163881517439
100
AcDbArc
 50
195.9978087183382
 51
241.0849752879364
  0
ARC
  5
2B06
330
50A
100
AcDbEntity
  8
0
  6
Continuous
100
AcDbCircle
 10
9.559694477041596
 20
6.218448206504244
 30
0.0
 40
0.4557388376990849
100
AcDbArc
 50
92.19769322343036
 51
162.8023067765688
  0
ARC
  5
2B07
330
50A
100
AcDbEntity
  8
0
  6
HIDDEN
100
AcDbCircle
 10
9.523348634095484
 20
6.780647681477173
 30
0.0
 40
0.3008406371906545
100
AcDbArc
 50
271.5251380393863
 51
315.8152768223147
  0
ARC
  5
2B08
330
50A
100
AcDbEntity
  8
0
  6
HIDDEN
100
AcDbCircle
 10
9.499517177595745
 20
6.295136562856809
 30
0.0
 40
0.1875
100
AcDbArc
 50
80.22350168092233
 51
174.7764983190776
  0
ARC
  5
2B09
330
50A
100
AcDbEntity
  8
0
  6
HIDDEN
100
AcDbCircle
 10
9.031031192888701
 20
6.392989812880531
 30
0.0
 40
0.2931163881517439
100
AcDbArc
 50
298.9150247120636
 51
344.0021912816617
  0
LINE
  5
2B0A
330
50A
100
AcDbEntity
  8
0
100
AcDbLine
 10
9.121124409853394
 20
6.318114655170923
 30
0.0
 11
9.124331601182888
 21
6.353196321560994
 31
0.0
  0
ARC
  5
2B0B
330
50A
100
AcDbEntity
  8
0
100
AcDbCircle
 10
9.090004186759288
 20
6.320959688487463
 30
0.0
 40
0.03125
100
AcDbArc
 50
294.1519756839774
 51
354.776498319078
  0
ARC
  5
2B0C
330
50A
100
AcDbEntity
  8
0
100
AcDbCircle
 10
9.582240781527652
 20
6.698666112124094
 30
0.0
 40
0.03125
100
AcDbArc
 50
260.2235016809223
 51
320.8480243160227
  0
LINE
  5
2B0D
330
50A
100
AcDbEntity
  8
0
100
AcDbLine
 10
9.576934366260154
 20
6.66786993611133
 30
0.0
 11
9.542217996467358
 21
6.673851830572005
 31
0.0
  0
LINE
  5
2B0E
330
50A
100
AcDbEntity
  8
0
  6
HIDDEN
100
AcDbLine
 10
9.581849484799193
 20
6.649537703807624
 30
0.0
 11
9.71139309712887
 21
6.537915786136502
 31
0.0
  0
LINE
  5
2B29
330
50A
100
AcDbEntity
  8
0
100
AcDbLine
 10
12.79571333698375
 20
16.45053574249562
 30
0.0
 11
10.36136333698373
 21
16.44663673969197
 31
0.0
  0
LINE
  5
2B2A
330
50A
100
AcDbEntity
  8
0
100
AcDbLine
 10
12.79571333698375
 20
16.65366798969197
 30
0.0
 11
10.36136333698373
 21
16.65256537625009
 31
0.0
  0
LINE
  5
2B2B
330
50A
100
AcDbEntity
  8
0
100
AcDbLine
 10
7.186680574970509
 20
16.35452260416135
 30
0.0
 11
7.186377921067066
 21
12.84288445338124
 31
0.0
  0
LINE
  5
2B2C
330
50A
100
AcDbEntity
  8
0
100
AcDbLine
 10
9.936363336983767
 20
16.34116798969197
 30
0.0
 11
9.936363336983781
 21
12.84289903746459
 31
0.0
  0
LINE
  5
2B2D
330
50A
100
AcDbEntity
  8
0
100
AcDbLine
 10
7.011363336983767
 20
13.01789903746454
 30
0.0
 11
7.011363336983763
 21
16.19663673969197
 31
0.0
  0
LINE
  5
2B2E
330
50A
100
AcDbEntity
  8
0
100
AcDbLine
 10
10.11136333698373
 20
13.01789903746455
 30
0.0
 11
10.11136333698373
 21
16.19663673969197
 31
0.0
  0
LWPOLYLINE
  5
2B2F
330
50A
100
AcDbEntity
  8
0
100
AcDbPolyline
 90
       10
 70
     0
 43
0.0
 10
7.298520620640815
 20
13.97451309917606
 10
7.271150057840814
 20
13.97747647977606
 10
7.248980996540816
 20
13.98645220997606
 10
7.232229376140808
 20
14.00118290447605
 10
7.220384148540816
 20
14.02117436657606
 10
7.212509602940813
 20
14.04636408047606
 10
7.207871797640813
 20
14.07599300387605
 10
7.205554297040813
 20
14.10898858987606
 10
7.204631759440815
 20
14.14522640577606
 10
7.204405339840811
 20
14.18400597087606
  0
LWPOLYLINE
  5
2B30
330
50A
100
AcDbEntity
  8
0
100
AcDbPolyline
 90
       11
 70
     0
 43
0.0
 10
7.298520620640815
 20
13.72451309917606
 10
7.271150057840814
 20
13.73043986037605
 10
7.248980996540816
 20
13.74839132077605
 10
7.232229376140808
 20
13.77785270977606
 10
7.220384148540816
 20
13.81783563397606
 10
7.212509602940813
 20
13.86821506177606
 10
7.207871797640813
 20
13.92747290847606
 10
7.205554297040813
 20
13.99346408057606
 10
7.204631759440815
 20
14.06593971237606
 10
7.204405339840811
 20
14.14349884247606
 10
7.204389466340814
 20
14.22352455227606
  0
LWPOLYLINE
  5
2B31
330
50A
100
AcDbEntity
  8
0
100
AcDbPolyline
 90
       10
 70
     0
 43
0.0
 10
9.918123592840793
 20
14.18400596417606
 10
9.917897173140801
 20
14.14522640017606
 10
9.916974635540797
 20
14.10898858537605
 10
9.9146571347408
 20
14.07599300027606
 10
9.910019329240797
 20
14.04636407787606
 10
9.902144783440797
 20
14.02117436487606
 10
9.890299555740796
 20
14.00118290347606
 10
9.873547935340795
 20
13.98645220957606
 10
9.851378874340796
 20
13.97747647967606
 10
9.824008312040796
 20
13.97451309917606
  0
LWPOLYLINE
  5
2B32
330
50A
100
AcDbEntity
  8
0
100
AcDbPolyline
 90
       11
 70
     0
 43
0.0
 10
9.918139466340797
 20
14.22352453727606
 10
9.918123592840793
 20
14.14349882917605
 10
9.917897173140801
 20
14.06593970107606
 10
9.916974635540797
 20
13.99346407147606
 10
9.9146571347408
 20
13.92747290147606
 10
9.910019329240797
 20
13.86821505657606
 10
9.902144783440797
 20
13.81783563057606
 10
9.890299555740796
 20
13.77785270777606
 10
9.873547935340795
 20
13.74839131987606
 10
9.851378874340796
 20
13.73043986017606
 10
9.824008312040796
 20
13.72451309917606
  0
CIRCLE
  5
2B33
330
50A
100
AcDbEntity
  8
0
100
AcDbCircle
 10
8.565408676777821
 20
14.76741798969376
 30
0.0
 40
0.34375
  0
LINE
  5
2B34
330
50A
100
AcDbEntity
  8
0
100
AcDbLine
 10
9.871016967425803
 20
16.65366798969197
 30
0.0
 11
7.436666967425786
 21
16.65256537625009
 31
0.0
  0
LINE
  5
2B35
330
50A
100
AcDbEntity
  8
0
  6
Continuous
100
AcDbLine
 10
9.871016967425803
 20
16.45053574249562
 30
0.0
 11
7.436666967425786
 21
16.44663673969197
 31
0.0
  0
LINE
  5
2B36
330
50A
100
AcDbEntity
  8
0
  6
HIDDEN
100
AcDbLine
 10
7.467613336983725
 20
16.62241798969198
 30
0.0
 11
9.655113336983767
 21
16.62241798969197
 31
0.0
  0
LINE
  5
2B37
330
50A
100
AcDbEntity
  8
0
  6
HIDDEN
100
AcDbLine
 10
7.342895620640846
 20
15.47451309917606
 30
0.0
 11
9.77963331204084
 21
15.47451309917606
 31
0.0
  0
LINE
  5
2B38
330
50A
100
AcDbEntity
  8
0
100
AcDbLine
 10
7.342895620640846
 20
15.72451309917606
 30
0.0
 11
9.77963331204084
 21
15.72451309917606
 31
0.0
  0
LINE
  5
2B39
330
50A
100
AcDbEntity
  8
0
  6
HIDDEN
100
AcDbLine
 10
9.447613336983771
 20
14.42366798969376
 30
0.0
 11
7.675113336983763
 21
14.42366798969376
 31
0.0
  0
LINE
  5
2B3A
330
50A
100
AcDbEntity
  8
0
  6
HIDDEN
100
AcDbLine
 10
9.4476133369838
 20
15.11116798969378
 30
0.0
 11
7.675113336983763
 21
15.11116798969378
 31
0.0
  0
CIRCLE
  5
2B3B
330
50A
100
AcDbEntity
  8
0
  6
Continuous
100
AcDbCircle
 10
7.689616970643252
 20
16.14741798969376
 30
0.0
 40
0.34375
  0
ARC
  5
2B3C
330
50A
100
AcDbEntity
  8
0
  6
Continuous
100
AcDbCircle
 10
7.436666967425786
 20
16.19663673969197
 30
0.0
 40
0.25
100
AcDbArc
 50
90.00000000000003
 51
180.0
  0
ARC
  5
2B3D
330
50A
100
AcDbEntity
  8
0
100
AcDbCircle
 10
7.468394586983763
 20
16.19663673969197
 30
0.0
 40
0.45703125
100
AcDbArc
 50
93.98073873971303
 51
180.0
  0
ARC
  5
2B3E
330
50A
100
AcDbEntity
  8
0
  6
HIDDEN
100
AcDbCircle
 10
7.467613336983725
 20
16.34116798969197
 30
0.0
 40
0.28125
100
AcDbArc
 50
90.00000000000003
 51
180.0
  0
CIRCLE
  5
2B3F
330
50A
100
AcDbEntity
  8
0
  6
HIDDEN
100
AcDbCircle
 10
7.689616970643252
 20
16.14741798969376
 30
0.0
 40
0.1875
  0
LINE
  5
2B40
330
50A
100
AcDbEntity
  8
0
100
AcDbLine
 10
7.274389564790816
 20
14.40513804237607
 30
0.0
 11
7.274389564790816
 21
15.04388804237606
 31
0.0
  0
ARC
  5
2B41
330
50A
100
AcDbEntity
  8
0
  6
HIDDEN
100
AcDbCircle
 10
7.675113336983763
 20
14.76741798969376
 30
0.0
 40
0.34375
100
AcDbArc
 50
90.00000000000003
 51
270.0
  0
LWPOLYLINE
  5
2B42
330
50A
100
AcDbEntity
  8
0
100
AcDbPolyline
 90
       10
 70
     0
 43
0.0
 10
7.204405339940813
 20
15.26502026857606
 10
7.204631759840815
 20
15.30379982727605
 10
7.205554298240813
 20
15.34003763647606
 10
7.207871799940811
 20
15.37303321627606
 10
7.212509606440811
 20
15.40266213377606
 10
7.220384153040811
 20
15.42785184227606
 10
7.23222938104081
 20
15.44784329997606
 10
7.248981001040811
 20
15.46257399117606
 10
7.271150060740808
 20
15.47154971927606
 10
7.298520620640815
 20
15.47451309917606
  0
LWPOLYLINE
  5
2B43
330
50A
100
AcDbEntity
  8
0
100
AcDbPolyline
 90
       11
 70
     0
 43
0.0
 10
7.204389466340814
 20
15.22550173887606
 10
7.204405339940813
 20
15.30552743797605
 10
7.204631759840815
 20
15.38308655537605
 10
7.205554298240813
 20
15.45556217377606
 10
7.207871799940811
 20
15.52155333337606
 10
7.212509606440811
 20
15.58081116837606
 10
7.220384153040811
 20
15.63119058527606
 10
7.23222938104081
 20
15.67117350067606
 10
7.248981001040811
 20
15.70063488307606
 10
7.271150060740808
 20
15.71858633937606
 10
7.298520620640815
 20
15.72451309917606
  0
LINE
  5
2B44
330
50A
100
AcDbEntity
  8
0
100
AcDbLine
 10
7.258764564790816
 20
15.05951304237606
 30
0.0
 11
7.204389466340814
 21
15.05951304237606
 31
0.0
  0
ARC
  5
2B45
330
50A
100
AcDbEntity
  8
0
100
AcDbCircle
 10
7.258764564790816
 20
15.04388804237606
 30
0.0
 40
0.015625
100
AcDbArc
 50
359.9999999999998
 51
89.99999999999982
  0
LINE
  5
2B46
330
50A
100
AcDbEntity
  8
0
100
AcDbLine
 10
7.204389271140812
 20
15.22451309917606
 30
0.0
 11
7.204389663340812
 21
15.22550173877606
 31
0.0
  0
LINE
  5
2B47
330
50A
100
AcDbEntity
  8
0
100
AcDbLine
 10
7.204389466340814
 20
15.05951304237606
 30
0.0
 11
7.204389466340814
 21
15.22451309917606
 31
0.0
  0
LINE
  5
2B48
330
50A
100
AcDbEntity
  8
0
100
AcDbLine
 10
7.204389466340814
 20
14.38951304237607
 30
0.0
 11
7.258764564790816
 21
14.38951304237607
 31
0.0
  0
LINE
  5
2B49
330
50A
100
AcDbEntity
  8
0
100
AcDbLine
 10
7.204389466340814
 20
14.22352455227606
 30
0.0
 11
7.204389466340814
 21
14.38951304237607
 31
0.0
  0
ARC
  5
2B4A
330
50A
100
AcDbEntity
  8
0
100
AcDbCircle
 10
7.258764564790816
 20
14.40513804237607
 30
0.0
 40
0.015625
100
AcDbArc
 50
269.9999999999998
 51
359.9999999999998
  0
CIRCLE
  5
2B4B
330
50A
100
AcDbEntity
  8
0
  6
Continuous
100
AcDbCircle
 10
9.433109703324234
 20
16.14741798969376
 30
0.0
 40
0.34375
  0
CIRCLE
  5
2B4C
330
50A
100
AcDbEntity
  8
0
  6
HIDDEN
100
AcDbCircle
 10
9.433109703324234
 20
16.14741798969376
 30
0.0
 40
0.1875
  0
ARC
  5
2B4D
330
50A
100
AcDbEntity
  8
0
100
AcDbCircle
 10
10.36136333698373
 20
16.19663673969197
 30
0.0
 40
0.25
100
AcDbArc
 50
90.00000000000003
 51
180.0
  0
ARC
  5
2B4E
330
50A
100
AcDbEntity
  8
0
100
AcDbCircle
 10
10.39309095654171
 20
16.19663673969197
 30
0.0
 40
0.45703125
100
AcDbArc
 50
93.98073873971303
 51
180.0
  0
ARC
  5
2B4F
330
50A
100
AcDbEntity
  8
0
  6
HIDDEN
100
AcDbCircle
 10
9.655113336983767
 20
16.34116798969197
 30
0.0
 40
0.28125
100
AcDbArc
 50
0.0
 51
90.00000000000003
  0
LINE
  5
2B50
330
50A
100
AcDbEntity
  8
0
100
AcDbLine
 10
9.871016967425803
 20
16.65366798969197
 30
0.0
 11
9.871016967425803
 21
16.45061798969197
 31
0.0
  0
ARC
  5
2B51
330
50A
100
AcDbEntity
  8
0
  6
HIDDEN
100
AcDbCircle
 10
9.447613336983771
 20
14.76741798969376
 30
0.0
 40
0.34375
100
AcDbArc
 50
270.0
 51
90.00000000000003
  0
LINE
  5
2B52
330
50A
100
AcDbEntity
  8
0
100
AcDbLine
 10
9.848139367890795
 20
14.40513804237605
 30
0.0
 11
9.848139367890795
 21
15.04388804237605
 31
0.0
  0
LWPOLYLINE
  5
2B53
330
50A
100
AcDbEntity
  8
0
100
AcDbPolyline
 90
       10
 70
     0
 43
0.0
 10
9.824008312040796
 20
15.47451309917606
 10
9.851378877840794
 20
15.47154971787606
 10
9.873547940840801
 20
15.46257398547606
 10
9.890299561740797
 20
15.44784328747606
 10
9.902144788940795
 20
15.42785182067605
 10
9.910019333540795
 20
15.40266210107606
 10
9.9146571375408
 20
15.37303317147605
 10
9.9169746369408
 20
15.34003757877606
 10
9.917897173740798
 20
15.30379975577606
 10
9.918123592840793
 20
15.26502018397606
  0
LWPOLYLINE
  5
2B54
330
50A
100
AcDbEntity
  8
0
100
AcDbPolyline
 90
       11
 70
     0
 43
0.0
 10
9.824008312040796
 20
15.72451309917606
 10
9.851378877840794
 20
15.71858633657605
 10
9.873547940840801
 20
15.70063487177605
 10
9.890299561740797
 20
15.67117347587606
 10
9.902144788940795
 20
15.63119054217606
 10
9.910019333540795
 20
15.58081110297606
 10
9.9146571375408
 20
15.52155324367605
 10
9.9169746369408
 20
15.45556205827606
 10
9.917897173740798
 20
15.38308641237606
 10
9.918123592840793
 20
15.30552726867606
 10
9.918139466340797
 20
15.22550154747606
  0
LINE
  5
2B55
330
50A
100
AcDbEntity
  8
0
100
AcDbLine
 10
9.863764367890795
 20
15.05951304237605
 30
0.0
 11
9.918139433722146
 21
15.05951304237605
 31
0.0
  0
ARC
  5
2B56
330
50A
100
AcDbEntity
  8
0
100
AcDbCircle
 10
9.863764367890795
 20
15.04388804237605
 30
0.0
 40
0.015625
100
AcDbArc
 50
90.00000000000003
 51
180.0
  0
LINE
  5
2B57
330
50A
100
AcDbEntity
  8
0
100
AcDbLine
 10
9.918139466340797
 20
15.22550154747606
 30
0.0
 11
9.918139433722146
 21
15.05951304237605
 31
0.0
  0
LINE
  5
2B58
330
50A
100
AcDbEntity
  8
0
100
AcDbLine
 10
9.918139302059444
 20
14.38951304237605
 30
0.0
 11
9.863764367890795
 21
14.38951304237605
 31
0.0
  0
ARC
  5
2B59
330
50A
100
AcDbEntity
  8
0
100
AcDbCircle
 10
9.863764367890795
 20
14.40513804237605
 30
0.0
 40
0.015625
100
AcDbArc
 50
180.0
 51
270.0
  0
LINE
  5
2B5A
330
50A
100
AcDbEntity
  8
0
100
AcDbLine
 10
9.918139302059444
 20
14.38951304237605
 30
0.0
 11
9.9181392694408
 21
14.22352453727606
 31
0.0
  0
LINE
  5
2B5B
330
50A
100
AcDbEntity
  8
0
100
AcDbLine
 10
7.342895620640846
 20
13.72451309917606
 30
0.0
 11
9.77963331204084
 21
13.72451309917606
 31
0.0
  0
LINE
  5
2B5C
330
50A
100
AcDbEntity
  8
0
  6
HIDDEN
100
AcDbLine
 10
7.329210339240845
 20
13.97599478947606
 30
0.0
 11
9.77963331204084
 21
13.97451309917606
 31
0.0
  0
LINE
  5
2B5D
330
50A
100
AcDbEntity
  8
0
  6
Continuous
100
AcDbLine
 10
9.767132289212963
 20
12.67366798969378
 30
0.0
 11
7.355594384754529
 21
12.67366798969378
 31
0.0
  0
LINE
  5
2B5E
330
50A
100
AcDbEntity
  8
0
100
AcDbLine
 10
7.011363336983763
 20
13.01789903746454
 30
0.0
 11
7.355594384754543
 21
12.67366798969376
 31
0.0
  0
CIRCLE
  5
2B5F
330
50A
100
AcDbEntity
  8
0
  6
Continuous
100
AcDbCircle
 10
7.689616970643252
 20
13.38741798969377
 30
0.0
 40
0.34375
  0
CIRCLE
  5
2B60
330
50A
100
AcDbEntity
  8
0
  6
HIDDEN
100
AcDbCircle
 10
7.689616970643252
 20
13.38741798969377
 30
0.0
 40
0.1875
  0
CIRCLE
  5
2B61
330
50A
100
AcDbEntity
  8
0
  6
HIDDEN
100
AcDbCircle
 10
9.433109703324234
 20
13.38741798969377
 30
0.0
 40
0.1875
  0
CIRCLE
  5
2B62
330
50A
100
AcDbEntity
  8
0
  6
Continuous
100
AcDbCircle
 10
9.433109703324234
 20
13.38741798969377
 30
0.0
 40
0.34375
  0
LINE
  5
2B63
330
50A
100
AcDbEntity
  8
0
100
AcDbLine
 10
10.11136333698373
 20
13.01789903746454
 30
0.0
 11
9.767132289212949
 21
12.67366798969376
 31
0.0
  0
LINE
  5
2B64
330
50A
100
AcDbEntity
  8
0
100
AcDbLine
 10
12.35011333698562
 20
16.44986204119616
 30
0.0
 11
12.35011333698562
 21
16.65366798969197
 31
0.0
  0
LINE
  5
2B65
330
50A
100
AcDbEntity
  8
0
100
AcDbLine
 10
12.79571333698375
 20
16.65366798969197
 30
0.0
 11
12.79571333698375
 21
16.45061798969197
 31
0.0
  0
LINE
  5
2B66
330
50A
100
AcDbEntity
  8
0
  6
Continuous
100
AcDbLine
 10
18.54453399323693
 20
10.20338633814624
 30
0.0
 11
20.48239441775372
 21
10.20338633814625
 31
0.0
  0
LINE
  5
2B67
330
50A
100
AcDbEntity
  8
0
100
AcDbLine
 10
18.90864441775554
 20
6.001236338146242
 30
0.0
 11
20.44989441775373
 21
6.001236338146242
 31
0.0
  0
LINE
  5
2B68
330
50A
100
AcDbEntity
  8
0
  6
HIDDEN
100
AcDbLine
 10
20.41864441775373
 20
6.176236338146296
 30
0.0
 11
18.93989441775554
 21
6.176236338146282
 31
0.0
  0
LINE
  5
2B69
330
50A
100
AcDbEntity
  8
0
100
AcDbLine
 10
20.31059441775373
 20
7.203386338146238
 30
0.0
 11
20.48239441775372
 21
7.203386338146238
 31
0.0
  0
LINE
  5
2B6A
330
50A
100
AcDbEntity
  8
0
  6
HIDDEN2
100
AcDbLine
 10
20.31059441775373
 20
6.946188773728828
 30
0.0
 11
20.48239441775372
 21
6.774388773728845
 31
0.0
  0
LINE
  5
2B6B
330
50A
100
AcDbEntity
  8
0
100
AcDbLine
 10
20.31059441775373
 20
6.703386338146267
 30
0.0
 11
20.48239441775372
 21
6.70338633814626
 31
0.0
  0
LINE
  5
2B6C
330
50A
100
AcDbEntity
  8
0
100
AcDbLine
 10
20.31059441775373
 20
9.70338633814626
 30
0.0
 11
20.48239441775372
 21
9.70338633814626
 31
0.0
  0
LINE
  5
2B6D
330
50A
100
AcDbEntity
  8
0
  6
Continuous
100
AcDbLine
 10
16.47114441775552
 20
6.682821664107046
 30
0.0
 11
18.54453399323693
 21
10.20338633814624
 31
0.0
  0
LINE
  5
2B6E
330
50A
100
AcDbEntity
  8
0
  6
Continuous
100
AcDbLine
 10
20.31059441775373
 20
10.20338633814625
 30
0.0
 11
20.31059441775373
 21
6.703386338146267
 31
0.0
  0
ARC
  5
2B6F
330
50A
100
AcDbEntity
  8
0
  6
HIDDEN
100
AcDbCircle
 10
18.06489441775553
 20
7.090341616667061
 30
0.0
 40
0.485
100
AcDbArc
 50
90.0
 51
180.0
  0
LINE
  5
2B70
330
50A
100
AcDbEntity
  8
0
100
AcDbLine
 10
16.47114441775552
 20
6.001236338146242
 30
0.0
 11
18.22114441775553
 21
6.001236338146242
 31
0.0
  0
LINE
  5
2B71
330
50A
100
AcDbEntity
  8
0
  6
HIDDEN
100
AcDbLine
 10
18.22114441775553
 20
6.176236338146268
 30
0.0
 11
16.4802837133448
 21
6.176236338146239
 31
0.0
  0
ARC
  5
2B72
330
50A
100
AcDbEntity
  8
0
  6
HIDDEN
100
AcDbCircle
 10
18.06489441775553
 20
7.090341616667061
 30
0.0
 40
0.25
100
AcDbArc
 50
90.0
 51
180.0
  0
LINE
  5
2B73
330
50A
100
AcDbEntity
  8
0
  6
Continuous
100
AcDbLine
 10
16.47114441775553
 20
6.001236338146242
 30
0.0
 11
16.47114441775553
 21
6.682821664107053
 31
0.0
  0
LINE
  5
2B74
330
50A
100
AcDbEntity
  8
0
  6
HIDDEN
100
AcDbLine
 10
17.81489441775553
 20
7.090341616667061
 30
0.0
 11
17.81489441775553
 21
6.200350175567053
 31
0.0
  0
LINE
  5
2B75
330
50A
100
AcDbEntity
  8
0
  6
HIDDEN
100
AcDbLine
 10
17.57989441775551
 20
7.090341616667061
 30
0.0
 11
17.57989441775551
 21
6.200350175567053
 31
0.0
  0
CIRCLE
  5
2B76
330
50A
100
AcDbEntity
  8
0
  6
Continuous
100
AcDbCircle
 10
17.18489441775553
 20
6.407486338146242
 30
0.0
 40
0.34375
  0
CIRCLE
  5
2B77
330
50A
100
AcDbEntity
  8
0
  6
HIDDEN
100
AcDbCircle
 10
17.18489441775553
 20
6.407486338146242
 30
0.0
 40
0.176
  0
ARC
  5
2B78
330
50A
100
AcDbEntity
  8
0
  6
Continuous
100
AcDbCircle
 10
18.56489441775553
 20
6.183386338146264
 30
0.0
 40
0.34375
100
AcDbArc
 50
0.000000000000007
 51
180.0
  0
ARC
  5
2B79
330
50A
100
AcDbEntity
  8
0
  6
Continuous
100
AcDbCircle
 10
18.56489441775553
 20
6.14948461314679
 30
0.0
 40
0.34375
100
AcDbArc
 50
0.000000000000007
 51
180.0
  0
LINE
  5
2B7A
330
50A
100
AcDbEntity
  8
0
  6
HIDDEN
100
AcDbLine
 10
19.31489441775553
 20
7.090341616667061
 30
0.0
 11
19.31489441775553
 21
6.200350175567053
 31
0.0
  0
LINE
  5
2B7B
330
50A
100
AcDbEntity
  8
0
  6
HIDDEN
100
AcDbLine
 10
19.54989441775551
 20
7.090341616667061
 30
0.0
 11
19.54989441775551
 21
6.200350175567053
 31
0.0
  0
CIRCLE
  5
2B7C
330
50A
100
AcDbEntity
  8
0
  6
Continuous
100
AcDbCircle
 10
19.94489441775553
 20
6.407486338146242
 30
0.0
 40
0.34375
  0
CIRCLE
  5
2B7D
330
50A
100
AcDbEntity
  8
0
  6
HIDDEN
100
AcDbCircle
 10
19.94489441775553
 20
6.407486338146242
 30
0.0
 40
0.176
  0
LINE
  5
2B7E
330
50A
100
AcDbEntity
  8
0
  6
Continuous
100
AcDbLine
 10
18.22114441775553
 20
6.001236338146242
 30
0.0
 11
18.22114441775553
 21
6.183386338146264
 31
0.0
  0
LINE
  5
2B7F
330
50A
100
AcDbEntity
  8
0
  6
Continuous
100
AcDbLine
 10
18.90864441775554
 20
6.001236338146242
 30
0.0
 11
18.90864441775554
 21
6.183386338146264
 31
0.0
  0
ARC
  5
2B80
330
50A
100
AcDbEntity
  8
0
  6
HIDDEN
100
AcDbCircle
 10
19.06489441775553
 20
7.090341616667061
 30
0.0
 40
0.485
100
AcDbArc
 50
0.000000000000007
 51
90.0
  0
ARC
  5
2B81
330
50A
100
AcDbEntity
  8
0
  6
HIDDEN
100
AcDbCircle
 10
19.06489441775553
 20
7.090341616667061
 30
0.0
 40
0.25
100
AcDbArc
 50
0.000000000000007
 51
90.0
  0
LINE
  5
2B82
330
50A
100
AcDbEntity
  8
0
  6
HIDDEN
100
AcDbLine
 10
19.06489441775553
 20
7.57534161666706
 30
0.0
 11
18.06489441775553
 21
7.57534161666706
 31
0.0
  0
LINE
  5
2B83
330
50A
100
AcDbEntity
  8
0
  6
HIDDEN
100
AcDbLine
 10
19.06489441775553
 20
7.340341616667061
 30
0.0
 11
18.06489441775553
 21
7.340341616667061
 31
0.0
  0
LINE
  5
2B84
330
50A
100
AcDbEntity
  8
0
  6
HIDDEN
100
AcDbLine
 10
18.09614441775553
 20
7.340341616667061
 30
0.0
 11
18.09614441775553
 21
7.57534161666706
 31
0.0
  0
LINE
  5
2B85
330
50A
100
AcDbEntity
  8
0
  6
HIDDEN
100
AcDbLine
 10
19.03364441775553
 20
7.340341616667061
 30
0.0
 11
19.03364441775553
 21
7.57534161666706
 31
0.0
  0
ARC
  5
2B86
330
50A
100
AcDbEntity
  8
0
  6
Continuous
100
AcDbCircle
 10
20.35739441775372
 20
7.297136338146231
 30
0.0
 40
0.28125
100
AcDbArc
 50
99.57857297385344
 51
225.0000000000019
  0
LINE
  5
2B87
330
50A
100
AcDbEntity
  8
0
  6
Continuous
100
AcDbLine
 10
20.158520635545
 20
7.098262555937538
 30
0.0
 11
20.31059441775373
 21
6.946188773728828
 31
0.0
  0
LINE
  5
2B88
330
50A
100
AcDbEntity
  8
0
  6
Continuous
100
AcDbLine
 10
20.48239441775372
 20
10.20338633814625
 30
0.0
 11
20.48239441775372
 21
6.70338633814626
 31
0.0
  0
LINE
  5
2B89
330
50A
100
AcDbEntity
  8
0
100
AcDbLine
 10
20.44989441775373
 20
6.70338633814626
 30
0.0
 11
20.44989441775373
 21
6.001236338146242
 31
0.0
  0
LINE
  5
2B8A
330
50A
100
AcDbEntity
  8
0
  6
HIDDEN
100
AcDbLine
 10
-1.416833167498663
 20
7.574465244861706
 30
0.0
 11
-1.416833167498663
 21
10.20338633814625
 31
0.0
  0
LINE
  5
2B8B
330
50A
100
AcDbEntity
  8
0
  6
HIDDEN
100
AcDbLine
 10
-1.416833167498659
 20
6.946188773728828
 30
0.0
 11
-1.416833167498659
 21
6.703386338146267
 31
0.0
  0
LINE
  5
2BA3
330
50A
100
AcDbEntity
  8
0
100
AcDbLine
 10
9.425416967427672
 20
16.44986204119616
 30
0.0
 11
9.425416967427672
 21
16.65366798969197
 31
0.0
  0
ENDSEC
  0
SECTION
  2
OBJECTS
  0
DICTIONARY
  5
4FF
330
0
100
AcDbDictionary
281
     1
  3
ACAD_COLOR
350
2BA7
  3
ACAD_GROUP
350
500
  3
ACAD_LAYOUT
350
627
  3
ACAD_MATERIAL
350
2BA6
  3
ACAD_MLINESTYLE
350
50D
  3
ACAD_PLOTSETTINGS
350
628
  3
ACAD_PLOTSTYLENAME
350
625
  3
ACAD_TABLESTYLE
350
2BA8
  3
ACDBHEADERROUNDTRIPXREC
350
2BB7
  3
ACDBVARIABLEDICTIONARY
350
552
  3
ASE_INDEX_DICTIONARY
350
24D9
  0
DICTIONARY
  5
298C
330
4F5
100
AcDbDictionary
280
     1
281
     1
  3
ACAD_LAYERFILTERS
360
298D
  0
DICTIONARY
  5
2BA7
102
{ACAD_REACTORS
330
4FF
102
}
330
4FF
100
AcDbDictionary
281
     1
  0
DICTIONARY
  5
500
102
{ACAD_REACTORS
330
4FF
102
}
330
4FF
100
AcDbDictionary
281
     1
  0
DICTIONARY
  5
627
102
{ACAD_REACTORS
330
4FF
102
}
330
4FF
100
AcDbDictionary
281
     1
  3
Layout1
350
62A
  3
Model
350
629
  0
DICTIONARY
  5
2BA6
102
{ACAD_REACTORS
330
4FF
102
}
330
4FF
100
AcDbDictionary
281
     1
  0
DICTIONARY
  5
50D
102
{ACAD_REACTORS
330
4FF
102
}
330
4FF
100
AcDbDictionary
281
     1
  3
STANDARD
350
50E
  0
DICTIONARY
  5
628
102
{ACAD_REACTORS
330
4FF
102
}
330
4FF
100
AcDbDictionary
281
     1
  0
ACDBDICTIONARYWDFLT
  5
625
102
{ACAD_REACTORS
330
4FF
102
}
330
4FF
100
AcDbDictionary
281
     1
  3
Normal
350
626
100
AcDbDictionaryWithDefault
340
626
  0
DICTIONARY
  5
2BA8
102
{ACAD_REACTORS
330
4FF
102
}
330
4FF
100
AcDbDictionary
281
     1
  3
Standard
350
2BA9
  0
DICTIONARY
  5
2BB7
102
{ACAD_REACTORS
330
4FF
102
}
330
4FF
100
AcDbDictionary
281
     1
  3
COLORDICT
350
2BB8
  3
MATERIALDICT
350
2BB9
  0
DICTIONARY
  5
552
102
{ACAD_REACTORS
330
4FF
102
}
330
4FF
100
AcDbDictionary
281
     1
  3
CTABLESTYLE
350
2BB4
  3
DIMADEC
350
553
  0
DICTIONARY
  5
24D9
102
{ACAD_REACTORS
330
4FF
102
}
330
4FF
100
AcDbDictionary
281
     1
  3
ASEBlockHierarchyIndexRecord
350
24DA
1001
DCO15
1040
1583223907.094
  0
DICTIONARY
  5
298D
102
{ACAD_REACTORS
330
298C
102
}
330
298C
100
AcDbDictionary
280
     1
281
     1
  3
0
360
298E
  3
0DWI
360
298F
  3
1
360
2990
  3
1-STM
360
2991
  3
10
360
2992
  3
11
360
2993
  3
131
360
2994
  3
1st
360
2995
  3
1st Floor
360
2996
  3
1STM
360
2997
  3
2
360
2998
  3
204
360
2999
  3
22
360
299A
  3
251
360
299B
  3
252
360
299C
  3
253
360
299D
  3
2nd
360
299E
  3
2nd Floor
360
299F
  3
2nd Floor Electrical
360
29A0
  3
3
360
29A1
  3
30
360
29A2
  3
3D
360
29A3
  3
3rd
360
29A4
  3
4
360
29A5
  3
40
360
29A6
  3
4th
360
29A7
  3
8
360
29A8
  3
9
360
29A9
  3
a
360
29AA
  3
A-
360
29AB
  3
A-DOOR
360
29AC
  3
A-FURN
360
29AD
  3
A-WALL
360
29AE
  3
A2A
360
29AF
  3
A2B
360
29B0
  3
A2C
360
29B1
  3
A3A
360
29B2
  3
A3B
360
29B3
  3
A3C
360
29B4
  3
A4A
360
29B5
  3
A4B
360
29B6
  3
A4C
360
29B7
  3
A5A
360
29B8
  3
A5B
360
29B9
  3
A5C
360
29BA
  3
A6A
360
29BB
  3
A6B
360
29BC
  3
A6C
360
29BD
  3
all
360
29BE
  3
All Options
360
29BF
  3
All Thawed & On
360
29C0
  3
ALL8
360
29C1
  3
ALLON
360
29C2
  3
an_details
360
29C3
  3
ARCH
360
29C4
  3
asdsdf
360
29C5
  3
at
360
29C6
  3
audit
360
29C7
  3
awallext
360
29C8
  3
awallfdn
360
29C9
  3
b
360
29CA
  3
base
360
29CB
  3
BASE PLAN
360
29CC
  3
baseline
360
29CD
  3
basement
360
29CE
  3
bl
360
29CF
  3
BLUE
360
29D0
  3
bndy
360
29D1
  3
Building Lines
360
29D2
  3
buildingtext
360
29D3
  3
C-PTS
360
29D4
  3
Cabinets
360
29D5
  3
CEILING
360
29D6
  3
CEILINGC
360
29D7
  3
CIVIL
360
29D8
  3
CL
360
29D9
  3
cl-alley
360
29DA
  3
clg
360
29DB
  3
CMU
360
29DC
  3
color
360
29DD
  3
COLOR 15
360
29DE
  3
color 254
360
29DF
  3
color 9
360
29E0
  3
COLOR10
360
29E1
  3
COLOR132
360
29E2
  3
COMP
360
29E3
  3
con
360
29E4
  3
construction
360
29E5
  3
CONT
360
29E6
  3
contour
360
29E7
  3
CONTOURS
360
29E8
  3
CRA-FUN
360
29E9
  3
curb
360
29EA
  3
current viewport frozen
360
29EB
  3
CURRENT VP FROZEN
360
29EC
  3
dawn
360
29ED
  3
DD125
360
29EE
  3
demo
360
29EF
  3
Demo Layers
360
29F0
  3
dim
360
29F1
  3
DIMSONLY
360
29F2
  3
DITCH
360
29F3
  3
DOORBADGES
360
29F4
  3
doors
360
29F5
  3
DWI
360
29F6
  3
e
360
29F7
  3
E1A
360
29F8
  3
E1B
360
29F9
  3
E1C
360
29FA
  3
E2A
360
29FB
  3
E2B
360
29FC
  3
E2C
360
29FD
  3
ea
360
29FE
  3
ELEC
360
29FF
  3
Electrical
360
2A00
  3
Elev_
360
2A01
  3
elevation
360
2A02
  3
ELEVATIONS
360
2A03
  3
EOS
360
2A04
  3
esm
360
2A05
  3
ESMT
360
2A06
  3
ex
360
2A07
  3
Ex2
360
2A08
  3
exg
360
2A09
  3
EXIST
360
2A0A
  3
existing
360
2A0B
  3
existing1
360
2A0C
  3
existing2
360
2A0D
  3
exit
360
2A0E
  3
EXTRA
360
2A0F
  3
f
360
2A10
  3
fence
360
2A11
  3
filter10
360
2A12
  3
filter13
360
2A13
  3
FINAL PLAT
360
2A14
  3
FIREPROT
360
2A15
  3
First
360
2A16
  3
First Floor
360
2A17
  3
FIT
360
2A18
  3
FITTING
360
2A19
  3
FITTINGS
360
2A1A
  3
Fixtures
360
2A1B
  3
Flood
360
2A1C
  3
FLOOR FINISH
360
2A1D
  3
Floor plan
360
2A1E
  3
FLOORFINISH
360
2A1F
  3
Foundation
360
2A20
  3
FRAME1
360
2A21
  3
freeze
360
2A22
  3
Frez Layers
360
2A23
  3
FROZEN
360
2A24
  3
frozen layers
360
2A25
  3
FURN
360
2A26
  3
FURNITURE
360
2A27
  3
GAS
360
2A28
  3
GENERAL
360
2A29
  3
GORDY
360
2A2A
  3
green
360
2A2B
  3
grid
360
2A2C
  3
GS-DesignWorkshop
360
2A2D
  3
HANDICAP
360
2A2E
  3
hatch
360
2A2F
  3
HEADER
360
2A30
  3
HLA
360
2A31
  3
inlet
360
2A32
  3
int
360
2A33
  3
INTERIOR
360
2A34
  3
K
360
2A35
  3
Kinko Space Plan
360
2A39
  3
Kinko's Data-Comm Layout
360
2A36
  3
Kinko's Equipment Layout
360
2A37
  3
Kinko's Merchandise Layout
360
2A38
  3
LBL
360
2A3A
  3
Lites
360
2A3B
  3
locked
360
2A3C
  3
LOT
360
2A3D
  3
lots
360
2A3E
  3
lower floor
360
2A3F
  3
LS
360
2A40
  3
LSG
360
2A41
  3
MAGENTA
360
2A42
  3
MAIN
360
2A43
  3
Main Floor
360
2A44
  3
MECH
360
2A45
  3
METAL
360
2A46
  3
MEZ
360
2A47
  3
MH
360
2A48
  3
Misc
360
2A49
  3
MP
360
2A4A
  3
mtl
360
2A4B
  3
NAME
360
2A4C
  3
NAMES
360
2A4D
  3
new
360
2A4E
  3
new1
360
2A4F
  3
new2
360
2A50
  3
No Xrefs
360
2A52
  3
NO-PLOT
360
2A51
  3
non-visible
360
2A53
  3
non-xref
360
2A54
  3
notes
360
2A55
  3
NUMS
360
2A56
  3
OFF
360
2A57
  3
off layers
360
2A58
  3
OFF THAW
360
2A59
  3
OLD
360
2A5A
  3
on
360
2A5B
  3
oPTION
360
2A5C
  3
Option 1
360
2A5D
  3
Option 2
360
2A5E
  3
Option 3
360
2A5F
  3
Options
360
2A60
  3
p-
360
2A61
  3
p1
360
2A62
  3
p2
360
2A63
  3
p3
360
2A64
  3
p4
360
2A65
  3
pads
360
2A66
  3
Pattern
360
2A67
  3
Patterns
360
2A68
  3
PAV
360
2A69
  3
pen1
360
2A6A
  3
pen2
360
2A6B
  3
pen3
360
2A6C
  3
pen4
360
2A6D
  3
pen5
360
2A6E
  3
PH1
360
2A6F
  3
PH2
360
2A70
  3
PH3
360
2A71
  3
PH5
360
2A72
  3
Phase 1
360
2A73
  3
Phase 2
360
2A74
  3
PIPE
360
2A75
  3
pl
360
2A76
  3
PLAN
360
2A77
  3
Plans
360
2A78
  3
PLUM
360
2A79
  3
plumb
360
2A7A
  3
PLUMBING
360
2A7B
  3
Point layers
360
2A7C
  3
points
360
2A7D
  3
profiles
360
2A7E
  3
PROP
360
2A7F
  3
proposed
360
2A80
  3
ps2-ref
360
2A81
  3
pt
360
2A82
  3
PTS
360
2A83
  3
quadbuildings
360
2A84
  3
QUADGRID
360
2A85
  3
quadlightinh
360
2A86
  3
quadroads
360
2A87
  3
quadtrees
360
2A88
  3
quadtunnels
360
2A89
  3
quadutilities
360
2A8A
  3
quadwalks&curbs
360
2A8B
  3
R2
360
2A8C
  3
rcp
360
2A8D
  3
rds
360
2A8E
  3
red
360
2A8F
  3
Reflected Cieling
360
2A90
  3
REFRIG
360
2A91
  3
reqw
360
2A92
  3
retainingwalls
360
2A93
  3
rf
360
2A94
  3
RIP-RAP
360
2A95
  3
Roof
360
2A96
  3
roomnames
360
2A97
  3
row
360
2A98
  3
s-layers
360
2A99
  3
s-llayers
360
2A9A
  3
S-SITE
360
2A9B
  3
SAN
360
2A9C
  3
San Sew
360
2A9E
  3
san-sew
360
2A9D
  3
SAN. SEW.
360
2A9F
  3
Sanitary Sewer
360
2AA0
  3
sanswr
360
2AA1
  3
SECO
360
2AA2
  3
SECOND
360
2AA3
  3
Second Floor
360
2AA4
  3
secondfloor
360
2AA5
  3
septic
360
2AA6
  3
shade off
360
2AA7
  3
Show ALL (ABND)
360
2AA8
  3
Show ALL (DETL)
360
2AA9
  3
Show ALL (EXST)
360
2AAA
  3
Show ALL (FUTR)
360
2AAB
  3
Show ALL (PKNG)
360
2AAC
  3
Show ALL (PROP)
360
2AAD
  3
Show ALL (ROAD)
360
2AAE
  3
Show ALL (STRU)
360
2AAF
  3
Show all BORDERS
360
2AB0
  3
Show all PATTERNS
360
2AB1
  3
Show all Rendering
360
2AB2
  3
SHT
360
2AB3
  3
Silte Layers
360
2AB4
  3
Site
360
2AB5
  3
Slab
360
2AB6
  3
Slayers
360
2AB7
  3
Square Footage
360
2AB8
  3
ss
360
2AB9
  3
SSMH
360
2ABA
  3
STA
360
2ABB
  3
STAIRS
360
2ABC
  3
Standard Layers
360
2ABD
  3
stations
360
2ABE
  3
STM
360
2ABF
  3
STRBASE
360
2AC0
  3
STREET
360
2AC1
  3
STRU
360
2AC2
  3
STRUCTURALFOUNDATION
360
2AC3
  3
stucco
360
2AC4
  3
SURVEY
360
2AC5
  3
SW
360
2AC6
  3
SYM
360
2AC7
  3
SYMBOLLEGEND
360
2AC8
  3
TEMP
360
2AC9
  3
TEXT
360
2ACA
  3
thaw
360
2ACB
  3
thawed
360
2ACC
  3
THAWEDandON
360
2ACD
  3
tree
360
2ACE
  3
TURNER
360
2ACF
  3
Upper Floor
360
2AD0
  3
UpperNew
360
2AD1
  3
utilitytext
360
2AD2
  3
visible
360
2AD3
  3
WALK
360
2AD4
  3
wall
360
2AD5
  3
WALLS
360
2AD6
  3
WALLSONLY
360
2AD7
  3
WAT
360
2AD8
  3
WATER
360
2AD9
  3
WATER FITTINGS
360
2ADA
  3
WaterShed
360
2ADB
  3
white
360
2ADC
  3
WW
360
2ADD
  3
Xref
360
2ADE
  3
XX
360
2ADF
  0
LAYOUT
  5
62A
102
{ACAD_REACTORS
330
627
102
}
102
{ACAD_XDICTIONARY
360
2BBA
102
}
330
627
100
AcDbPlotSettings
  1

  2
C:\ACAD2000\plotters\HP LaserJet 2100 Series PS.pc3
  4

  6

 40
0.0
 41
0.0
 42
0.0
 43
0.0
 44
0.0
 45
0.0
 46
0.0
 47
0.0
 48
0.0
 49
0.0
140
0.0
141
0.0
142
1.0
143
1.0
 70
   688
 72
     0
 73
     0
 74
     5
  7

 75
    16
147
1.0
148
0.0
149
0.0
100
AcDbLayout
  1
Layout1
 70
     0
 71
     1
 10
0.0
 20
0.0
 11
12.0
 21
9.0
 12
0.0
 22
0.0
 32
0.0
 14
1.000000000000000E+20
 24
1.000000000000000E+20
 34
1.000000000000000E+20
 15
-1.000000000000000E+20
 25
-1.000000000000000E+20
 35
-1.000000000000000E+20
146
0.0
 13
0.0
 23
0.0
 33
0.0
 16
1.0
 26
0.0
 36
0.0
 17
0.0
 27
1.0
 37
0.0
 76
     0
330
507
  0
LAYOUT
  5
629
102
{ACAD_REACTORS
330
627
102
}
102
{ACAD_XDICTIONARY
360
2BBC
102
}
330
627
100
AcDbPlotSettings
  1

  2
HP LaserJet 2100 Series PS
  4
Letter
  6
PLOTTER
 40
5.365749835968018
 41
5.365735054016113
 42
3.175003051757813
 43
3.17498779296875
 44
210.4813232421875
 45
273.9813232421875
 46
0.0
 47
0.0
 48
0.0
 49
0.0
140
0.0
141
0.0
142
1.0
143
3.0187099052458
 70
 28336
 72
     0
 73
     1
 74
     2
  7

 75
     0
147
0.3312673398203112
148
0.0
149
0.0
100
AcDbLayout
  1
Model
 70
     1
 71
     0
 10
0.0
 20
0.0
 11
12.0
 21
9.0
 12
0.0
 22
0.0
 32
0.0
 14
0.0
 24
0.0
 34
0.0
 15
0.0
 25
0.0
 35
0.0
146
0.0
 13
0.0
 23
0.0
 33
0.0
 16
1.0
 26
0.0
 36
0.0
 17
0.0
 27
1.0
 37
0.0
 76
     0
330
50A
  0
MLINESTYLE
  5
50E
102
{ACAD_REACTORS
330
50D
102
}
330
50D
100
AcDbMlineStyle
  2
STANDARD
 70
     0
  3

 62
   256
 51
90.0
 52
90.0
 71
     2
 49
0.5
 62
   256
  6
BYLAYER
 49
-0.5
 62
   256
  6
BYLAYER
  0
ACDBPLACEHOLDER
  5
626
102
{ACAD_REACTORS
330
625
102
}
330
625
  0
ACAD_PROXY_OBJECT
  5
2BA9
102
{ACAD_REACTORS
330
2BA8
102
}
330
2BA8
100
AcDbProxyObject
 90
      499
 91
      518
 95
   983063
 70
     0
 93
     1841
310
4214DD185B99185C9928B81E85EB51B8AE3F2E07A17AD46E2B8FC02B5E8DC0F42B1CFD028000000C1008070000C3001FDFF8000000C1003FBFF000000182007F7FE00000030400FEFFC00000060801FDFF8000000C1003FBFF00000018200000000000000681FA0B0000001820100E000186003FBFF000000182007F7FE000
310
00030400FEFFC00000060801FDFF8000000C1003FBFF000000182007F7FE000000304000AD7A3703D0AC73F4160000003040201C00030C007F7FE00000030400FEFFC00000060801FDFF8000000C1003FBFF000000182007F7FE00000030400FEFFC000000608000
340
502
340
502
340
502
 94
        0
  0
XRECORD
  5
2BB8
102
{ACAD_REACTORS
330
2BB7
102
}
330
2BB7
100
AcDbXrecord
340
2BA7
  0
XRECORD
  5
2BB9
102
{ACAD_REACTORS
330
2BB7
102
}
330
2BB7
100
AcDbXrecord
340
2BA6
  0
DICTIONARYVAR
  5
2BB4
102
{ACAD_REACTORS
330
552
102
}
330
552
100
DictionaryVariables
280
     0
  1
STANDARD
  0
DICTIONARYVAR
  5
553
102
{ACAD_REACTORS
330
552
102
}
330
552
100
DictionaryVariables
280
     0
  1
0
  0
XRECORD
  5
24DA
102
{ACAD_REACTORS
330
24D9
102
}
330
24D9
100
AcDbXrecord
280
     1
330
0
330
0
330
0
330
0
330
0
330
0
  0
XRECORD
  5
298E
102
{ACAD_REACTORS
330
298D
102
}
330
298D
100
AcDbXrecord
280
     1
  1
0
  1
*0
  1
*
  1
*
 70
     0
  1
*
  1
*
  0
XRECORD
  5
298F
102
{ACAD_REACTORS
330
298D
102
}
330
298D
100
AcDbXrecord
280
     1
  1
0DWI
  1
0DWI*
  1
*
  1
*
 70
     0
  1
*
  1
*
  0
XRECORD
  5
2990
102
{ACAD_REACTORS
330
298D
102
}
330
298D
100
AcDbXrecord
280
     1
  1
1
  1
*
  1
*
  1
*
 70
    64
  1
*
  1
*
  0
XRECORD
  5
2991
102
{ACAD_REACTORS
330
298D
102
}
330
298D
100
AcDbXrecord
280
     1
  1
1-STM
  1
*990661-STM*
  1
*
  1
*
 70
     0
  1
*
  1
*
  0
XRECORD
  5
2992
102
{ACAD_REACTORS
330
298D
102
}
330
298D
100
AcDbXrecord
280
     1
  1
10
  1
*
  1
10
  1
*
 70
     0
  1
*
  1
*
  0
XRECORD
  5
2993
102
{ACAD_REACTORS
330
298D
102
}
330
298D
100
AcDbXrecord
280
     1
  1
11
  1
*
  1
11
  1
*
 70
     0
  1
*
  1
*
  0
XRECORD
  5
2994
102
{ACAD_REACTORS
330
298D
102
}
330
298D
100
AcDbXrecord
280
     1
  1
131
  1
*
  1
*131*
  1
*
 70
     0
  1
*
  1
*
  0
XRECORD
  5
2995
102
{ACAD_REACTORS
330
298D
102
}
330
298D
100
AcDbXrecord
280
     1
  1
1st
  1
1st*
  1
*
  1
*
 70
     0
  1
*
  1
*
  0
XRECORD
  5
2996
102
{ACAD_REACTORS
330
298D
102
}
330
298D
100
AcDbXrecord
280
     1
  1
1st Floor
  1
1*
  1
*
  1
*
 70
     0
  1
*
  1
*
  0
XRECORD
  5
2997
102
{ACAD_REACTORS
330
298D
102
}
330
298D
100
AcDbXrecord
280
     1
  1
1STM
  1
*1STM*
  1
*
  1
*
 70
     0
  1
*
  1
*
  0
XRECORD
  5
2998
102
{ACAD_REACTORS
330
298D
102
}
330
298D
100
AcDbXrecord
280
     1
  1
2
  1
*2
  1
*
  1
*
 70
     0
  1
*
  1
*
  0
XRECORD
  5
2999
102
{ACAD_REACTORS
330
298D
102
}
330
298D
100
AcDbXrecord
280
     1
  1
204
  1
*204*
  1
*
  1
*
 70
     0
  1
*
  1
*
  0
XRECORD
  5
299A
102
{ACAD_REACTORS
330
298D
102
}
330
298D
100
AcDbXrecord
280
     1
  1
22
  1
*
  1
*22*
  1
*
 70
     0
  1
*
  1
*
  0
XRECORD
  5
299B
102
{ACAD_REACTORS
330
298D
102
}
330
298D
100
AcDbXrecord
280
     1
  1
251
  1
*
  1
251
  1
*
 70
     0
  1
*
  1
*
  0
XRECORD
  5
299C
102
{ACAD_REACTORS
330
298D
102
}
330
298D
100
AcDbXrecord
280
     1
  1
252
  1
*
  1
252
  1
*
 70
     0
  1
*
  1
*
  0
XRECORD
  5
299D
102
{ACAD_REACTORS
330
298D
102
}
330
298D
100
AcDbXrecord
280
     1
  1
253
  1
*
  1
253
  1
*
 70
     0
  1
*
  1
*
  0
XRECORD
  5
299E
102
{ACAD_REACTORS
330
298D
102
}
330
298D
100
AcDbXrecord
280
     1
  1
2nd
  1
2nd*
  1
*
  1
*
 70
     0
  1
*
  1
*
  0
XRECORD
  5
299F
102
{ACAD_REACTORS
330
298D
102
}
330
298D
100
AcDbXrecord
280
     1
  1
2nd Floor
  1
2*
  1
*
  1
*
 70
     0
  1
*
  1
*
  0
XRECORD
  5
29A0
102
{ACAD_REACTORS
330
298D
102
}
330
298D
100
AcDbXrecord
280
     1
  1
2nd Floor Electrical
  1
2*Elec*,2*Powr*,2*Lite*
  1
*
  1
*
 70
     0
  1
*
  1
*
  0
XRECORD
  5
29A1
102
{ACAD_REACTORS
330
298D
102
}
330
298D
100
AcDbXrecord
280
     1
  1
3
  1
*
  1
*3
  1
*
 70
     0
  1
*
  1
*
  0
XRECORD
  5
29A2
102
{ACAD_REACTORS
330
298D
102
}
330
298D
100
AcDbXrecord
280
     1
  1
30
  1
*
  1
*30
  1
*
 70
     0
  1
*
  1
*
  0
XRECORD
  5
29A3
102
{ACAD_REACTORS
330
298D
102
}
330
298D
100
AcDbXrecord
280
     1
  1
3D
  1
*3D*
  1
*
  1
*
 70
     0
  1
*
  1
*
  0
XRECORD
  5
29A4
102
{ACAD_REACTORS
330
298D
102
}
330
298D
100
AcDbXrecord
280
     1
  1
3rd
  1
3rd*
  1
*
  1
*
 70
     0
  1
*
  1
*
  0
XRECORD
  5
29A5
102
{ACAD_REACTORS
330
298D
102
}
330
298D
100
AcDbXrecord
280
     1
  1
4
  1
*
  1
4*
  1
*
 70
     0
  1
*
  1
*
  0
XRECORD
  5
29A6
102
{ACAD_REACTORS
330
298D
102
}
330
298D
100
AcDbXrecord
280
     1
  1
40
  1
*
  1
*40
  1
*
 70
     0
  1
*
  1
*
  0
XRECORD
  5
29A7
102
{ACAD_REACTORS
330
298D
102
}
330
298D
100
AcDbXrecord
280
     1
  1
4th
  1
*4th
  1
*
  1
*
 70
     0
  1
*
  1
*
  0
XRECORD
  5
29A8
102
{ACAD_REACTORS
330
298D
102
}
330
298D
100
AcDbXrecord
280
     1
  1
8
  1
*
  1
8
  1
*
 70
     0
  1
*
  1
*
  0
XRECORD
  5
29A9
102
{ACAD_REACTORS
330
298D
102
}
330
298D
100
AcDbXrecord
280
     1
  1
9
  1
*
  1
9
  1
*
 70
     0
  1
*
  1
*
  0
XRECORD
  5
29AA
102
{ACAD_REACTORS
330
298D
102
}
330
298D
100
AcDbXrecord
280
     1
  1
a
  1
a*
  1
*
  1
*
 70
     0
  1
*
  1
*
  0
XRECORD
  5
29AB
102
{ACAD_REACTORS
330
298D
102
}
330
298D
100
AcDbXrecord
280
     1
  1
A-
  1
*
  1
*
  1
*
 70
     0
  1
*
  1
*
  0
XRECORD
  5
29AC
102
{ACAD_REACTORS
330
298D
102
}
330
298D
100
AcDbXrecord
280
     1
  1
A-DOOR
  1
*
  1
*
  1
*
 70
     0
  1
*
  1
*
  0
XRECORD
  5
29AD
102
{ACAD_REACTORS
330
298D
102
}
330
298D
100
AcDbXrecord
280
     1
  1
A-FURN
  1
*
  1
*
  1
*
 70
     0
  1
*
  1
*
  0
XRECORD
  5
29AE
102
{ACAD_REACTORS
330
298D
102
}
330
298D
100
AcDbXrecord
280
     1
  1
A-WALL
  1
*A-WALL*
  1
*
  1
*
 70
     0
  1
*
  1
*
  0
XRECORD
  5
29AF
102
{ACAD_REACTORS
330
298D
102
}
330
298D
100
AcDbXrecord
280
     1
  1
A2A
  1
*-B-*,*-C-*,*APPLI*,E-*,*ELEC*
  1
*
  1
*
 70
     0
  1
*
  1
*
  0
XRECORD
  5
29B0
102
{ACAD_REACTORS
330
298D
102
}
330
298D
100
AcDbXrecord
280
     1
  1
A2B
  1
*-A-*,*-C-*,*APPLI*,E-*,*ELEC*
  1
*
  1
*
 70
     0
  1
*
  1
*
  0
XRECORD
  5
29B1
102
{ACAD_REACTORS
330
298D
102
}
330
298D
100
AcDbXrecord
280
     1
  1
A2C
  1
*-A-*,*-B-*,*APPLI*,E-*,*ELEC*
  1
*
  1
*
 70
     0
  1
*
  1
*
  0
XRECORD
  5
29B2
102
{ACAD_REACTORS
330
298D
102
}
330
298D
100
AcDbXrecord
280
     1
  1
A3A
  1
*-4-*,*-B-*,*-C-*,*BEAM*,*ROOF*,*TRUS*,E-*,*ELEC*
  1
*
  1
*
 70
     0
  1
*
  1
*
  0
XRECORD
  5
29B3
102
{ACAD_REACTORS
330
298D
102
}
330
298D
100
AcDbXrecord
280
     1
  1
A3B
  1
*-4-*,*-A-*,*-C-*,*BEAM*,*ROOF*,*TRUS*,E-*,*ELEC*
  1
*
  1
*
 70
     0
  1
*
  1
*
  0
XRECORD
  5
29B4
102
{ACAD_REACTORS
330
298D
102
}
330
298D
100
AcDbXrecord
280
     1
  1
A3C
  1
*-4-*,*-A-*,*-B-*,*BEAM*,*ROOF*,*TRUS*,E-*,*ELEC*
  1
*
  1
*
 70
     0
  1
*
  1
*
  0
XRECORD
  5
29B5
102
{ACAD_REACTORS
330
298D
102
}
330
298D
100
AcDbXrecord
280
     1
  1
A4A
  1
*-3-*,*-B-*,*-C-*,*DIM*,*APPLI*,*HATCH*,E-*,*ELEC*
  1
*
  1
*
 70
     0
  1
*
  1
*
  0
XRECORD
  5
29B6
102
{ACAD_REACTORS
330
298D
102
}
330
298D
100
AcDbXrecord
280
     1
  1
A4B
  1
*-3-*,*-A-*,*-C-*,*DIM*,*APPLI*,*HATCH*,E-*,*ELEC*
  1
*
  1
*
 70
     0
  1
*
  1
*
  0
XRECORD
  5
29B7
102
{ACAD_REACTORS
330
298D
102
}
330
298D
100
AcDbXrecord
280
     1
  1
A4C
  1
*-3-*,*-A-*,*-B-*,*DIM*,*APPLI*,*HATCH*,E-*,*ELEC*
  1
*
  1
*
 70
     0
  1
*
  1
*
  0
XRECORD
  5
29B8
102
{ACAD_REACTORS
330
298D
102
}
330
298D
100
AcDbXrecord
280
     1
  1
A5A
  1
*-6-*,*-B-*,*-C-*,*BEAM*,*ROOF*,*TRUS*,E-*
  1
*
  1
*
 70
     0
  1
*
  1
*
  0
XRECORD
  5
29B9
102
{ACAD_REACTORS
330
298D
102
}
330
298D
100
AcDbXrecord
280
     1
  1
A5B
  1
*-6-*,*-A-*,*-C-*,*BEAM*,*ROOF*,*TRUS*,E-*
  1
*
  1
*
 70
     0
  1
*
  1
*
  0
XRECORD
  5
29BA
102
{ACAD_REACTORS
330
298D
102
}
330
298D
100
AcDbXrecord
280
     1
  1
A5C
  1
*-6-*,*-A-*,*-B-*,*BEAM*,*ROOF*,*TRUS*,E-*
  1
*
  1
*
 70
     0
  1
*
  1
*
  0
XRECORD
  5
29BB
102
{ACAD_REACTORS
330
298D
102
}
330
298D
100
AcDbXrecord
280
     1
  1
A6A
  1
*-5-*,*-B-*,*-C-*,*DIM*,*APPLI*,*HATCH*,E-*,*ELEC*
  1
*
  1
*
 70
     0
  1
*
  1
*
  0
XRECORD
  5
29BC
102
{ACAD_REACTORS
330
298D
102
}
330
298D
100
AcDbXrecord
280
     1
  1
A6B
  1
*-5-*,*-A-*,*-C-*,*DIM*,*APPLI*,*HATCH*,E-*,*ELEC*
  1
*
  1
*
 70
     0
  1
*
  1
*
  0
XRECORD
  5
29BD
102
{ACAD_REACTORS
330
298D
102
}
330
298D
100
AcDbXrecord
280
     1
  1
A6C
  1
*-5-*,*-A-*,*-B-*,*DIM*,*APPLI*,*HATCH*,E-*,*ELEC*
  1
*
  1
*
 70
     0
  1
*
  1
*
  0
XRECORD
  5
29BE
102
{ACAD_REACTORS
330
298D
102
}
330
298D
100
AcDbXrecord
280
     1
  1
all
  1
*
  1
*
  1
*
 70
     0
  1
*
  1
*
  0
XRECORD
  5
29BF
102
{ACAD_REACTORS
330
298D
102
}
330
298D
100
AcDbXrecord
280
     1
  1
All Options
  1
Option*
  1
*
  1
*
 70
     0
  1
*
  1
*
  0
XRECORD
  5
29C0
102
{ACAD_REACTORS
330
298D
102
}
330
298D
100
AcDbXrecord
280
     1
  1
All Thawed & On
  1
*
  1
*
  1
*
 70
    13
  1
*
  1
*
  0
XRECORD
  5
29C1
102
{ACAD_REACTORS
330
298D
102
}
330
298D
100
AcDbXrecord
280
     1
  1
ALL8
  1
*
  1
8
  1
*
 70
     0
  1
*
  1
*
  0
XRECORD
  5
29C2
102
{ACAD_REACTORS
330
298D
102
}
330
298D
100
AcDbXrecord
280
     1
  1
ALLON
  1
*
  1
*
  1
*
 70
    13
  1
*
  1
*
  0
XRECORD
  5
29C3
102
{ACAD_REACTORS
330
298D
102
}
330
298D
100
AcDbXrecord
280
     1
  1
an_details
  1
*an_details
  1
*
  1
*
 70
     0
  1
*
  1
*
  0
XRECORD
  5
29C4
102
{ACAD_REACTORS
330
298D
102
}
330
298D
100
AcDbXrecord
280
     1
  1
ARCH
  1
A*
  1
*
  1
*
 70
     0
  1
*
  1
*
  0
XRECORD
  5
29C5
102
{ACAD_REACTORS
330
298D
102
}
330
298D
100
AcDbXrecord
280
     1
  1
asdsdf
  1
*
  1
*
  1
*
 70
     5
  1
*
  1
*
  0
XRECORD
  5
29C6
102
{ACAD_REACTORS
330
298D
102
}
330
298D
100
AcDbXrecord
280
     1
  1
at
  1
*at*
  1
*
  1
*
 70
     0
  1
*
  1
*
  0
XRECORD
  5
29C7
102
{ACAD_REACTORS
330
298D
102
}
330
298D
100
AcDbXrecord
280
     1
  1
audit
  1
*audit*
  1
*
  1
*
 70
     0
  1
*
  1
*
  0
XRECORD
  5
29C8
102
{ACAD_REACTORS
330
298D
102
}
330
298D
100
AcDbXrecord
280
     1
  1
awallext
  1
*a-wall-ext,*a-wall-fdn
  1
*
  1
*
 70
     0
  1
*
  1
*
  0
XRECORD
  5
29C9
102
{ACAD_REACTORS
330
298D
102
}
330
298D
100
AcDbXrecord
280
     1
  1
awallfdn
  1
*a-wall-fdn
  1
*
  1
*
 70
     0
  1
*
  1
*
  0
XRECORD
  5
29CA
102
{ACAD_REACTORS
330
298D
102
}
330
298D
100
AcDbXrecord
280
     1
  1
b
  1
*topo01b*
  1
*
  1
*
 70
     0
  1
*
  1
*
  0
XRECORD
  5
29CB
102
{ACAD_REACTORS
330
298D
102
}
330
298D
100
AcDbXrecord
280
     1
  1
base
  1
base*
  1
*
  1
*
 70
     0
  1
*
  1
*
  0
XRECORD
  5
29CC
102
{ACAD_REACTORS
330
298D
102
}
330
298D
100
AcDbXrecord
280
     1
  1
BASE PLAN
  1
99440*
  1
*
  1
*
 70
     0
  1
*
  1
*
  0
XRECORD
  5
29CD
102
{ACAD_REACTORS
330
298D
102
}
330
298D
100
AcDbXrecord
280
     1
  1
baseline
  1
*base*
  1
*
  1
*
 70
     0
  1
*
  1
*
  0
XRECORD
  5
29CE
102
{ACAD_REACTORS
330
298D
102
}
330
298D
100
AcDbXrecord
280
     1
  1
basement
  1
*floor-1
  1
*
  1
*
 70
     4
  1
*
  1
*
  0
XRECORD
  5
29CF
102
{ACAD_REACTORS
330
298D
102
}
330
298D
100
AcDbXrecord
280
     1
  1
bl
  1
*bl
  1
*
  1
*
 70
     0
  1
*
  1
*
  0
XRECORD
  5
29D0
102
{ACAD_REACTORS
330
298D
102
}
330
298D
100
AcDbXrecord
280
     1
  1
BLUE
  1
*
  1
BLUE
  1
*
 70
     0
  1
*
  1
*
  0
XRECORD
  5
29D1
102
{ACAD_REACTORS
330
298D
102
}
330
298D
100
AcDbXrecord
280
     1
  1
bndy
  1
*bndy
  1
*
  1
*
 70
     0
  1
*
  1
*
  0
XRECORD
  5
29D2
102
{ACAD_REACTORS
330
298D
102
}
330
298D
100
AcDbXrecord
280
     1
  1
Building Lines
  1
*bl*
  1
*
  1
*
 70
     0
  1
*
  1
*
  0
XRECORD
  5
29D3
102
{ACAD_REACTORS
330
298D
102
}
330
298D
100
AcDbXrecord
280
     1
  1
buildingtext
  1
*bl-tx,*rd-tx
  1
*
  1
*
 70
    13
  1
*
  1
*
  0
XRECORD
  5
29D4
102
{ACAD_REACTORS
330
298D
102
}
330
298D
100
AcDbXrecord
280
     1
  1
C-PTS
  1
C-PTS*
  1
*
  1
*
 70
     0
  1
*
  1
*
  0
XRECORD
  5
29D5
102
{ACAD_REACTORS
330
298D
102
}
330
298D
100
AcDbXrecord
280
     1
  1
Cabinets
  1
*Cab*
  1
*
  1
*
 70
     0
  1
*
  1
*
  0
XRECORD
  5
29D6
102
{ACAD_REACTORS
330
298D
102
}
330
298D
100
AcDbXrecord
280
     1
  1
CEILING
  1
CRA-CLG*
  1
*
  1
*
 70
     0
  1
*
  1
*
  0
XRECORD
  5
29D7
102
{ACAD_REACTORS
330
298D
102
}
330
298D
100
AcDbXrecord
280
     1
  1
CEILINGC
  1
CRA-CLG*
  1
*
  1
*
 70
     0
  1
*
  1
*
  0
XRECORD
  5
29D8
102
{ACAD_REACTORS
330
298D
102
}
330
298D
100
AcDbXrecord
280
     1
  1
CIVIL
  1
c*
  1
*
  1
*
 70
     0
  1
*
  1
*
  0
XRECORD
  5
29D9
102
{ACAD_REACTORS
330
298D
102
}
330
298D
100
AcDbXrecord
280
     1
  1
CL
  1
*CL*
  1
*
  1
*
 70
     0
  1
*
  1
*
  0
XRECORD
  5
29DA
102
{ACAD_REACTORS
330
298D
102
}
330
298D
100
AcDbXrecord
280
     1
  1
cl-alley
  1
*cl-alley
  1
*
  1
*
 70
     0
  1
*
  1
*
  0
XRECORD
  5
29DB
102
{ACAD_REACTORS
330
298D
102
}
330
298D
100
AcDbXrecord
280
     1
  1
clg
  1
*clg*
  1
*
  1
*
 70
     0
  1
*
  1
*
  0
XRECORD
  5
29DC
102
{ACAD_REACTORS
330
298D
102
}
330
298D
100
AcDbXrecord
280
     1
  1
CMU
  1
*cmu*
  1
*
  1
*
 70
     0
  1
*
  1
*
  0
XRECORD
  5
29DD
102
{ACAD_REACTORS
330
298D
102
}
330
298D
100
AcDbXrecord
280
     1
  1
color
  1
*white
  1
*
  1
*
 70
     0
  1
*
  1
*
  0
XRECORD
  5
29DE
102
{ACAD_REACTORS
330
298D
102
}
330
298D
100
AcDbXrecord
280
     1
  1
COLOR 15
  1
*
  1
15
  1
*
 70
     0
  1
*
  1
*
  0
XRECORD
  5
29DF
102
{ACAD_REACTORS
330
298D
102
}
330
298D
100
AcDbXrecord
280
     1
  1
color 254
  1
*
  1
254
  1
*
 70
     0
  1
*
  1
*
  0
XRECORD
  5
29E0
102
{ACAD_REACTORS
330
298D
102
}
330
298D
100
AcDbXrecord
280
     1
  1
color 9
  1
*
  1
9
  1
*
 70
     0
  1
*
  1
*
  0
XRECORD
  5
29E1
102
{ACAD_REACTORS
330
298D
102
}
330
298D
100
AcDbXrecord
280
     1
  1
COLOR10
  1
*
  1
10
  1
*
 70
     0
  1
*
  1
*
  0
XRECORD
  5
29E2
102
{ACAD_REACTORS
330
298D
102
}
330
298D
100
AcDbXrecord
280
     1
  1
COLOR132
  1
*
  1
13
  1
*
 70
     0
  1
*
  1
*
  0
XRECORD
  5
29E3
102
{ACAD_REACTORS
330
298D
102
}
330
298D
100
AcDbXrecord
280
     1
  1
COMP
  1
_comp*
  1
*
  1
*
 70
     0
  1
*
  1
*
  0
XRECORD
  5
29E4
102
{ACAD_REACTORS
330
298D
102
}
330
298D
100
AcDbXrecord
280
     1
  1
con
  1
*con*
  1
*
  1
*
 70
     0
  1
*
  1
*
  0
XRECORD
  5
29E5
102
{ACAD_REACTORS
330
298D
102
}
330
298D
100
AcDbXrecord
280
     1
  1
construction
  1
reference
  1
*
  1
*
 70
  3075
  1
*
  1
*
  0
XRECORD
  5
29E6
102
{ACAD_REACTORS
330
298D
102
}
330
298D
100
AcDbXrecord
280
     1
  1
CONT
  1
*CONT*
  1
*
  1
*
 70
     0
  1
*
  1
*
  0
XRECORD
  5
29E7
102
{ACAD_REACTORS
330
298D
102
}
330
298D
100
AcDbXrecord
280
     1
  1
contour
  1
*cont*
  1
*
  1
*
 70
     0
  1
*
  1
*
  0
XRECORD
  5
29E8
102
{ACAD_REACTORS
330
298D
102
}
330
298D
100
AcDbXrecord
280
     1
  1
CONTOURS
  1
*CONT*
  1
*
  1
*
 70
     0
  1
*
  1
*
  0
XRECORD
  5
29E9
102
{ACAD_REACTORS
330
298D
102
}
330
298D
100
AcDbXrecord
280
     1
  1
CRA-FUN
  1
CRA-FUN*
  1
*
  1
*
 70
     0
  1
*
  1
*
  0
XRECORD
  5
29EA
102
{ACAD_REACTORS
330
298D
102
}
330
298D
100
AcDbXrecord
280
     1
  1
curb
  1
*curb*,*edge*
  1
*
  1
*
 70
     0
  1
*
  1
*
  0
XRECORD
  5
29EB
102
{ACAD_REACTORS
330
298D
102
}
330
298D
100
AcDbXrecord
280
     1
  1
current viewport frozen
  1
*
  1
*
  1
*
 70
    16
  1
*
  1
*
  0
XRECORD
  5
29EC
102
{ACAD_REACTORS
330
298D
102
}
330
298D
100
AcDbXrecord
280
     1
  1
CURRENT VP FROZEN
  1
*
  1
*
  1
*
 70
    16
  1
*
  1
*
  0
XRECORD
  5
29ED
102
{ACAD_REACTORS
330
298D
102
}
330
298D
100
AcDbXrecord
280
     1
  1
dawn
  1
*catchbasinare*
  1
*
  1
*
 70
     0
  1
*
  1
*
  0
XRECORD
  5
29EE
102
{ACAD_REACTORS
330
298D
102
}
330
298D
100
AcDbXrecord
280
     1
  1
DD125
  1
8326*
  1
*
  1
*
 70
     0
  1
*
  1
*
  0
XRECORD
  5
29EF
102
{ACAD_REACTORS
330
298D
102
}
330
298D
100
AcDbXrecord
280
     1
  1
demo
  1
*demo
  1
*
  1
*
 70
     0
  1
*
  1
*
  0
XRECORD
  5
29F0
102
{ACAD_REACTORS
330
298D
102
}
330
298D
100
AcDbXrecord
280
     1
  1
Demo Layers
  1
?-DM-*
  1
*
  1
*
 70
     0
  1
*
  1
*
  0
XRECORD
  5
29F1
102
{ACAD_REACTORS
330
298D
102
}
330
298D
100
AcDbXrecord
280
     1
  1
dim
  1
*dim*
  1
*
  1
*
 70
     0
  1
*
  1
*
  0
XRECORD
  5
29F2
102
{ACAD_REACTORS
330
298D
102
}
330
298D
100
AcDbXrecord
280
     1
  1
DIMSONLY
  1
*DIMS*
  1
*
  1
*
 70
     0
  1
*
  1
*
  0
XRECORD
  5
29F3
102
{ACAD_REACTORS
330
298D
102
}
330
298D
100
AcDbXrecord
280
     1
  1
DITCH
  1
*DITCH*
  1
*
  1
*
 70
     0
  1
*
  1
*
  0
XRECORD
  5
29F4
102
{ACAD_REACTORS
330
298D
102
}
330
298D
100
AcDbXrecord
280
     1
  1
DOORBADGES
  1
*DOOR*
  1
*
  1
*
 70
     0
  1
*
  1
*
  0
XRECORD
  5
29F5
102
{ACAD_REACTORS
330
298D
102
}
330
298D
100
AcDbXrecord
280
     1
  1
doors
  1
*door
  1
*
  1
*
 70
     0
  1
*
  1
*
  0
XRECORD
  5
29F6
102
{ACAD_REACTORS
330
298D
102
}
330
298D
100
AcDbXrecord
280
     1
  1
DWI
  1
ODWI*
  1
*
  1
*
 70
     0
  1
*
  1
*
  0
XRECORD
  5
29F7
102
{ACAD_REACTORS
330
298D
102
}
330
298D
100
AcDbXrecord
280
     1
  1
e
  1
*-E*
  1
*
  1
*
 70
     0
  1
*
  1
*
  0
XRECORD
  5
29F8
102
{ACAD_REACTORS
330
298D
102
}
330
298D
100
AcDbXrecord
280
     1
  1
E1A
  1
*-4-*,*-3-*,*-B-*,*-C-*,*BEAM*,*ROOF*,*TRUS*,*DIM*,*HATCH*
  1
*
  1
*
 70
     0
  1
*
  1
*
  0
XRECORD
  5
29F9
102
{ACAD_REACTORS
330
298D
102
}
330
298D
100
AcDbXrecord
280
     1
  1
E1B
  1
*-4-*,*-3-*,*-A-*,*-C-*,*BEAM*,*ROOF*,*TRUS*,*DIM*,*HATCH*
  1
*
  1
*
 70
     0
  1
*
  1
*
  0
XRECORD
  5
29FA
102
{ACAD_REACTORS
330
298D
102
}
330
298D
100
AcDbXrecord
280
     1
  1
E1C
  1
*-4-*,*-3-*,*-A-*,*-B-*,*BEAM*,*ROOF*,*TRUS*,*DIM*,*HATCH*
  1
*
  1
*
 70
     0
  1
*
  1
*
  0
XRECORD
  5
29FB
102
{ACAD_REACTORS
330
298D
102
}
330
298D
100
AcDbXrecord
280
     1
  1
E2A
  1
*-5-*,*-6-*,*-B-*,*-C-*,*BEAM*,*ROOF*,*TRUS*,*DIM*,*HATCH*
  1
*
  1
*
 70
     0
  1
*
  1
*
  0
XRECORD
  5
29FC
102
{ACAD_REACTORS
330
298D
102
}
330
298D
100
AcDbXrecord
280
     1
  1
E2B
  1
*-5-*,*-6-*,*-A-*,*-C-*,*BEAM*,*ROOF*,*TRUS*,*DIM*,*HATCH*
  1
*
  1
*
 70
     0
  1
*
  1
*
  0
XRECORD
  5
29FD
102
{ACAD_REACTORS
330
298D
102
}
330
298D
100
AcDbXrecord
280
     1
  1
E2C
  1
*-5-*,*-6-*,*-A-*,*-B-*,*BEAM*,*ROOF*,*TRUS*,*DIM*,*HATCH*
  1
*
  1
*
 70
     0
  1
*
  1
*
  0
XRECORD
  5
29FE
102
{ACAD_REACTORS
330
298D
102
}
330
298D
100
AcDbXrecord
280
     1
  1
ea
  1
*ea*
  1
*
  1
*
 70
     0
  1
*
  1
*
  0
XRECORD
  5
29FF
102
{ACAD_REACTORS
330
298D
102
}
330
298D
100
AcDbXrecord
280
     1
  1
ELEC
  1
e*
  1
*
  1
*
 70
     0
  1
*
  1
*
  0
XRECORD
  5
2A00
102
{ACAD_REACTORS
330
298D
102
}
330
298D
100
AcDbXrecord
280
     1
  1
Electrical
  1
E*
  1
*
  1
*
 70
     0
  1
*
  1
*
  0
XRECORD
  5
2A01
102
{ACAD_REACTORS
330
298D
102
}
330
298D
100
AcDbXrecord
280
     1
  1
Elev_
  1
Elev_*
  1
*
  1
*
 70
     0
  1
*
  1
*
  0
XRECORD
  5
2A02
102
{ACAD_REACTORS
330
298D
102
}
330
298D
100
AcDbXrecord
280
     1
  1
elevation
  1
XSE02-E*
  1
*
  1
*
 70
     0
  1
*
  1
*
  0
XRECORD
  5
2A03
102
{ACAD_REACTORS
330
298D
102
}
330
298D
100
AcDbXrecord
280
     1
  1
ELEVATIONS
  1
*ELEV*
  1
*
  1
*
 70
     0
  1
*
  1
*
  0
XRECORD
  5
2A04
102
{ACAD_REACTORS
330
298D
102
}
330
298D
100
AcDbXrecord
280
     1
  1
EOS
  1
*a-wall-ext
  1
*
  1
*
 70
     0
  1
*
  1
*
  0
XRECORD
  5
2A05
102
{ACAD_REACTORS
330
298D
102
}
330
298D
100
AcDbXrecord
280
     1
  1
esm
  1
*esm*
  1
*
  1
*
 70
     0
  1
*
  1
*
  0
XRECORD
  5
2A06
102
{ACAD_REACTORS
330
298D
102
}
330
298D
100
AcDbXrecord
280
     1
  1
ESMT
  1
*ESMT*
  1
*
  1
*
 70
     0
  1
*
  1
*
  0
XRECORD
  5
2A07
102
{ACAD_REACTORS
330
298D
102
}
330
298D
100
AcDbXrecord
280
     1
  1
ex
  1
*ex*
  1
*
  1
*
 70
     0
  1
*
  1
*
  0
XRECORD
  5
2A08
102
{ACAD_REACTORS
330
298D
102
}
330
298D
100
AcDbXrecord
280
     1
  1
Ex2
  1
ae2*
  1
*
  1
*
 70
     0
  1
*
  1
*
  0
XRECORD
  5
2A09
102
{ACAD_REACTORS
330
298D
102
}
330
298D
100
AcDbXrecord
280
     1
  1
exg
  1
*exg
  1
*
  1
*
 70
     0
  1
*
  1
*
  0
XRECORD
  5
2A0A
102
{ACAD_REACTORS
330
298D
102
}
330
298D
100
AcDbXrecord
280
     1
  1
EXIST
  1
EX*
  1
*
  1
*
 70
     0
  1
*
  1
*
  0
XRECORD
  5
2A0B
102
{ACAD_REACTORS
330
298D
102
}
330
298D
100
AcDbXrecord
280
     1
  1
existing
  1
*E
  1
*
  1
*
 70
     0
  1
*
  1
*
  0
XRECORD
  5
2A0C
102
{ACAD_REACTORS
330
298D
102
}
330
298D
100
AcDbXrecord
280
     1
  1
existing1
  1
a1e*
  1
*
  1
*
 70
     0
  1
*
  1
*
  0
XRECORD
  5
2A0D
102
{ACAD_REACTORS
330
298D
102
}
330
298D
100
AcDbXrecord
280
     1
  1
existing2
  1
a2e*
  1
*
  1
*
 70
     0
  1
*
  1
*
  0
XRECORD
  5
2A0E
102
{ACAD_REACTORS
330
298D
102
}
330
298D
100
AcDbXrecord
280
     1
  1
exit
  1
*exit
  1
*
  1
*
 70
     0
  1
*
  1
*
  0
XRECORD
  5
2A0F
102
{ACAD_REACTORS
330
298D
102
}
330
298D
100
AcDbXrecord
280
     1
  1
EXTRA
  1
x*
  1
*
  1
*
 70
     0
  1
*
  1
*
  0
XRECORD
  5
2A10
102
{ACAD_REACTORS
330
298D
102
}
330
298D
100
AcDbXrecord
280
     1
  1
f
  1
*
  1
*
  1
*
 70
     4
  1
*
  1
*
  0
XRECORD
  5
2A11
102
{ACAD_REACTORS
330
298D
102
}
330
298D
100
AcDbXrecord
280
     1
  1
fence
  1
*building*
  1
*
  1
*
 70
     0
  1
*
  1
*
  0
XRECORD
  5
2A12
102
{ACAD_REACTORS
330
298D
102
}
330
298D
100
AcDbXrecord
280
     1
  1
filter10
  1
*
  1
10
  1
*
 70
     0
  1
*
  1
*
  0
XRECORD
  5
2A13
102
{ACAD_REACTORS
330
298D
102
}
330
298D
100
AcDbXrecord
280
     1
  1
filter13
  1
*
  1
13
  1
*
 70
     0
  1
*
  1
*
  0
XRECORD
  5
2A14
102
{ACAD_REACTORS
330
298D
102
}
330
298D
100
AcDbXrecord
280
     1
  1
FINAL PLAT
  1
*DESC*
  1
*
  1
*
 70
     3
  1
*
  1
*
  0
XRECORD
  5
2A15
102
{ACAD_REACTORS
330
298D
102
}
330
298D
100
AcDbXrecord
280
     1
  1
FIREPROT
  1
f*
  1
*
  1
*
 70
     0
  1
*
  1
*
  0
XRECORD
  5
2A16
102
{ACAD_REACTORS
330
298D
102
}
330
298D
100
AcDbXrecord
280
     1
  1
First
  1
*First*
  1
*
  1
*
 70
     0
  1
*
  1
*
  0
XRECORD
  5
2A17
102
{ACAD_REACTORS
330
298D
102
}
330
298D
100
AcDbXrecord
280
     1
  1
First Floor
  1
A-*
  1
*
  1
*
 70
     0
  1
*
  1
*
  0
XRECORD
  5
2A18
102
{ACAD_REACTORS
330
298D
102
}
330
298D
100
AcDbXrecord
280
     1
  1
FIT
  1
*FIT*
  1
*
  1
*
 70
     0
  1
*
  1
*
  0
XRECORD
  5
2A19
102
{ACAD_REACTORS
330
298D
102
}
330
298D
100
AcDbXrecord
280
     1
  1
FITTING
  1
*FIT*
  1
*
  1
*
 70
     0
  1
*
  1
*
  0
XRECORD
  5
2A1A
102
{ACAD_REACTORS
330
298D
102
}
330
298D
100
AcDbXrecord
280
     1
  1
FITTINGS
  1
*FIT*
  1
*
  1
*
 70
     0
  1
*
  1
*
  0
XRECORD
  5
2A1B
102
{ACAD_REACTORS
330
298D
102
}
330
298D
100
AcDbXrecord
280
     1
  1
Fixtures
  1
*pfix*
  1
*
  1
*
 70
     0
  1
*
  1
*
  0
XRECORD
  5
2A1C
102
{ACAD_REACTORS
330
298D
102
}
330
298D
100
AcDbXrecord
280
     1
  1
Flood
  1
*100*
  1
*
  1
*
 70
     0
  1
*
  1
*
  0
XRECORD
  5
2A1D
102
{ACAD_REACTORS
330
298D
102
}
330
298D
100
AcDbXrecord
280
     1
  1
FLOOR FINISH
  1
CRA-FR-FIN*
  1
*
  1
*
 70
     0
  1
*
  1
*
  0
XRECORD
  5
2A1E
102
{ACAD_REACTORS
330
298D
102
}
330
298D
100
AcDbXrecord
280
     1
  1
Floor plan
  1
1A*
  1
*
  1
*
 70
    12
  1
*
  1
*
  0
XRECORD
  5
2A1F
102
{ACAD_REACTORS
330
298D
102
}
330
298D
100
AcDbXrecord
280
     1
  1
FLOORFINISH
  1
CRA-FR*
  1
*
  1
*
 70
     0
  1
*
  1
*
  0
XRECORD
  5
2A20
102
{ACAD_REACTORS
330
298D
102
}
330
298D
100
AcDbXrecord
280
     1
  1
Foundation
  1
*Fnd*
  1
*
  1
*
 70
     0
  1
*
  1
*
  0
XRECORD
  5
2A21
102
{ACAD_REACTORS
330
298D
102
}
330
298D
100
AcDbXrecord
280
     1
  1
FRAME1
  1
*1*
  1
*
  1
*
 70
     0
  1
*
  1
*
  0
XRECORD
  5
2A22
102
{ACAD_REACTORS
330
298D
102
}
330
298D
100
AcDbXrecord
280
     1
  1
freeze
  1
*freeze
  1
*
  1
*
 70
     0
  1
*
  1
*
  0
XRECORD
  5
2A23
102
{ACAD_REACTORS
330
298D
102
}
330
298D
100
AcDbXrecord
280
     1
  1
Frez Layers
  1
*-Frez*
  1
*
  1
*
 70
     0
  1
*
  1
*
  0
XRECORD
  5
2A24
102
{ACAD_REACTORS
330
298D
102
}
330
298D
100
AcDbXrecord
280
     1
  1
FROZEN
  1
*
  1
*
  1
*
 70
     4
  1
*
  1
*
  0
XRECORD
  5
2A25
102
{ACAD_REACTORS
330
298D
102
}
330
298D
100
AcDbXrecord
280
     1
  1
frozen layers
  1
*
  1
*
  1
*
 70
     4
  1
*
  1
*
  0
XRECORD
  5
2A26
102
{ACAD_REACTORS
330
298D
102
}
330
298D
100
AcDbXrecord
280
     1
  1
FURN
  1
FURN
  1
*
  1
*
 70
     0
  1
*
  1
*
  0
XRECORD
  5
2A27
102
{ACAD_REACTORS
330
298D
102
}
330
298D
100
AcDbXrecord
280
     1
  1
FURNITURE
  1
CRA-FUN*
  1
*
  1
*
 70
     0
  1
*
  1
*
  0
XRECORD
  5
2A28
102
{ACAD_REACTORS
330
298D
102
}
330
298D
100
AcDbXrecord
280
     1
  1
GAS
  1
*GAS*
  1
*
  1
*
 70
     0
  1
*
  1
*
  0
XRECORD
  5
2A29
102
{ACAD_REACTORS
330
298D
102
}
330
298D
100
AcDbXrecord
280
     1
  1
GENERAL
  1
g*
  1
*
  1
*
 70
     0
  1
*
  1
*
  0
XRECORD
  5
2A2A
102
{ACAD_REACTORS
330
298D
102
}
330
298D
100
AcDbXrecord
280
     1
  1
GORDY
  1
00MAG
  1
*
  1
*
 70
     0
  1
*
  1
*
  0
XRECORD
  5
2A2B
102
{ACAD_REACTORS
330
298D
102
}
330
298D
100
AcDbXrecord
280
     1
  1
green
  1
*
  1
green
  1
*
 70
     0
  1
*
  1
*
  0
XRECORD
  5
2A2C
102
{ACAD_REACTORS
330
298D
102
}
330
298D
100
AcDbXrecord
280
     1
  1
grid
  1
*grid*
  1
*
  1
*
 70
     0
  1
*
  1
*
  0
XRECORD
  5
2A2D
102
{ACAD_REACTORS
330
298D
102
}
330
298D
100
AcDbXrecord
280
     1
  1
GS-DesignWorkshop
  1
GS-0DWI*
  1
*
  1
*
 70
    12
  1
*
  1
*
  0
XRECORD
  5
2A2E
102
{ACAD_REACTORS
330
298D
102
}
330
298D
100
AcDbXrecord
280
     1
  1
HANDICAP
  1
*HC*
  1
*
  1
*
 70
     0
  1
*
  1
*
  0
XRECORD
  5
2A2F
102
{ACAD_REACTORS
330
298D
102
}
330
298D
100
AcDbXrecord
280
     1
  1
hatch
  1
*hatch*
  1
*
  1
*
 70
     0
  1
*
  1
*
  0
XRECORD
  5
2A30
102
{ACAD_REACTORS
330
298D
102
}
330
298D
100
AcDbXrecord
280
     1
  1
HEADER
  1
*HDR*
  1
*
  1
*
 70
     0
  1
*
  1
*
  0
XRECORD
  5
2A31
102
{ACAD_REACTORS
330
298D
102
}
330
298D
100
AcDbXrecord
280
     1
  1
HLA
  1
HLA*
  1
*
  1
*
 70
     0
  1
*
  1
*
  0
XRECORD
  5
2A32
102
{ACAD_REACTORS
330
298D
102
}
330
298D
100
AcDbXrecord
280
     1
  1
inlet
  1
*inl*
  1
*
  1
*
 70
     0
  1
*
  1
*
  0
XRECORD
  5
2A33
102
{ACAD_REACTORS
330
298D
102
}
330
298D
100
AcDbXrecord
280
     1
  1
int
  1
*int*
  1
*
  1
*
 70
     0
  1
*
  1
*
  0
XRECORD
  5
2A34
102
{ACAD_REACTORS
330
298D
102
}
330
298D
100
AcDbXrecord
280
     1
  1
INTERIOR
  1
*INT*
  1
*
  1
*
 70
     0
  1
*
  1
*
  0
XRECORD
  5
2A35
102
{ACAD_REACTORS
330
298D
102
}
330
298D
100
AcDbXrecord
280
     1
  1
K
  1
*PROP
  1
*
  1
*
 70
     0
  1
*
  1
*
  0
XRECORD
  5
2A39
102
{ACAD_REACTORS
330
298D
102
}
330
298D
100
AcDbXrecord
280
     1
  1
Kinko Space Plan
  1
*
  1
*
  1
*
 70
     0
  1
*
  1
*
  0
XRECORD
  5
2A36
102
{ACAD_REACTORS
330
298D
102
}
330
298D
100
AcDbXrecord
280
     1
  1
Kinko's Data-Comm Layout
  1
E-POWR-CABL,E-POWR-DIMS,E-POWR-TEXT,A-EQPM-TEXT,A-FLOR-TEXT,A-FLOR-DIMS,A-WALL-PRHT,D-DEMO,A-COLS,A-COLS-GRID,A-DOOR,A-GLAZ,A-GLAZ-EXTR,A-GLAZ-INTR,A-WALL-FULL,Q-EQPM-OUTLN,Q-FIXT-OUTLN,Q-FIXT-WHL,Q-FIXT-TEXT,Q-EQPM-TEXT,E-POWR-JBOX,Q-MERC-OUTLN,
  1
*
  1
*
 70
     0
  1
*
  1
*
  0
XRECORD
  5
2A37
102
{ACAD_REACTORS
330
298D
102
}
330
298D
100
AcDbXrecord
280
     1
  1
Kinko's Equipment Layout
  1
A-EQPM-TEXT,D-DEMO,A-WALL-PRHT,A-FLOR-TEXT,A-FLOR-OVHD,A-AREA,Q-EQPM-ANC,Q-EQPM-COP,Q-EQPM-FIX,A-COLS,A-COLS-GRID,A-DOOR,A-FLOR-CASE,A-FLOR-DIMS,A-FLOR-PFIX,A-GLAZ-EXTR,A-GLAZ-INTR,A-WALL-FULL,
  1
*
  1
*
 70
     0
  1
*
  1
*
  0
XRECORD
  5
2A38
102
{ACAD_REACTORS
330
298D
102
}
330
298D
100
AcDbXrecord
280
     1
  1
Kinko's Merchandise Layout
  1
A-COLS,A-COLS-GRID,A-DOOR,A-EQPM-TEXT,A-FLOR-CASE,A-FLOR-TEXT,A-WALL-FULL,A-WALL-PRHT,Q-EQPM-ANC,Q-EQPM-COP,Q-EQPM-FIX,Q-EQPM-MERC,Q-GUARD,
  1
*
  1
*
 70
     0
  1
*
  1
*
  0
XRECORD
  5
2A3A
102
{ACAD_REACTORS
330
298D
102
}
330
298D
100
AcDbXrecord
280
     1
  1
LBL
  1
*lbl*
  1
*
  1
*
 70
     0
  1
*
  1
*
  0
XRECORD
  5
2A3B
102
{ACAD_REACTORS
330
298D
102
}
330
298D
100
AcDbXrecord
280
     1
  1
Lites
  1
*Lite*
  1
*
  1
*
 70
     0
  1
*
  1
*
  0
XRECORD
  5
2A3C
102
{ACAD_REACTORS
330
298D
102
}
330
298D
100
AcDbXrecord
280
     1
  1
locked
  1
*
  1
*
  1
*
 70
   256
  1
*
  1
*
  0
XRECORD
  5
2A3D
102
{ACAD_REACTORS
330
298D
102
}
330
298D
100
AcDbXrecord
280
     1
  1
LOT
  1
*LOT*
  1
*
  1
*
 70
     0
  1
*
  1
*
  0
XRECORD
  5
2A3E
102
{ACAD_REACTORS
330
298D
102
}
330
298D
100
AcDbXrecord
280
     1
  1
lots
  1
*lots
  1
*
  1
*
 70
     0
  1
*
  1
*
  0
XRECORD
  5
2A3F
102
{ACAD_REACTORS
330
298D
102
}
330
298D
100
AcDbXrecord
280
     1
  1
lower floor
  1
b-*,c-*
  1
*
  1
*
 70
     0
  1
*
  1
*
  0
XRECORD
  5
2A40
102
{ACAD_REACTORS
330
298D
102
}
330
298D
100
AcDbXrecord
280
     1
  1
LS
  1
*LAND*
  1
*
  1
*
 70
     0
  1
*
  1
*
  0
XRECORD
  5
2A41
102
{ACAD_REACTORS
330
298D
102
}
330
298D
100
AcDbXrecord
280
     1
  1
LSG
  1
*LSG*
  1
*
  1
*
 70
     0
  1
*
  1
*
  0
XRECORD
  5
2A42
102
{ACAD_REACTORS
330
298D
102
}
330
298D
100
AcDbXrecord
280
     1
  1
MAGENTA
  1
*
  1
MAGENTA
  1
*
 70
     0
  1
*
  1
*
  0
XRECORD
  5
2A43
102
{ACAD_REACTORS
330
298D
102
}
330
298D
100
AcDbXrecord
280
     1
  1
MAIN
  1
*MAIN
  1
*
  1
*
 70
     0
  1
*
  1
*
  0
XRECORD
  5
2A44
102
{ACAD_REACTORS
330
298D
102
}
330
298D
100
AcDbXrecord
280
     1
  1
Main Floor
  1
M*
  1
*
  1
*
 70
     0
  1
*
  1
*
  0
XRECORD
  5
2A45
102
{ACAD_REACTORS
330
298D
102
}
330
298D
100
AcDbXrecord
280
     1
  1
MECH
  1
1flrplnX|m*
  1
*
  1
*
 70
     0
  1
*
  1
*
  0
XRECORD
  5
2A46
102
{ACAD_REACTORS
330
298D
102
}
330
298D
100
AcDbXrecord
280
     1
  1
METAL
  1
*mtl*
  1
*
  1
*
 70
     0
  1
*
  1
*
  0
XRECORD
  5
2A47
102
{ACAD_REACTORS
330
298D
102
}
330
298D
100
AcDbXrecord
280
     1
  1
MEZ
  1
*MEZ*
  1
*
  1
*
 70
     0
  1
*
  1
*
  0
XRECORD
  5
2A48
102
{ACAD_REACTORS
330
298D
102
}
330
298D
100
AcDbXrecord
280
     1
  1
MH
  1
*MH*
  1
*
  1
*
 70
     0
  1
*
  1
*
  0
XRECORD
  5
2A49
102
{ACAD_REACTORS
330
298D
102
}
330
298D
100
AcDbXrecord
280
     1
  1
Misc
  1
*-pr-*
  1
*
  1
*
 70
     0
  1
*
  1
*
  0
XRECORD
  5
2A4A
102
{ACAD_REACTORS
330
298D
102
}
330
298D
100
AcDbXrecord
280
     1
  1
MP
  1
*MP*
  1
*
  1
*
 70
     0
  1
*
  1
*
  0
XRECORD
  5
2A4B
102
{ACAD_REACTORS
330
298D
102
}
330
298D
100
AcDbXrecord
280
     1
  1
mtl
  1
*mtl*
  1
*
  1
*
 70
     0
  1
*
  1
*
  0
XRECORD
  5
2A4C
102
{ACAD_REACTORS
330
298D
102
}
330
298D
100
AcDbXrecord
280
     1
  1
NAME
  1
*NAME*
  1
*
  1
*
 70
     0
  1
*
  1
*
  0
XRECORD
  5
2A4D
102
{ACAD_REACTORS
330
298D
102
}
330
298D
100
AcDbXrecord
280
     1
  1
NAMES
  1
*NAME*
  1
*
  1
*
 70
     0
  1
*
  1
*
  0
XRECORD
  5
2A4E
102
{ACAD_REACTORS
330
298D
102
}
330
298D
100
AcDbXrecord
280
     1
  1
new
  1
*new*
  1
*
  1
*
 70
     0
  1
*
  1
*
  0
XRECORD
  5
2A4F
102
{ACAD_REACTORS
330
298D
102
}
330
298D
100
AcDbXrecord
280
     1
  1
new1
  1
a1n*
  1
*
  1
*
 70
     0
  1
*
  1
*
  0
XRECORD
  5
2A50
102
{ACAD_REACTORS
330
298D
102
}
330
298D
100
AcDbXrecord
280
     1
  1
new2
  1
a2n*
  1
*
  1
*
 70
     0
  1
*
  1
*
  0
XRECORD
  5
2A52
102
{ACAD_REACTORS
330
298D
102
}
330
298D
100
AcDbXrecord
280
     1
  1
No Xrefs
  1
*
  1
*
  1
*
 70
     0
  1
*
  1
*
  0
XRECORD
  5
2A51
102
{ACAD_REACTORS
330
298D
102
}
330
298D
100
AcDbXrecord
280
     1
  1
NO-PLOT
  1
*
  1
*
  1
*
 70
  3072
  1
*
  1
*
  0
XRECORD
  5
2A53
102
{ACAD_REACTORS
330
298D
102
}
330
298D
100
AcDbXrecord
280
     1
  1
non-visible
  1
*
  1
*
  1
*
 70
     4
  1
*
  1
*
  0
XRECORD
  5
2A54
102
{ACAD_REACTORS
330
298D
102
}
330
298D
100
AcDbXrecord
280
     1
  1
non-xref
  1
~*|*
  1
*
  1
*
 70
     0
  1
*
  1
*
  0
XRECORD
  5
2A55
102
{ACAD_REACTORS
330
298D
102
}
330
298D
100
AcDbXrecord
280
     1
  1
notes
  1
*note
  1
*
  1
*
 70
     0
  1
*
  1
*
  0
XRECORD
  5
2A56
102
{ACAD_REACTORS
330
298D
102
}
330
298D
100
AcDbXrecord
280
     1
  1
NUMS
  1
*NUM*
  1
*
  1
*
 70
     0
  1
*
  1
*
  0
XRECORD
  5
2A57
102
{ACAD_REACTORS
330
298D
102
}
330
298D
100
AcDbXrecord
280
     1
  1
OFF
  1
*
  1
*
  1
*
 70
     3
  1
*
  1
*
  0
XRECORD
  5
2A58
102
{ACAD_REACTORS
330
298D
102
}
330
298D
100
AcDbXrecord
280
     1
  1
off layers
  1
*
  1
*
  1
*
 70
     3
  1
*
  1
*
  0
XRECORD
  5
2A59
102
{ACAD_REACTORS
330
298D
102
}
330
298D
100
AcDbXrecord
280
     1
  1
OFF THAW
  1
*
  1
*
  1
*
 70
    15
  1
*
  1
*
  0
XRECORD
  5
2A5A
102
{ACAD_REACTORS
330
298D
102
}
330
298D
100
AcDbXrecord
280
     1
  1
OLD
  1
*OLD*
  1
*
  1
*
 70
     0
  1
*
  1
*
  0
XRECORD
  5
2A5B
102
{ACAD_REACTORS
330
298D
102
}
330
298D
100
AcDbXrecord
280
     1
  1
on
  1
*
  1
*
  1
*
 70
    13
  1
*
  1
*
  0
XRECORD
  5
2A5C
102
{ACAD_REACTORS
330
298D
102
}
330
298D
100
AcDbXrecord
280
     1
  1
oPTION
  1
??????O*
  1
*
  1
*
 70
     0
  1
*
  1
*
  0
XRECORD
  5
2A5D
102
{ACAD_REACTORS
330
298D
102
}
330
298D
100
AcDbXrecord
280
     1
  1
Option 1
  1
Option 1 *
  1
*
  1
*
 70
     0
  1
*
  1
*
  0
XRECORD
  5
2A5E
102
{ACAD_REACTORS
330
298D
102
}
330
298D
100
AcDbXrecord
280
     1
  1
Option 2
  1
Option 2 *
  1
*
  1
*
 70
     0
  1
*
  1
*
  0
XRECORD
  5
2A5F
102
{ACAD_REACTORS
330
298D
102
}
330
298D
100
AcDbXrecord
280
     1
  1
Option 3
  1
Option 3 *
  1
*
  1
*
 70
     0
  1
*
  1
*
  0
XRECORD
  5
2A60
102
{ACAD_REACTORS
330
298D
102
}
330
298D
100
AcDbXrecord
280
     1
  1
Options
  1
O-*
  1
*
  1
*
 70
     0
  1
*
  1
*
  0
XRECORD
  5
2A61
102
{ACAD_REACTORS
330
298D
102
}
330
298D
100
AcDbXrecord
280
     1
  1
p-
  1
*p-*
  1
*
  1
*
 70
     0
  1
*
  1
*
  0
XRECORD
  5
2A62
102
{ACAD_REACTORS
330
298D
102
}
330
298D
100
AcDbXrecord
280
     1
  1
p1
  1
*
  1
212*
  1
*
 70
     0
  1
*
  1
*
  0
XRECORD
  5
2A63
102
{ACAD_REACTORS
330
298D
102
}
330
298D
100
AcDbXrecord
280
     1
  1
p2
  1
*
  1
53*
  1
*
 70
     0
  1
*
  1
*
  0
XRECORD
  5
2A64
102
{ACAD_REACTORS
330
298D
102
}
330
298D
100
AcDbXrecord
280
     1
  1
p3
  1
*
  1
95*
  1
*
 70
     0
  1
*
  1
*
  0
XRECORD
  5
2A65
102
{ACAD_REACTORS
330
298D
102
}
330
298D
100
AcDbXrecord
280
     1
  1
p4
  1
*
  1
8*
  1
*
 70
     0
  1
*
  1
*
  0
XRECORD
  5
2A66
102
{ACAD_REACTORS
330
298D
102
}
330
298D
100
AcDbXrecord
280
     1
  1
pads
  1
*pads
  1
*
  1
*
 70
     0
  1
*
  1
*
  0
XRECORD
  5
2A67
102
{ACAD_REACTORS
330
298D
102
}
330
298D
100
AcDbXrecord
280
     1
  1
Pattern
  1
*pat*
  1
*
  1
*
 70
     0
  1
*
  1
*
  0
XRECORD
  5
2A68
102
{ACAD_REACTORS
330
298D
102
}
330
298D
100
AcDbXrecord
280
     1
  1
Patterns
  1
*pat
  1
*
  1
*
 70
     0
  1
*
  1
*
  0
XRECORD
  5
2A69
102
{ACAD_REACTORS
330
298D
102
}
330
298D
100
AcDbXrecord
280
     1
  1
PAV
  1
*PAV*
  1
*
  1
*
 70
     0
  1
*
  1
*
  0
XRECORD
  5
2A6A
102
{ACAD_REACTORS
330
298D
102
}
330
298D
100
AcDbXrecord
280
     1
  1
pen1
  1
*
  1
red*
  1
*
 70
     0
  1
*
  1
*
  0
XRECORD
  5
2A6B
102
{ACAD_REACTORS
330
298D
102
}
330
298D
100
AcDbXrecord
280
     1
  1
pen2
  1
*
  1
yellow*
  1
*
 70
     0
  1
*
  1
*
  0
XRECORD
  5
2A6C
102
{ACAD_REACTORS
330
298D
102
}
330
298D
100
AcDbXrecord
280
     1
  1
pen3
  1
*
  1
green*
  1
*
 70
     0
  1
*
  1
*
  0
XRECORD
  5
2A6D
102
{ACAD_REACTORS
330
298D
102
}
330
298D
100
AcDbXrecord
280
     1
  1
pen4
  1
*
  1
5*
  1
*
 70
     0
  1
*
  1
*
  0
XRECORD
  5
2A6E
102
{ACAD_REACTORS
330
298D
102
}
330
298D
100
AcDbXrecord
280
     1
  1
pen5
  1
*
  1
14*
  1
*
 70
     0
  1
*
  1
*
  0
XRECORD
  5
2A6F
102
{ACAD_REACTORS
330
298D
102
}
330
298D
100
AcDbXrecord
280
     1
  1
PH1
  1
*PH1*
  1
*
  1
*
 70
     0
  1
*
  1
*
  0
XRECORD
  5
2A70
102
{ACAD_REACTORS
330
298D
102
}
330
298D
100
AcDbXrecord
280
     1
  1
PH2
  1
*PH2*
  1
*
  1
*
 70
     0
  1
*
  1
*
  0
XRECORD
  5
2A71
102
{ACAD_REACTORS
330
298D
102
}
330
298D
100
AcDbXrecord
280
     1
  1
PH3
  1
*PH3*
  1
*
  1
*
 70
     0
  1
*
  1
*
  0
XRECORD
  5
2A72
102
{ACAD_REACTORS
330
298D
102
}
330
298D
100
AcDbXrecord
280
     1
  1
PH5
  1
*PH5*
  1
*
  1
*
 70
     0
  1
*
  1
*
  0
XRECORD
  5
2A73
102
{ACAD_REACTORS
330
298D
102
}
330
298D
100
AcDbXrecord
280
     1
  1
Phase 1
  1
PH1*
  1
*
  1
*
 70
     0
  1
*
  1
*
  0
XRECORD
  5
2A74
102
{ACAD_REACTORS
330
298D
102
}
330
298D
100
AcDbXrecord
280
     1
  1
Phase 2
  1
PH2*
  1
*
  1
*
 70
     0
  1
*
  1
*
  0
XRECORD
  5
2A75
102
{ACAD_REACTORS
330
298D
102
}
330
298D
100
AcDbXrecord
280
     1
  1
PIPE
  1
*PIPE*
  1
*
  1
*
 70
     0
  1
*
  1
*
  0
XRECORD
  5
2A76
102
{ACAD_REACTORS
330
298D
102
}
330
298D
100
AcDbXrecord
280
     1
  1
pl
  1
*pl*
  1
*
  1
*
 70
     0
  1
*
  1
*
  0
XRECORD
  5
2A77
102
{ACAD_REACTORS
330
298D
102
}
330
298D
100
AcDbXrecord
280
     1
  1
PLAN
  1
*PLAN|*
  1
*
  1
*
 70
     0
  1
*
  1
*
  0
XRECORD
  5
2A78
102
{ACAD_REACTORS
330
298D
102
}
330
298D
100
AcDbXrecord
280
     1
  1
Plans
  1
*conpl*
  1
*
  1
*
 70
     0
  1
*
  1
*
  0
XRECORD
  5
2A79
102
{ACAD_REACTORS
330
298D
102
}
330
298D
100
AcDbXrecord
280
     1
  1
PLUM
  1
p*
  1
*
  1
*
 70
     0
  1
*
  1
*
  0
XRECORD
  5
2A7A
102
{ACAD_REACTORS
330
298D
102
}
330
298D
100
AcDbXrecord
280
     1
  1
plumb
  1
MECH_PLBG_
  1
*
  1
*
 70
     0
  1
*
  1
*
  0
XRECORD
  5
2A7B
102
{ACAD_REACTORS
330
298D
102
}
330
298D
100
AcDbXrecord
280
     1
  1
PLUMBING
  1
MECH_PLBG_
  1
*
  1
*
 70
     0
  1
*
  1
*
  0
XRECORD
  5
2A7C
102
{ACAD_REACTORS
330
298D
102
}
330
298D
100
AcDbXrecord
280
     1
  1
Point layers
  1
PT*
  1
*
  1
*
 70
     0
  1
*
  1
*
  0
XRECORD
  5
2A7D
102
{ACAD_REACTORS
330
298D
102
}
330
298D
100
AcDbXrecord
280
     1
  1
points
  1
*points*,*pts*,*pnts*
  1
*
  1
*
 70
     0
  1
*
  1
*
  0
XRECORD
  5
2A7E
102
{ACAD_REACTORS
330
298D
102
}
330
298D
100
AcDbXrecord
280
     1
  1
profiles
  1
*conpr*
  1
*
  1
*
 70
     0
  1
*
  1
*
  0
XRECORD
  5
2A7F
102
{ACAD_REACTORS
330
298D
102
}
330
298D
100
AcDbXrecord
280
     1
  1
PROP
  1
2*
  1
*
  1
*
 70
     0
  1
*
  1
*
  0
XRECORD
  5
2A80
102
{ACAD_REACTORS
330
298D
102
}
330
298D
100
AcDbXrecord
280
     1
  1
proposed
  1
pr*
  1
*
  1
*
 70
     0
  1
*
  1
*
  0
XRECORD
  5
2A81
102
{ACAD_REACTORS
330
298D
102
}
330
298D
100
AcDbXrecord
280
     1
  1
ps2-ref
  1
*
  1
13
  1
*
 70
     0
  1
*
  1
*
  0
XRECORD
  5
2A82
102
{ACAD_REACTORS
330
298D
102
}
330
298D
100
AcDbXrecord
280
     1
  1
pt
  1
*pt*
  1
*
  1
*
 70
     0
  1
*
  1
*
  0
XRECORD
  5
2A83
102
{ACAD_REACTORS
330
298D
102
}
330
298D
100
AcDbXrecord
280
     1
  1
PTS
  1
*PTS
  1
*
  1
*
 70
     0
  1
*
  1
*
  0
XRECORD
  5
2A84
102
{ACAD_REACTORS
330
298D
102
}
330
298D
100
AcDbXrecord
280
     1
  1
quadbuildings
  1
xqd*bl*
  1
*
  1
*
 70
     0
  1
*
  1
*
  0
XRECORD
  5
2A85
102
{ACAD_REACTORS
330
298D
102
}
330
298D
100
AcDbXrecord
280
     1
  1
QUADGRID
  1
*QG*
  1
*
  1
*
 70
     0
  1
*
  1
*
  0
XRECORD
  5
2A86
102
{ACAD_REACTORS
330
298D
102
}
330
298D
100
AcDbXrecord
280
     1
  1
quadlightinh
  1
qde*lt*
  1
*
  1
*
 70
    13
  1
*
  1
*
  0
XRECORD
  5
2A87
102
{ACAD_REACTORS
330
298D
102
}
330
298D
100
AcDbXrecord
280
     1
  1
quadroads
  1
xqd*rd*
  1
*
  1
*
 70
     0
  1
*
  1
*
  0
XRECORD
  5
2A88
102
{ACAD_REACTORS
330
298D
102
}
330
298D
100
AcDbXrecord
280
     1
  1
quadtrees
  1
*pt*,*fc*
  1
*
  1
*
 70
     0
  1
*
  1
*
  0
XRECORD
  5
2A89
102
{ACAD_REACTORS
330
298D
102
}
330
298D
100
AcDbXrecord
280
     1
  1
quadtunnels
  1
*tn*
  1
*
  1
*
 70
     0
  1
*
  1
*
  0
XRECORD
  5
2A8A
102
{ACAD_REACTORS
330
298D
102
}
330
298D
100
AcDbXrecord
280
     1
  1
quadutilities
  1
qde*
  1
*
  1
*
 70
    13
  1
*
  1
*
  0
XRECORD
  5
2A8B
102
{ACAD_REACTORS
330
298D
102
}
330
298D
100
AcDbXrecord
280
     1
  1
quadwalks&curbs
  1
xqd*wk*,xqd*cr*
  1
*
  1
*
 70
     0
  1
*
  1
*
  0
XRECORD
  5
2A8C
102
{ACAD_REACTORS
330
298D
102
}
330
298D
100
AcDbXrecord
280
     1
  1
R2
  1
R2*,RR2*
  1
*
  1
*
 70
     0
  1
*
  1
*
  0
XRECORD
  5
2A8D
102
{ACAD_REACTORS
330
298D
102
}
330
298D
100
AcDbXrecord
280
     1
  1
rcp
  1
*rcp*
  1
*
  1
*
 70
     0
  1
*
  1
*
  0
XRECORD
  5
2A8E
102
{ACAD_REACTORS
330
298D
102
}
330
298D
100
AcDbXrecord
280
     1
  1
rds
  1
*r*d*
  1
*
  1
*
 70
     0
  1
*
  1
*
  0
XRECORD
  5
2A8F
102
{ACAD_REACTORS
330
298D
102
}
330
298D
100
AcDbXrecord
280
     1
  1
red
  1
*ae*
  1
1
  1
*
 70
     0
  1
*
  1
*
  0
XRECORD
  5
2A90
102
{ACAD_REACTORS
330
298D
102
}
330
298D
100
AcDbXrecord
280
     1
  1
Reflected Cieling
  1
1A-CLNG*
  1
*
  1
*
 70
     0
  1
*
  1
*
  0
XRECORD
  5
2A91
102
{ACAD_REACTORS
330
298D
102
}
330
298D
100
AcDbXrecord
280
     1
  1
REFRIG
  1
r*
  1
*
  1
*
 70
     0
  1
*
  1
*
  0
XRECORD
  5
2A92
102
{ACAD_REACTORS
330
298D
102
}
330
298D
100
AcDbXrecord
280
     1
  1
reqw
  1
*
  1
9
  1
*
 70
     0
  1
*
  1
*
  0
XRECORD
  5
2A93
102
{ACAD_REACTORS
330
298D
102
}
330
298D
100
AcDbXrecord
280
     1
  1
retainingwalls
  1
xqd*rt*
  1
*
  1
*
 70
     0
  1
*
  1
*
  0
XRECORD
  5
2A94
102
{ACAD_REACTORS
330
298D
102
}
330
298D
100
AcDbXrecord
280
     1
  1
rf
  1
*rf*
  1
*
  1
*
 70
     0
  1
*
  1
*
  0
XRECORD
  5
2A95
102
{ACAD_REACTORS
330
298D
102
}
330
298D
100
AcDbXrecord
280
     1
  1
RIP-RAP
  1
*RIP-RAP*
  1
*
  1
*
 70
     0
  1
*
  1
*
  0
XRECORD
  5
2A96
102
{ACAD_REACTORS
330
298D
102
}
330
298D
100
AcDbXrecord
280
     1
  1
Roof
  1
RF*
  1
*
  1
*
 70
     0
  1
*
  1
*
  0
XRECORD
  5
2A97
102
{ACAD_REACTORS
330
298D
102
}
330
298D
100
AcDbXrecord
280
     1
  1
roomnames
  1
*roomn*
  1
*
  1
*
 70
     0
  1
*
  1
*
  0
XRECORD
  5
2A98
102
{ACAD_REACTORS
330
298D
102
}
330
298D
100
AcDbXrecord
280
     1
  1
row
  1
*row
  1
*
  1
*
 70
     0
  1
*
  1
*
  0
XRECORD
  5
2A99
102
{ACAD_REACTORS
330
298D
102
}
330
298D
100
AcDbXrecord
280
     1
  1
s-layers
  1
*s-*
  1
*
  1
*
 70
     0
  1
*
  1
*
  0
XRECORD
  5
2A9A
102
{ACAD_REACTORS
330
298D
102
}
330
298D
100
AcDbXrecord
280
     1
  1
s-llayers
  1
*
  1
*
  1
*
 70
     0
  1
*
  1
*
  0
XRECORD
  5
2A9B
102
{ACAD_REACTORS
330
298D
102
}
330
298D
100
AcDbXrecord
280
     1
  1
S-SITE
  1
*S-*
  1
*
  1
*
 70
     0
  1
*
  1
*
  0
XRECORD
  5
2A9C
102
{ACAD_REACTORS
330
298D
102
}
330
298D
100
AcDbXrecord
280
     1
  1
SAN
  1
*SAN*
  1
*
  1
*
 70
     0
  1
*
  1
*
  0
XRECORD
  5
2A9E
102
{ACAD_REACTORS
330
298D
102
}
330
298D
100
AcDbXrecord
280
     1
  1
San Sew
  1
*san-sew*
  1
*
  1
*
 70
     0
  1
*
  1
*
  0
XRECORD
  5
2A9D
102
{ACAD_REACTORS
330
298D
102
}
330
298D
100
AcDbXrecord
280
     1
  1
san-sew
  1
*san-sew*
  1
*
  1
*
 70
     0
  1
*
  1
*
  0
XRECORD
  5
2A9F
102
{ACAD_REACTORS
330
298D
102
}
330
298D
100
AcDbXrecord
280
     1
  1
SAN. SEW.
  1
*SAN*
  1
*
  1
*
 70
     0
  1
*
  1
*
  0
XRECORD
  5
2AA0
102
{ACAD_REACTORS
330
298D
102
}
330
298D
100
AcDbXrecord
280
     1
  1
Sanitary Sewer
  1
*sanswr*
  1
*
  1
*
 70
     0
  1
*
  1
*
  0
XRECORD
  5
2AA1
102
{ACAD_REACTORS
330
298D
102
}
330
298D
100
AcDbXrecord
280
     1
  1
sanswr
  1
*sanswr*
  1
*
  1
*
 70
     0
  1
*
  1
*
  0
XRECORD
  5
2AA2
102
{ACAD_REACTORS
330
298D
102
}
330
298D
100
AcDbXrecord
280
     1
  1
SECO
  1
*SECO
  1
*
  1
*
 70
     0
  1
*
  1
*
  0
XRECORD
  5
2AA3
102
{ACAD_REACTORS
330
298D
102
}
330
298D
100
AcDbXrecord
280
     1
  1
SECOND
  1
*SECO*
  1
*
  1
*
 70
     0
  1
*
  1
*
  0
XRECORD
  5
2AA4
102
{ACAD_REACTORS
330
298D
102
}
330
298D
100
AcDbXrecord
280
     1
  1
Second Floor
  1
A2*
  1
*
  1
*
 70
     0
  1
*
  1
*
  0
XRECORD
  5
2AA5
102
{ACAD_REACTORS
330
298D
102
}
330
298D
100
AcDbXrecord
280
     1
  1
secondfloor
  1
*2*
  1
*
  1
*
 70
  3335
  1
*
  1
*
  0
XRECORD
  5
2AA6
102
{ACAD_REACTORS
330
298D
102
}
330
298D
100
AcDbXrecord
280
     1
  1
septic
  1
*septic*
  1
*
  1
*
 70
     0
  1
*
  1
*
  0
XRECORD
  5
2AA7
102
{ACAD_REACTORS
330
298D
102
}
330
298D
100
AcDbXrecord
280
     1
  1
shade off
  1
*-shd*
  1
10
  1
*
 70
     3
  1
*
  1
*
  0
XRECORD
  5
2AA8
102
{ACAD_REACTORS
330
298D
102
}
330
298D
100
AcDbXrecord
280
     1
  1
Show ALL (ABND)
  1
*-ABND-*
  1
*
  1
*
 70
     0
  1
*
  1
*
  0
XRECORD
  5
2AA9
102
{ACAD_REACTORS
330
298D
102
}
330
298D
100
AcDbXrecord
280
     1
  1
Show ALL (DETL)
  1
*-DETL-*
  1
*
  1
*
 70
     0
  1
*
  1
*
  0
XRECORD
  5
2AAA
102
{ACAD_REACTORS
330
298D
102
}
330
298D
100
AcDbXrecord
280
     1
  1
Show ALL (EXST)
  1
*-EXST-*
  1
*
  1
*
 70
     0
  1
*
  1
*
  0
XRECORD
  5
2AAB
102
{ACAD_REACTORS
330
298D
102
}
330
298D
100
AcDbXrecord
280
     1
  1
Show ALL (FUTR)
  1
*-FUTR-*
  1
*
  1
*
 70
     0
  1
*
  1
*
  0
XRECORD
  5
2AAC
102
{ACAD_REACTORS
330
298D
102
}
330
298D
100
AcDbXrecord
280
     1
  1
Show ALL (PKNG)
  1
*-PKNG*
  1
*
  1
*
 70
     0
  1
*
  1
*
  0
XRECORD
  5
2AAD
102
{ACAD_REACTORS
330
298D
102
}
330
298D
100
AcDbXrecord
280
     1
  1
Show ALL (PROP)
  1
*-PROP*
  1
*
  1
*
 70
     0
  1
*
  1
*
  0
XRECORD
  5
2AAE
102
{ACAD_REACTORS
330
298D
102
}
330
298D
100
AcDbXrecord
280
     1
  1
Show ALL (ROAD)
  1
*-ROAD*
  1
*
  1
*
 70
     0
  1
*
  1
*
  0
XRECORD
  5
2AAF
102
{ACAD_REACTORS
330
298D
102
}
330
298D
100
AcDbXrecord
280
     1
  1
Show ALL (STRU)
  1
*-STRU*
  1
*
  1
*
 70
     0
  1
*
  1
*
  0
XRECORD
  5
2AB0
102
{ACAD_REACTORS
330
298D
102
}
330
298D
100
AcDbXrecord
280
     1
  1
Show all BORDERS
  1
*BRDR
  1
*
  1
*
 70
     0
  1
*
  1
*
  0
XRECORD
  5
2AB1
102
{ACAD_REACTORS
330
298D
102
}
330
298D
100
AcDbXrecord
280
     1
  1
Show all PATTERNS
  1
*PATT
  1
*
  1
*
 70
     0
  1
*
  1
*
  0
XRECORD
  5
2AB2
102
{ACAD_REACTORS
330
298D
102
}
330
298D
100
AcDbXrecord
280
     1
  1
Show all Rendering
  1
Render*
  1
*
  1
*
 70
     0
  1
*
  1
*
  0
XRECORD
  5
2AB3
102
{ACAD_REACTORS
330
298D
102
}
330
298D
100
AcDbXrecord
280
     1
  1
SHT
  1
*SHT*
  1
*
  1
*
 70
     0
  1
*
  1
*
  0
XRECORD
  5
2AB4
102
{ACAD_REACTORS
330
298D
102
}
330
298D
100
AcDbXrecord
280
     1
  1
Silte Layers
  1
?-??-*
  1
*
  1
*
 70
     0
  1
*
  1
*
  0
XRECORD
  5
2AB5
102
{ACAD_REACTORS
330
298D
102
}
330
298D
100
AcDbXrecord
280
     1
  1
Site
  1
*
  1
*
  1
*
 70
  1036
  1
*
  1
*
  0
XRECORD
  5
2AB6
102
{ACAD_REACTORS
330
298D
102
}
330
298D
100
AcDbXrecord
280
     1
  1
Slab
  1
*Slab*
  1
*
  1
*
 70
     0
  1
*
  1
*
  0
XRECORD
  5
2AB7
102
{ACAD_REACTORS
330
298D
102
}
330
298D
100
AcDbXrecord
280
     1
  1
Slayers
  1
s*
  1
*
  1
*
 70
     0
  1
*
  1
*
  0
XRECORD
  5
2AB8
102
{ACAD_REACTORS
330
298D
102
}
330
298D
100
AcDbXrecord
280
     1
  1
Square Footage
  1
*
  1
*
  1
*
 70
     0
  1
*
  1
*
  0
XRECORD
  5
2AB9
102
{ACAD_REACTORS
330
298D
102
}
330
298D
100
AcDbXrecord
280
     1
  1
ss
  1
*ss*
  1
*
  1
*
 70
     0
  1
*
  1
*
  0
XRECORD
  5
2ABA
102
{ACAD_REACTORS
330
298D
102
}
330
298D
100
AcDbXrecord
280
     1
  1
SSMH
  1
*SSMH*
  1
*
  1
*
 70
     0
  1
*
  1
*
  0
XRECORD
  5
2ABB
102
{ACAD_REACTORS
330
298D
102
}
330
298D
100
AcDbXrecord
280
     1
  1
STA
  1
*STA*
  1
*
  1
*
 70
     0
  1
*
  1
*
  0
XRECORD
  5
2ABC
102
{ACAD_REACTORS
330
298D
102
}
330
298D
100
AcDbXrecord
280
     1
  1
STAIRS
  1
*STAIR
  1
*
  1
*
 70
     0
  1
*
  1
*
  0
XRECORD
  5
2ABD
102
{ACAD_REACTORS
330
298D
102
}
330
298D
100
AcDbXrecord
280
     1
  1
Standard Layers
  1
?-??-*
  1
*
  1
*
 70
     0
  1
*
  1
*
  0
XRECORD
  5
2ABE
102
{ACAD_REACTORS
330
298D
102
}
330
298D
100
AcDbXrecord
280
     1
  1
stations
  1
*sta*
  1
*
  1
*
 70
     0
  1
*
  1
*
  0
XRECORD
  5
2ABF
102
{ACAD_REACTORS
330
298D
102
}
330
298D
100
AcDbXrecord
280
     1
  1
STM
  1
*STM*
  1
*
  1
*
 70
     0
  1
*
  1
*
  0
XRECORD
  5
2AC0
102
{ACAD_REACTORS
330
298D
102
}
330
298D
100
AcDbXrecord
280
     1
  1
STRBASE
  1
*
  1
*
  1
*
 70
     0
  1
*
  1
*
  0
XRECORD
  5
2AC1
102
{ACAD_REACTORS
330
298D
102
}
330
298D
100
AcDbXrecord
280
     1
  1
STREET
  1
-STREET*
  1
*
  1
*
 70
     0
  1
*
  1
*
  0
XRECORD
  5
2AC2
102
{ACAD_REACTORS
330
298D
102
}
330
298D
100
AcDbXrecord
280
     1
  1
STRU
  1
s*
  1
*
  1
*
 70
     0
  1
*
  1
*
  0
XRECORD
  5
2AC3
102
{ACAD_REACTORS
330
298D
102
}
330
298D
100
AcDbXrecord
280
     1
  1
STRUCTURALFOUNDATION
  1
*
  1
*
  1
*
 70
     0
  1
*
  1
*
  0
XRECORD
  5
2AC4
102
{ACAD_REACTORS
330
298D
102
}
330
298D
100
AcDbXrecord
280
     1
  1
stucco
  1
*stucco*
  1
*
  1
*
 70
    61
  1
*
  1
*
  0
XRECORD
  5
2AC5
102
{ACAD_REACTORS
330
298D
102
}
330
298D
100
AcDbXrecord
280
     1
  1
SURVEY
  1
SURVEY*
  1
*
  1
*
 70
     0
  1
*
  1
*
  0
XRECORD
  5
2AC6
102
{ACAD_REACTORS
330
298D
102
}
330
298D
100
AcDbXrecord
280
     1
  1
SW
  1
*SW*
  1
*
  1
*
 70
     0
  1
*
  1
*
  0
XRECORD
  5
2AC7
102
{ACAD_REACTORS
330
298D
102
}
330
298D
100
AcDbXrecord
280
     1
  1
SYM
  1
*WALL
  1
*
  1
*
 70
     0
  1
*
  1
*
  0
XRECORD
  5
2AC8
102
{ACAD_REACTORS
330
298D
102
}
330
298D
100
AcDbXrecord
280
     1
  1
SYMBOLLEGEND
  1
*SL,*SL*
  1
*
  1
*
 70
     0
  1
*
  1
*
  0
XRECORD
  5
2AC9
102
{ACAD_REACTORS
330
298D
102
}
330
298D
100
AcDbXrecord
280
     1
  1
TEMP
  1
*A-DOOR-IDEN
  1
*
  1
*
 70
     0
  1
*
  1
*
  0
XRECORD
  5
2ACA
102
{ACAD_REACTORS
330
298D
102
}
330
298D
100
AcDbXrecord
280
     1
  1
TEXT
  1
*TEXT
  1
*
  1
*
 70
     0
  1
*
  1
*
  0
XRECORD
  5
2ACB
102
{ACAD_REACTORS
330
298D
102
}
330
298D
100
AcDbXrecord
280
     1
  1
thaw
  1
*
  1
*
  1
*
 70
    12
  1
*
  1
*
  0
XRECORD
  5
2ACC
102
{ACAD_REACTORS
330
298D
102
}
330
298D
100
AcDbXrecord
280
     1
  1
thawed
  1
*
  1
*
  1
*
 70
    12
  1
*
  1
*
  0
XRECORD
  5
2ACD
102
{ACAD_REACTORS
330
298D
102
}
330
298D
100
AcDbXrecord
280
     1
  1
THAWEDandON
  1
*
  1
*
  1
*
 70
    13
  1
*
  1
*
  0
XRECORD
  5
2ACE
102
{ACAD_REACTORS
330
298D
102
}
330
298D
100
AcDbXrecord
280
     1
  1
tree
  1
*tre*
  1
*
  1
*
 70
     0
  1
*
  1
*
  0
XRECORD
  5
2ACF
102
{ACAD_REACTORS
330
298D
102
}
330
298D
100
AcDbXrecord
280
     1
  1
TURNER
  1
TRNR*
  1
*
  1
*
 70
     0
  1
*
  1
*
  0
XRECORD
  5
2AD0
102
{ACAD_REACTORS
330
298D
102
}
330
298D
100
AcDbXrecord
280
     1
  1
Upper Floor
  1
U*
  1
*
  1
*
 70
     0
  1
*
  1
*
  0
XRECORD
  5
2AD1
102
{ACAD_REACTORS
330
298D
102
}
330
298D
100
AcDbXrecord
280
     1
  1
UpperNew
  1
A?2*
  1
*
  1
*
 70
    16
  1
*
  1
*
  0
XRECORD
  5
2AD2
102
{ACAD_REACTORS
330
298D
102
}
330
298D
100
AcDbXrecord
280
     1
  1
utilitytext
  1
qde*tx
  1
*
  1
*
 70
    13
  1
*
  1
*
  0
XRECORD
  5
2AD3
102
{ACAD_REACTORS
330
298D
102
}
330
298D
100
AcDbXrecord
280
     1
  1
visible
  1
*
  1
*
  1
*
 70
     1
  1
*
  1
*
  0
XRECORD
  5
2AD4
102
{ACAD_REACTORS
330
298D
102
}
330
298D
100
AcDbXrecord
280
     1
  1
WALK
  1
*WALK*
  1
*
  1
*
 70
     0
  1
*
  1
*
  0
XRECORD
  5
2AD5
102
{ACAD_REACTORS
330
298D
102
}
330
298D
100
AcDbXrecord
280
     1
  1
wall
  1
*wa*
  1
*
  1
*
 70
     0
  1
*
  1
*
  0
XRECORD
  5
2AD6
102
{ACAD_REACTORS
330
298D
102
}
330
298D
100
AcDbXrecord
280
     1
  1
WALLS
  1
*WALL*
  1
*
  1
*
 70
     0
  1
*
  1
*
  0
XRECORD
  5
2AD7
102
{ACAD_REACTORS
330
298D
102
}
330
298D
100
AcDbXrecord
280
     1
  1
WALLSONLY
  1
*WALLS*
  1
*
  1
*
 70
     0
  1
*
  1
*
  0
XRECORD
  5
2AD8
102
{ACAD_REACTORS
330
298D
102
}
330
298D
100
AcDbXrecord
280
     1
  1
WAT
  1
*WAT*
  1
*
  1
*
 70
     0
  1
*
  1
*
  0
XRECORD
  5
2AD9
102
{ACAD_REACTORS
330
298D
102
}
330
298D
100
AcDbXrecord
280
     1
  1
WATER
  1
*WATER*
  1
*
  1
*
 70
     0
  1
*
  1
*
  0
XRECORD
  5
2ADA
102
{ACAD_REACTORS
330
298D
102
}
330
298D
100
AcDbXrecord
280
     1
  1
WATER FITTINGS
  1
*FIT*
  1
*
  1
*
 70
     0
  1
*
  1
*
  0
XRECORD
  5
2ADB
102
{ACAD_REACTORS
330
298D
102
}
330
298D
100
AcDbXrecord
280
     1
  1
WaterShed
  1
ws*
  1
*
  1
*
 70
     0
  1
*
  1
*
  0
XRECORD
  5
2ADC
102
{ACAD_REACTORS
330
298D
102
}
330
298D
100
AcDbXrecord
280
     1
  1
white
  1
*
  1
*white*
  1
*
 70
     1
  1
*
  1
*
  0
XRECORD
  5
2ADD
102
{ACAD_REACTORS
330
298D
102
}
330
298D
100
AcDbXrecord
280
     1
  1
WW
  1
*WW*
  1
*
  1
*
 70
     0
  1
*
  1
*
  0
XRECORD
  5
2ADE
102
{ACAD_REACTORS
330
298D
102
}
330
298D
100
AcDbXrecord
280
     1
  1
Xref
  1
Xref*
  1
*
  1
*
 70
     0
  1
*
  1
*
  0
XRECORD
  5
2ADF
102
{ACAD_REACTORS
330
298D
102
}
330
298D
100
AcDbXrecord
280
     1
  1
XX
  1
C-PR-*
  1
*
  1
*
 70
     0
  1
*
  1
*
  0
DICTIONARY
  5
2BBA
330
62A
100
AcDbDictionary
280
     1
281
     1
  3
ACAD_XREC_ROUNDTRIP
360
2BBB
  0
DICTIONARY
  5
2BBC
330
629
100
AcDbDictionary
280
     1
281
     1
  3
ACAD_XREC_ROUNDTRIP
360
2BBD
  0
XRECORD
  5
2BBB
102
{ACAD_REACTORS
330
2BBA
102
}
330
2BBA
100
AcDbXrecord
102
SHADEPLOT
 70
     0
102
SHADEPLOTRESLEVEL
 70
     2
102
SHADEPLOTCUSTOMDPI
 70
   300
  0
XRECORD
  5
2BBD
102
{ACAD_REACTORS
330
2BBC
102
}
330
2BBC
100
AcDbXrecord
102
SHADEPLOT
 70
     0
102
SHADEPLOTRESLEVEL
 70
     2
102
SHADEPLOTCUSTOMDPI
 70
   300
  0
ENDSEC
  0
EOF
