  0
SECTION
  2
HEADER
  9
$ACADVER
  1
AC1015
  9
$ACADMAINTVER
 70
     6
  9
$DWGCODEPAGE
  3
ANSI_1252
  9
$INSBASE
 10
0.0
 20
0.0
 30
0.0
  9
$EXTMIN
 10
-0.5244378553516924
 20
6.219360414682143
 30
-0.0000000000000022
  9
$EXTMAX
 10
19.76386300757601
 20
19.16308598774845
 30
0.0000000000000131
  9
$LIMMIN
 10
0.0
 20
0.0
  9
$LIMMAX
 10
31.5
 20
24.0
  9
$ORTHOMODE
 70
     1
  9
$REGENMODE
 70
     1
  9
$FILLMODE
 70
     1
  9
$QTEXTMODE
 70
     0
  9
$MIRRTEXT
 70
     0
  9
$LTSCALE
 40
1.0
  9
$ATTMODE
 70
     1
  9
$TEXTSIZE
 40
0.27
  9
$TRACEWID
 40
0.05
  9
$TEXTSTYLE
  7
STANDARD
  9
$CLAYER
  8
0
  9
$CELTYPE
  6
BYLAYER
  9
$CECOLOR
 62
   256
  9
$CELTSCALE
 40
1.0
  9
$DISPSILH
 70
     0
  9
$DIMSCALE
 40
1.0
  9
$DIMASZ
 40
0.375
  9
$DIMEXO
 40
0.0625
  9
$DIMDLI
 40
0.75
  9
$DIMRND
 40
0.0
  9
$DIMDLE
 40
0.0
  9
$DIMEXE
 40
0.18
  9
$DIMTP
 40
0.0
  9
$DIMTM
 40
0.0
  9
$DIMTXT
 40
0.27
  9
$DIMCEN
 40
-0.06
  9
$DIMTSZ
 40
0.0
  9
$DIMTOL
 70
     0
  9
$DIMLIM
 70
     0
  9
$DIMTIH
 70
     1
  9
$DIMTOH
 70
     1
  9
$DIMSE1
 70
     0
  9
$DIMSE2
 70
     0
  9
$DIMTAD
 70
     0
  9
$DIMZIN
 70
     0
  9
$DIMBLK
  1

  9
$DIMASO
 70
     0
  9
$DIMSHO
 70
     0
  9
$DIMPOST
  1

  9
$DIMAPOST
  1

  9
$DIMALT
 70
     0
  9
$DIMALTD
 70
     2
  9
$DIMALTF
 40
25.4
  9
$DIMLFAC
 40
1.0
  9
$DIMTOFL
 70
     0
  9
$DIMTVP
 40
0.0
  9
$DIMTIX
 70
     0
  9
$DIMSOXD
 70
     0
  9
$DIMSAH
 70
     0
  9
$DIMBLK1
  1

  9
$DIMBLK2
  1

  9
$DIMSTYLE
  2
STANDARD
  9
$DIMCLRD
 70
     0
  9
$DIMCLRE
 70
     0
  9
$DIMCLRT
 70
     0
  9
$DIMTFAC
 40
1.0
  9
$DIMGAP
 40
0.09
  9
$DIMJUST
 70
     0
  9
$DIMSD1
 70
     0
  9
$DIMSD2
 70
     0
  9
$DIMTOLJ
 70
     1
  9
$DIMTZIN
 70
     0
  9
$DIMALTZ
 70
     0
  9
$DIMALTTZ
 70
     0
  9
$DIMUPT
 70
     0
  9
$DIMDEC
 70
     5
  9
$DIMTDEC
 70
     5
  9
$DIMALTU
 70
     2
  9
$DIMALTTD
 70
     2
  9
$DIMTXSTY
  7
STANDARD
  9
$DIMAUNIT
 70
     0
  9
$DIMADEC
 70
     0
  9
$DIMALTRND
 40
0.0
  9
$DIMAZIN
 70
     0
  9
$DIMDSEP
 70
    46
  9
$DIMATFIT
 70
     3
  9
$DIMFRAC
 70
     2
  9
$DIMLDRBLK
  1

  9
$DIMLUNIT
 70
     5
  9
$DIMLWD
 70
    -2
  9
$DIMLWE
 70
    -2
  9
$DIMTMOVE
 70
     2
  9
$LUNITS
 70
     2
  9
$LUPREC
 70
     3
  9
$SKETCHINC
 40
0.1
  9
$FILLETRAD
 40
0.0
  9
$AUNITS
 70
     0
  9
$AUPREC
 70
     0
  9
$MENU
  1
ACAD
  9
$ELEVATION
 40
0.0
  9
$PELEVATION
 40
0.0
  9
$THICKNESS
 40
0.0
  9
$LIMCHECK
 70
     0
  9
$CHAMFERA
 40
0.0
  9
$CHAMFERB
 40
0.0
  9
$CHAMFERC
 40
0.0
  9
$CHAMFERD
 40
0.0
  9
$SKPOLY
 70
     0
  9
$TDCREATE
 40
2450305.009580324
  9
$TDUCREATE
 40
2450305.342913657
  9
$TDUPDATE
 40
2454160.940545776
  9
$TDUUPDATE
 40
2454161.273879109
  9
$TDINDWG
 40
0.3467524884
  9
$TDUSRTIMER
 40
0.3467524884
  9
$USRTIMER
 70
     1
  9
$ANGBASE
 50
0.0
  9
$ANGDIR
 70
     0
  9
$PDMODE
 70
     0
  9
$PDSIZE
 40
0.0
  9
$PLINEWID
 40
0.0
  9
$SPLFRAME
 70
     0
  9
$SPLINETYPE
 70
     6
  9
$SPLINESEGS
 70
     8
  9
$HANDSEED
  5
2C9C
  9
$SURFTAB1
 70
     6
  9
$SURFTAB2
 70
     6
  9
$SURFTYPE
 70
     6
  9
$SURFU
 70
     6
  9
$SURFV
 70
     6
  9
$UCSBASE
  2

  9
$UCSNAME
  2

  9
$UCSORG
 10
0.0
 20
0.0
 30
0.0
  9
$UCSXDIR
 10
1.0
 20
0.0
 30
0.0
  9
$UCSYDIR
 10
0.0
 20
1.0
 30
0.0
  9
$UCSORTHOREF
  2

  9
$UCSORTHOVIEW
 70
     0
  9
$UCSORGTOP
 10
0.0
 20
0.0
 30
0.0
  9
$UCSORGBOTTOM
 10
0.0
 20
0.0
 30
0.0
  9
$UCSORGLEFT
 10
0.0
 20
0.0
 30
0.0
  9
$UCSORGRIGHT
 10
0.0
 20
0.0
 30
0.0
  9
$UCSORGFRONT
 10
0.0
 20
0.0
 30
0.0
  9
$UCSORGBACK
 10
0.0
 20
0.0
 30
0.0
  9
$PUCSBASE
  2

  9
$PUCSNAME
  2

  9
$PUCSORG
 10
0.0
 20
0.0
 30
0.0
  9
$PUCSXDIR
 10
1.0
 20
0.0
 30
0.0
  9
$PUCSYDIR
 10
0.0
 20
1.0
 30
0.0
  9
$PUCSORTHOREF
  2

  9
$PUCSORTHOVIEW
 70
     0
  9
$PUCSORGTOP
 10
0.0
 20
0.0
 30
0.0
  9
$PUCSORGBOTTOM
 10
0.0
 20
0.0
 30
0.0
  9
$PUCSORGLEFT
 10
0.0
 20
0.0
 30
0.0
  9
$PUCSORGRIGHT
 10
0.0
 20
0.0
 30
0.0
  9
$PUCSORGFRONT
 10
0.0
 20
0.0
 30
0.0
  9
$PUCSORGBACK
 10
0.0
 20
0.0
 30
0.0
  9
$USERI1
 70
     0
  9
$USERI2
 70
     0
  9
$USERI3
 70
     0
  9
$USERI4
 70
     0
  9
$USERI5
 70
     0
  9
$USERR1
 40
0.0
  9
$USERR2
 40
0.0
  9
$USERR3
 40
0.0
  9
$USERR4
 40
0.0
  9
$USERR5
 40
0.0
  9
$WORLDVIEW
 70
     1
  9
$SHADEDGE
 70
     3
  9
$SHADEDIF
 70
    70
  9
$TILEMODE
 70
     1
  9
$MAXACTVP
 70
    16
  9
$PINSBASE
 10
0.0
 20
0.0
 30
0.0
  9
$PLIMCHECK
 70
     0
  9
$PEXTMIN
 10
1.000000000000000E+20
 20
1.000000000000000E+20
 30
1.000000000000000E+20
  9
$PEXTMAX
 10
-1.000000000000000E+20
 20
-1.000000000000000E+20
 30
-1.000000000000000E+20
  9
$PLIMMIN
 10
0.0
 20
0.0
  9
$PLIMMAX
 10
12.0
 20
9.0
  9
$UNITMODE
 70
     0
  9
$VISRETAIN
 70
     0
  9
$PLINEGEN
 70
     0
  9
$PSLTSCALE
 70
     0
  9
$TREEDEPTH
 70
  3020
  9
$CMLSTYLE
  2
STANDARD
  9
$CMLJUST
 70
     0
  9
$CMLSCALE
 40
1.0
  9
$PROXYGRAPHICS
 70
     1
  9
$MEASUREMENT
 70
     0
  9
$CELWEIGHT
370
    -1
  9
$ENDCAPS
280
     0
  9
$JOINSTYLE
280
     0
  9
$LWDISPLAY
290
     0
  9
$INSUNITS
 70
     0
  9
$HYPERLINKBASE
  1

  9
$STYLESHEET
  1

  9
$XEDIT
290
     1
  9
$CEPSNTYPE
380
     0
  9
$PSTYLEMODE
290
     1
  9
$FINGERPRINTGUID
  2
{44082B7C-C9DC-4B17-A477-44FE47AA08EB}
  9
$VERSIONGUID
  2
{C91821A5-317B-486B-9ED0-D3A018570E16}
  9
$EXTNAMES
290
     1
  9
$PSVPSCALE
 40
0.0
  9
$OLESTARTUP
290
     0
  0
ENDSEC
  0
SECTION
  2
CLASSES
  0
CLASS
  1
DICTIONARYVAR
  2
AcDbDictionaryVar
  3
AutoCAD 2000
 90
        0
280
     0
281
     0
  0
CLASS
  1
LWPOLYLINE
  2
AcDbPolyline
  3
AutoCAD 2000
 90
        0
280
     0
281
     1
  0
CLASS
  1
ACDBDICTIONARYWDFLT
  2
AcDbDictionaryWithDefault
  3
AutoCAD 2000
 90
        0
280
     0
281
     0
  0
CLASS
  1
ACDBPLACEHOLDER
  2
AcDbPlaceHolder
  3
ObjectDBX Classes
 90
        0
280
     0
281
     0
  0
CLASS
  1
LAYOUT
  2
AcDbLayout
  3
ObjectDBX Classes
 90
        0
280
     0
281
     0
  0
CLASS
  1
LONG_TRANSACTION
  2
AcDbLongTransaction
  3
ObjectDBX Classes
 90
   -65536
280
     1
281
     0
  0
CLASS
  1
LWPOLYLINE
  2
AcDbPolyline
  3
AutoCAD 2000
 90
        0
280
     0
281
     1
  0
CLASS
  1
HATCH
  2
AcDbHatch
  3
AutoCAD 2000
 90
        0
280
     0
281
     1
  0
CLASS
  1
XRECORD
  2
AcDbXrecord
  3
AutoCAD 2000
 90
        0
280
     0
281
     0
  0
CLASS
  1
LONG_TRANSACTION
  2
AcDbLongTransaction
  3
ObjectDBX Classes
 90
   -65536
280
     1
281
     0
  0
CLASS
  1
LWPOLYLINE
  2
AcDbPolyline
  3
AutoCAD 2000
 90
        0
280
     0
281
     1
  0
CLASS
  1
HATCH
  2
AcDbHatch
  3
AutoCAD 2000
 90
        0
280
     0
281
     1
  0
CLASS
  1
XRECORD
  2
AcDbXrecord
  3
AutoCAD 2000
 90
        0
280
     0
281
     0
  0
CLASS
  1
LONG_TRANSACTION
  2
AcDbLongTransaction
  3
ObjectDBX Classes
 90
   -65536
280
     1
281
     0
  0
CLASS
  1
LWPOLYLINE
  2
AcDbPolyline
  3
AutoCAD 2000
 90
        0
280
     0
281
     1
  0
CLASS
  1
HATCH
  2
AcDbHatch
  3
AutoCAD 2000
 90
        0
280
     0
281
     1
  0
CLASS
  1
XRECORD
  2
AcDbXrecord
  3
AutoCAD 2000
 90
        0
280
     0
281
     0
  0
CLASS
  1
SORTENTSTABLE
  2
AcDbSortentsTable
  3
AutoCAD 2000
 90
        0
280
     0
281
     0
  0
CLASS
  1
TABLESTYLE
  2
AcDbTableStyle
  3
ObjectDBX Classes
 90
     2047
280
     1
281
     0
  0
ENDSEC
  0
SECTION
  2
TABLES
  0
TABLE
  2
VPORT
  5
4FB
330
0
100
AcDbSymbolTable
 70
     2
  0
VPORT
  5
2C8C
330
4FB
100
AcDbSymbolTableRecord
100
AcDbViewportTableRecord
  2
*Active
 70
     0
 10
0.0
 20
0.0
 11
1.0
 21
1.0
 12
15.48778107232415
 22
12.0
 13
0.0
 23
0.0
 14
0.0625
 24
0.0625
 15
0.5
 25
0.5
 16
0.0
 26
0.0
 36
1.0
 17
0.0
 27
0.0
 37
0.0
 40
24.2993762993763
 41
1.814583333333333
 42
50.0
 43
0.0
 44
0.0
 50
0.0
 51
0.0
 71
     0
 72
   100
 73
     1
 74
     0
 75
     0
 76
     0
 77
     0
 78
     0
281
     0
 65
     1
110
0.0
120
0.0
130
0.0
111
1.0
121
0.0
131
0.0
112
0.0
122
1.0
132
0.0
 79
     0
146
0.0
  0
ENDTAB
  0
TABLE
  2
LTYPE
  5
4F8
330
0
100
AcDbSymbolTable
 70
     3
  0
LTYPE
  5
504
330
4F8
100
AcDbSymbolTableRecord
100
AcDbLinetypeTableRecord
  2
BYBLOCK
 70
     0
  3

 72
    65
 73
     0
 40
0.0
  0
LTYPE
  5
505
330
4F8
100
AcDbSymbolTableRecord
100
AcDbLinetypeTableRecord
  2
BYLAYER
 70
     0
  3

 72
    65
 73
     0
 40
0.0
  0
LTYPE
  5
506
330
4F8
100
AcDbSymbolTableRecord
100
AcDbLinetypeTableRecord
  2
CONTINUOUS
 70
     0
  3
Solid line
 72
    65
 73
     0
 40
0.0
  0
LTYPE
  5
533
330
4F8
100
AcDbSymbolTableRecord
100
AcDbLinetypeTableRecord
  2
HIDDEN
 70
     0
  3
__ __ __ __ __ __ __ __ __ __ __ __ __ __ __ __
 72
    65
 73
     2
 40
0.375
 49
0.25
 74
     0
 49
-0.125
 74
     0
  0
LTYPE
  5
1AE0
330
4F8
100
AcDbSymbolTableRecord
100
AcDbLinetypeTableRecord
  2
THD
 70
     0
  3
_ _ _ _ _ _ _ _ _ _ _ _ _ _ _ _ _ _ _ _ _ _ _ _
 72
    65
 73
     2
 40
0.15
 49
0.11
 74
     0
 49
-0.04
 74
     0
  0
ENDTAB
  0
TABLE
  2
LAYER
  5
4F5
102
{ACAD_XDICTIONARY
360
2A80
102
}
330
0
100
AcDbSymbolTable
 70
     3
  0
LAYER
  5
501
330
4F5
100
AcDbSymbolTableRecord
100
AcDbLayerTableRecord
  2
0
 70
     0
 62
     7
  6
CONTINUOUS
370
    -3
390
626
  0
ENDTAB
  0
TABLE
  2
STYLE
  5
4F6
330
0
100
AcDbSymbolTable
 70
     1
  0
STYLE
  5
502
330
4F6
100
AcDbSymbolTableRecord
100
AcDbTextStyleTableRecord
  2
STANDARD
 70
     0
 40
0.0
 41
1.0
 50
0.0
 71
     0
 42
0.27
  3
TXT
  4

  0
ENDTAB
  0
TABLE
  2
VIEW
  5
4F9
330
0
100
AcDbSymbolTable
 70
     4
  0
VIEW
  5
537
330
4F9
100
AcDbSymbolTableRecord
100
AcDbViewTableRecord
  2
PLOTTER
 70
     0
 40
23.625
 10
17.01330184198921
 20
11.8125
 41
1.0
 11
0.0
 21
0.0
 31
1.0
 12
0.0
 22
0.0
 32
0.0
 42
50.0
 43
0.0
 44
0.0
 50
0.0
 71
     0
281
     0
 72
     0
  0
VIEW
  5
538
330
4F9
100
AcDbSymbolTableRecord
100
AcDbViewTableRecord
  2
UPPER
 70
     0
 40
10.92682926829268
 10
12.68329970046198
 20
16.68292682926829
 41
1.0
 11
0.0
 21
0.0
 31
1.0
 12
0.0
 22
0.0
 32
0.0
 42
50.0
 43
0.0
 44
0.0
 50
0.0
 71
     0
281
     0
 72
     0
  0
VIEW
  5
539
330
4F9
100
AcDbSymbolTableRecord
100
AcDbViewTableRecord
  2
LEFT
 70
     0
 40
5.446009389671362
 10
10.90014360505218
 20
8.479102255811291
 41
1.0
 11
0.0
 21
0.0
 31
1.0
 12
0.0
 22
0.0
 32
0.0
 42
50.0
 43
0.0
 44
0.0
 50
0.0
 71
     0
281
     0
 72
     0
  0
VIEW
  5
53A
330
4F9
100
AcDbSymbolTableRecord
100
AcDbViewTableRecord
  2
RIGHT
 70
     0
 40
10.21596244131455
 10
22.88218731978697
 20
10.27871292797435
 41
1.0
 11
0.0
 21
0.0
 31
1.0
 12
0.0
 22
0.0
 32
0.0
 42
50.0
 43
0.0
 44
0.0
 50
0.0
 71
     0
281
     0
 72
     0
  0
ENDTAB
  0
TABLE
  2
UCS
  5
4FA
330
0
100
AcDbSymbolTable
 70
     0
  0
ENDTAB
  0
TABLE
  2
APPID
  5
4FC
330
0
100
AcDbSymbolTable
 70
     5
  0
APPID
  5
503
330
4FC
100
AcDbSymbolTableRecord
100
AcDbRegAppTableRecord
  2
ACAD
 70
     0
  0
APPID
  5
7C1
330
4FC
100
AcDbSymbolTableRecord
100
AcDbRegAppTableRecord
  2
DCO15
 70
     0
  0
APPID
  5
851
330
4FC
100
AcDbSymbolTableRecord
100
AcDbRegAppTableRecord
  2
AcAecLayerStandard
 70
     0
  0
APPID
  5
852
330
4FC
100
AcDbSymbolTableRecord
100
AcDbRegAppTableRecord
  2
ACAD_PSEXT
 70
     0
  0
APPID
  5
1290
330
4FC
100
AcDbSymbolTableRecord
100
AcDbRegAppTableRecord
  2
RAK
 70
     0
  0
ENDTAB
  0
TABLE
  2
DIMSTYLE
  5
4FD
330
0
100
AcDbSymbolTable
 70
     1
100
AcDbDimStyleTable
  0
DIMSTYLE
105
558
330
4FD
100
AcDbSymbolTableRecord
100
AcDbDimStyleTableRecord
  2
STANDARD
 70
     0
  3

  4

340
502
  0
ENDTAB
  0
TABLE
  2
BLOCK_RECORD
  5
4F4
330
0
100
AcDbSymbolTable
 70
     0
  0
BLOCK_RECORD
  5
50A
330
4F4
100
AcDbSymbolTableRecord
100
AcDbBlockTableRecord
  2
*MODEL_SPACE
340
629
  0
BLOCK_RECORD
  5
507
330
4F4
100
AcDbSymbolTableRecord
100
AcDbBlockTableRecord
  2
*PAPER_SPACE
340
62A
  0
ENDTAB
  0
ENDSEC
  0
SECTION
  2
BLOCKS
  0
BLOCK
  5
550
330
50A
100
AcDbEntity
  8
0
100
AcDbBlockBegin
  2
*MODEL_SPACE
 70
     0
 10
0.0
 20
0.0
 30
0.0
  3
*MODEL_SPACE
  1

  4

  0
ENDBLK
  5
551
330
50A
100
AcDbEntity
  8
0
100
AcDbBlockEnd
  0
BLOCK
  5
54E
330
507
100
AcDbEntity
 67
     1
  8
0
100
AcDbBlockBegin
  2
*PAPER_SPACE
 70
     0
 10
0.0
 20
0.0
 30
0.0
  3
*PAPER_SPACE
  1

  4

  0
ENDBLK
  5
54F
330
507
100
AcDbEntity
 67
     1
  8
0
100
AcDbBlockEnd
  0
ENDSEC
  0
SECTION
  2
ENTITIES
  0
TEXT
  5
CE
330
50A
100
AcDbEntity
  8
0
100
AcDbText
 10
9.860040913637929
 20
20.93053558724526
 30
0.0
 40
0.27
  1
   
 11
9.860040913637929
 21
21.06553558724526
 31
0.0
100
AcDbText
 73
     2
  0
TEXT
  5
EC
330
50A
100
AcDbEntity
  8
0
100
AcDbText
 10
26.00773490355874
 20
4.47821562795092
 30
0.0
 40
0.2565
  1

100
AcDbText
  0
LINE
  5
18B4
330
50A
100
AcDbEntity
  8
0
  6
Continuous
100
AcDbLine
 10
15.75111302611691
 20
6.901526896361489
 30
0.0
 11
17.82450260159831
 21
10.42209157040068
 31
0.0
  0
LINE
  5
18B8
330
50A
100
AcDbEntity
  8
0
  6
HIDDEN
100
AcDbLine
 10
18.34486302611691
 20
7.794046848921504
 30
0.0
 11
17.34486302611691
 21
7.794046848921504
 31
0.0
  0
LINE
  5
18B9
330
50A
100
AcDbEntity
  8
0
  6
HIDDEN
100
AcDbLine
 10
18.34486302611691
 20
7.559046848921504
 30
0.0
 11
17.34486302611691
 21
7.559046848921504
 31
0.0
  0
ARC
  5
18BA
330
50A
100
AcDbEntity
  8
0
  6
Continuous
100
AcDbCircle
 10
17.84486302611691
 20
6.368189845401233
 30
0.0
 40
0.34375
100
AcDbArc
 50
0.0
 51
180.0
  0
ARC
  5
18BB
330
50A
100
AcDbEntity
  8
0
  6
Continuous
100
AcDbCircle
 10
17.84486302611691
 20
6.402091570400707
 30
0.0
 40
0.34375
100
AcDbArc
 50
0.0
 51
180.0
  0
LINE
  5
18DD
330
50A
100
AcDbEntity
  8
0
  6
HIDDEN
100
AcDbLine
 10
16.8598630261169
 20
7.309046848921504
 30
0.0
 11
16.8598630261169
 21
6.419055407821496
 31
0.0
  0
LINE
  5
18DE
330
50A
100
AcDbEntity
  8
0
  6
HIDDEN
100
AcDbLine
 10
17.09486302611691
 20
7.309046848921504
 30
0.0
 11
17.09486302611691
 21
6.419055407821496
 31
0.0
  0
LINE
  5
18DF
330
50A
100
AcDbEntity
  8
0
  6
Continuous
100
AcDbLine
 10
15.75111302611691
 20
6.219941570400685
 30
0.0
 11
15.75111302611691
 21
6.901526896361496
 31
0.0
  0
LINE
  5
18E2
330
50A
100
AcDbEntity
  8
0
  6
HIDDEN
100
AcDbLine
 10
17.50111302611691
 20
6.394941570400711
 30
0.0
 11
15.76025232170618
 21
6.394941570400683
 31
0.0
  0
LINE
  5
18E3
330
50A
100
AcDbEntity
  8
0
100
AcDbLine
 10
15.75111302611691
 20
6.219941570400685
 30
0.0
 11
17.50111302611692
 21
6.219941570400685
 31
0.0
  0
LINE
  5
18E8
330
50A
100
AcDbEntity
  8
0
  6
Continuous
100
AcDbLine
 10
17.50111302611691
 20
6.219941570400685
 30
0.0
 11
17.50111302611691
 21
6.402091570400707
 31
0.0
  0
LINE
  5
18EE
330
50A
100
AcDbEntity
  8
0
  6
HIDDEN
100
AcDbLine
 10
17.37611302611691
 20
7.559046848921504
 30
0.0
 11
17.37611302611691
 21
7.794046848921504
 31
0.0
  0
ARC
  5
18EF
330
50A
100
AcDbEntity
  8
0
  6
HIDDEN
100
AcDbCircle
 10
17.34486302611691
 20
7.309046848921504
 30
0.0
 40
0.25
100
AcDbArc
 50
90.0
 51
180.0
  0
ARC
  5
18F0
330
50A
100
AcDbEntity
  8
0
  6
HIDDEN
100
AcDbCircle
 10
17.34486302611691
 20
7.309046848921504
 30
0.0
 40
0.485
100
AcDbArc
 50
90.0
 51
180.0
  0
LINE
  5
18FC
330
50A
100
AcDbEntity
  8
0
  6
Continuous
100
AcDbLine
 10
19.76236302611511
 20
10.42209157040069
 30
0.0
 11
19.76236302611511
 21
6.922091570400703
 31
0.0
  0
LINE
  5
18FD
330
50A
100
AcDbEntity
  8
0
  6
HIDDEN
100
AcDbLine
 10
19.59056302611511
 20
10.42209157040069
 30
0.0
 11
19.59056302611511
 21
6.92209157040071
 31
0.0
  0
LINE
  5
1903
330
50A
100
AcDbEntity
  8
0
100
AcDbLine
 10
19.72986302611511
 20
10.42209157040069
 30
0.0
 11
19.72986302611511
 21
6.219941570400685
 31
0.0
  0
LINE
  5
1904
330
50A
100
AcDbEntity
  8
0
  6
HIDDEN
100
AcDbLine
 10
18.8298630261169
 20
7.309046848921504
 30
0.0
 11
18.8298630261169
 21
6.419055407821496
 31
0.0
  0
LINE
  5
1905
330
50A
100
AcDbEntity
  8
0
  6
HIDDEN
100
AcDbLine
 10
18.59486302611691
 20
7.309046848921504
 30
0.0
 11
18.59486302611691
 21
6.419055407821496
 31
0.0
  0
LINE
  5
1909
330
50A
100
AcDbEntity
  8
0
  6
HIDDEN
100
AcDbLine
 10
19.69861302611511
 20
6.394941570400739
 30
0.0
 11
18.21986302611693
 21
6.394941570400725
 31
0.0
  0
LINE
  5
190A
330
50A
100
AcDbEntity
  8
0
100
AcDbLine
 10
18.18861302611693
 20
6.219941570400685
 30
0.0
 11
19.72986302611511
 21
6.219941570400685
 31
0.0
  0
LINE
  5
190E
330
50A
100
AcDbEntity
  8
0
  6
Continuous
100
AcDbLine
 10
18.18861302611693
 20
6.219941570400685
 30
0.0
 11
18.18861302611693
 21
6.402091570400707
 31
0.0
  0
LINE
  5
1914
330
50A
100
AcDbEntity
  8
0
  6
HIDDEN
100
AcDbLine
 10
18.31361302611691
 20
7.559046848921504
 30
0.0
 11
18.31361302611691
 21
7.794046848921504
 31
0.0
  0
ARC
  5
1915
330
50A
100
AcDbEntity
  8
0
  6
HIDDEN
100
AcDbCircle
 10
18.34486302611691
 20
7.309046848921504
 30
0.0
 40
0.25
100
AcDbArc
 50
0.0
 51
90.0
  0
ARC
  5
1916
330
50A
100
AcDbEntity
  8
0
  6
HIDDEN
100
AcDbCircle
 10
18.34486302611691
 20
7.309046848921504
 30
0.0
 40
0.485
100
AcDbArc
 50
0.0
 51
90.0
  0
ARC
  5
1917
330
50A
100
AcDbEntity
  8
0
  6
Continuous
100
AcDbCircle
 10
19.63736302611511
 20
7.515841570400674
 30
0.0
 40
0.28125
100
AcDbArc
 50
99.57857297385344
 51
225.0000000000019
  0
LINE
  5
1918
330
50A
100
AcDbEntity
  8
0
100
AcDbLine
 10
19.72986302611511
 20
6.922091570400704
 30
0.0
 11
19.76236302611511
 21
6.922091570400703
 31
0.0
  0
LINE
  5
1919
330
50A
100
AcDbEntity
  8
0
  6
Continuous
100
AcDbLine
 10
19.59056302611511
 20
7.164894005983271
 30
0.0
 11
19.76236302611511
 21
6.993094005983288
 31
0.0
  0
LINE
  5
191B
330
50A
100
AcDbEntity
  8
0
  6
Continuous
100
AcDbLine
 10
19.43848924390639
 20
7.316967788191981
 30
0.0
 11
19.59056302611511
 21
7.164894005983271
 31
0.0
  0
LINE
  5
1927
330
50A
100
AcDbEntity
  8
0
  6
Continuous
100
AcDbLine
 10
17.82450260159831
 20
10.42209157040068
 30
0.0
 11
19.76236302611511
 21
10.42209157040069
 31
0.0
  0
LINE
  5
1D66
330
50A
100
AcDbEntity
  8
0
  6
Continuous
100
AcDbLine
 10
12.5445026734257
 20
10.47745561348459
 30
0.0
 11
10.12350267342566
 21
10.47745561348459
 31
0.0
  0
LINE
  5
1D67
330
50A
100
AcDbEntity
  8
0
  6
HIDDEN
100
AcDbLine
 10
11.3189784137135
 20
6.977455613484622
 30
0.0
 11
10.1752793687223
 21
6.977455613484587
 31
0.0
  0
CIRCLE
  5
1D68
330
50A
100
AcDbEntity
  8
0
  6
Continuous
100
AcDbCircle
 10
11.18600267342566
 20
9.227455613484594
 30
0.0
 40
0.1325
  0
CIRCLE
  5
1D6A
330
50A
100
AcDbEntity
  8
0
  6
Continuous
100
AcDbCircle
 10
7.19850267342569
 20
8.602455613484594
 30
0.0
 40
0.1325
  0
CIRCLE
  5
1D6B
330
50A
100
AcDbEntity
  8
0
  6
Continuous
100
AcDbCircle
 10
8.22975267342569
 20
8.664955613484594
 30
0.0
 40
0.1325
  0
ARC
  5
1D6D
330
50A
100
AcDbEntity
  8
0
  6
Continuous
100
AcDbCircle
 10
10.99450267342574
 20
7.820585953484567
 30
0.0
 40
1.374999999999999
100
AcDbArc
 50
179.9999999999998
 51
0.0000000000002036
  0
LINE
  5
1D6F
330
50A
100
AcDbEntity
  8
0
  6
Continuous
100
AcDbLine
 10
9.444502673425784
 20
10.47673595348459
 30
0.0
 11
9.444502673425784
 21
7.824585953484586
 31
0.0
  0
LINE
  5
1D70
330
50A
100
AcDbEntity
  8
0
  6
Continuous
100
AcDbLine
 10
9.619502673425746
 20
10.47673595348459
 30
0.0
 11
9.619502673425746
 21
7.824585953484586
 31
0.0
  0
LINE
  5
1D71
330
50A
100
AcDbEntity
  8
0
  6
Continuous
100
AcDbLine
 10
12.36950267342575
 20
10.47673595348459
 30
0.0
 11
12.36950267342569
 21
7.824585953484586
 31
0.0
  0
LINE
  5
1D72
330
50A
100
AcDbEntity
  8
0
  6
Continuous
100
AcDbLine
 10
12.5445026734257
 20
10.47673595348459
 30
0.0
 11
12.5445026734257
 21
7.824585953484586
 31
0.0
  0
ARC
  5
1D74
330
50A
100
AcDbEntity
  8
0
  6
Continuous
100
AcDbCircle
 10
10.99450267342574
 20
7.820585953484574
 30
0.0
 40
1.545999999999998
100
AcDbArc
 50
180.0
 51
0.0
  0
LINE
  5
1D75
330
50A
100
AcDbEntity
  8
0
  6
HIDDEN
100
AcDbLine
 10
9.629502673425733
 20
7.585585953484568
 30
0.0
 11
12.35950267342572
 21
7.585585953484568
 31
0.0
  0
LINE
  5
1D76
330
50A
100
AcDbEntity
  8
0
100
AcDbLine
 10
9.629502673425733
 20
7.820585953484581
 30
0.0
 11
12.35950267342572
 21
7.820585953484581
 31
0.0
  0
CIRCLE
  5
1D81
330
50A
100
AcDbEntity
  8
0
  6
Continuous
100
AcDbCircle
 10
8.94850267342569
 20
8.289955613484594
 30
0.0
 40
0.1325
  0
LINE
  5
1D83
330
50A
100
AcDbEntity
  8
0
  6
HIDDEN
100
AcDbLine
 10
9.689502673425736
 20
7.585585953484568
 30
0.0
 11
9.689502673425736
 21
7.820585953484581
 31
0.0
  0
LINE
  5
1D84
330
50A
100
AcDbEntity
  8
0
100
AcDbLine
 10
9.629502673425733
 20
7.820585953484581
 30
0.0
 11
9.629502673425733
 21
7.566240371084533
 31
0.0
  0
LWPOLYLINE
  5
1D8A
330
50A
100
AcDbEntity
  8
0
100
AcDbPolyline
 90
        5
 70
     0
 43
0.0
 10
9.669502673425754
 20
7.420180162984551
 10
9.651614708125734
 20
7.467162713084591
 10
9.639208943425743
 20
7.508144312384573
 10
9.631915216825732
 20
7.54157540678456
 10
9.629502673425733
 20
7.566240371084533
  0
LWPOLYLINE
  5
1D91
330
50A
100
AcDbEntity
  8
0
100
AcDbPolyline
 90
        4
 70
     0
 43
0.0
 10
9.669502673425754
 20
7.420180162984551
 10
9.679386642725731
 20
7.397544447284545
 10
9.69031680552574
 20
7.374260495784554
 10
9.702324280225739
 20
7.350585953484554
  0
LINE
  5
1D98
330
50A
100
AcDbEntity
  8
0
  6
HIDDEN
100
AcDbLine
 10
10.52575267342571
 20
7.820585953484581
 30
0.0
 11
10.52575267342571
 21
7.585585953484568
 31
0.0
  0
CIRCLE
  5
1D9A
330
50A
100
AcDbEntity
  8
0
  6
Continuous
100
AcDbCircle
 10
8.07350267342569
 20
7.477455613484594
 30
0.0
 40
0.1325
  0
ARC
  5
1DAA
330
50A
100
AcDbEntity
  8
0
  6
Continuous
100
AcDbCircle
 10
12.36225267342751
 20
7.571205613484558
 30
0.0
 40
0.28125
100
AcDbArc
 50
49.48588882365259
 51
134.9999999999978
  0
CIRCLE
  5
1DAD
330
50A
100
AcDbEntity
  8
0
  6
Continuous
100
AcDbCircle
 10
7.198502673425725
 20
7.539955613484622
 30
0.0
 40
0.1325
  0
LINE
  5
1DAE
330
50A
100
AcDbEntity
  8
0
  6
HIDDEN
100
AcDbLine
 10
11.46325267342571
 20
7.820585953484581
 30
0.0
 11
11.46325267342571
 21
7.585585953484568
 31
0.0
  0
LINE
  5
1DB0
330
50A
100
AcDbEntity
  8
0
100
AcDbLine
 10
12.35950267342572
 20
7.820585953484581
 30
0.0
 11
12.35950267342572
 21
7.566240371084533
 31
0.0
  0
LINE
  5
1DB1
330
50A
100
AcDbEntity
  8
0
  6
HIDDEN
100
AcDbLine
 10
12.29950267342572
 20
7.585585953484568
 30
0.0
 11
12.29950267342572
 21
7.820585953484581
 31
0.0
  0
ARC
  5
1DB9
330
50A
100
AcDbEntity
  8
0
  6
Continuous
100
AcDbCircle
 10
12.17800267342584
 20
7.466732308781225
 30
0.0
 40
0.125
100
AcDbArc
 50
314.9999999999993
 51
0.0
  0
LWPOLYLINE
  5
1DBA
330
50A
100
AcDbEntity
  8
0
100
AcDbPolyline
 90
        5
 70
     0
 43
0.0
 10
12.35950267342575
 20
7.566240371084533
 10
12.35709013002575
 20
7.54157540678456
 10
12.34979640342574
 20
7.508144312384573
 10
12.33739063872575
 20
7.467162713084591
 10
12.31950267342573
 20
7.420180162984551
  0
LWPOLYLINE
  5
1DC1
330
50A
100
AcDbEntity
  8
0
100
AcDbPolyline
 90
        4
 70
     0
 43
0.0
 10
12.28668106672573
 20
7.350585953484554
 10
12.29868854132575
 20
7.374260495784554
 10
12.30961870412575
 20
7.397544447284545
 10
12.31950267342573
 20
7.420180162984551
  0
LINE
  5
1DC9
330
50A
100
AcDbEntity
  8
0
  6
HIDDEN
100
AcDbLine
 10
12.16337889121882
 20
7.77007939569328
 30
0.0
 11
11.40736676136181
 21
7.014067265836303
 31
0.0
  0
ARC
  5
1DCA
330
50A
100
AcDbEntity
  8
0
  6
HIDDEN
100
AcDbCircle
 10
11.31897841371349
 20
7.102455613484622
 30
0.0
 40
0.125
100
AcDbArc
 50
270.0000000000017
 51
314.9999999999988
  0
CIRCLE
  5
1DCC
330
50A
100
AcDbEntity
  8
0
  6
Continuous
100
AcDbCircle
 10
11.43600267342566
 20
7.883705613484594
 30
0.0
 40
0.1325
  0
LINE
  5
1DCD
330
50A
100
AcDbEntity
  8
0
  6
Continuous
100
AcDbLine
 10
9.619502673425743
 20
10.47745561348461
 30
0.0
 11
7.19850267342569
 21
10.4774556134846
 31
0.0
  0
CIRCLE
  5
1DCF
330
50A
100
AcDbEntity
  8
0
  6
Continuous
100
AcDbCircle
 10
8.94850267342569
 20
9.414955613484594
 30
0.0
 40
0.1325
  0
CIRCLE
  5
1DD2
330
50A
100
AcDbEntity
  8
0
  6
Continuous
100
AcDbCircle
 10
8.32350267342569
 20
9.789955613484594
 30
0.0
 40
0.1325
  0
LINE
  5
1DD6
330
50A
100
AcDbEntity
  8
0
  6
Continuous
100
AcDbLine
 10
7.19850267342569
 20
10.4774556134846
 30
0.0
 11
6.76100267342569
 21
10.0399556134846
 31
0.0
  0
CIRCLE
  5
1DD8
330
50A
100
AcDbEntity
  8
0
  6
Continuous
100
AcDbCircle
 10
7.448502673528541
 20
9.977455613484736
 30
0.0
 40
0.1325
  0
CIRCLE
  5
1DD9
330
50A
100
AcDbEntity
  8
0
  6
Continuous
100
AcDbCircle
 10
11.87350267342566
 20
8.852455613484594
 30
0.0
 40
0.1325
  0
CIRCLE
  5
1DDA
330
50A
100
AcDbEntity
  8
0
  6
Continuous
100
AcDbCircle
 10
11.87350267342566
 20
10.07120561348459
 30
0.0
 40
0.1325
  0
LINE
  5
1DDF
330
50A
100
AcDbEntity
  8
0
  6
Continuous
100
AcDbLine
 10
9.686002673425659
 20
10.03995561348459
 30
0.0
 11
9.686002673425655
 21
7.466732308781211
 31
0.0
  0
LINE
  5
1DF1
330
50A
100
AcDbEntity
  8
0
  6
HIDDEN
100
AcDbLine
 10
9.722614325777339
 20
7.378343961132892
 30
0.0
 11
10.08689102107397
 21
7.014067265836268
 31
0.0
  0
CIRCLE
  5
1DF4
330
50A
100
AcDbEntity
  8
0
  6
HIDDEN
100
AcDbCircle
 10
10.56100267342566
 20
7.477455613484594
 30
0.0
 40
0.1325
  0
ARC
  5
1DF5
330
50A
100
AcDbEntity
  8
0
  6
HIDDEN
100
AcDbCircle
 10
10.17527936872229
 20
7.102455613484587
 30
0.0
 40
0.125
100
AcDbArc
 50
225.0000000000008
 51
270.0000000000017
  0
CIRCLE
  5
1DF6
330
50A
100
AcDbEntity
  8
0
  6
Continuous
100
AcDbCircle
 10
10.12350267342566
 20
8.039955613484594
 30
0.0
 40
0.1325
  0
ARC
  5
1DF8
330
50A
100
AcDbEntity
  8
0
  6
Continuous
100
AcDbCircle
 10
9.811002673425655
 20
7.466732308781211
 30
0.0
 40
0.125
100
AcDbArc
 50
180.0
 51
225.0000000000011
  0
LINE
  5
1E06
330
50A
100
AcDbEntity
  8
0
  6
Continuous
100
AcDbLine
 10
10.12350267342566
 20
10.47745561348459
 30
0.0
 11
9.686002673425659
 21
10.03995561348459
 31
0.0
  0
CIRCLE
  5
1E07
330
50A
100
AcDbEntity
  8
0
  6
Continuous
100
AcDbCircle
 10
10.24850267342566
 20
9.289955613484594
 30
0.0
 40
0.1325
  0
CIRCLE
  5
1E08
330
50A
100
AcDbEntity
  8
0
  6
Continuous
100
AcDbCircle
 10
10.81100267342566
 20
9.883705613484594
 30
0.0
 40
0.1325
  0
CIRCLE
  5
1E74
330
50A
100
AcDbEntity
  8
0
  6
HIDDEN
100
AcDbCircle
 10
16.45572373052764
 20
6.611109587103641
 30
0.0
 40
0.176
  0
CIRCLE
  5
1E75
330
50A
100
AcDbEntity
  8
0
  6
Continuous
100
AcDbCircle
 10
16.45572373052764
 20
6.611109587103641
 30
0.0
 40
0.34375
  0
CIRCLE
  5
1E9A
330
50A
100
AcDbEntity
  8
0
  6
Continuous
100
AcDbCircle
 10
19.21572373052764
 20
6.611109587103641
 30
0.0
 40
0.34375
  0
CIRCLE
  5
1E9B
330
50A
100
AcDbEntity
  8
0
  6
HIDDEN
100
AcDbCircle
 10
19.21572373052764
 20
6.611109587103641
 30
0.0
 40
0.176
  0
LINE
  5
219A
330
50A
100
AcDbEntity
  8
0
  6
Continuous
100
AcDbLine
 10
6.761002673425669
 20
10.03995561348459
 30
0.0
 11
6.761002673425665
 21
7.466732308781211
 31
0.0
  0
LINE
  5
219B
330
50A
100
AcDbEntity
  8
0
  6
Continuous
100
AcDbLine
 10
8.393978413713505
 20
6.977455613484622
 30
0.0
 11
7.250279368722307
 21
6.977455613484587
 31
0.0
  0
LINE
  5
219C
330
50A
100
AcDbEntity
  8
0
  6
Continuous
100
AcDbLine
 10
9.238378891218829
 20
7.77007939569328
 30
0.0
 11
8.482366761361817
 21
7.014067265836303
 31
0.0
  0
ARC
  5
219D
330
50A
100
AcDbEntity
  8
0
  6
Continuous
100
AcDbCircle
 10
8.393978413713501
 20
7.102455613484622
 30
0.0
 40
0.125
100
AcDbArc
 50
270.0000000000017
 51
314.9999999999988
  0
LINE
  5
219E
330
50A
100
AcDbEntity
  8
0
  6
Continuous
100
AcDbLine
 10
6.797614325777349
 20
7.378343961132892
 30
0.0
 11
7.161891021073984
 21
7.014067265836268
 31
0.0
  0
ARC
  5
219F
330
50A
100
AcDbEntity
  8
0
  6
Continuous
100
AcDbCircle
 10
7.250279368722303
 20
7.102455613484587
 30
0.0
 40
0.125
100
AcDbArc
 50
225.0000000000008
 51
270.0000000000017
  0
ARC
  5
21A0
330
50A
100
AcDbEntity
  8
0
  6
Continuous
100
AcDbCircle
 10
6.886002673425665
 20
7.466732308781211
 30
0.0
 40
0.125
100
AcDbArc
 50
180.0
 51
225.0000000000011
  0
ARC
  5
21A1
330
50A
100
AcDbEntity
  8
0
  6
Continuous
100
AcDbCircle
 10
9.437252673427523
 20
7.571205613484558
 30
0.0
 40
0.28125
100
AcDbArc
 50
49.48588882365259
 51
134.9999999999978
  0
LINE
  5
2291
330
50A
100
AcDbEntity
  8
0
100
AcDbLine
 10
19.59056302611511
 20
6.92209157040071
 30
0.0
 11
19.72986302611511
 21
6.922091570400704
 31
0.0
  0
ARC
  5
2BF3
330
50A
100
AcDbEntity
  8
0
  6
Continuous
100
AcDbCircle
 10
9.97561049156964
 20
6.491951560051767
 30
0.0
 40
0.4557388376990849
100
AcDbArc
 50
17.1976932234312
 51
87.80230677656984
  0
ARC
  5
2BF4
330
50A
100
AcDbEntity
  8
0
  6
HIDDEN
100
AcDbCircle
 10
10.03578779101549
 20
6.568639916404333
 30
0.0
 40
0.1875
100
AcDbArc
 50
5.223501680922443
 51
99.77649831907769
  0
ARC
  5
2BF5
330
50A
100
AcDbEntity
  8
0
100
AcDbCircle
 10
9.953064187083584
 20
6.972169465671616
 30
0.0
 40
0.03125
100
AcDbArc
 50
219.1519756839774
 51
279.7764983190777
  0
LINE
  5
2BF6
330
50A
100
AcDbEntity
  8
0
100
AcDbLine
 10
9.958370602351081
 20
6.941373289658852
 30
0.0
 11
9.993086972143878
 21
6.947355184119527
 31
0.0
  0
LINE
  5
2BF7
330
50A
100
AcDbEntity
  8
0
  6
THD
100
AcDbLine
 10
9.953455483812043
 20
6.923041057355146
 30
0.0
 11
9.823911871482366
 21
6.811419139684023
 31
0.0
  0
ARC
  5
2BF8
330
50A
100
AcDbEntity
  8
0
100
AcDbCircle
 10
9.952459523169242
 20
6.972169583918209
 30
0.0
 40
0.20225
100
AcDbArc
 50
219.1519756839771
 51
279.7764983190775
  0
ARC
  5
2BF9
330
50A
100
AcDbEntity
  8
0
  6
HIDDEN
100
AcDbCircle
 10
10.50427377572254
 20
6.666493166428055
 30
0.0
 40
0.2931163881517439
100
AcDbArc
 50
195.9978087183382
 51
241.0849752879364
  0
LINE
  5
2BFA
330
50A
100
AcDbEntity
  8
0
100
AcDbLine
 10
10.41418055875784
 20
6.591618008718445
 30
0.0
 11
10.41097336742835
 21
6.626699675108515
 31
0.0
  0
ARC
  5
2BFB
330
50A
100
AcDbEntity
  8
0
100
AcDbCircle
 10
10.44530078185195
 20
6.594463042034985
 30
0.0
 40
0.03125
100
AcDbArc
 50
185.2235016809221
 51
245.8480243160226
  0
ARC
  5
2C01
330
50A
100
AcDbEntity
  8
0
  6
HIDDEN
100
AcDbCircle
 10
11.953217555836
 20
6.568639916404333
 30
0.0
 40
0.1875
100
AcDbArc
 50
80.22350168092233
 51
174.7764983190776
  0
ARC
  5
2C02
330
50A
100
AcDbEntity
  8
0
  6
Continuous
100
AcDbCircle
 10
12.01339485528185
 20
6.491951560051767
 30
0.0
 40
0.4557388376990849
100
AcDbArc
 50
92.19769322343016
 51
162.8023067765688
  0
ARC
  5
2C03
330
50A
100
AcDbEntity
  8
0
  6
HIDDEN
100
AcDbCircle
 10
11.48473157112896
 20
6.666493166428055
 30
0.0
 40
0.2931163881517439
100
AcDbArc
 50
298.9150247120636
 51
344.0021912816617
  0
ARC
  5
2C05
330
50A
100
AcDbEntity
  8
0
100
AcDbCircle
 10
11.54370456499954
 20
6.594463042034985
 30
0.0
 40
0.03125
100
AcDbArc
 50
294.1519756839774
 51
354.776498319078
  0
LINE
  5
2C06
330
50A
100
AcDbEntity
  8
0
100
AcDbLine
 10
11.57482478809365
 20
6.591618008718445
 30
0.0
 11
11.57803197942315
 21
6.626699675108515
 31
0.0
  0
ARC
  5
2C07
330
50A
100
AcDbEntity
  8
0
  6
HIDDEN
100
AcDbCircle
 10
11.97704901233574
 20
7.054151035024695
 30
0.0
 40
0.3008406371906545
100
AcDbArc
 50
271.5251380393863
 51
315.8152768223147
  0
LINE
  5
2C08
330
50A
100
AcDbEntity
  8
0
  6
THD
100
AcDbLine
 10
12.03554986303945
 20
6.923041057355146
 30
0.0
 11
12.16509347536913
 21
6.811419139684023
 31
0.0
  0
LINE
  5
2C09
330
50A
100
AcDbEntity
  8
0
100
AcDbLine
 10
12.03063474450041
 20
6.941373289658852
 30
0.0
 11
11.99591837470761
 21
6.947355184119527
 31
0.0
  0
ARC
  5
2C0A
330
50A
100
AcDbEntity
  8
0
100
AcDbCircle
 10
12.03594115976791
 20
6.972169465671616
 30
0.0
 40
0.03125
100
AcDbArc
 50
260.2235016809223
 51
320.8480243160226
  0
CIRCLE
  5
2C1F
330
50A
100
AcDbEntity
  8
0
100
AcDbCircle
 10
10.99854801321982
 20
17.19323797328522
 30
0.0
 40
0.34375
  0
LINE
  5
2C20
330
50A
100
AcDbEntity
  8
0
  6
Continuous
100
AcDbLine
 10
12.20027162565496
 20
15.09948797328524
 30
0.0
 11
9.788733721196525
 21
15.09948797328524
 31
0.0
  0
LINE
  5
2C21
330
50A
100
AcDbEntity
  8
0
  6
HIDDEN
100
AcDbLine
 10
11.8807526734258
 20
17.53698797328524
 30
0.0
 11
10.10825267342576
 21
17.53698797328524
 31
0.0
  0
LINE
  5
2C22
330
50A
100
AcDbEntity
  8
0
  6
HIDDEN
100
AcDbLine
 10
11.88075267342577
 20
16.84948797328522
 30
0.0
 11
10.10825267342576
 21
16.84948797328522
 31
0.0
  0
LINE
  5
2C23
330
50A
100
AcDbEntity
  8
0
100
AcDbLine
 10
9.776034957082842
 20
18.15033308276752
 30
0.0
 11
12.21277264848284
 21
18.15033308276752
 31
0.0
  0
LINE
  5
2C24
330
50A
100
AcDbEntity
  8
0
  6
HIDDEN
100
AcDbLine
 10
9.776034957082842
 20
17.90033308276752
 30
0.0
 11
12.21277264848284
 21
17.90033308276752
 31
0.0
  0
LINE
  5
2C25
330
50A
100
AcDbEntity
  8
0
  6
HIDDEN
100
AcDbLine
 10
9.900752673425721
 20
19.04823797328344
 30
0.0
 11
12.08825267342576
 21
19.04823797328343
 31
0.0
  0
LINE
  5
2C26
330
50A
100
AcDbEntity
  8
0
  6
HIDDEN
100
AcDbLine
 10
9.762349675682842
 20
16.40181477306752
 30
0.0
 11
12.21277264848284
 21
16.40033308276752
 31
0.0
  0
LINE
  5
2C27
330
50A
100
AcDbEntity
  8
0
100
AcDbLine
 10
9.776034957082842
 20
16.15033308276752
 30
0.0
 11
12.21277264848284
 21
16.15033308276752
 31
0.0
  0
LINE
  5
2C28
330
50A
100
AcDbEntity
  8
0
  6
Continuous
100
AcDbLine
 10
9.68465130169788
 20
18.87635572608708
 30
0.0
 11
12.1190013016979
 21
18.87245672328343
 31
0.0
  0
LINE
  5
2C29
330
50A
100
AcDbEntity
  8
0
100
AcDbLine
 10
9.68465130169788
 20
19.07948797328343
 30
0.0
 11
12.1190013016979
 21
19.07838535984155
 31
0.0
  0
CIRCLE
  5
2C2A
330
50A
100
AcDbEntity
  8
0
  6
HIDDEN
100
AcDbCircle
 10
10.12275630708525
 20
15.81323797328523
 30
0.0
 40
0.1875
  0
CIRCLE
  5
2C2B
330
50A
100
AcDbEntity
  8
0
  6
Continuous
100
AcDbCircle
 10
10.12275630708525
 20
15.81323797328523
 30
0.0
 40
0.34375
  0
LINE
  5
2C2C
330
50A
100
AcDbEntity
  8
0
100
AcDbLine
 10
9.444502673425763
 20
15.443719021056
 30
0.0
 11
9.44450267342576
 21
18.62245672328343
 31
0.0
  0
LINE
  5
2C2D
330
50A
100
AcDbEntity
  8
0
100
AcDbLine
 10
9.619819911412506
 20
18.78034258775281
 30
0.0
 11
9.619517257509063
 21
15.2687044369727
 31
0.0
  0
LINE
  5
2C2E
330
50A
100
AcDbEntity
  8
0
100
AcDbLine
 10
6.759954932139937
 20
19.07948797328343
 30
0.0
 11
9.194304932139954
 21
19.07838535984155
 31
0.0
  0
LINE
  5
2C2F
330
50A
100
AcDbEntity
  8
0
100
AcDbLine
 10
6.759954932139937
 20
18.87635572608708
 30
0.0
 11
9.194304932139954
 21
18.87245672328343
 31
0.0
  0
LINE
  5
2C30
330
50A
100
AcDbEntity
  8
0
100
AcDbLine
 10
6.759954932139937
 20
19.07948797328343
 30
0.0
 11
6.759954932139937
 21
18.87643797328343
 31
0.0
  0
LINE
  5
2C31
330
50A
100
AcDbEntity
  8
0
100
AcDbLine
 10
7.205554932138067
 20
18.87568202478762
 30
0.0
 11
7.205554932138067
 21
19.07948797328343
 31
0.0
  0
LWPOLYLINE
  5
2C32
330
50A
100
AcDbEntity
  8
0
100
AcDbPolyline
 90
       11
 70
     0
 43
0.0
 10
9.637528802782811
 20
17.65132172246752
 10
9.637544676382809
 20
17.73134742156751
 10
9.637771096282812
 20
17.80890653896751
 10
9.638693634682809
 20
17.88138215736752
 10
9.641011136382808
 20
17.94737331696752
 10
9.645648942882808
 20
18.00663115196752
 10
9.653523489482808
 20
18.05701056886752
 10
9.665368717482807
 20
18.09699348426752
 10
9.682120337482807
 20
18.12645486666752
 10
9.704289397182805
 20
18.14440632296752
 10
9.731659957082812
 20
18.15033308276752
  0
LWPOLYLINE
  5
2C33
330
50A
100
AcDbEntity
  8
0
100
AcDbPolyline
 90
       10
 70
     0
 43
0.0
 10
9.637544676382809
 20
17.69084025216752
 10
9.637771096282812
 20
17.72961981086751
 10
9.638693634682809
 20
17.76585762006751
 10
9.641011136382808
 20
17.79885319986752
 10
9.645648942882808
 20
17.82848211736752
 10
9.653523489482808
 20
17.85367182586752
 10
9.665368717482807
 20
17.87366328356752
 10
9.682120337482807
 20
17.88839397476752
 10
9.704289397182805
 20
17.89736970286752
 10
9.731659957082812
 20
17.90033308276752
  0
ARC
  5
2C34
330
50A
100
AcDbEntity
  8
0
100
AcDbCircle
 10
9.162577312581977
 20
18.62245672328343
 30
0.0
 40
0.45703125
100
AcDbArc
 50
0.0
 51
86.01926126028698
  0
ARC
  5
2C35
330
50A
100
AcDbEntity
  8
0
  6
HIDDEN
100
AcDbCircle
 10
9.900752673425721
 20
18.76698797328343
 30
0.0
 40
0.28125
100
AcDbArc
 50
90.00000000000003
 51
180.0
  0
ARC
  5
2C36
330
50A
100
AcDbEntity
  8
0
100
AcDbCircle
 10
9.194304932139954
 20
18.62245672328343
 30
0.0
 40
0.25
100
AcDbArc
 50
0.0
 51
90.00000000000003
  0
CIRCLE
  5
2C37
330
50A
100
AcDbEntity
  8
0
  6
HIDDEN
100
AcDbCircle
 10
10.12275630708525
 20
18.57323797328522
 30
0.0
 40
0.1875
  0
CIRCLE
  5
2C38
330
50A
100
AcDbEntity
  8
0
  6
Continuous
100
AcDbCircle
 10
10.12275630708525
 20
18.57323797328522
 30
0.0
 40
0.34375
  0
LINE
  5
2C39
330
50A
100
AcDbEntity
  8
0
100
AcDbLine
 10
9.68465130169788
 20
19.07948797328343
 30
0.0
 11
9.68465130169788
 21
18.87643797328343
 31
0.0
  0
ARC
  5
2C3A
330
50A
100
AcDbEntity
  8
0
  6
HIDDEN
100
AcDbCircle
 10
10.10825267342576
 20
17.19323797328522
 30
0.0
 40
0.34375
100
AcDbArc
 50
90.00000000000003
 51
270.0
  0
LINE
  5
2C3B
330
50A
100
AcDbEntity
  8
0
100
AcDbLine
 10
9.707528901232813
 20
16.83095802596753
 30
0.0
 11
9.707528901232813
 21
17.46970802596752
 31
0.0
  0
LINE
  5
2C3C
330
50A
100
AcDbEntity
  8
0
100
AcDbLine
 10
9.637528802782811
 20
17.48533302596752
 30
0.0
 11
9.637528802782811
 21
17.65033308276752
 31
0.0
  0
LINE
  5
2C3D
330
50A
100
AcDbEntity
  8
0
100
AcDbLine
 10
9.637528607582809
 20
17.65033308276752
 30
0.0
 11
9.637528999782809
 21
17.65132172236752
 31
0.0
  0
ARC
  5
2C3E
330
50A
100
AcDbEntity
  8
0
100
AcDbCircle
 10
9.691903901232813
 20
17.46970802596752
 30
0.0
 40
0.015625
100
AcDbArc
 50
359.9999999999998
 51
89.99999999999982
  0
LINE
  5
2C3F
330
50A
100
AcDbEntity
  8
0
100
AcDbLine
 10
9.691903901232813
 20
17.48533302596752
 30
0.0
 11
9.637528802782811
 21
17.48533302596752
 31
0.0
  0
LWPOLYLINE
  5
2C40
330
50A
100
AcDbEntity
  8
0
100
AcDbPolyline
 90
       11
 70
     0
 43
0.0
 10
9.731659957082812
 20
16.15033308276752
 10
9.70428939428281
 20
16.15625984396751
 10
9.682120332982812
 20
16.17421130436751
 10
9.665368712582804
 20
16.20367269336752
 10
9.653523484982813
 20
16.24365561756752
 10
9.645648939382809
 20
16.29403504536752
 10
9.64101113408281
 20
16.35329289206752
 10
9.638693633482809
 20
16.41928406416752
 10
9.637771095882812
 20
16.49175969596752
 10
9.637544676282808
 20
16.56931882606752
 10
9.637528802782811
 20
16.64934453586752
  0
LWPOLYLINE
  5
2C41
330
50A
100
AcDbEntity
  8
0
100
AcDbPolyline
 90
       10
 70
     0
 43
0.0
 10
9.731659957082812
 20
16.40033308276752
 10
9.70428939428281
 20
16.40329646336752
 10
9.682120332982812
 20
16.41227219356752
 10
9.665368712582804
 20
16.42700288806751
 10
9.653523484982813
 20
16.44699435016752
 10
9.645648939382809
 20
16.47218406406752
 10
9.64101113408281
 20
16.50181298746751
 10
9.638693633482809
 20
16.53480857346752
 10
9.637771095882812
 20
16.57104638936752
 10
9.637544676282808
 20
16.60982595446752
  0
ARC
  5
2C42
330
50A
100
AcDbEntity
  8
0
100
AcDbCircle
 10
9.691903901232813
 20
16.83095802596753
 30
0.0
 40
0.015625
100
AcDbArc
 50
269.9999999999998
 51
359.9999999999998
  0
LINE
  5
2C43
330
50A
100
AcDbEntity
  8
0
100
AcDbLine
 10
9.637528802782811
 20
16.64934453586752
 30
0.0
 11
9.637528802782811
 21
16.81533302596753
 31
0.0
  0
LINE
  5
2C44
330
50A
100
AcDbEntity
  8
0
100
AcDbLine
 10
9.637528802782811
 20
16.81533302596753
 30
0.0
 11
9.691903901232813
 21
16.81533302596753
 31
0.0
  0
LINE
  5
2C45
330
50A
100
AcDbEntity
  8
0
100
AcDbLine
 10
9.44450267342576
 20
15.443719021056
 30
0.0
 11
9.78873372119654
 21
15.09948797328522
 31
0.0
  0
CIRCLE
  5
2C46
330
50A
100
AcDbEntity
  8
0
  6
Continuous
100
AcDbCircle
 10
11.86624903976623
 20
15.81323797328523
 30
0.0
 40
0.34375
  0
CIRCLE
  5
2C47
330
50A
100
AcDbEntity
  8
0
  6
HIDDEN
100
AcDbCircle
 10
11.86624903976623
 20
15.81323797328523
 30
0.0
 40
0.1875
  0
LINE
  5
2C48
330
50A
100
AcDbEntity
  8
0
100
AcDbLine
 10
12.54450267342573
 20
15.44371902105601
 30
0.0
 11
12.54450267342573
 21
18.62245672328343
 31
0.0
  0
LINE
  5
2C49
330
50A
100
AcDbEntity
  8
0
100
AcDbLine
 10
12.36950267342576
 20
18.76698797328343
 30
0.0
 11
12.36950267342578
 21
15.26871902105605
 31
0.0
  0
LWPOLYLINE
  5
2C4A
330
50A
100
AcDbEntity
  8
0
100
AcDbPolyline
 90
       11
 70
     0
 43
0.0
 10
12.25714764848279
 20
18.15033308276752
 10
12.28451821428279
 20
18.14440632016751
 10
12.3066872772828
 20
18.12645485536751
 10
12.32343889818279
 20
18.09699345946752
 10
12.33528412538279
 20
18.05701052576752
 10
12.34315866998279
 20
18.00663108656752
 10
12.3477964739828
 20
17.94737322726751
 10
12.3501139733828
 20
17.88138204186752
 10
12.35103651018279
 20
17.80890639596752
 10
12.35126292928279
 20
17.73134725226752
 10
12.35127880278279
 20
17.65132153106752
  0
LWPOLYLINE
  5
2C4B
330
50A
100
AcDbEntity
  8
0
100
AcDbPolyline
 90
       10
 70
     0
 43
0.0
 10
12.25714764848279
 20
17.90033308276752
 10
12.28451821428279
 20
17.89736970146752
 10
12.3066872772828
 20
17.88839396906752
 10
12.32343889818279
 20
17.87366327106752
 10
12.33528412538279
 20
17.85367180426751
 10
12.34315866998279
 20
17.82848208466752
 10
12.3477964739828
 20
17.79885315506751
 10
12.3501139733828
 20
17.76585756236752
 10
12.35103651018279
 20
17.72961973936751
 10
12.35126292928279
 20
17.69084016756752
  0
CIRCLE
  5
2C4C
330
50A
100
AcDbEntity
  8
0
  6
Continuous
100
AcDbCircle
 10
11.86624903976623
 20
18.57323797328522
 30
0.0
 40
0.34375
  0
CIRCLE
  5
2C4D
330
50A
100
AcDbEntity
  8
0
  6
HIDDEN
100
AcDbCircle
 10
11.86624903976623
 20
18.57323797328522
 30
0.0
 40
0.1875
  0
ARC
  5
2C4E
330
50A
100
AcDbEntity
  8
0
100
AcDbCircle
 10
12.08727368213992
 20
18.62245672328343
 30
0.0
 40
0.45703125
100
AcDbArc
 50
0.0
 51
86.01926126028698
  0
ARC
  5
2C4F
330
50A
100
AcDbEntity
  8
0
  6
Continuous
100
AcDbCircle
 10
12.1190013016979
 20
18.62245672328343
 30
0.0
 40
0.25
100
AcDbArc
 50
0.0
 51
90.00000000000003
  0
ARC
  5
2C50
330
50A
100
AcDbEntity
  8
0
  6
HIDDEN
100
AcDbCircle
 10
12.08825267342576
 20
18.76698797328343
 30
0.0
 40
0.28125
100
AcDbArc
 50
0.0
 51
90.00000000000003
  0
ARC
  5
2C51
330
50A
100
AcDbEntity
  8
0
  6
HIDDEN
100
AcDbCircle
 10
11.88075267342577
 20
17.19323797328522
 30
0.0
 40
0.34375
100
AcDbArc
 50
270.0
 51
90.00000000000003
  0
LINE
  5
2C52
330
50A
100
AcDbEntity
  8
0
100
AcDbLine
 10
12.28127870433279
 20
16.83095802596751
 30
0.0
 11
12.28127870433279
 21
17.46970802596751
 31
0.0
  0
LINE
  5
2C53
330
50A
100
AcDbEntity
  8
0
100
AcDbLine
 10
12.35127880278279
 20
17.65132153106752
 30
0.0
 11
12.35127877016414
 21
17.48533302596751
 31
0.0
  0
ARC
  5
2C54
330
50A
100
AcDbEntity
  8
0
100
AcDbCircle
 10
12.29690370433279
 20
17.46970802596751
 30
0.0
 40
0.015625
100
AcDbArc
 50
90.00000000000003
 51
180.0
  0
LINE
  5
2C55
330
50A
100
AcDbEntity
  8
0
100
AcDbLine
 10
12.29690370433279
 20
17.48533302596751
 30
0.0
 11
12.35127877016414
 21
17.48533302596751
 31
0.0
  0
LWPOLYLINE
  5
2C56
330
50A
100
AcDbEntity
  8
0
100
AcDbPolyline
 90
       11
 70
     0
 43
0.0
 10
12.35127880278279
 20
16.64934452086752
 10
12.35126292928279
 20
16.56931881276751
 10
12.3510365095828
 20
16.49175968466752
 10
12.35011397198279
 20
16.41928405506751
 10
12.3477964711828
 20
16.35329288506752
 10
12.34315866568279
 20
16.29403504016752
 10
12.33528411988279
 20
16.24365561416752
 10
12.32343889218279
 20
16.20367269136752
 10
12.30668727178279
 20
16.17421130346752
 10
12.28451821078279
 20
16.15625984376752
 10
12.25714764848279
 20
16.15033308276752
  0
LINE
  5
2C57
330
50A
100
AcDbEntity
  8
0
100
AcDbLine
 10
12.35127863850144
 20
16.81533302596751
 30
0.0
 11
12.3512786058828
 21
16.64934452086752
 31
0.0
  0
ARC
  5
2C58
330
50A
100
AcDbEntity
  8
0
100
AcDbCircle
 10
12.29690370433279
 20
16.83095802596751
 30
0.0
 40
0.015625
100
AcDbArc
 50
180.0
 51
270.0
  0
LWPOLYLINE
  5
2C59
330
50A
100
AcDbEntity
  8
0
100
AcDbPolyline
 90
       10
 70
     0
 43
0.0
 10
12.35126292928279
 20
16.60982594776752
 10
12.3510365095828
 20
16.57104638376752
 10
12.35011397198279
 20
16.53480856896751
 10
12.3477964711828
 20
16.50181298386752
 10
12.34315866568279
 20
16.47218406146752
 10
12.33528411988279
 20
16.44699434846752
 10
12.32343889218279
 20
16.42700288706752
 10
12.30668727178279
 20
16.41227219316752
 10
12.28451821078279
 20
16.40329646326752
 10
12.25714764848279
 20
16.40033308276752
  0
LINE
  5
2C5A
330
50A
100
AcDbEntity
  8
0
100
AcDbLine
 10
12.35127863850144
 20
16.81533302596751
 30
0.0
 11
12.29690370433279
 21
16.81533302596751
 31
0.0
  0
LINE
  5
2C5B
330
50A
100
AcDbEntity
  8
0
100
AcDbLine
 10
12.54450267342573
 20
15.443719021056
 30
0.0
 11
12.20027162565495
 21
15.09948797328522
 31
0.0
  0
LINE
  5
2C5C
330
50A
100
AcDbEntity
  8
0
  6
Continuous
100
AcDbLine
 10
3.487892320734584
 20
6.901526896361489
 30
0.0
 11
1.414502745253181
 21
10.42209157040068
 31
0.0
  0
LINE
  5
2C5D
330
50A
100
AcDbEntity
  8
0
100
AcDbLine
 10
-0.4908576792636197
 20
6.922091570400704
 30
0.0
 11
-0.4908576792636197
 21
6.219941570400685
 31
0.0
  0
LINE
  5
2C5E
330
50A
100
AcDbEntity
  8
0
  6
Continuous
100
AcDbLine
 10
-0.351557679263621
 20
10.42209157040069
 30
0.0
 11
-0.351557679263621
 21
6.92209157040071
 31
0.0
  0
LINE
  5
2C5F
330
50A
100
AcDbEntity
  8
0
  6
Continuous
100
AcDbLine
 10
-0.5233576792636185
 20
10.42209157040069
 30
0.0
 11
-0.5233576792636185
 21
6.922091570400703
 31
0.0
  0
LINE
  5
2C60
330
50A
100
AcDbEntity
  8
0
  6
HIDDEN
100
AcDbLine
 10
0.8941423207345807
 20
7.559046848921504
 30
0.0
 11
1.894142320734581
 21
7.559046848921504
 31
0.0
  0
LINE
  5
2C61
330
50A
100
AcDbEntity
  8
0
  6
HIDDEN
100
AcDbLine
 10
0.8941423207345807
 20
7.794046848921504
 30
0.0
 11
1.894142320734581
 21
7.794046848921504
 31
0.0
  0
LINE
  5
2C62
330
50A
100
AcDbEntity
  8
0
100
AcDbLine
 10
1.050392320734567
 20
6.219941570400685
 30
0.0
 11
-0.4908576792636197
 21
6.219941570400685
 31
0.0
  0
ARC
  5
2C63
330
50A
100
AcDbEntity
  8
0
  6
Continuous
100
AcDbCircle
 10
1.394142320734581
 20
6.368189845401233
 30
0.0
 40
0.34375
100
AcDbArc
 50
0.000000000000007
 51
180.0
  0
LINE
  5
2C64
330
50A
100
AcDbEntity
  8
0
  6
Continuous
100
AcDbLine
 10
1.737892320734581
 20
6.219941570400685
 30
0.0
 11
1.737892320734581
 21
6.402091570400707
 31
0.0
  0
LINE
  5
2C65
330
50A
100
AcDbEntity
  8
0
  6
Continuous
100
AcDbLine
 10
1.050392320734567
 20
6.219941570400685
 30
0.0
 11
1.050392320734567
 21
6.402091570400707
 31
0.0
  0
CIRCLE
  5
2C66
330
50A
100
AcDbEntity
  8
0
  6
Continuous
100
AcDbCircle
 10
2.783281616323851
 20
6.611109587103641
 30
0.0
 40
0.34375
  0
LINE
  5
2C67
330
50A
100
AcDbEntity
  8
0
  6
Continuous
100
AcDbLine
 10
3.487892320734581
 20
6.219941570400685
 30
0.0
 11
3.487892320734581
 21
6.901526896361496
 31
0.0
  0
LINE
  5
2C68
330
50A
100
AcDbEntity
  8
0
100
AcDbLine
 10
3.487892320734584
 20
6.219941570400685
 30
0.0
 11
1.737892320734577
 21
6.219941570400685
 31
0.0
  0
ARC
  5
2C69
330
50A
100
AcDbEntity
  8
0
  6
HIDDEN
100
AcDbCircle
 10
1.894142320734581
 20
7.309046848921504
 30
0.0
 40
0.485
100
AcDbArc
 50
0.000000000000007
 51
90.0
  0
LINE
  5
2C6A
330
50A
100
AcDbEntity
  8
0
  6
HIDDEN
100
AcDbLine
 10
1.737892320734581
 20
6.394941570400711
 30
0.0
 11
3.478753025145309
 21
6.394941570400683
 31
0.0
  0
CIRCLE
  5
2C6B
330
50A
100
AcDbEntity
  8
0
  6
HIDDEN
100
AcDbCircle
 10
2.783281616323851
 20
6.611109587103641
 30
0.0
 40
0.176
  0
LINE
  5
2C6C
330
50A
100
AcDbEntity
  8
0
  6
HIDDEN
100
AcDbLine
 10
2.379142320734594
 20
7.309046848921504
 30
0.0
 11
2.379142320734594
 21
6.419055407821496
 31
0.0
  0
ARC
  5
2C6D
330
50A
100
AcDbEntity
  8
0
  6
HIDDEN
100
AcDbCircle
 10
1.894142320734581
 20
7.309046848921504
 30
0.0
 40
0.25
100
AcDbArc
 50
0.000000000000007
 51
90.0
  0
ARC
  5
2C6E
330
50A
100
AcDbEntity
  8
0
  6
Continuous
100
AcDbCircle
 10
1.394142320734581
 20
6.402091570400707
 30
0.0
 40
0.34375
100
AcDbArc
 50
0.000000000000007
 51
180.0
  0
LINE
  5
2C6F
330
50A
100
AcDbEntity
  8
0
  6
HIDDEN
100
AcDbLine
 10
2.144142320734581
 20
7.309046848921504
 30
0.0
 11
2.144142320734581
 21
6.419055407821496
 31
0.0
  0
LINE
  5
2C70
330
50A
100
AcDbEntity
  8
0
  6
HIDDEN
100
AcDbLine
 10
1.862892320734581
 20
7.559046848921504
 30
0.0
 11
1.862892320734581
 21
7.794046848921504
 31
0.0
  0
CIRCLE
  5
2C71
330
50A
100
AcDbEntity
  8
0
  6
Continuous
100
AcDbCircle
 10
0.0232816163238532
 20
6.611109587103641
 30
0.0
 40
0.34375
  0
ARC
  5
2C72
330
50A
100
AcDbEntity
  8
0
  6
Continuous
100
AcDbCircle
 10
-0.3983576792636185
 20
7.515841570400674
 30
0.0
 40
0.28125
100
AcDbArc
 50
314.9999999999981
 51
80.42142702614657
  0
LINE
  5
2C73
330
50A
100
AcDbEntity
  8
0
  6
HIDDEN
100
AcDbLine
 10
-0.4596076792636197
 20
6.394941570400739
 30
0.0
 11
1.019142320734567
 21
6.394941570400725
 31
0.0
  0
LINE
  5
2C74
330
50A
100
AcDbEntity
  8
0
  6
Continuous
100
AcDbLine
 10
-0.1994838970548969
 20
7.316967788191981
 30
0.0
 11
-0.351557679263621
 21
7.164894005983271
 31
0.0
  0
ARC
  5
2C75
330
50A
100
AcDbEntity
  8
0
  6
HIDDEN
100
AcDbCircle
 10
0.8941423207345807
 20
7.309046848921504
 30
0.0
 40
0.25
100
AcDbArc
 50
90.0
 51
180.0
  0
ARC
  5
2C76
330
50A
100
AcDbEntity
  8
0
  6
HIDDEN
100
AcDbCircle
 10
0.8941423207345807
 20
7.309046848921504
 30
0.0
 40
0.485
100
AcDbArc
 50
90.0
 51
180.0
  0
LINE
  5
2C77
330
50A
100
AcDbEntity
  8
0
  6
HIDDEN
100
AcDbLine
 10
0.6441423207345807
 20
7.309046848921504
 30
0.0
 11
0.6441423207345807
 21
6.419055407821496
 31
0.0
  0
LINE
  5
2C78
330
50A
100
AcDbEntity
  8
0
  6
HIDDEN
100
AcDbLine
 10
0.4091423207345954
 20
7.309046848921504
 30
0.0
 11
0.4091423207345954
 21
6.419055407821496
 31
0.0
  0
CIRCLE
  5
2C79
330
50A
100
AcDbEntity
  8
0
  6
HIDDEN
100
AcDbCircle
 10
0.0232816163238532
 20
6.611109587103641
 30
0.0
 40
0.176
  0
LINE
  5
2C7A
330
50A
100
AcDbEntity
  8
0
  6
HIDDEN
100
AcDbLine
 10
0.9253923207345807
 20
7.559046848921504
 30
0.0
 11
0.9253923207345807
 21
7.794046848921504
 31
0.0
  0
LINE
  5
2C7B
330
50A
100
AcDbEntity
  8
0
  6
Continuous
100
AcDbLine
 10
-0.351557679263621
 20
7.164894005983271
 30
0.0
 11
-0.5233576792636185
 21
6.993094005983288
 31
0.0
  0
LINE
  5
2C7C
330
50A
100
AcDbEntity
  8
0
100
AcDbLine
 10
-0.4908576792636197
 20
6.922091570400704
 30
0.0
 11
-0.5233576792636185
 21
6.922091570400703
 31
0.0
  0
LINE
  5
2C7D
330
50A
100
AcDbEntity
  8
0
100
AcDbLine
 10
-0.351557679263621
 20
6.92209157040071
 30
0.0
 11
-0.4908576792636197
 21
6.922091570400704
 31
0.0
  0
LINE
  5
2C7E
330
50A
100
AcDbEntity
  8
0
  6
Continuous
100
AcDbLine
 10
1.414502745253181
 20
10.42209157040068
 30
0.0
 11
-0.5233576792636185
 21
10.42209157040069
 31
0.0
  0
LINE
  5
2C82
330
50A
100
AcDbEntity
  8
0
  6
HIDDEN
100
AcDbLine
 10
-0.4908576792636197
 20
6.922091570400704
 30
0.0
 11
-0.4908576792636197
 21
10.42209157040069
 31
0.0
  0
ENDSEC
  0
SECTION
  2
OBJECTS
  0
DICTIONARY
  5
4FF
330
0
100
AcDbDictionary
281
     1
  3
ACAD_COLOR
350
2C87
  3
ACAD_GROUP
350
500
  3
ACAD_LAYOUT
350
627
  3
ACAD_MATERIAL
350
2C86
  3
ACAD_MLINESTYLE
350
50D
  3
ACAD_PLOTSETTINGS
350
628
  3
ACAD_PLOTSTYLENAME
350
625
  3
ACAD_TABLESTYLE
350
2C88
  3
ACDBHEADERROUNDTRIPXREC
350
2C95
  3
ACDBVARIABLEDICTIONARY
350
552
  3
ASE_INDEX_DICTIONARY
350
25BF
  0
DICTIONARY
  5
2A80
330
4F5
100
AcDbDictionary
280
     1
281
     1
  3
ACAD_LAYERFILTERS
360
2A81
  0
DICTIONARY
  5
2C87
102
{ACAD_REACTORS
330
4FF
102
}
330
4FF
100
AcDbDictionary
281
     1
  0
DICTIONARY
  5
500
102
{ACAD_REACTORS
330
4FF
102
}
330
4FF
100
AcDbDictionary
281
     1
  0
DICTIONARY
  5
627
102
{ACAD_REACTORS
330
4FF
102
}
330
4FF
100
AcDbDictionary
281
     1
  3
Layout1
350
62A
  3
Model
350
629
  0
DICTIONARY
  5
2C86
102
{ACAD_REACTORS
330
4FF
102
}
330
4FF
100
AcDbDictionary
281
     1
  0
DICTIONARY
  5
50D
102
{ACAD_REACTORS
330
4FF
102
}
330
4FF
100
AcDbDictionary
281
     1
  3
STANDARD
350
50E
  0
DICTIONARY
  5
628
102
{ACAD_REACTORS
330
4FF
102
}
330
4FF
100
AcDbDictionary
281
     1
  0
ACDBDICTIONARYWDFLT
  5
625
102
{ACAD_REACTORS
330
4FF
102
}
330
4FF
100
AcDbDictionary
281
     1
  3
Normal
350
626
100
AcDbDictionaryWithDefault
340
626
  0
DICTIONARY
  5
2C88
102
{ACAD_REACTORS
330
4FF
102
}
330
4FF
100
AcDbDictionary
281
     1
  3
Standard
350
2C89
  0
DICTIONARY
  5
2C95
102
{ACAD_REACTORS
330
4FF
102
}
330
4FF
100
AcDbDictionary
281
     1
  3
COLORDICT
350
2C96
  3
MATERIALDICT
350
2C97
  0
DICTIONARY
  5
552
102
{ACAD_REACTORS
330
4FF
102
}
330
4FF
100
AcDbDictionary
281
     1
  3
CTABLESTYLE
350
2C92
  3
DIMADEC
350
553
  0
DICTIONARY
  5
25BF
102
{ACAD_REACTORS
330
4FF
102
}
330
4FF
100
AcDbDictionary
281
     1
  3
ASEBlockHierarchyIndexRecord
350
25C0
1001
DCO15
1040
1583223977.501
  0
DICTIONARY
  5
2A81
102
{ACAD_REACTORS
330
2A80
102
}
330
2A80
100
AcDbDictionary
280
     1
281
     1
  3
0
360
2A82
  3
0DWI
360
2A83
  3
1
360
2A84
  3
1-STM
360
2A85
  3
10
360
2A86
  3
11
360
2A87
  3
131
360
2A88
  3
1st
360
2A89
  3
1st Floor
360
2A8A
  3
1STM
360
2A8B
  3
2
360
2A8C
  3
204
360
2A8D
  3
22
360
2A8E
  3
251
360
2A8F
  3
252
360
2A90
  3
253
360
2A91
  3
2nd
360
2A92
  3
2nd Floor
360
2A93
  3
2nd Floor Electrical
360
2A94
  3
3
360
2A95
  3
30
360
2A96
  3
3D
360
2A97
  3
3rd
360
2A98
  3
4
360
2A99
  3
40
360
2A9A
  3
4th
360
2A9B
  3
8
360
2A9C
  3
9
360
2A9D
  3
a
360
2A9E
  3
A-
360
2A9F
  3
A-DOOR
360
2AA0
  3
A-FURN
360
2AA1
  3
A-WALL
360
2AA2
  3
A2A
360
2AA3
  3
A2B
360
2AA4
  3
A2C
360
2AA5
  3
A3A
360
2AA6
  3
A3B
360
2AA7
  3
A3C
360
2AA8
  3
A4A
360
2AA9
  3
A4B
360
2AAA
  3
A4C
360
2AAB
  3
A5A
360
2AAC
  3
A5B
360
2AAD
  3
A5C
360
2AAE
  3
A6A
360
2AAF
  3
A6B
360
2AB0
  3
A6C
360
2AB1
  3
all
360
2AB2
  3
All Options
360
2AB3
  3
All Thawed & On
360
2AB4
  3
ALL8
360
2AB5
  3
ALLON
360
2AB6
  3
an_details
360
2AB7
  3
ARCH
360
2AB8
  3
asdsdf
360
2AB9
  3
at
360
2ABA
  3
audit
360
2ABB
  3
awallext
360
2ABC
  3
awallfdn
360
2ABD
  3
b
360
2ABE
  3
base
360
2ABF
  3
BASE PLAN
360
2AC0
  3
baseline
360
2AC1
  3
basement
360
2AC2
  3
bl
360
2AC3
  3
BLUE
360
2AC4
  3
bndy
360
2AC5
  3
Building Lines
360
2AC6
  3
buildingtext
360
2AC7
  3
C-PTS
360
2AC8
  3
Cabinets
360
2AC9
  3
CEILING
360
2ACA
  3
CEILINGC
360
2ACB
  3
CIVIL
360
2ACC
  3
CL
360
2ACD
  3
cl-alley
360
2ACE
  3
clg
360
2ACF
  3
CMU
360
2AD0
  3
color
360
2AD1
  3
COLOR 15
360
2AD2
  3
color 254
360
2AD3
  3
color 9
360
2AD4
  3
COLOR10
360
2AD5
  3
COLOR132
360
2AD6
  3
COMP
360
2AD7
  3
con
360
2AD8
  3
construction
360
2AD9
  3
CONT
360
2ADA
  3
contour
360
2ADB
  3
CONTOURS
360
2ADC
  3
CRA-FUN
360
2ADD
  3
curb
360
2ADE
  3
current viewport frozen
360
2ADF
  3
CURRENT VP FROZEN
360
2AE0
  3
dawn
360
2AE1
  3
DD125
360
2AE2
  3
demo
360
2AE3
  3
Demo Layers
360
2AE4
  3
dim
360
2AE5
  3
DIMSONLY
360
2AE6
  3
DITCH
360
2AE7
  3
DOORBADGES
360
2AE8
  3
doors
360
2AE9
  3
DWI
360
2AEA
  3
e
360
2AEB
  3
E1A
360
2AEC
  3
E1B
360
2AED
  3
E1C
360
2AEE
  3
E2A
360
2AEF
  3
E2B
360
2AF0
  3
E2C
360
2AF1
  3
ea
360
2AF2
  3
ELEC
360
2AF3
  3
Electrical
360
2AF4
  3
Elev_
360
2AF5
  3
elevation
360
2AF6
  3
ELEVATIONS
360
2AF7
  3
EOS
360
2AF8
  3
esm
360
2AF9
  3
ESMT
360
2AFA
  3
ex
360
2AFB
  3
Ex2
360
2AFC
  3
exg
360
2AFD
  3
EXIST
360
2AFE
  3
existing
360
2AFF
  3
existing1
360
2B00
  3
existing2
360
2B01
  3
exit
360
2B02
  3
EXTRA
360
2B03
  3
f
360
2B04
  3
fence
360
2B05
  3
filter10
360
2B06
  3
filter13
360
2B07
  3
FINAL PLAT
360
2B08
  3
FIREPROT
360
2B09
  3
First
360
2B0A
  3
First Floor
360
2B0B
  3
FIT
360
2B0C
  3
FITTING
360
2B0D
  3
FITTINGS
360
2B0E
  3
Fixtures
360
2B0F
  3
Flood
360
2B10
  3
FLOOR FINISH
360
2B11
  3
Floor plan
360
2B12
  3
FLOORFINISH
360
2B13
  3
Foundation
360
2B14
  3
FRAME1
360
2B15
  3
freeze
360
2B16
  3
Frez Layers
360
2B17
  3
FROZEN
360
2B18
  3
frozen layers
360
2B19
  3
FURN
360
2B1A
  3
FURNITURE
360
2B1B
  3
GAS
360
2B1C
  3
GENERAL
360
2B1D
  3
GORDY
360
2B1E
  3
green
360
2B1F
  3
grid
360
2B20
  3
GS-DesignWorkshop
360
2B21
  3
HANDICAP
360
2B22
  3
hatch
360
2B23
  3
HEADER
360
2B24
  3
HLA
360
2B25
  3
inlet
360
2B26
  3
int
360
2B27
  3
INTERIOR
360
2B28
  3
K
360
2B29
  3
Kinko Space Plan
360
2B2D
  3
Kinko's Data-Comm Layout
360
2B2A
  3
Kinko's Equipment Layout
360
2B2B
  3
Kinko's Merchandise Layout
360
2B2C
  3
LBL
360
2B2E
  3
Lites
360
2B2F
  3
locked
360
2B30
  3
LOT
360
2B31
  3
lots
360
2B32
  3
lower floor
360
2B33
  3
LS
360
2B34
  3
LSG
360
2B35
  3
MAGENTA
360
2B36
  3
MAIN
360
2B37
  3
Main Floor
360
2B38
  3
MECH
360
2B39
  3
METAL
360
2B3A
  3
MEZ
360
2B3B
  3
MH
360
2B3C
  3
Misc
360
2B3D
  3
MP
360
2B3E
  3
mtl
360
2B3F
  3
NAME
360
2B40
  3
NAMES
360
2B41
  3
new
360
2B42
  3
new1
360
2B43
  3
new2
360
2B44
  3
No Xrefs
360
2B46
  3
NO-PLOT
360
2B45
  3
non-visible
360
2B47
  3
non-xref
360
2B48
  3
notes
360
2B49
  3
NUMS
360
2B4A
  3
OFF
360
2B4B
  3
off layers
360
2B4C
  3
OFF THAW
360
2B4D
  3
OLD
360
2B4E
  3
on
360
2B4F
  3
oPTION
360
2B50
  3
Option 1
360
2B51
  3
Option 2
360
2B52
  3
Option 3
360
2B53
  3
Options
360
2B54
  3
p-
360
2B55
  3
p1
360
2B56
  3
p2
360
2B57
  3
p3
360
2B58
  3
p4
360
2B59
  3
pads
360
2B5A
  3
Pattern
360
2B5B
  3
Patterns
360
2B5C
  3
PAV
360
2B5D
  3
pen1
360
2B5E
  3
pen2
360
2B5F
  3
pen3
360
2B60
  3
pen4
360
2B61
  3
pen5
360
2B62
  3
PH1
360
2B63
  3
PH2
360
2B64
  3
PH3
360
2B65
  3
PH5
360
2B66
  3
Phase 1
360
2B67
  3
Phase 2
360
2B68
  3
PIPE
360
2B69
  3
pl
360
2B6A
  3
PLAN
360
2B6B
  3
Plans
360
2B6C
  3
PLUM
360
2B6D
  3
plumb
360
2B6E
  3
PLUMBING
360
2B6F
  3
Point layers
360
2B70
  3
points
360
2B71
  3
profiles
360
2B72
  3
PROP
360
2B73
  3
proposed
360
2B74
  3
ps2-ref
360
2B75
  3
pt
360
2B76
  3
PTS
360
2B77
  3
quadbuildings
360
2B78
  3
QUADGRID
360
2B79
  3
quadlightinh
360
2B7A
  3
quadroads
360
2B7B
  3
quadtrees
360
2B7C
  3
quadtunnels
360
2B7D
  3
quadutilities
360
2B7E
  3
quadwalks&curbs
360
2B7F
  3
R2
360
2B80
  3
rcp
360
2B81
  3
rds
360
2B82
  3
red
360
2B83
  3
Reflected Cieling
360
2B84
  3
REFRIG
360
2B85
  3
reqw
360
2B86
  3
retainingwalls
360
2B87
  3
rf
360
2B88
  3
RIP-RAP
360
2B89
  3
Roof
360
2B8A
  3
roomnames
360
2B8B
  3
row
360
2B8C
  3
s-layers
360
2B8D
  3
s-llayers
360
2B8E
  3
S-SITE
360
2B8F
  3
SAN
360
2B90
  3
San Sew
360
2B92
  3
san-sew
360
2B91
  3
SAN. SEW.
360
2B93
  3
Sanitary Sewer
360
2B94
  3
sanswr
360
2B95
  3
SECO
360
2B96
  3
SECOND
360
2B97
  3
Second Floor
360
2B98
  3
secondfloor
360
2B99
  3
septic
360
2B9A
  3
shade off
360
2B9B
  3
Show ALL (ABND)
360
2B9C
  3
Show ALL (DETL)
360
2B9D
  3
Show ALL (EXST)
360
2B9E
  3
Show ALL (FUTR)
360
2B9F
  3
Show ALL (PKNG)
360
2BA0
  3
Show ALL (PROP)
360
2BA1
  3
Show ALL (ROAD)
360
2BA2
  3
Show ALL (STRU)
360
2BA3
  3
Show all BORDERS
360
2BA4
  3
Show all PATTERNS
360
2BA5
  3
Show all Rendering
360
2BA6
  3
SHT
360
2BA7
  3
Silte Layers
360
2BA8
  3
Site
360
2BA9
  3
Slab
360
2BAA
  3
Slayers
360
2BAB
  3
Square Footage
360
2BAC
  3
ss
360
2BAD
  3
SSMH
360
2BAE
  3
STA
360
2BAF
  3
STAIRS
360
2BB0
  3
Standard Layers
360
2BB1
  3
stations
360
2BB2
  3
STM
360
2BB3
  3
STRBASE
360
2BB4
  3
STREET
360
2BB5
  3
STRU
360
2BB6
  3
STRUCTURALFOUNDATION
360
2BB7
  3
stucco
360
2BB8
  3
SURVEY
360
2BB9
  3
SW
360
2BBA
  3
SYM
360
2BBB
  3
SYMBOLLEGEND
360
2BBC
  3
TEMP
360
2BBD
  3
TEXT
360
2BBE
  3
thaw
360
2BBF
  3
thawed
360
2BC0
  3
THAWEDandON
360
2BC1
  3
tree
360
2BC2
  3
TURNER
360
2BC3
  3
Upper Floor
360
2BC4
  3
UpperNew
360
2BC5
  3
utilitytext
360
2BC6
  3
visible
360
2BC7
  3
WALK
360
2BC8
  3
wall
360
2BC9
  3
WALLS
360
2BCA
  3
WALLSONLY
360
2BCB
  3
WAT
360
2BCC
  3
WATER
360
2BCD
  3
WATER FITTINGS
360
2BCE
  3
WaterShed
360
2BCF
  3
white
360
2BD0
  3
WW
360
2BD1
  3
Xref
360
2BD2
  3
XX
360
2BD3
  0
LAYOUT
  5
62A
102
{ACAD_REACTORS
330
627
102
}
102
{ACAD_XDICTIONARY
360
2C98
102
}
330
627
100
AcDbPlotSettings
  1

  2
C:\ACAD2000\plotters\HP LaserJet 2100 Series PS.pc3
  4

  6

 40
0.0
 41
0.0
 42
0.0
 43
0.0
 44
0.0
 45
0.0
 46
0.0
 47
0.0
 48
0.0
 49
0.0
140
0.0
141
0.0
142
1.0
143
1.0
 70
   688
 72
     0
 73
     0
 74
     5
  7

 75
    16
147
1.0
148
0.0
149
0.0
100
AcDbLayout
  1
Layout1
 70
     0
 71
     1
 10
0.0
 20
0.0
 11
12.0
 21
9.0
 12
0.0
 22
0.0
 32
0.0
 14
1.000000000000000E+20
 24
1.000000000000000E+20
 34
1.000000000000000E+20
 15
-1.000000000000000E+20
 25
-1.000000000000000E+20
 35
-1.000000000000000E+20
146
0.0
 13
0.0
 23
0.0
 33
0.0
 16
1.0
 26
0.0
 36
0.0
 17
0.0
 27
1.0
 37
0.0
 76
     0
330
507
  0
LAYOUT
  5
629
102
{ACAD_REACTORS
330
627
102
}
102
{ACAD_XDICTIONARY
360
2C9A
102
}
330
627
100
AcDbPlotSettings
  1

  2
HP LaserJet 2100 Series PS
  4
Letter
  6
PLOTTER
 40
5.365749835968018
 41
5.365735054016113
 42
3.175003051757813
 43
3.17498779296875
 44
210.4813232421875
 45
273.9813232421875
 46
0.0
 47
0.254
 48
0.0
 49
0.0
140
0.0
141
0.0
142
1.0
143
3.0187099052458
 70
 28340
 72
     0
 73
     1
 74
     2
  7

 75
     0
147
0.3312673398203112
148
0.0
149
0.0
100
AcDbLayout
  1
Model
 70
     1
 71
     0
 10
0.0
 20
0.0
 11
12.0
 21
9.0
 12
0.0
 22
0.0
 32
0.0
 14
0.0
 24
0.0
 34
0.0
 15
0.0
 25
0.0
 35
0.0
146
0.0
 13
0.0
 23
0.0
 33
0.0
 16
1.0
 26
0.0
 36
0.0
 17
0.0
 27
1.0
 37
0.0
 76
     0
330
50A
  0
MLINESTYLE
  5
50E
102
{ACAD_REACTORS
330
50D
102
}
330
50D
100
AcDbMlineStyle
  2
STANDARD
 70
     0
  3

 62
   256
 51
90.0
 52
90.0
 71
     2
 49
0.5
 62
   256
  6
BYLAYER
 49
-0.5
 62
   256
  6
BYLAYER
  0
ACDBPLACEHOLDER
  5
626
102
{ACAD_REACTORS
330
625
102
}
330
625
  0
ACAD_PROXY_OBJECT
  5
2C89
102
{ACAD_REACTORS
330
2C88
102
}
330
2C88
100
AcDbProxyObject
 90
      499
 91
      518
 95
   983063
 70
     0
 93
     1841
310
4214DD185B99185C9928B81E85EB51B8AE3F2E07A17AD46E2B8FC02B5E8DC0F42B1CFD028000000C1008070000C3001FDFF8000000C1003FBFF000000182007F7FE00000030400FEFFC00000060801FDFF8000000C1003FBFF00000018200000000000000681FA0B0000001820100E000186003FBFF000000182007F7FE000
310
00030400FEFFC00000060801FDFF8000000C1003FBFF000000182007F7FE000000304000AD7A3703D0AC73F4160000003040201C00030C007F7FE00000030400FEFFC00000060801FDFF8000000C1003FBFF000000182007F7FE00000030400FEFFC000000608000
340
502
340
502
340
502
 94
        0
  0
XRECORD
  5
2C96
102
{ACAD_REACTORS
330
2C95
102
}
330
2C95
100
AcDbXrecord
340
2C87
  0
XRECORD
  5
2C97
102
{ACAD_REACTORS
330
2C95
102
}
330
2C95
100
AcDbXrecord
340
2C86
  0
DICTIONARYVAR
  5
2C92
102
{ACAD_REACTORS
330
552
102
}
330
552
100
DictionaryVariables
280
     0
  1
STANDARD
  0
DICTIONARYVAR
  5
553
102
{ACAD_REACTORS
330
552
102
}
330
552
100
DictionaryVariables
280
     0
  1
0
  0
XRECORD
  5
25C0
102
{ACAD_REACTORS
330
25BF
102
}
330
25BF
100
AcDbXrecord
280
     1
330
0
330
0
330
0
330
0
330
0
  0
XRECORD
  5
2A82
102
{ACAD_REACTORS
330
2A81
102
}
330
2A81
100
AcDbXrecord
280
     1
  1
0
  1
*0
  1
*
  1
*
 70
     0
  1
*
  1
*
  0
XRECORD
  5
2A83
102
{ACAD_REACTORS
330
2A81
102
}
330
2A81
100
AcDbXrecord
280
     1
  1
0DWI
  1
0DWI*
  1
*
  1
*
 70
     0
  1
*
  1
*
  0
XRECORD
  5
2A84
102
{ACAD_REACTORS
330
2A81
102
}
330
2A81
100
AcDbXrecord
280
     1
  1
1
  1
*
  1
*
  1
*
 70
    64
  1
*
  1
*
  0
XRECORD
  5
2A85
102
{ACAD_REACTORS
330
2A81
102
}
330
2A81
100
AcDbXrecord
280
     1
  1
1-STM
  1
*990661-STM*
  1
*
  1
*
 70
     0
  1
*
  1
*
  0
XRECORD
  5
2A86
102
{ACAD_REACTORS
330
2A81
102
}
330
2A81
100
AcDbXrecord
280
     1
  1
10
  1
*
  1
10
  1
*
 70
     0
  1
*
  1
*
  0
XRECORD
  5
2A87
102
{ACAD_REACTORS
330
2A81
102
}
330
2A81
100
AcDbXrecord
280
     1
  1
11
  1
*
  1
11
  1
*
 70
     0
  1
*
  1
*
  0
XRECORD
  5
2A88
102
{ACAD_REACTORS
330
2A81
102
}
330
2A81
100
AcDbXrecord
280
     1
  1
131
  1
*
  1
*131*
  1
*
 70
     0
  1
*
  1
*
  0
XRECORD
  5
2A89
102
{ACAD_REACTORS
330
2A81
102
}
330
2A81
100
AcDbXrecord
280
     1
  1
1st
  1
1st*
  1
*
  1
*
 70
     0
  1
*
  1
*
  0
XRECORD
  5
2A8A
102
{ACAD_REACTORS
330
2A81
102
}
330
2A81
100
AcDbXrecord
280
     1
  1
1st Floor
  1
1*
  1
*
  1
*
 70
     0
  1
*
  1
*
  0
XRECORD
  5
2A8B
102
{ACAD_REACTORS
330
2A81
102
}
330
2A81
100
AcDbXrecord
280
     1
  1
1STM
  1
*1STM*
  1
*
  1
*
 70
     0
  1
*
  1
*
  0
XRECORD
  5
2A8C
102
{ACAD_REACTORS
330
2A81
102
}
330
2A81
100
AcDbXrecord
280
     1
  1
2
  1
*2
  1
*
  1
*
 70
     0
  1
*
  1
*
  0
XRECORD
  5
2A8D
102
{ACAD_REACTORS
330
2A81
102
}
330
2A81
100
AcDbXrecord
280
     1
  1
204
  1
*204*
  1
*
  1
*
 70
     0
  1
*
  1
*
  0
XRECORD
  5
2A8E
102
{ACAD_REACTORS
330
2A81
102
}
330
2A81
100
AcDbXrecord
280
     1
  1
22
  1
*
  1
*22*
  1
*
 70
     0
  1
*
  1
*
  0
XRECORD
  5
2A8F
102
{ACAD_REACTORS
330
2A81
102
}
330
2A81
100
AcDbXrecord
280
     1
  1
251
  1
*
  1
251
  1
*
 70
     0
  1
*
  1
*
  0
XRECORD
  5
2A90
102
{ACAD_REACTORS
330
2A81
102
}
330
2A81
100
AcDbXrecord
280
     1
  1
252
  1
*
  1
252
  1
*
 70
     0
  1
*
  1
*
  0
XRECORD
  5
2A91
102
{ACAD_REACTORS
330
2A81
102
}
330
2A81
100
AcDbXrecord
280
     1
  1
253
  1
*
  1
253
  1
*
 70
     0
  1
*
  1
*
  0
XRECORD
  5
2A92
102
{ACAD_REACTORS
330
2A81
102
}
330
2A81
100
AcDbXrecord
280
     1
  1
2nd
  1
2nd*
  1
*
  1
*
 70
     0
  1
*
  1
*
  0
XRECORD
  5
2A93
102
{ACAD_REACTORS
330
2A81
102
}
330
2A81
100
AcDbXrecord
280
     1
  1
2nd Floor
  1
2*
  1
*
  1
*
 70
     0
  1
*
  1
*
  0
XRECORD
  5
2A94
102
{ACAD_REACTORS
330
2A81
102
}
330
2A81
100
AcDbXrecord
280
     1
  1
2nd Floor Electrical
  1
2*Elec*,2*Powr*,2*Lite*
  1
*
  1
*
 70
     0
  1
*
  1
*
  0
XRECORD
  5
2A95
102
{ACAD_REACTORS
330
2A81
102
}
330
2A81
100
AcDbXrecord
280
     1
  1
3
  1
*
  1
*3
  1
*
 70
     0
  1
*
  1
*
  0
XRECORD
  5
2A96
102
{ACAD_REACTORS
330
2A81
102
}
330
2A81
100
AcDbXrecord
280
     1
  1
30
  1
*
  1
*30
  1
*
 70
     0
  1
*
  1
*
  0
XRECORD
  5
2A97
102
{ACAD_REACTORS
330
2A81
102
}
330
2A81
100
AcDbXrecord
280
     1
  1
3D
  1
*3D*
  1
*
  1
*
 70
     0
  1
*
  1
*
  0
XRECORD
  5
2A98
102
{ACAD_REACTORS
330
2A81
102
}
330
2A81
100
AcDbXrecord
280
     1
  1
3rd
  1
3rd*
  1
*
  1
*
 70
     0
  1
*
  1
*
  0
XRECORD
  5
2A99
102
{ACAD_REACTORS
330
2A81
102
}
330
2A81
100
AcDbXrecord
280
     1
  1
4
  1
*
  1
4*
  1
*
 70
     0
  1
*
  1
*
  0
XRECORD
  5
2A9A
102
{ACAD_REACTORS
330
2A81
102
}
330
2A81
100
AcDbXrecord
280
     1
  1
40
  1
*
  1
*40
  1
*
 70
     0
  1
*
  1
*
  0
XRECORD
  5
2A9B
102
{ACAD_REACTORS
330
2A81
102
}
330
2A81
100
AcDbXrecord
280
     1
  1
4th
  1
*4th
  1
*
  1
*
 70
     0
  1
*
  1
*
  0
XRECORD
  5
2A9C
102
{ACAD_REACTORS
330
2A81
102
}
330
2A81
100
AcDbXrecord
280
     1
  1
8
  1
*
  1
8
  1
*
 70
     0
  1
*
  1
*
  0
XRECORD
  5
2A9D
102
{ACAD_REACTORS
330
2A81
102
}
330
2A81
100
AcDbXrecord
280
     1
  1
9
  1
*
  1
9
  1
*
 70
     0
  1
*
  1
*
  0
XRECORD
  5
2A9E
102
{ACAD_REACTORS
330
2A81
102
}
330
2A81
100
AcDbXrecord
280
     1
  1
a
  1
a*
  1
*
  1
*
 70
     0
  1
*
  1
*
  0
XRECORD
  5
2A9F
102
{ACAD_REACTORS
330
2A81
102
}
330
2A81
100
AcDbXrecord
280
     1
  1
A-
  1
*
  1
*
  1
*
 70
     0
  1
*
  1
*
  0
XRECORD
  5
2AA0
102
{ACAD_REACTORS
330
2A81
102
}
330
2A81
100
AcDbXrecord
280
     1
  1
A-DOOR
  1
*
  1
*
  1
*
 70
     0
  1
*
  1
*
  0
XRECORD
  5
2AA1
102
{ACAD_REACTORS
330
2A81
102
}
330
2A81
100
AcDbXrecord
280
     1
  1
A-FURN
  1
*
  1
*
  1
*
 70
     0
  1
*
  1
*
  0
XRECORD
  5
2AA2
102
{ACAD_REACTORS
330
2A81
102
}
330
2A81
100
AcDbXrecord
280
     1
  1
A-WALL
  1
*A-WALL*
  1
*
  1
*
 70
     0
  1
*
  1
*
  0
XRECORD
  5
2AA3
102
{ACAD_REACTORS
330
2A81
102
}
330
2A81
100
AcDbXrecord
280
     1
  1
A2A
  1
*-B-*,*-C-*,*APPLI*,E-*,*ELEC*
  1
*
  1
*
 70
     0
  1
*
  1
*
  0
XRECORD
  5
2AA4
102
{ACAD_REACTORS
330
2A81
102
}
330
2A81
100
AcDbXrecord
280
     1
  1
A2B
  1
*-A-*,*-C-*,*APPLI*,E-*,*ELEC*
  1
*
  1
*
 70
     0
  1
*
  1
*
  0
XRECORD
  5
2AA5
102
{ACAD_REACTORS
330
2A81
102
}
330
2A81
100
AcDbXrecord
280
     1
  1
A2C
  1
*-A-*,*-B-*,*APPLI*,E-*,*ELEC*
  1
*
  1
*
 70
     0
  1
*
  1
*
  0
XRECORD
  5
2AA6
102
{ACAD_REACTORS
330
2A81
102
}
330
2A81
100
AcDbXrecord
280
     1
  1
A3A
  1
*-4-*,*-B-*,*-C-*,*BEAM*,*ROOF*,*TRUS*,E-*,*ELEC*
  1
*
  1
*
 70
     0
  1
*
  1
*
  0
XRECORD
  5
2AA7
102
{ACAD_REACTORS
330
2A81
102
}
330
2A81
100
AcDbXrecord
280
     1
  1
A3B
  1
*-4-*,*-A-*,*-C-*,*BEAM*,*ROOF*,*TRUS*,E-*,*ELEC*
  1
*
  1
*
 70
     0
  1
*
  1
*
  0
XRECORD
  5
2AA8
102
{ACAD_REACTORS
330
2A81
102
}
330
2A81
100
AcDbXrecord
280
     1
  1
A3C
  1
*-4-*,*-A-*,*-B-*,*BEAM*,*ROOF*,*TRUS*,E-*,*ELEC*
  1
*
  1
*
 70
     0
  1
*
  1
*
  0
XRECORD
  5
2AA9
102
{ACAD_REACTORS
330
2A81
102
}
330
2A81
100
AcDbXrecord
280
     1
  1
A4A
  1
*-3-*,*-B-*,*-C-*,*DIM*,*APPLI*,*HATCH*,E-*,*ELEC*
  1
*
  1
*
 70
     0
  1
*
  1
*
  0
XRECORD
  5
2AAA
102
{ACAD_REACTORS
330
2A81
102
}
330
2A81
100
AcDbXrecord
280
     1
  1
A4B
  1
*-3-*,*-A-*,*-C-*,*DIM*,*APPLI*,*HATCH*,E-*,*ELEC*
  1
*
  1
*
 70
     0
  1
*
  1
*
  0
XRECORD
  5
2AAB
102
{ACAD_REACTORS
330
2A81
102
}
330
2A81
100
AcDbXrecord
280
     1
  1
A4C
  1
*-3-*,*-A-*,*-B-*,*DIM*,*APPLI*,*HATCH*,E-*,*ELEC*
  1
*
  1
*
 70
     0
  1
*
  1
*
  0
XRECORD
  5
2AAC
102
{ACAD_REACTORS
330
2A81
102
}
330
2A81
100
AcDbXrecord
280
     1
  1
A5A
  1
*-6-*,*-B-*,*-C-*,*BEAM*,*ROOF*,*TRUS*,E-*
  1
*
  1
*
 70
     0
  1
*
  1
*
  0
XRECORD
  5
2AAD
102
{ACAD_REACTORS
330
2A81
102
}
330
2A81
100
AcDbXrecord
280
     1
  1
A5B
  1
*-6-*,*-A-*,*-C-*,*BEAM*,*ROOF*,*TRUS*,E-*
  1
*
  1
*
 70
     0
  1
*
  1
*
  0
XRECORD
  5
2AAE
102
{ACAD_REACTORS
330
2A81
102
}
330
2A81
100
AcDbXrecord
280
     1
  1
A5C
  1
*-6-*,*-A-*,*-B-*,*BEAM*,*ROOF*,*TRUS*,E-*
  1
*
  1
*
 70
     0
  1
*
  1
*
  0
XRECORD
  5
2AAF
102
{ACAD_REACTORS
330
2A81
102
}
330
2A81
100
AcDbXrecord
280
     1
  1
A6A
  1
*-5-*,*-B-*,*-C-*,*DIM*,*APPLI*,*HATCH*,E-*,*ELEC*
  1
*
  1
*
 70
     0
  1
*
  1
*
  0
XRECORD
  5
2AB0
102
{ACAD_REACTORS
330
2A81
102
}
330
2A81
100
AcDbXrecord
280
     1
  1
A6B
  1
*-5-*,*-A-*,*-C-*,*DIM*,*APPLI*,*HATCH*,E-*,*ELEC*
  1
*
  1
*
 70
     0
  1
*
  1
*
  0
XRECORD
  5
2AB1
102
{ACAD_REACTORS
330
2A81
102
}
330
2A81
100
AcDbXrecord
280
     1
  1
A6C
  1
*-5-*,*-A-*,*-B-*,*DIM*,*APPLI*,*HATCH*,E-*,*ELEC*
  1
*
  1
*
 70
     0
  1
*
  1
*
  0
XRECORD
  5
2AB2
102
{ACAD_REACTORS
330
2A81
102
}
330
2A81
100
AcDbXrecord
280
     1
  1
all
  1
*
  1
*
  1
*
 70
     0
  1
*
  1
*
  0
XRECORD
  5
2AB3
102
{ACAD_REACTORS
330
2A81
102
}
330
2A81
100
AcDbXrecord
280
     1
  1
All Options
  1
Option*
  1
*
  1
*
 70
     0
  1
*
  1
*
  0
XRECORD
  5
2AB4
102
{ACAD_REACTORS
330
2A81
102
}
330
2A81
100
AcDbXrecord
280
     1
  1
All Thawed & On
  1
*
  1
*
  1
*
 70
    13
  1
*
  1
*
  0
XRECORD
  5
2AB5
102
{ACAD_REACTORS
330
2A81
102
}
330
2A81
100
AcDbXrecord
280
     1
  1
ALL8
  1
*
  1
8
  1
*
 70
     0
  1
*
  1
*
  0
XRECORD
  5
2AB6
102
{ACAD_REACTORS
330
2A81
102
}
330
2A81
100
AcDbXrecord
280
     1
  1
ALLON
  1
*
  1
*
  1
*
 70
    13
  1
*
  1
*
  0
XRECORD
  5
2AB7
102
{ACAD_REACTORS
330
2A81
102
}
330
2A81
100
AcDbXrecord
280
     1
  1
an_details
  1
*an_details
  1
*
  1
*
 70
     0
  1
*
  1
*
  0
XRECORD
  5
2AB8
102
{ACAD_REACTORS
330
2A81
102
}
330
2A81
100
AcDbXrecord
280
     1
  1
ARCH
  1
A*
  1
*
  1
*
 70
     0
  1
*
  1
*
  0
XRECORD
  5
2AB9
102
{ACAD_REACTORS
330
2A81
102
}
330
2A81
100
AcDbXrecord
280
     1
  1
asdsdf
  1
*
  1
*
  1
*
 70
     5
  1
*
  1
*
  0
XRECORD
  5
2ABA
102
{ACAD_REACTORS
330
2A81
102
}
330
2A81
100
AcDbXrecord
280
     1
  1
at
  1
*at*
  1
*
  1
*
 70
     0
  1
*
  1
*
  0
XRECORD
  5
2ABB
102
{ACAD_REACTORS
330
2A81
102
}
330
2A81
100
AcDbXrecord
280
     1
  1
audit
  1
*audit*
  1
*
  1
*
 70
     0
  1
*
  1
*
  0
XRECORD
  5
2ABC
102
{ACAD_REACTORS
330
2A81
102
}
330
2A81
100
AcDbXrecord
280
     1
  1
awallext
  1
*a-wall-ext,*a-wall-fdn
  1
*
  1
*
 70
     0
  1
*
  1
*
  0
XRECORD
  5
2ABD
102
{ACAD_REACTORS
330
2A81
102
}
330
2A81
100
AcDbXrecord
280
     1
  1
awallfdn
  1
*a-wall-fdn
  1
*
  1
*
 70
     0
  1
*
  1
*
  0
XRECORD
  5
2ABE
102
{ACAD_REACTORS
330
2A81
102
}
330
2A81
100
AcDbXrecord
280
     1
  1
b
  1
*topo01b*
  1
*
  1
*
 70
     0
  1
*
  1
*
  0
XRECORD
  5
2ABF
102
{ACAD_REACTORS
330
2A81
102
}
330
2A81
100
AcDbXrecord
280
     1
  1
base
  1
base*
  1
*
  1
*
 70
     0
  1
*
  1
*
  0
XRECORD
  5
2AC0
102
{ACAD_REACTORS
330
2A81
102
}
330
2A81
100
AcDbXrecord
280
     1
  1
BASE PLAN
  1
99440*
  1
*
  1
*
 70
     0
  1
*
  1
*
  0
XRECORD
  5
2AC1
102
{ACAD_REACTORS
330
2A81
102
}
330
2A81
100
AcDbXrecord
280
     1
  1
baseline
  1
*base*
  1
*
  1
*
 70
     0
  1
*
  1
*
  0
XRECORD
  5
2AC2
102
{ACAD_REACTORS
330
2A81
102
}
330
2A81
100
AcDbXrecord
280
     1
  1
basement
  1
*floor-1
  1
*
  1
*
 70
     4
  1
*
  1
*
  0
XRECORD
  5
2AC3
102
{ACAD_REACTORS
330
2A81
102
}
330
2A81
100
AcDbXrecord
280
     1
  1
bl
  1
*bl
  1
*
  1
*
 70
     0
  1
*
  1
*
  0
XRECORD
  5
2AC4
102
{ACAD_REACTORS
330
2A81
102
}
330
2A81
100
AcDbXrecord
280
     1
  1
BLUE
  1
*
  1
BLUE
  1
*
 70
     0
  1
*
  1
*
  0
XRECORD
  5
2AC5
102
{ACAD_REACTORS
330
2A81
102
}
330
2A81
100
AcDbXrecord
280
     1
  1
bndy
  1
*bndy
  1
*
  1
*
 70
     0
  1
*
  1
*
  0
XRECORD
  5
2AC6
102
{ACAD_REACTORS
330
2A81
102
}
330
2A81
100
AcDbXrecord
280
     1
  1
Building Lines
  1
*bl*
  1
*
  1
*
 70
     0
  1
*
  1
*
  0
XRECORD
  5
2AC7
102
{ACAD_REACTORS
330
2A81
102
}
330
2A81
100
AcDbXrecord
280
     1
  1
buildingtext
  1
*bl-tx,*rd-tx
  1
*
  1
*
 70
    13
  1
*
  1
*
  0
XRECORD
  5
2AC8
102
{ACAD_REACTORS
330
2A81
102
}
330
2A81
100
AcDbXrecord
280
     1
  1
C-PTS
  1
C-PTS*
  1
*
  1
*
 70
     0
  1
*
  1
*
  0
XRECORD
  5
2AC9
102
{ACAD_REACTORS
330
2A81
102
}
330
2A81
100
AcDbXrecord
280
     1
  1
Cabinets
  1
*Cab*
  1
*
  1
*
 70
     0
  1
*
  1
*
  0
XRECORD
  5
2ACA
102
{ACAD_REACTORS
330
2A81
102
}
330
2A81
100
AcDbXrecord
280
     1
  1
CEILING
  1
CRA-CLG*
  1
*
  1
*
 70
     0
  1
*
  1
*
  0
XRECORD
  5
2ACB
102
{ACAD_REACTORS
330
2A81
102
}
330
2A81
100
AcDbXrecord
280
     1
  1
CEILINGC
  1
CRA-CLG*
  1
*
  1
*
 70
     0
  1
*
  1
*
  0
XRECORD
  5
2ACC
102
{ACAD_REACTORS
330
2A81
102
}
330
2A81
100
AcDbXrecord
280
     1
  1
CIVIL
  1
c*
  1
*
  1
*
 70
     0
  1
*
  1
*
  0
XRECORD
  5
2ACD
102
{ACAD_REACTORS
330
2A81
102
}
330
2A81
100
AcDbXrecord
280
     1
  1
CL
  1
*CL*
  1
*
  1
*
 70
     0
  1
*
  1
*
  0
XRECORD
  5
2ACE
102
{ACAD_REACTORS
330
2A81
102
}
330
2A81
100
AcDbXrecord
280
     1
  1
cl-alley
  1
*cl-alley
  1
*
  1
*
 70
     0
  1
*
  1
*
  0
XRECORD
  5
2ACF
102
{ACAD_REACTORS
330
2A81
102
}
330
2A81
100
AcDbXrecord
280
     1
  1
clg
  1
*clg*
  1
*
  1
*
 70
     0
  1
*
  1
*
  0
XRECORD
  5
2AD0
102
{ACAD_REACTORS
330
2A81
102
}
330
2A81
100
AcDbXrecord
280
     1
  1
CMU
  1
*cmu*
  1
*
  1
*
 70
     0
  1
*
  1
*
  0
XRECORD
  5
2AD1
102
{ACAD_REACTORS
330
2A81
102
}
330
2A81
100
AcDbXrecord
280
     1
  1
color
  1
*white
  1
*
  1
*
 70
     0
  1
*
  1
*
  0
XRECORD
  5
2AD2
102
{ACAD_REACTORS
330
2A81
102
}
330
2A81
100
AcDbXrecord
280
     1
  1
COLOR 15
  1
*
  1
15
  1
*
 70
     0
  1
*
  1
*
  0
XRECORD
  5
2AD3
102
{ACAD_REACTORS
330
2A81
102
}
330
2A81
100
AcDbXrecord
280
     1
  1
color 254
  1
*
  1
254
  1
*
 70
     0
  1
*
  1
*
  0
XRECORD
  5
2AD4
102
{ACAD_REACTORS
330
2A81
102
}
330
2A81
100
AcDbXrecord
280
     1
  1
color 9
  1
*
  1
9
  1
*
 70
     0
  1
*
  1
*
  0
XRECORD
  5
2AD5
102
{ACAD_REACTORS
330
2A81
102
}
330
2A81
100
AcDbXrecord
280
     1
  1
COLOR10
  1
*
  1
10
  1
*
 70
     0
  1
*
  1
*
  0
XRECORD
  5
2AD6
102
{ACAD_REACTORS
330
2A81
102
}
330
2A81
100
AcDbXrecord
280
     1
  1
COLOR132
  1
*
  1
13
  1
*
 70
     0
  1
*
  1
*
  0
XRECORD
  5
2AD7
102
{ACAD_REACTORS
330
2A81
102
}
330
2A81
100
AcDbXrecord
280
     1
  1
COMP
  1
_comp*
  1
*
  1
*
 70
     0
  1
*
  1
*
  0
XRECORD
  5
2AD8
102
{ACAD_REACTORS
330
2A81
102
}
330
2A81
100
AcDbXrecord
280
     1
  1
con
  1
*con*
  1
*
  1
*
 70
     0
  1
*
  1
*
  0
XRECORD
  5
2AD9
102
{ACAD_REACTORS
330
2A81
102
}
330
2A81
100
AcDbXrecord
280
     1
  1
construction
  1
reference
  1
*
  1
*
 70
  3075
  1
*
  1
*
  0
XRECORD
  5
2ADA
102
{ACAD_REACTORS
330
2A81
102
}
330
2A81
100
AcDbXrecord
280
     1
  1
CONT
  1
*CONT*
  1
*
  1
*
 70
     0
  1
*
  1
*
  0
XRECORD
  5
2ADB
102
{ACAD_REACTORS
330
2A81
102
}
330
2A81
100
AcDbXrecord
280
     1
  1
contour
  1
*cont*
  1
*
  1
*
 70
     0
  1
*
  1
*
  0
XRECORD
  5
2ADC
102
{ACAD_REACTORS
330
2A81
102
}
330
2A81
100
AcDbXrecord
280
     1
  1
CONTOURS
  1
*CONT*
  1
*
  1
*
 70
     0
  1
*
  1
*
  0
XRECORD
  5
2ADD
102
{ACAD_REACTORS
330
2A81
102
}
330
2A81
100
AcDbXrecord
280
     1
  1
CRA-FUN
  1
CRA-FUN*
  1
*
  1
*
 70
     0
  1
*
  1
*
  0
XRECORD
  5
2ADE
102
{ACAD_REACTORS
330
2A81
102
}
330
2A81
100
AcDbXrecord
280
     1
  1
curb
  1
*curb*,*edge*
  1
*
  1
*
 70
     0
  1
*
  1
*
  0
XRECORD
  5
2ADF
102
{ACAD_REACTORS
330
2A81
102
}
330
2A81
100
AcDbXrecord
280
     1
  1
current viewport frozen
  1
*
  1
*
  1
*
 70
    16
  1
*
  1
*
  0
XRECORD
  5
2AE0
102
{ACAD_REACTORS
330
2A81
102
}
330
2A81
100
AcDbXrecord
280
     1
  1
CURRENT VP FROZEN
  1
*
  1
*
  1
*
 70
    16
  1
*
  1
*
  0
XRECORD
  5
2AE1
102
{ACAD_REACTORS
330
2A81
102
}
330
2A81
100
AcDbXrecord
280
     1
  1
dawn
  1
*catchbasinare*
  1
*
  1
*
 70
     0
  1
*
  1
*
  0
XRECORD
  5
2AE2
102
{ACAD_REACTORS
330
2A81
102
}
330
2A81
100
AcDbXrecord
280
     1
  1
DD125
  1
8326*
  1
*
  1
*
 70
     0
  1
*
  1
*
  0
XRECORD
  5
2AE3
102
{ACAD_REACTORS
330
2A81
102
}
330
2A81
100
AcDbXrecord
280
     1
  1
demo
  1
*demo
  1
*
  1
*
 70
     0
  1
*
  1
*
  0
XRECORD
  5
2AE4
102
{ACAD_REACTORS
330
2A81
102
}
330
2A81
100
AcDbXrecord
280
     1
  1
Demo Layers
  1
?-DM-*
  1
*
  1
*
 70
     0
  1
*
  1
*
  0
XRECORD
  5
2AE5
102
{ACAD_REACTORS
330
2A81
102
}
330
2A81
100
AcDbXrecord
280
     1
  1
dim
  1
*dim*
  1
*
  1
*
 70
     0
  1
*
  1
*
  0
XRECORD
  5
2AE6
102
{ACAD_REACTORS
330
2A81
102
}
330
2A81
100
AcDbXrecord
280
     1
  1
DIMSONLY
  1
*DIMS*
  1
*
  1
*
 70
     0
  1
*
  1
*
  0
XRECORD
  5
2AE7
102
{ACAD_REACTORS
330
2A81
102
}
330
2A81
100
AcDbXrecord
280
     1
  1
DITCH
  1
*DITCH*
  1
*
  1
*
 70
     0
  1
*
  1
*
  0
XRECORD
  5
2AE8
102
{ACAD_REACTORS
330
2A81
102
}
330
2A81
100
AcDbXrecord
280
     1
  1
DOORBADGES
  1
*DOOR*
  1
*
  1
*
 70
     0
  1
*
  1
*
  0
XRECORD
  5
2AE9
102
{ACAD_REACTORS
330
2A81
102
}
330
2A81
100
AcDbXrecord
280
     1
  1
doors
  1
*door
  1
*
  1
*
 70
     0
  1
*
  1
*
  0
XRECORD
  5
2AEA
102
{ACAD_REACTORS
330
2A81
102
}
330
2A81
100
AcDbXrecord
280
     1
  1
DWI
  1
ODWI*
  1
*
  1
*
 70
     0
  1
*
  1
*
  0
XRECORD
  5
2AEB
102
{ACAD_REACTORS
330
2A81
102
}
330
2A81
100
AcDbXrecord
280
     1
  1
e
  1
*-E*
  1
*
  1
*
 70
     0
  1
*
  1
*
  0
XRECORD
  5
2AEC
102
{ACAD_REACTORS
330
2A81
102
}
330
2A81
100
AcDbXrecord
280
     1
  1
E1A
  1
*-4-*,*-3-*,*-B-*,*-C-*,*BEAM*,*ROOF*,*TRUS*,*DIM*,*HATCH*
  1
*
  1
*
 70
     0
  1
*
  1
*
  0
XRECORD
  5
2AED
102
{ACAD_REACTORS
330
2A81
102
}
330
2A81
100
AcDbXrecord
280
     1
  1
E1B
  1
*-4-*,*-3-*,*-A-*,*-C-*,*BEAM*,*ROOF*,*TRUS*,*DIM*,*HATCH*
  1
*
  1
*
 70
     0
  1
*
  1
*
  0
XRECORD
  5
2AEE
102
{ACAD_REACTORS
330
2A81
102
}
330
2A81
100
AcDbXrecord
280
     1
  1
E1C
  1
*-4-*,*-3-*,*-A-*,*-B-*,*BEAM*,*ROOF*,*TRUS*,*DIM*,*HATCH*
  1
*
  1
*
 70
     0
  1
*
  1
*
  0
XRECORD
  5
2AEF
102
{ACAD_REACTORS
330
2A81
102
}
330
2A81
100
AcDbXrecord
280
     1
  1
E2A
  1
*-5-*,*-6-*,*-B-*,*-C-*,*BEAM*,*ROOF*,*TRUS*,*DIM*,*HATCH*
  1
*
  1
*
 70
     0
  1
*
  1
*
  0
XRECORD
  5
2AF0
102
{ACAD_REACTORS
330
2A81
102
}
330
2A81
100
AcDbXrecord
280
     1
  1
E2B
  1
*-5-*,*-6-*,*-A-*,*-C-*,*BEAM*,*ROOF*,*TRUS*,*DIM*,*HATCH*
  1
*
  1
*
 70
     0
  1
*
  1
*
  0
XRECORD
  5
2AF1
102
{ACAD_REACTORS
330
2A81
102
}
330
2A81
100
AcDbXrecord
280
     1
  1
E2C
  1
*-5-*,*-6-*,*-A-*,*-B-*,*BEAM*,*ROOF*,*TRUS*,*DIM*,*HATCH*
  1
*
  1
*
 70
     0
  1
*
  1
*
  0
XRECORD
  5
2AF2
102
{ACAD_REACTORS
330
2A81
102
}
330
2A81
100
AcDbXrecord
280
     1
  1
ea
  1
*ea*
  1
*
  1
*
 70
     0
  1
*
  1
*
  0
XRECORD
  5
2AF3
102
{ACAD_REACTORS
330
2A81
102
}
330
2A81
100
AcDbXrecord
280
     1
  1
ELEC
  1
e*
  1
*
  1
*
 70
     0
  1
*
  1
*
  0
XRECORD
  5
2AF4
102
{ACAD_REACTORS
330
2A81
102
}
330
2A81
100
AcDbXrecord
280
     1
  1
Electrical
  1
E*
  1
*
  1
*
 70
     0
  1
*
  1
*
  0
XRECORD
  5
2AF5
102
{ACAD_REACTORS
330
2A81
102
}
330
2A81
100
AcDbXrecord
280
     1
  1
Elev_
  1
Elev_*
  1
*
  1
*
 70
     0
  1
*
  1
*
  0
XRECORD
  5
2AF6
102
{ACAD_REACTORS
330
2A81
102
}
330
2A81
100
AcDbXrecord
280
     1
  1
elevation
  1
XSE02-E*
  1
*
  1
*
 70
     0
  1
*
  1
*
  0
XRECORD
  5
2AF7
102
{ACAD_REACTORS
330
2A81
102
}
330
2A81
100
AcDbXrecord
280
     1
  1
ELEVATIONS
  1
*ELEV*
  1
*
  1
*
 70
     0
  1
*
  1
*
  0
XRECORD
  5
2AF8
102
{ACAD_REACTORS
330
2A81
102
}
330
2A81
100
AcDbXrecord
280
     1
  1
EOS
  1
*a-wall-ext
  1
*
  1
*
 70
     0
  1
*
  1
*
  0
XRECORD
  5
2AF9
102
{ACAD_REACTORS
330
2A81
102
}
330
2A81
100
AcDbXrecord
280
     1
  1
esm
  1
*esm*
  1
*
  1
*
 70
     0
  1
*
  1
*
  0
XRECORD
  5
2AFA
102
{ACAD_REACTORS
330
2A81
102
}
330
2A81
100
AcDbXrecord
280
     1
  1
ESMT
  1
*ESMT*
  1
*
  1
*
 70
     0
  1
*
  1
*
  0
XRECORD
  5
2AFB
102
{ACAD_REACTORS
330
2A81
102
}
330
2A81
100
AcDbXrecord
280
     1
  1
ex
  1
*ex*
  1
*
  1
*
 70
     0
  1
*
  1
*
  0
XRECORD
  5
2AFC
102
{ACAD_REACTORS
330
2A81
102
}
330
2A81
100
AcDbXrecord
280
     1
  1
Ex2
  1
ae2*
  1
*
  1
*
 70
     0
  1
*
  1
*
  0
XRECORD
  5
2AFD
102
{ACAD_REACTORS
330
2A81
102
}
330
2A81
100
AcDbXrecord
280
     1
  1
exg
  1
*exg
  1
*
  1
*
 70
     0
  1
*
  1
*
  0
XRECORD
  5
2AFE
102
{ACAD_REACTORS
330
2A81
102
}
330
2A81
100
AcDbXrecord
280
     1
  1
EXIST
  1
EX*
  1
*
  1
*
 70
     0
  1
*
  1
*
  0
XRECORD
  5
2AFF
102
{ACAD_REACTORS
330
2A81
102
}
330
2A81
100
AcDbXrecord
280
     1
  1
existing
  1
*E
  1
*
  1
*
 70
     0
  1
*
  1
*
  0
XRECORD
  5
2B00
102
{ACAD_REACTORS
330
2A81
102
}
330
2A81
100
AcDbXrecord
280
     1
  1
existing1
  1
a1e*
  1
*
  1
*
 70
     0
  1
*
  1
*
  0
XRECORD
  5
2B01
102
{ACAD_REACTORS
330
2A81
102
}
330
2A81
100
AcDbXrecord
280
     1
  1
existing2
  1
a2e*
  1
*
  1
*
 70
     0
  1
*
  1
*
  0
XRECORD
  5
2B02
102
{ACAD_REACTORS
330
2A81
102
}
330
2A81
100
AcDbXrecord
280
     1
  1
exit
  1
*exit
  1
*
  1
*
 70
     0
  1
*
  1
*
  0
XRECORD
  5
2B03
102
{ACAD_REACTORS
330
2A81
102
}
330
2A81
100
AcDbXrecord
280
     1
  1
EXTRA
  1
x*
  1
*
  1
*
 70
     0
  1
*
  1
*
  0
XRECORD
  5
2B04
102
{ACAD_REACTORS
330
2A81
102
}
330
2A81
100
AcDbXrecord
280
     1
  1
f
  1
*
  1
*
  1
*
 70
     4
  1
*
  1
*
  0
XRECORD
  5
2B05
102
{ACAD_REACTORS
330
2A81
102
}
330
2A81
100
AcDbXrecord
280
     1
  1
fence
  1
*building*
  1
*
  1
*
 70
     0
  1
*
  1
*
  0
XRECORD
  5
2B06
102
{ACAD_REACTORS
330
2A81
102
}
330
2A81
100
AcDbXrecord
280
     1
  1
filter10
  1
*
  1
10
  1
*
 70
     0
  1
*
  1
*
  0
XRECORD
  5
2B07
102
{ACAD_REACTORS
330
2A81
102
}
330
2A81
100
AcDbXrecord
280
     1
  1
filter13
  1
*
  1
13
  1
*
 70
     0
  1
*
  1
*
  0
XRECORD
  5
2B08
102
{ACAD_REACTORS
330
2A81
102
}
330
2A81
100
AcDbXrecord
280
     1
  1
FINAL PLAT
  1
*DESC*
  1
*
  1
*
 70
     3
  1
*
  1
*
  0
XRECORD
  5
2B09
102
{ACAD_REACTORS
330
2A81
102
}
330
2A81
100
AcDbXrecord
280
     1
  1
FIREPROT
  1
f*
  1
*
  1
*
 70
     0
  1
*
  1
*
  0
XRECORD
  5
2B0A
102
{ACAD_REACTORS
330
2A81
102
}
330
2A81
100
AcDbXrecord
280
     1
  1
First
  1
*First*
  1
*
  1
*
 70
     0
  1
*
  1
*
  0
XRECORD
  5
2B0B
102
{ACAD_REACTORS
330
2A81
102
}
330
2A81
100
AcDbXrecord
280
     1
  1
First Floor
  1
A-*
  1
*
  1
*
 70
     0
  1
*
  1
*
  0
XRECORD
  5
2B0C
102
{ACAD_REACTORS
330
2A81
102
}
330
2A81
100
AcDbXrecord
280
     1
  1
FIT
  1
*FIT*
  1
*
  1
*
 70
     0
  1
*
  1
*
  0
XRECORD
  5
2B0D
102
{ACAD_REACTORS
330
2A81
102
}
330
2A81
100
AcDbXrecord
280
     1
  1
FITTING
  1
*FIT*
  1
*
  1
*
 70
     0
  1
*
  1
*
  0
XRECORD
  5
2B0E
102
{ACAD_REACTORS
330
2A81
102
}
330
2A81
100
AcDbXrecord
280
     1
  1
FITTINGS
  1
*FIT*
  1
*
  1
*
 70
     0
  1
*
  1
*
  0
XRECORD
  5
2B0F
102
{ACAD_REACTORS
330
2A81
102
}
330
2A81
100
AcDbXrecord
280
     1
  1
Fixtures
  1
*pfix*
  1
*
  1
*
 70
     0
  1
*
  1
*
  0
XRECORD
  5
2B10
102
{ACAD_REACTORS
330
2A81
102
}
330
2A81
100
AcDbXrecord
280
     1
  1
Flood
  1
*100*
  1
*
  1
*
 70
     0
  1
*
  1
*
  0
XRECORD
  5
2B11
102
{ACAD_REACTORS
330
2A81
102
}
330
2A81
100
AcDbXrecord
280
     1
  1
FLOOR FINISH
  1
CRA-FR-FIN*
  1
*
  1
*
 70
     0
  1
*
  1
*
  0
XRECORD
  5
2B12
102
{ACAD_REACTORS
330
2A81
102
}
330
2A81
100
AcDbXrecord
280
     1
  1
Floor plan
  1
1A*
  1
*
  1
*
 70
    12
  1
*
  1
*
  0
XRECORD
  5
2B13
102
{ACAD_REACTORS
330
2A81
102
}
330
2A81
100
AcDbXrecord
280
     1
  1
FLOORFINISH
  1
CRA-FR*
  1
*
  1
*
 70
     0
  1
*
  1
*
  0
XRECORD
  5
2B14
102
{ACAD_REACTORS
330
2A81
102
}
330
2A81
100
AcDbXrecord
280
     1
  1
Foundation
  1
*Fnd*
  1
*
  1
*
 70
     0
  1
*
  1
*
  0
XRECORD
  5
2B15
102
{ACAD_REACTORS
330
2A81
102
}
330
2A81
100
AcDbXrecord
280
     1
  1
FRAME1
  1
*1*
  1
*
  1
*
 70
     0
  1
*
  1
*
  0
XRECORD
  5
2B16
102
{ACAD_REACTORS
330
2A81
102
}
330
2A81
100
AcDbXrecord
280
     1
  1
freeze
  1
*freeze
  1
*
  1
*
 70
     0
  1
*
  1
*
  0
XRECORD
  5
2B17
102
{ACAD_REACTORS
330
2A81
102
}
330
2A81
100
AcDbXrecord
280
     1
  1
Frez Layers
  1
*-Frez*
  1
*
  1
*
 70
     0
  1
*
  1
*
  0
XRECORD
  5
2B18
102
{ACAD_REACTORS
330
2A81
102
}
330
2A81
100
AcDbXrecord
280
     1
  1
FROZEN
  1
*
  1
*
  1
*
 70
     4
  1
*
  1
*
  0
XRECORD
  5
2B19
102
{ACAD_REACTORS
330
2A81
102
}
330
2A81
100
AcDbXrecord
280
     1
  1
frozen layers
  1
*
  1
*
  1
*
 70
     4
  1
*
  1
*
  0
XRECORD
  5
2B1A
102
{ACAD_REACTORS
330
2A81
102
}
330
2A81
100
AcDbXrecord
280
     1
  1
FURN
  1
FURN
  1
*
  1
*
 70
     0
  1
*
  1
*
  0
XRECORD
  5
2B1B
102
{ACAD_REACTORS
330
2A81
102
}
330
2A81
100
AcDbXrecord
280
     1
  1
FURNITURE
  1
CRA-FUN*
  1
*
  1
*
 70
     0
  1
*
  1
*
  0
XRECORD
  5
2B1C
102
{ACAD_REACTORS
330
2A81
102
}
330
2A81
100
AcDbXrecord
280
     1
  1
GAS
  1
*GAS*
  1
*
  1
*
 70
     0
  1
*
  1
*
  0
XRECORD
  5
2B1D
102
{ACAD_REACTORS
330
2A81
102
}
330
2A81
100
AcDbXrecord
280
     1
  1
GENERAL
  1
g*
  1
*
  1
*
 70
     0
  1
*
  1
*
  0
XRECORD
  5
2B1E
102
{ACAD_REACTORS
330
2A81
102
}
330
2A81
100
AcDbXrecord
280
     1
  1
GORDY
  1
00MAG
  1
*
  1
*
 70
     0
  1
*
  1
*
  0
XRECORD
  5
2B1F
102
{ACAD_REACTORS
330
2A81
102
}
330
2A81
100
AcDbXrecord
280
     1
  1
green
  1
*
  1
green
  1
*
 70
     0
  1
*
  1
*
  0
XRECORD
  5
2B20
102
{ACAD_REACTORS
330
2A81
102
}
330
2A81
100
AcDbXrecord
280
     1
  1
grid
  1
*grid*
  1
*
  1
*
 70
     0
  1
*
  1
*
  0
XRECORD
  5
2B21
102
{ACAD_REACTORS
330
2A81
102
}
330
2A81
100
AcDbXrecord
280
     1
  1
GS-DesignWorkshop
  1
GS-0DWI*
  1
*
  1
*
 70
    12
  1
*
  1
*
  0
XRECORD
  5
2B22
102
{ACAD_REACTORS
330
2A81
102
}
330
2A81
100
AcDbXrecord
280
     1
  1
HANDICAP
  1
*HC*
  1
*
  1
*
 70
     0
  1
*
  1
*
  0
XRECORD
  5
2B23
102
{ACAD_REACTORS
330
2A81
102
}
330
2A81
100
AcDbXrecord
280
     1
  1
hatch
  1
*hatch*
  1
*
  1
*
 70
     0
  1
*
  1
*
  0
XRECORD
  5
2B24
102
{ACAD_REACTORS
330
2A81
102
}
330
2A81
100
AcDbXrecord
280
     1
  1
HEADER
  1
*HDR*
  1
*
  1
*
 70
     0
  1
*
  1
*
  0
XRECORD
  5
2B25
102
{ACAD_REACTORS
330
2A81
102
}
330
2A81
100
AcDbXrecord
280
     1
  1
HLA
  1
HLA*
  1
*
  1
*
 70
     0
  1
*
  1
*
  0
XRECORD
  5
2B26
102
{ACAD_REACTORS
330
2A81
102
}
330
2A81
100
AcDbXrecord
280
     1
  1
inlet
  1
*inl*
  1
*
  1
*
 70
     0
  1
*
  1
*
  0
XRECORD
  5
2B27
102
{ACAD_REACTORS
330
2A81
102
}
330
2A81
100
AcDbXrecord
280
     1
  1
int
  1
*int*
  1
*
  1
*
 70
     0
  1
*
  1
*
  0
XRECORD
  5
2B28
102
{ACAD_REACTORS
330
2A81
102
}
330
2A81
100
AcDbXrecord
280
     1
  1
INTERIOR
  1
*INT*
  1
*
  1
*
 70
     0
  1
*
  1
*
  0
XRECORD
  5
2B29
102
{ACAD_REACTORS
330
2A81
102
}
330
2A81
100
AcDbXrecord
280
     1
  1
K
  1
*PROP
  1
*
  1
*
 70
     0
  1
*
  1
*
  0
XRECORD
  5
2B2D
102
{ACAD_REACTORS
330
2A81
102
}
330
2A81
100
AcDbXrecord
280
     1
  1
Kinko Space Plan
  1
*
  1
*
  1
*
 70
     0
  1
*
  1
*
  0
XRECORD
  5
2B2A
102
{ACAD_REACTORS
330
2A81
102
}
330
2A81
100
AcDbXrecord
280
     1
  1
Kinko's Data-Comm Layout
  1
E-POWR-CABL,E-POWR-DIMS,E-POWR-TEXT,A-EQPM-TEXT,A-FLOR-TEXT,A-FLOR-DIMS,A-WALL-PRHT,D-DEMO,A-COLS,A-COLS-GRID,A-DOOR,A-GLAZ,A-GLAZ-EXTR,A-GLAZ-INTR,A-WALL-FULL,Q-EQPM-OUTLN,Q-FIXT-OUTLN,Q-FIXT-WHL,Q-FIXT-TEXT,Q-EQPM-TEXT,E-POWR-JBOX,Q-MERC-OUTLN,
  1
*
  1
*
 70
     0
  1
*
  1
*
  0
XRECORD
  5
2B2B
102
{ACAD_REACTORS
330
2A81
102
}
330
2A81
100
AcDbXrecord
280
     1
  1
Kinko's Equipment Layout
  1
A-EQPM-TEXT,D-DEMO,A-WALL-PRHT,A-FLOR-TEXT,A-FLOR-OVHD,A-AREA,Q-EQPM-ANC,Q-EQPM-COP,Q-EQPM-FIX,A-COLS,A-COLS-GRID,A-DOOR,A-FLOR-CASE,A-FLOR-DIMS,A-FLOR-PFIX,A-GLAZ-EXTR,A-GLAZ-INTR,A-WALL-FULL,
  1
*
  1
*
 70
     0
  1
*
  1
*
  0
XRECORD
  5
2B2C
102
{ACAD_REACTORS
330
2A81
102
}
330
2A81
100
AcDbXrecord
280
     1
  1
Kinko's Merchandise Layout
  1
A-COLS,A-COLS-GRID,A-DOOR,A-EQPM-TEXT,A-FLOR-CASE,A-FLOR-TEXT,A-WALL-FULL,A-WALL-PRHT,Q-EQPM-ANC,Q-EQPM-COP,Q-EQPM-FIX,Q-EQPM-MERC,Q-GUARD,
  1
*
  1
*
 70
     0
  1
*
  1
*
  0
XRECORD
  5
2B2E
102
{ACAD_REACTORS
330
2A81
102
}
330
2A81
100
AcDbXrecord
280
     1
  1
LBL
  1
*lbl*
  1
*
  1
*
 70
     0
  1
*
  1
*
  0
XRECORD
  5
2B2F
102
{ACAD_REACTORS
330
2A81
102
}
330
2A81
100
AcDbXrecord
280
     1
  1
Lites
  1
*Lite*
  1
*
  1
*
 70
     0
  1
*
  1
*
  0
XRECORD
  5
2B30
102
{ACAD_REACTORS
330
2A81
102
}
330
2A81
100
AcDbXrecord
280
     1
  1
locked
  1
*
  1
*
  1
*
 70
   256
  1
*
  1
*
  0
XRECORD
  5
2B31
102
{ACAD_REACTORS
330
2A81
102
}
330
2A81
100
AcDbXrecord
280
     1
  1
LOT
  1
*LOT*
  1
*
  1
*
 70
     0
  1
*
  1
*
  0
XRECORD
  5
2B32
102
{ACAD_REACTORS
330
2A81
102
}
330
2A81
100
AcDbXrecord
280
     1
  1
lots
  1
*lots
  1
*
  1
*
 70
     0
  1
*
  1
*
  0
XRECORD
  5
2B33
102
{ACAD_REACTORS
330
2A81
102
}
330
2A81
100
AcDbXrecord
280
     1
  1
lower floor
  1
b-*,c-*
  1
*
  1
*
 70
     0
  1
*
  1
*
  0
XRECORD
  5
2B34
102
{ACAD_REACTORS
330
2A81
102
}
330
2A81
100
AcDbXrecord
280
     1
  1
LS
  1
*LAND*
  1
*
  1
*
 70
     0
  1
*
  1
*
  0
XRECORD
  5
2B35
102
{ACAD_REACTORS
330
2A81
102
}
330
2A81
100
AcDbXrecord
280
     1
  1
LSG
  1
*LSG*
  1
*
  1
*
 70
     0
  1
*
  1
*
  0
XRECORD
  5
2B36
102
{ACAD_REACTORS
330
2A81
102
}
330
2A81
100
AcDbXrecord
280
     1
  1
MAGENTA
  1
*
  1
MAGENTA
  1
*
 70
     0
  1
*
  1
*
  0
XRECORD
  5
2B37
102
{ACAD_REACTORS
330
2A81
102
}
330
2A81
100
AcDbXrecord
280
     1
  1
MAIN
  1
*MAIN
  1
*
  1
*
 70
     0
  1
*
  1
*
  0
XRECORD
  5
2B38
102
{ACAD_REACTORS
330
2A81
102
}
330
2A81
100
AcDbXrecord
280
     1
  1
Main Floor
  1
M*
  1
*
  1
*
 70
     0
  1
*
  1
*
  0
XRECORD
  5
2B39
102
{ACAD_REACTORS
330
2A81
102
}
330
2A81
100
AcDbXrecord
280
     1
  1
MECH
  1
1flrplnX|m*
  1
*
  1
*
 70
     0
  1
*
  1
*
  0
XRECORD
  5
2B3A
102
{ACAD_REACTORS
330
2A81
102
}
330
2A81
100
AcDbXrecord
280
     1
  1
METAL
  1
*mtl*
  1
*
  1
*
 70
     0
  1
*
  1
*
  0
XRECORD
  5
2B3B
102
{ACAD_REACTORS
330
2A81
102
}
330
2A81
100
AcDbXrecord
280
     1
  1
MEZ
  1
*MEZ*
  1
*
  1
*
 70
     0
  1
*
  1
*
  0
XRECORD
  5
2B3C
102
{ACAD_REACTORS
330
2A81
102
}
330
2A81
100
AcDbXrecord
280
     1
  1
MH
  1
*MH*
  1
*
  1
*
 70
     0
  1
*
  1
*
  0
XRECORD
  5
2B3D
102
{ACAD_REACTORS
330
2A81
102
}
330
2A81
100
AcDbXrecord
280
     1
  1
Misc
  1
*-pr-*
  1
*
  1
*
 70
     0
  1
*
  1
*
  0
XRECORD
  5
2B3E
102
{ACAD_REACTORS
330
2A81
102
}
330
2A81
100
AcDbXrecord
280
     1
  1
MP
  1
*MP*
  1
*
  1
*
 70
     0
  1
*
  1
*
  0
XRECORD
  5
2B3F
102
{ACAD_REACTORS
330
2A81
102
}
330
2A81
100
AcDbXrecord
280
     1
  1
mtl
  1
*mtl*
  1
*
  1
*
 70
     0
  1
*
  1
*
  0
XRECORD
  5
2B40
102
{ACAD_REACTORS
330
2A81
102
}
330
2A81
100
AcDbXrecord
280
     1
  1
NAME
  1
*NAME*
  1
*
  1
*
 70
     0
  1
*
  1
*
  0
XRECORD
  5
2B41
102
{ACAD_REACTORS
330
2A81
102
}
330
2A81
100
AcDbXrecord
280
     1
  1
NAMES
  1
*NAME*
  1
*
  1
*
 70
     0
  1
*
  1
*
  0
XRECORD
  5
2B42
102
{ACAD_REACTORS
330
2A81
102
}
330
2A81
100
AcDbXrecord
280
     1
  1
new
  1
*new*
  1
*
  1
*
 70
     0
  1
*
  1
*
  0
XRECORD
  5
2B43
102
{ACAD_REACTORS
330
2A81
102
}
330
2A81
100
AcDbXrecord
280
     1
  1
new1
  1
a1n*
  1
*
  1
*
 70
     0
  1
*
  1
*
  0
XRECORD
  5
2B44
102
{ACAD_REACTORS
330
2A81
102
}
330
2A81
100
AcDbXrecord
280
     1
  1
new2
  1
a2n*
  1
*
  1
*
 70
     0
  1
*
  1
*
  0
XRECORD
  5
2B46
102
{ACAD_REACTORS
330
2A81
102
}
330
2A81
100
AcDbXrecord
280
     1
  1
No Xrefs
  1
*
  1
*
  1
*
 70
     0
  1
*
  1
*
  0
XRECORD
  5
2B45
102
{ACAD_REACTORS
330
2A81
102
}
330
2A81
100
AcDbXrecord
280
     1
  1
NO-PLOT
  1
*
  1
*
  1
*
 70
  3072
  1
*
  1
*
  0
XRECORD
  5
2B47
102
{ACAD_REACTORS
330
2A81
102
}
330
2A81
100
AcDbXrecord
280
     1
  1
non-visible
  1
*
  1
*
  1
*
 70
     4
  1
*
  1
*
  0
XRECORD
  5
2B48
102
{ACAD_REACTORS
330
2A81
102
}
330
2A81
100
AcDbXrecord
280
     1
  1
non-xref
  1
~*|*
  1
*
  1
*
 70
     0
  1
*
  1
*
  0
XRECORD
  5
2B49
102
{ACAD_REACTORS
330
2A81
102
}
330
2A81
100
AcDbXrecord
280
     1
  1
notes
  1
*note
  1
*
  1
*
 70
     0
  1
*
  1
*
  0
XRECORD
  5
2B4A
102
{ACAD_REACTORS
330
2A81
102
}
330
2A81
100
AcDbXrecord
280
     1
  1
NUMS
  1
*NUM*
  1
*
  1
*
 70
     0
  1
*
  1
*
  0
XRECORD
  5
2B4B
102
{ACAD_REACTORS
330
2A81
102
}
330
2A81
100
AcDbXrecord
280
     1
  1
OFF
  1
*
  1
*
  1
*
 70
     3
  1
*
  1
*
  0
XRECORD
  5
2B4C
102
{ACAD_REACTORS
330
2A81
102
}
330
2A81
100
AcDbXrecord
280
     1
  1
off layers
  1
*
  1
*
  1
*
 70
     3
  1
*
  1
*
  0
XRECORD
  5
2B4D
102
{ACAD_REACTORS
330
2A81
102
}
330
2A81
100
AcDbXrecord
280
     1
  1
OFF THAW
  1
*
  1
*
  1
*
 70
    15
  1
*
  1
*
  0
XRECORD
  5
2B4E
102
{ACAD_REACTORS
330
2A81
102
}
330
2A81
100
AcDbXrecord
280
     1
  1
OLD
  1
*OLD*
  1
*
  1
*
 70
     0
  1
*
  1
*
  0
XRECORD
  5
2B4F
102
{ACAD_REACTORS
330
2A81
102
}
330
2A81
100
AcDbXrecord
280
     1
  1
on
  1
*
  1
*
  1
*
 70
    13
  1
*
  1
*
  0
XRECORD
  5
2B50
102
{ACAD_REACTORS
330
2A81
102
}
330
2A81
100
AcDbXrecord
280
     1
  1
oPTION
  1
??????O*
  1
*
  1
*
 70
     0
  1
*
  1
*
  0
XRECORD
  5
2B51
102
{ACAD_REACTORS
330
2A81
102
}
330
2A81
100
AcDbXrecord
280
     1
  1
Option 1
  1
Option 1 *
  1
*
  1
*
 70
     0
  1
*
  1
*
  0
XRECORD
  5
2B52
102
{ACAD_REACTORS
330
2A81
102
}
330
2A81
100
AcDbXrecord
280
     1
  1
Option 2
  1
Option 2 *
  1
*
  1
*
 70
     0
  1
*
  1
*
  0
XRECORD
  5
2B53
102
{ACAD_REACTORS
330
2A81
102
}
330
2A81
100
AcDbXrecord
280
     1
  1
Option 3
  1
Option 3 *
  1
*
  1
*
 70
     0
  1
*
  1
*
  0
XRECORD
  5
2B54
102
{ACAD_REACTORS
330
2A81
102
}
330
2A81
100
AcDbXrecord
280
     1
  1
Options
  1
O-*
  1
*
  1
*
 70
     0
  1
*
  1
*
  0
XRECORD
  5
2B55
102
{ACAD_REACTORS
330
2A81
102
}
330
2A81
100
AcDbXrecord
280
     1
  1
p-
  1
*p-*
  1
*
  1
*
 70
     0
  1
*
  1
*
  0
XRECORD
  5
2B56
102
{ACAD_REACTORS
330
2A81
102
}
330
2A81
100
AcDbXrecord
280
     1
  1
p1
  1
*
  1
212*
  1
*
 70
     0
  1
*
  1
*
  0
XRECORD
  5
2B57
102
{ACAD_REACTORS
330
2A81
102
}
330
2A81
100
AcDbXrecord
280
     1
  1
p2
  1
*
  1
53*
  1
*
 70
     0
  1
*
  1
*
  0
XRECORD
  5
2B58
102
{ACAD_REACTORS
330
2A81
102
}
330
2A81
100
AcDbXrecord
280
     1
  1
p3
  1
*
  1
95*
  1
*
 70
     0
  1
*
  1
*
  0
XRECORD
  5
2B59
102
{ACAD_REACTORS
330
2A81
102
}
330
2A81
100
AcDbXrecord
280
     1
  1
p4
  1
*
  1
8*
  1
*
 70
     0
  1
*
  1
*
  0
XRECORD
  5
2B5A
102
{ACAD_REACTORS
330
2A81
102
}
330
2A81
100
AcDbXrecord
280
     1
  1
pads
  1
*pads
  1
*
  1
*
 70
     0
  1
*
  1
*
  0
XRECORD
  5
2B5B
102
{ACAD_REACTORS
330
2A81
102
}
330
2A81
100
AcDbXrecord
280
     1
  1
Pattern
  1
*pat*
  1
*
  1
*
 70
     0
  1
*
  1
*
  0
XRECORD
  5
2B5C
102
{ACAD_REACTORS
330
2A81
102
}
330
2A81
100
AcDbXrecord
280
     1
  1
Patterns
  1
*pat
  1
*
  1
*
 70
     0
  1
*
  1
*
  0
XRECORD
  5
2B5D
102
{ACAD_REACTORS
330
2A81
102
}
330
2A81
100
AcDbXrecord
280
     1
  1
PAV
  1
*PAV*
  1
*
  1
*
 70
     0
  1
*
  1
*
  0
XRECORD
  5
2B5E
102
{ACAD_REACTORS
330
2A81
102
}
330
2A81
100
AcDbXrecord
280
     1
  1
pen1
  1
*
  1
red*
  1
*
 70
     0
  1
*
  1
*
  0
XRECORD
  5
2B5F
102
{ACAD_REACTORS
330
2A81
102
}
330
2A81
100
AcDbXrecord
280
     1
  1
pen2
  1
*
  1
yellow*
  1
*
 70
     0
  1
*
  1
*
  0
XRECORD
  5
2B60
102
{ACAD_REACTORS
330
2A81
102
}
330
2A81
100
AcDbXrecord
280
     1
  1
pen3
  1
*
  1
green*
  1
*
 70
     0
  1
*
  1
*
  0
XRECORD
  5
2B61
102
{ACAD_REACTORS
330
2A81
102
}
330
2A81
100
AcDbXrecord
280
     1
  1
pen4
  1
*
  1
5*
  1
*
 70
     0
  1
*
  1
*
  0
XRECORD
  5
2B62
102
{ACAD_REACTORS
330
2A81
102
}
330
2A81
100
AcDbXrecord
280
     1
  1
pen5
  1
*
  1
14*
  1
*
 70
     0
  1
*
  1
*
  0
XRECORD
  5
2B63
102
{ACAD_REACTORS
330
2A81
102
}
330
2A81
100
AcDbXrecord
280
     1
  1
PH1
  1
*PH1*
  1
*
  1
*
 70
     0
  1
*
  1
*
  0
XRECORD
  5
2B64
102
{ACAD_REACTORS
330
2A81
102
}
330
2A81
100
AcDbXrecord
280
     1
  1
PH2
  1
*PH2*
  1
*
  1
*
 70
     0
  1
*
  1
*
  0
XRECORD
  5
2B65
102
{ACAD_REACTORS
330
2A81
102
}
330
2A81
100
AcDbXrecord
280
     1
  1
PH3
  1
*PH3*
  1
*
  1
*
 70
     0
  1
*
  1
*
  0
XRECORD
  5
2B66
102
{ACAD_REACTORS
330
2A81
102
}
330
2A81
100
AcDbXrecord
280
     1
  1
PH5
  1
*PH5*
  1
*
  1
*
 70
     0
  1
*
  1
*
  0
XRECORD
  5
2B67
102
{ACAD_REACTORS
330
2A81
102
}
330
2A81
100
AcDbXrecord
280
     1
  1
Phase 1
  1
PH1*
  1
*
  1
*
 70
     0
  1
*
  1
*
  0
XRECORD
  5
2B68
102
{ACAD_REACTORS
330
2A81
102
}
330
2A81
100
AcDbXrecord
280
     1
  1
Phase 2
  1
PH2*
  1
*
  1
*
 70
     0
  1
*
  1
*
  0
XRECORD
  5
2B69
102
{ACAD_REACTORS
330
2A81
102
}
330
2A81
100
AcDbXrecord
280
     1
  1
PIPE
  1
*PIPE*
  1
*
  1
*
 70
     0
  1
*
  1
*
  0
XRECORD
  5
2B6A
102
{ACAD_REACTORS
330
2A81
102
}
330
2A81
100
AcDbXrecord
280
     1
  1
pl
  1
*pl*
  1
*
  1
*
 70
     0
  1
*
  1
*
  0
XRECORD
  5
2B6B
102
{ACAD_REACTORS
330
2A81
102
}
330
2A81
100
AcDbXrecord
280
     1
  1
PLAN
  1
*PLAN|*
  1
*
  1
*
 70
     0
  1
*
  1
*
  0
XRECORD
  5
2B6C
102
{ACAD_REACTORS
330
2A81
102
}
330
2A81
100
AcDbXrecord
280
     1
  1
Plans
  1
*conpl*
  1
*
  1
*
 70
     0
  1
*
  1
*
  0
XRECORD
  5
2B6D
102
{ACAD_REACTORS
330
2A81
102
}
330
2A81
100
AcDbXrecord
280
     1
  1
PLUM
  1
p*
  1
*
  1
*
 70
     0
  1
*
  1
*
  0
XRECORD
  5
2B6E
102
{ACAD_REACTORS
330
2A81
102
}
330
2A81
100
AcDbXrecord
280
     1
  1
plumb
  1
MECH_PLBG_
  1
*
  1
*
 70
     0
  1
*
  1
*
  0
XRECORD
  5
2B6F
102
{ACAD_REACTORS
330
2A81
102
}
330
2A81
100
AcDbXrecord
280
     1
  1
PLUMBING
  1
MECH_PLBG_
  1
*
  1
*
 70
     0
  1
*
  1
*
  0
XRECORD
  5
2B70
102
{ACAD_REACTORS
330
2A81
102
}
330
2A81
100
AcDbXrecord
280
     1
  1
Point layers
  1
PT*
  1
*
  1
*
 70
     0
  1
*
  1
*
  0
XRECORD
  5
2B71
102
{ACAD_REACTORS
330
2A81
102
}
330
2A81
100
AcDbXrecord
280
     1
  1
points
  1
*points*,*pts*,*pnts*
  1
*
  1
*
 70
     0
  1
*
  1
*
  0
XRECORD
  5
2B72
102
{ACAD_REACTORS
330
2A81
102
}
330
2A81
100
AcDbXrecord
280
     1
  1
profiles
  1
*conpr*
  1
*
  1
*
 70
     0
  1
*
  1
*
  0
XRECORD
  5
2B73
102
{ACAD_REACTORS
330
2A81
102
}
330
2A81
100
AcDbXrecord
280
     1
  1
PROP
  1
2*
  1
*
  1
*
 70
     0
  1
*
  1
*
  0
XRECORD
  5
2B74
102
{ACAD_REACTORS
330
2A81
102
}
330
2A81
100
AcDbXrecord
280
     1
  1
proposed
  1
pr*
  1
*
  1
*
 70
     0
  1
*
  1
*
  0
XRECORD
  5
2B75
102
{ACAD_REACTORS
330
2A81
102
}
330
2A81
100
AcDbXrecord
280
     1
  1
ps2-ref
  1
*
  1
13
  1
*
 70
     0
  1
*
  1
*
  0
XRECORD
  5
2B76
102
{ACAD_REACTORS
330
2A81
102
}
330
2A81
100
AcDbXrecord
280
     1
  1
pt
  1
*pt*
  1
*
  1
*
 70
     0
  1
*
  1
*
  0
XRECORD
  5
2B77
102
{ACAD_REACTORS
330
2A81
102
}
330
2A81
100
AcDbXrecord
280
     1
  1
PTS
  1
*PTS
  1
*
  1
*
 70
     0
  1
*
  1
*
  0
XRECORD
  5
2B78
102
{ACAD_REACTORS
330
2A81
102
}
330
2A81
100
AcDbXrecord
280
     1
  1
quadbuildings
  1
xqd*bl*
  1
*
  1
*
 70
     0
  1
*
  1
*
  0
XRECORD
  5
2B79
102
{ACAD_REACTORS
330
2A81
102
}
330
2A81
100
AcDbXrecord
280
     1
  1
QUADGRID
  1
*QG*
  1
*
  1
*
 70
     0
  1
*
  1
*
  0
XRECORD
  5
2B7A
102
{ACAD_REACTORS
330
2A81
102
}
330
2A81
100
AcDbXrecord
280
     1
  1
quadlightinh
  1
qde*lt*
  1
*
  1
*
 70
    13
  1
*
  1
*
  0
XRECORD
  5
2B7B
102
{ACAD_REACTORS
330
2A81
102
}
330
2A81
100
AcDbXrecord
280
     1
  1
quadroads
  1
xqd*rd*
  1
*
  1
*
 70
     0
  1
*
  1
*
  0
XRECORD
  5
2B7C
102
{ACAD_REACTORS
330
2A81
102
}
330
2A81
100
AcDbXrecord
280
     1
  1
quadtrees
  1
*pt*,*fc*
  1
*
  1
*
 70
     0
  1
*
  1
*
  0
XRECORD
  5
2B7D
102
{ACAD_REACTORS
330
2A81
102
}
330
2A81
100
AcDbXrecord
280
     1
  1
quadtunnels
  1
*tn*
  1
*
  1
*
 70
     0
  1
*
  1
*
  0
XRECORD
  5
2B7E
102
{ACAD_REACTORS
330
2A81
102
}
330
2A81
100
AcDbXrecord
280
     1
  1
quadutilities
  1
qde*
  1
*
  1
*
 70
    13
  1
*
  1
*
  0
XRECORD
  5
2B7F
102
{ACAD_REACTORS
330
2A81
102
}
330
2A81
100
AcDbXrecord
280
     1
  1
quadwalks&curbs
  1
xqd*wk*,xqd*cr*
  1
*
  1
*
 70
     0
  1
*
  1
*
  0
XRECORD
  5
2B80
102
{ACAD_REACTORS
330
2A81
102
}
330
2A81
100
AcDbXrecord
280
     1
  1
R2
  1
R2*,RR2*
  1
*
  1
*
 70
     0
  1
*
  1
*
  0
XRECORD
  5
2B81
102
{ACAD_REACTORS
330
2A81
102
}
330
2A81
100
AcDbXrecord
280
     1
  1
rcp
  1
*rcp*
  1
*
  1
*
 70
     0
  1
*
  1
*
  0
XRECORD
  5
2B82
102
{ACAD_REACTORS
330
2A81
102
}
330
2A81
100
AcDbXrecord
280
     1
  1
rds
  1
*r*d*
  1
*
  1
*
 70
     0
  1
*
  1
*
  0
XRECORD
  5
2B83
102
{ACAD_REACTORS
330
2A81
102
}
330
2A81
100
AcDbXrecord
280
     1
  1
red
  1
*ae*
  1
1
  1
*
 70
     0
  1
*
  1
*
  0
XRECORD
  5
2B84
102
{ACAD_REACTORS
330
2A81
102
}
330
2A81
100
AcDbXrecord
280
     1
  1
Reflected Cieling
  1
1A-CLNG*
  1
*
  1
*
 70
     0
  1
*
  1
*
  0
XRECORD
  5
2B85
102
{ACAD_REACTORS
330
2A81
102
}
330
2A81
100
AcDbXrecord
280
     1
  1
REFRIG
  1
r*
  1
*
  1
*
 70
     0
  1
*
  1
*
  0
XRECORD
  5
2B86
102
{ACAD_REACTORS
330
2A81
102
}
330
2A81
100
AcDbXrecord
280
     1
  1
reqw
  1
*
  1
9
  1
*
 70
     0
  1
*
  1
*
  0
XRECORD
  5
2B87
102
{ACAD_REACTORS
330
2A81
102
}
330
2A81
100
AcDbXrecord
280
     1
  1
retainingwalls
  1
xqd*rt*
  1
*
  1
*
 70
     0
  1
*
  1
*
  0
XRECORD
  5
2B88
102
{ACAD_REACTORS
330
2A81
102
}
330
2A81
100
AcDbXrecord
280
     1
  1
rf
  1
*rf*
  1
*
  1
*
 70
     0
  1
*
  1
*
  0
XRECORD
  5
2B89
102
{ACAD_REACTORS
330
2A81
102
}
330
2A81
100
AcDbXrecord
280
     1
  1
RIP-RAP
  1
*RIP-RAP*
  1
*
  1
*
 70
     0
  1
*
  1
*
  0
XRECORD
  5
2B8A
102
{ACAD_REACTORS
330
2A81
102
}
330
2A81
100
AcDbXrecord
280
     1
  1
Roof
  1
RF*
  1
*
  1
*
 70
     0
  1
*
  1
*
  0
XRECORD
  5
2B8B
102
{ACAD_REACTORS
330
2A81
102
}
330
2A81
100
AcDbXrecord
280
     1
  1
roomnames
  1
*roomn*
  1
*
  1
*
 70
     0
  1
*
  1
*
  0
XRECORD
  5
2B8C
102
{ACAD_REACTORS
330
2A81
102
}
330
2A81
100
AcDbXrecord
280
     1
  1
row
  1
*row
  1
*
  1
*
 70
     0
  1
*
  1
*
  0
XRECORD
  5
2B8D
102
{ACAD_REACTORS
330
2A81
102
}
330
2A81
100
AcDbXrecord
280
     1
  1
s-layers
  1
*s-*
  1
*
  1
*
 70
     0
  1
*
  1
*
  0
XRECORD
  5
2B8E
102
{ACAD_REACTORS
330
2A81
102
}
330
2A81
100
AcDbXrecord
280
     1
  1
s-llayers
  1
*
  1
*
  1
*
 70
     0
  1
*
  1
*
  0
XRECORD
  5
2B8F
102
{ACAD_REACTORS
330
2A81
102
}
330
2A81
100
AcDbXrecord
280
     1
  1
S-SITE
  1
*S-*
  1
*
  1
*
 70
     0
  1
*
  1
*
  0
XRECORD
  5
2B90
102
{ACAD_REACTORS
330
2A81
102
}
330
2A81
100
AcDbXrecord
280
     1
  1
SAN
  1
*SAN*
  1
*
  1
*
 70
     0
  1
*
  1
*
  0
XRECORD
  5
2B92
102
{ACAD_REACTORS
330
2A81
102
}
330
2A81
100
AcDbXrecord
280
     1
  1
San Sew
  1
*san-sew*
  1
*
  1
*
 70
     0
  1
*
  1
*
  0
XRECORD
  5
2B91
102
{ACAD_REACTORS
330
2A81
102
}
330
2A81
100
AcDbXrecord
280
     1
  1
san-sew
  1
*san-sew*
  1
*
  1
*
 70
     0
  1
*
  1
*
  0
XRECORD
  5
2B93
102
{ACAD_REACTORS
330
2A81
102
}
330
2A81
100
AcDbXrecord
280
     1
  1
SAN. SEW.
  1
*SAN*
  1
*
  1
*
 70
     0
  1
*
  1
*
  0
XRECORD
  5
2B94
102
{ACAD_REACTORS
330
2A81
102
}
330
2A81
100
AcDbXrecord
280
     1
  1
Sanitary Sewer
  1
*sanswr*
  1
*
  1
*
 70
     0
  1
*
  1
*
  0
XRECORD
  5
2B95
102
{ACAD_REACTORS
330
2A81
102
}
330
2A81
100
AcDbXrecord
280
     1
  1
sanswr
  1
*sanswr*
  1
*
  1
*
 70
     0
  1
*
  1
*
  0
XRECORD
  5
2B96
102
{ACAD_REACTORS
330
2A81
102
}
330
2A81
100
AcDbXrecord
280
     1
  1
SECO
  1
*SECO
  1
*
  1
*
 70
     0
  1
*
  1
*
  0
XRECORD
  5
2B97
102
{ACAD_REACTORS
330
2A81
102
}
330
2A81
100
AcDbXrecord
280
     1
  1
SECOND
  1
*SECO*
  1
*
  1
*
 70
     0
  1
*
  1
*
  0
XRECORD
  5
2B98
102
{ACAD_REACTORS
330
2A81
102
}
330
2A81
100
AcDbXrecord
280
     1
  1
Second Floor
  1
A2*
  1
*
  1
*
 70
     0
  1
*
  1
*
  0
XRECORD
  5
2B99
102
{ACAD_REACTORS
330
2A81
102
}
330
2A81
100
AcDbXrecord
280
     1
  1
secondfloor
  1
*2*
  1
*
  1
*
 70
  3335
  1
*
  1
*
  0
XRECORD
  5
2B9A
102
{ACAD_REACTORS
330
2A81
102
}
330
2A81
100
AcDbXrecord
280
     1
  1
septic
  1
*septic*
  1
*
  1
*
 70
     0
  1
*
  1
*
  0
XRECORD
  5
2B9B
102
{ACAD_REACTORS
330
2A81
102
}
330
2A81
100
AcDbXrecord
280
     1
  1
shade off
  1
*-shd*
  1
10
  1
*
 70
     3
  1
*
  1
*
  0
XRECORD
  5
2B9C
102
{ACAD_REACTORS
330
2A81
102
}
330
2A81
100
AcDbXrecord
280
     1
  1
Show ALL (ABND)
  1
*-ABND-*
  1
*
  1
*
 70
     0
  1
*
  1
*
  0
XRECORD
  5
2B9D
102
{ACAD_REACTORS
330
2A81
102
}
330
2A81
100
AcDbXrecord
280
     1
  1
Show ALL (DETL)
  1
*-DETL-*
  1
*
  1
*
 70
     0
  1
*
  1
*
  0
XRECORD
  5
2B9E
102
{ACAD_REACTORS
330
2A81
102
}
330
2A81
100
AcDbXrecord
280
     1
  1
Show ALL (EXST)
  1
*-EXST-*
  1
*
  1
*
 70
     0
  1
*
  1
*
  0
XRECORD
  5
2B9F
102
{ACAD_REACTORS
330
2A81
102
}
330
2A81
100
AcDbXrecord
280
     1
  1
Show ALL (FUTR)
  1
*-FUTR-*
  1
*
  1
*
 70
     0
  1
*
  1
*
  0
XRECORD
  5
2BA0
102
{ACAD_REACTORS
330
2A81
102
}
330
2A81
100
AcDbXrecord
280
     1
  1
Show ALL (PKNG)
  1
*-PKNG*
  1
*
  1
*
 70
     0
  1
*
  1
*
  0
XRECORD
  5
2BA1
102
{ACAD_REACTORS
330
2A81
102
}
330
2A81
100
AcDbXrecord
280
     1
  1
Show ALL (PROP)
  1
*-PROP*
  1
*
  1
*
 70
     0
  1
*
  1
*
  0
XRECORD
  5
2BA2
102
{ACAD_REACTORS
330
2A81
102
}
330
2A81
100
AcDbXrecord
280
     1
  1
Show ALL (ROAD)
  1
*-ROAD*
  1
*
  1
*
 70
     0
  1
*
  1
*
  0
XRECORD
  5
2BA3
102
{ACAD_REACTORS
330
2A81
102
}
330
2A81
100
AcDbXrecord
280
     1
  1
Show ALL (STRU)
  1
*-STRU*
  1
*
  1
*
 70
     0
  1
*
  1
*
  0
XRECORD
  5
2BA4
102
{ACAD_REACTORS
330
2A81
102
}
330
2A81
100
AcDbXrecord
280
     1
  1
Show all BORDERS
  1
*BRDR
  1
*
  1
*
 70
     0
  1
*
  1
*
  0
XRECORD
  5
2BA5
102
{ACAD_REACTORS
330
2A81
102
}
330
2A81
100
AcDbXrecord
280
     1
  1
Show all PATTERNS
  1
*PATT
  1
*
  1
*
 70
     0
  1
*
  1
*
  0
XRECORD
  5
2BA6
102
{ACAD_REACTORS
330
2A81
102
}
330
2A81
100
AcDbXrecord
280
     1
  1
Show all Rendering
  1
Render*
  1
*
  1
*
 70
     0
  1
*
  1
*
  0
XRECORD
  5
2BA7
102
{ACAD_REACTORS
330
2A81
102
}
330
2A81
100
AcDbXrecord
280
     1
  1
SHT
  1
*SHT*
  1
*
  1
*
 70
     0
  1
*
  1
*
  0
XRECORD
  5
2BA8
102
{ACAD_REACTORS
330
2A81
102
}
330
2A81
100
AcDbXrecord
280
     1
  1
Silte Layers
  1
?-??-*
  1
*
  1
*
 70
     0
  1
*
  1
*
  0
XRECORD
  5
2BA9
102
{ACAD_REACTORS
330
2A81
102
}
330
2A81
100
AcDbXrecord
280
     1
  1
Site
  1
*
  1
*
  1
*
 70
  1036
  1
*
  1
*
  0
XRECORD
  5
2BAA
102
{ACAD_REACTORS
330
2A81
102
}
330
2A81
100
AcDbXrecord
280
     1
  1
Slab
  1
*Slab*
  1
*
  1
*
 70
     0
  1
*
  1
*
  0
XRECORD
  5
2BAB
102
{ACAD_REACTORS
330
2A81
102
}
330
2A81
100
AcDbXrecord
280
     1
  1
Slayers
  1
s*
  1
*
  1
*
 70
     0
  1
*
  1
*
  0
XRECORD
  5
2BAC
102
{ACAD_REACTORS
330
2A81
102
}
330
2A81
100
AcDbXrecord
280
     1
  1
Square Footage
  1
*
  1
*
  1
*
 70
     0
  1
*
  1
*
  0
XRECORD
  5
2BAD
102
{ACAD_REACTORS
330
2A81
102
}
330
2A81
100
AcDbXrecord
280
     1
  1
ss
  1
*ss*
  1
*
  1
*
 70
     0
  1
*
  1
*
  0
XRECORD
  5
2BAE
102
{ACAD_REACTORS
330
2A81
102
}
330
2A81
100
AcDbXrecord
280
     1
  1
SSMH
  1
*SSMH*
  1
*
  1
*
 70
     0
  1
*
  1
*
  0
XRECORD
  5
2BAF
102
{ACAD_REACTORS
330
2A81
102
}
330
2A81
100
AcDbXrecord
280
     1
  1
STA
  1
*STA*
  1
*
  1
*
 70
     0
  1
*
  1
*
  0
XRECORD
  5
2BB0
102
{ACAD_REACTORS
330
2A81
102
}
330
2A81
100
AcDbXrecord
280
     1
  1
STAIRS
  1
*STAIR
  1
*
  1
*
 70
     0
  1
*
  1
*
  0
XRECORD
  5
2BB1
102
{ACAD_REACTORS
330
2A81
102
}
330
2A81
100
AcDbXrecord
280
     1
  1
Standard Layers
  1
?-??-*
  1
*
  1
*
 70
     0
  1
*
  1
*
  0
XRECORD
  5
2BB2
102
{ACAD_REACTORS
330
2A81
102
}
330
2A81
100
AcDbXrecord
280
     1
  1
stations
  1
*sta*
  1
*
  1
*
 70
     0
  1
*
  1
*
  0
XRECORD
  5
2BB3
102
{ACAD_REACTORS
330
2A81
102
}
330
2A81
100
AcDbXrecord
280
     1
  1
STM
  1
*STM*
  1
*
  1
*
 70
     0
  1
*
  1
*
  0
XRECORD
  5
2BB4
102
{ACAD_REACTORS
330
2A81
102
}
330
2A81
100
AcDbXrecord
280
     1
  1
STRBASE
  1
*
  1
*
  1
*
 70
     0
  1
*
  1
*
  0
XRECORD
  5
2BB5
102
{ACAD_REACTORS
330
2A81
102
}
330
2A81
100
AcDbXrecord
280
     1
  1
STREET
  1
-STREET*
  1
*
  1
*
 70
     0
  1
*
  1
*
  0
XRECORD
  5
2BB6
102
{ACAD_REACTORS
330
2A81
102
}
330
2A81
100
AcDbXrecord
280
     1
  1
STRU
  1
s*
  1
*
  1
*
 70
     0
  1
*
  1
*
  0
XRECORD
  5
2BB7
102
{ACAD_REACTORS
330
2A81
102
}
330
2A81
100
AcDbXrecord
280
     1
  1
STRUCTURALFOUNDATION
  1
*
  1
*
  1
*
 70
     0
  1
*
  1
*
  0
XRECORD
  5
2BB8
102
{ACAD_REACTORS
330
2A81
102
}
330
2A81
100
AcDbXrecord
280
     1
  1
stucco
  1
*stucco*
  1
*
  1
*
 70
    61
  1
*
  1
*
  0
XRECORD
  5
2BB9
102
{ACAD_REACTORS
330
2A81
102
}
330
2A81
100
AcDbXrecord
280
     1
  1
SURVEY
  1
SURVEY*
  1
*
  1
*
 70
     0
  1
*
  1
*
  0
XRECORD
  5
2BBA
102
{ACAD_REACTORS
330
2A81
102
}
330
2A81
100
AcDbXrecord
280
     1
  1
SW
  1
*SW*
  1
*
  1
*
 70
     0
  1
*
  1
*
  0
XRECORD
  5
2BBB
102
{ACAD_REACTORS
330
2A81
102
}
330
2A81
100
AcDbXrecord
280
     1
  1
SYM
  1
*WALL
  1
*
  1
*
 70
     0
  1
*
  1
*
  0
XRECORD
  5
2BBC
102
{ACAD_REACTORS
330
2A81
102
}
330
2A81
100
AcDbXrecord
280
     1
  1
SYMBOLLEGEND
  1
*SL,*SL*
  1
*
  1
*
 70
     0
  1
*
  1
*
  0
XRECORD
  5
2BBD
102
{ACAD_REACTORS
330
2A81
102
}
330
2A81
100
AcDbXrecord
280
     1
  1
TEMP
  1
*A-DOOR-IDEN
  1
*
  1
*
 70
     0
  1
*
  1
*
  0
XRECORD
  5
2BBE
102
{ACAD_REACTORS
330
2A81
102
}
330
2A81
100
AcDbXrecord
280
     1
  1
TEXT
  1
*TEXT
  1
*
  1
*
 70
     0
  1
*
  1
*
  0
XRECORD
  5
2BBF
102
{ACAD_REACTORS
330
2A81
102
}
330
2A81
100
AcDbXrecord
280
     1
  1
thaw
  1
*
  1
*
  1
*
 70
    12
  1
*
  1
*
  0
XRECORD
  5
2BC0
102
{ACAD_REACTORS
330
2A81
102
}
330
2A81
100
AcDbXrecord
280
     1
  1
thawed
  1
*
  1
*
  1
*
 70
    12
  1
*
  1
*
  0
XRECORD
  5
2BC1
102
{ACAD_REACTORS
330
2A81
102
}
330
2A81
100
AcDbXrecord
280
     1
  1
THAWEDandON
  1
*
  1
*
  1
*
 70
    13
  1
*
  1
*
  0
XRECORD
  5
2BC2
102
{ACAD_REACTORS
330
2A81
102
}
330
2A81
100
AcDbXrecord
280
     1
  1
tree
  1
*tre*
  1
*
  1
*
 70
     0
  1
*
  1
*
  0
XRECORD
  5
2BC3
102
{ACAD_REACTORS
330
2A81
102
}
330
2A81
100
AcDbXrecord
280
     1
  1
TURNER
  1
TRNR*
  1
*
  1
*
 70
     0
  1
*
  1
*
  0
XRECORD
  5
2BC4
102
{ACAD_REACTORS
330
2A81
102
}
330
2A81
100
AcDbXrecord
280
     1
  1
Upper Floor
  1
U*
  1
*
  1
*
 70
     0
  1
*
  1
*
  0
XRECORD
  5
2BC5
102
{ACAD_REACTORS
330
2A81
102
}
330
2A81
100
AcDbXrecord
280
     1
  1
UpperNew
  1
A?2*
  1
*
  1
*
 70
    16
  1
*
  1
*
  0
XRECORD
  5
2BC6
102
{ACAD_REACTORS
330
2A81
102
}
330
2A81
100
AcDbXrecord
280
     1
  1
utilitytext
  1
qde*tx
  1
*
  1
*
 70
    13
  1
*
  1
*
  0
XRECORD
  5
2BC7
102
{ACAD_REACTORS
330
2A81
102
}
330
2A81
100
AcDbXrecord
280
     1
  1
visible
  1
*
  1
*
  1
*
 70
     1
  1
*
  1
*
  0
XRECORD
  5
2BC8
102
{ACAD_REACTORS
330
2A81
102
}
330
2A81
100
AcDbXrecord
280
     1
  1
WALK
  1
*WALK*
  1
*
  1
*
 70
     0
  1
*
  1
*
  0
XRECORD
  5
2BC9
102
{ACAD_REACTORS
330
2A81
102
}
330
2A81
100
AcDbXrecord
280
     1
  1
wall
  1
*wa*
  1
*
  1
*
 70
     0
  1
*
  1
*
  0
XRECORD
  5
2BCA
102
{ACAD_REACTORS
330
2A81
102
}
330
2A81
100
AcDbXrecord
280
     1
  1
WALLS
  1
*WALL*
  1
*
  1
*
 70
     0
  1
*
  1
*
  0
XRECORD
  5
2BCB
102
{ACAD_REACTORS
330
2A81
102
}
330
2A81
100
AcDbXrecord
280
     1
  1
WALLSONLY
  1
*WALLS*
  1
*
  1
*
 70
     0
  1
*
  1
*
  0
XRECORD
  5
2BCC
102
{ACAD_REACTORS
330
2A81
102
}
330
2A81
100
AcDbXrecord
280
     1
  1
WAT
  1
*WAT*
  1
*
  1
*
 70
     0
  1
*
  1
*
  0
XRECORD
  5
2BCD
102
{ACAD_REACTORS
330
2A81
102
}
330
2A81
100
AcDbXrecord
280
     1
  1
WATER
  1
*WATER*
  1
*
  1
*
 70
     0
  1
*
  1
*
  0
XRECORD
  5
2BCE
102
{ACAD_REACTORS
330
2A81
102
}
330
2A81
100
AcDbXrecord
280
     1
  1
WATER FITTINGS
  1
*FIT*
  1
*
  1
*
 70
     0
  1
*
  1
*
  0
XRECORD
  5
2BCF
102
{ACAD_REACTORS
330
2A81
102
}
330
2A81
100
AcDbXrecord
280
     1
  1
WaterShed
  1
ws*
  1
*
  1
*
 70
     0
  1
*
  1
*
  0
XRECORD
  5
2BD0
102
{ACAD_REACTORS
330
2A81
102
}
330
2A81
100
AcDbXrecord
280
     1
  1
white
  1
*
  1
*white*
  1
*
 70
     1
  1
*
  1
*
  0
XRECORD
  5
2BD1
102
{ACAD_REACTORS
330
2A81
102
}
330
2A81
100
AcDbXrecord
280
     1
  1
WW
  1
*WW*
  1
*
  1
*
 70
     0
  1
*
  1
*
  0
XRECORD
  5
2BD2
102
{ACAD_REACTORS
330
2A81
102
}
330
2A81
100
AcDbXrecord
280
     1
  1
Xref
  1
Xref*
  1
*
  1
*
 70
     0
  1
*
  1
*
  0
XRECORD
  5
2BD3
102
{ACAD_REACTORS
330
2A81
102
}
330
2A81
100
AcDbXrecord
280
     1
  1
XX
  1
C-PR-*
  1
*
  1
*
 70
     0
  1
*
  1
*
  0
DICTIONARY
  5
2C98
330
62A
100
AcDbDictionary
280
     1
281
     1
  3
ACAD_XREC_ROUNDTRIP
360
2C99
  0
DICTIONARY
  5
2C9A
330
629
100
AcDbDictionary
280
     1
281
     1
  3
ACAD_XREC_ROUNDTRIP
360
2C9B
  0
XRECORD
  5
2C99
102
{ACAD_REACTORS
330
2C98
102
}
330
2C98
100
AcDbXrecord
102
SHADEPLOT
 70
     0
102
SHADEPLOTRESLEVEL
 70
     2
102
SHADEPLOTCUSTOMDPI
 70
   300
  0
XRECORD
  5
2C9B
102
{ACAD_REACTORS
330
2C9A
102
}
330
2C9A
100
AcDbXrecord
102
SHADEPLOT
 70
     0
102
SHADEPLOTRESLEVEL
 70
     2
102
SHADEPLOTCUSTOMDPI
 70
   300
  0
ENDSEC
  0
EOF
