  0
SECTION
  2
HEADER
  9
$ACADVER
  1
AC1015
  9
$ACADMAINTVER
 70
     6
  9
$DWGCODEPAGE
  3
ANSI_1252
  9
$INSBASE
 10
0.0
 20
0.0
 30
0.0
  9
$EXTMIN
 10
-13.81361583239599
 20
-0.0414213562373102
 30
0.0
  9
$EXTMAX
 10
15.27117448470107
 20
19.60229226862101
 30
0.0
  9
$LIMMIN
 10
0.0
 20
0.0
  9
$LIMMAX
 10
24.0
 20
31.5
  9
$ORTHOMODE
 70
     1
  9
$REGENMODE
 70
     1
  9
$FILLMODE
 70
     1
  9
$QTEXTMODE
 70
     0
  9
$MIRRTEXT
 70
     0
  9
$LTSCALE
 40
0.5
  9
$ATTMODE
 70
     1
  9
$TEXTSIZE
 40
0.27
  9
$TRACEWID
 40
0.05
  9
$TEXTSTYLE
  7
STANDARD
  9
$CLAYER
  8
0
  9
$CELTYPE
  6
ByLayer
  9
$CECOLOR
 62
   256
  9
$CELTSCALE
 40
1.0
  9
$DISPSILH
 70
     0
  9
$DIMSCALE
 40
3.0
  9
$DIMASZ
 40
0.125
  9
$DIMEXO
 40
0.062
  9
$DIMDLI
 40
0.375
  9
$DIMRND
 40
0.0
  9
$DIMDLE
 40
0.0
  9
$DIMEXE
 40
0.08
  9
$DIMTP
 40
0.0
  9
$DIMTM
 40
0.0
  9
$DIMTXT
 40
0.09
  9
$DIMCEN
 40
-0.03125
  9
$DIMTSZ
 40
0.0
  9
$DIMTOL
 70
     0
  9
$DIMLIM
 70
     0
  9
$DIMTIH
 70
     1
  9
$DIMTOH
 70
     1
  9
$DIMSE1
 70
     0
  9
$DIMSE2
 70
     0
  9
$DIMTAD
 70
     0
  9
$DIMZIN
 70
     0
  9
$DIMBLK
  1

  9
$DIMASO
 70
     0
  9
$DIMSHO
 70
     0
  9
$DIMPOST
  1

  9
$DIMAPOST
  1

  9
$DIMALT
 70
     0
  9
$DIMALTD
 70
     2
  9
$DIMALTF
 40
25.4
  9
$DIMLFAC
 40
1.0
  9
$DIMTOFL
 70
     0
  9
$DIMTVP
 40
0.0
  9
$DIMTIX
 70
     0
  9
$DIMSOXD
 70
     0
  9
$DIMSAH
 70
     0
  9
$DIMBLK1
  1

  9
$DIMBLK2
  1

  9
$DIMSTYLE
  2
Standard
  9
$DIMCLRD
 70
     0
  9
$DIMCLRE
 70
     0
  9
$DIMCLRT
 70
     0
  9
$DIMTFAC
 40
1.0
  9
$DIMGAP
 40
0.09
  9
$DIMJUST
 70
     0
  9
$DIMSD1
 70
     0
  9
$DIMSD2
 70
     0
  9
$DIMTOLJ
 70
     1
  9
$DIMTZIN
 70
     0
  9
$DIMALTZ
 70
     0
  9
$DIMALTTZ
 70
     0
  9
$DIMUPT
 70
     0
  9
$DIMDEC
 70
     5
  9
$DIMTDEC
 70
     5
  9
$DIMALTU
 70
     5
  9
$DIMALTTD
 70
     2
  9
$DIMTXSTY
  7
STANDARD
  9
$DIMAUNIT
 70
     0
  9
$DIMADEC
 70
     0
  9
$DIMALTRND
 40
0.0
  9
$DIMAZIN
 70
     0
  9
$DIMDSEP
 70
    46
  9
$DIMATFIT
 70
     3
  9
$DIMFRAC
 70
     0
  9
$DIMLDRBLK
  1

  9
$DIMLUNIT
 70
     5
  9
$DIMLWD
 70
    -2
  9
$DIMLWE
 70
    -2
  9
$DIMTMOVE
 70
     2
  9
$LUNITS
 70
     5
  9
$LUPREC
 70
     5
  9
$SKETCHINC
 40
0.1
  9
$FILLETRAD
 40
0.2
  9
$AUNITS
 70
     0
  9
$AUPREC
 70
     0
  9
$MENU
  1
acad
  9
$ELEVATION
 40
0.0
  9
$PELEVATION
 40
0.0
  9
$THICKNESS
 40
0.0
  9
$LIMCHECK
 70
     0
  9
$CHAMFERA
 40
0.0
  9
$CHAMFERB
 40
0.0
  9
$CHAMFERC
 40
0.0
  9
$CHAMFERD
 40
0.0
  9
$SKPOLY
 70
     0
  9
$TDCREATE
 40
2449849.848686806
  9
$TDUCREATE
 40
2449850.182020139
  9
$TDUPDATE
 40
2454182.741748692
  9
$TDUUPDATE
 40
2454183.075082026
  9
$TDINDWG
 40
0.0427520833
  9
$TDUSRTIMER
 40
0.0427520833
  9
$USRTIMER
 70
     1
  9
$ANGBASE
 50
0.0
  9
$ANGDIR
 70
     0
  9
$PDMODE
 70
     0
  9
$PDSIZE
 40
0.0
  9
$PLINEWID
 40
0.0
  9
$SPLFRAME
 70
     0
  9
$SPLINETYPE
 70
     6
  9
$SPLINESEGS
 70
     8
  9
$HANDSEED
  5
1F7
  9
$SURFTAB1
 70
     6
  9
$SURFTAB2
 70
     6
  9
$SURFTYPE
 70
     6
  9
$SURFU
 70
     6
  9
$SURFV
 70
     6
  9
$UCSBASE
  2

  9
$UCSNAME
  2

  9
$UCSORG
 10
0.0
 20
0.0
 30
0.0
  9
$UCSXDIR
 10
1.0
 20
0.0
 30
0.0
  9
$UCSYDIR
 10
0.0
 20
1.0
 30
0.0
  9
$UCSORTHOREF
  2

  9
$UCSORTHOVIEW
 70
     0
  9
$UCSORGTOP
 10
0.0
 20
0.0
 30
0.0
  9
$UCSORGBOTTOM
 10
0.0
 20
0.0
 30
0.0
  9
$UCSORGLEFT
 10
0.0
 20
0.0
 30
0.0
  9
$UCSORGRIGHT
 10
0.0
 20
0.0
 30
0.0
  9
$UCSORGFRONT
 10
0.0
 20
0.0
 30
0.0
  9
$UCSORGBACK
 10
0.0
 20
0.0
 30
0.0
  9
$PUCSBASE
  2

  9
$PUCSNAME
  2

  9
$PUCSORG
 10
0.0
 20
0.0
 30
0.0
  9
$PUCSXDIR
 10
1.0
 20
0.0
 30
0.0
  9
$PUCSYDIR
 10
0.0
 20
1.0
 30
0.0
  9
$PUCSORTHOREF
  2

  9
$PUCSORTHOVIEW
 70
     0
  9
$PUCSORGTOP
 10
0.0
 20
0.0
 30
0.0
  9
$PUCSORGBOTTOM
 10
0.0
 20
0.0
 30
0.0
  9
$PUCSORGLEFT
 10
0.0
 20
0.0
 30
0.0
  9
$PUCSORGRIGHT
 10
0.0
 20
0.0
 30
0.0
  9
$PUCSORGFRONT
 10
0.0
 20
0.0
 30
0.0
  9
$PUCSORGBACK
 10
0.0
 20
0.0
 30
0.0
  9
$USERI1
 70
     0
  9
$USERI2
 70
     0
  9
$USERI3
 70
     0
  9
$USERI4
 70
     0
  9
$USERI5
 70
     0
  9
$USERR1
 40
0.0
  9
$USERR2
 40
0.0
  9
$USERR3
 40
0.0
  9
$USERR4
 40
0.0
  9
$USERR5
 40
0.0
  9
$WORLDVIEW
 70
     1
  9
$SHADEDGE
 70
     3
  9
$SHADEDIF
 70
    70
  9
$TILEMODE
 70
     1
  9
$MAXACTVP
 70
    16
  9
$PINSBASE
 10
0.0
 20
0.0
 30
0.0
  9
$PLIMCHECK
 70
     0
  9
$PEXTMIN
 10
1.000000000000000E+20
 20
1.000000000000000E+20
 30
1.000000000000000E+20
  9
$PEXTMAX
 10
-1.000000000000000E+20
 20
-1.000000000000000E+20
 30
-1.000000000000000E+20
  9
$PLIMMIN
 10
0.0
 20
0.0
  9
$PLIMMAX
 10
12.0
 20
9.0
  9
$UNITMODE
 70
     0
  9
$VISRETAIN
 70
     0
  9
$PLINEGEN
 70
     1
  9
$PSLTSCALE
 70
     0
  9
$TREEDEPTH
 70
  3020
  9
$CMLSTYLE
  2
Standard
  9
$CMLJUST
 70
     0
  9
$CMLSCALE
 40
1.0
  9
$PROXYGRAPHICS
 70
     1
  9
$MEASUREMENT
 70
     0
  9
$CELWEIGHT
370
    -1
  9
$ENDCAPS
280
     0
  9
$JOINSTYLE
280
     0
  9
$LWDISPLAY
290
     0
  9
$INSUNITS
 70
     0
  9
$HYPERLINKBASE
  1

  9
$STYLESHEET
  1

  9
$XEDIT
290
     1
  9
$CEPSNTYPE
380
     0
  9
$PSTYLEMODE
290
     1
  9
$FINGERPRINTGUID
  2
{BF55E2AB-D3A2-4BBA-AD86-B83212BF391B}
  9
$VERSIONGUID
  2
{CABE7686-5747-42F0-866E-717902959F48}
  9
$EXTNAMES
290
     1
  9
$PSVPSCALE
 40
0.0
  9
$OLESTARTUP
290
     0
  0
ENDSEC
  0
SECTION
  2
CLASSES
  0
CLASS
  1
ACDBDICTIONARYWDFLT
  2
AcDbDictionaryWithDefault
  3
AutoCAD 2000
 90
        0
280
     0
281
     0
  0
CLASS
  1
ACDBPLACEHOLDER
  2
AcDbPlaceHolder
  3
ObjectDBX Classes
 90
        0
280
     0
281
     0
  0
CLASS
  1
LAYOUT
  2
AcDbLayout
  3
ObjectDBX Classes
 90
        0
280
     0
281
     0
  0
CLASS
  1
DICTIONARYVAR
  2
AcDbDictionaryVar
  3
AutoCAD 2000
 90
        0
280
     0
281
     0
  0
CLASS
  1
TABLESTYLE
  2
AcDbTableStyle
  3
ObjectDBX Classes
 90
     2047
280
     1
281
     0
  0
CLASS
  1
SORTENTSTABLE
  2
AcDbSortentsTable
  3
AutoCAD 2000
 90
        0
280
     0
281
     0
  0
ENDSEC
  0
SECTION
  2
TABLES
  0
TABLE
  2
VPORT
  5
19
330
0
100
AcDbSymbolTable
 70
     2
  0
VPORT
  5
1E9
330
19
100
AcDbSymbolTableRecord
100
AcDbViewportTableRecord
  2
*Active
 70
     0
 10
0.0
 20
0.0
 11
1.0
 21
1.0
 12
9.295711344419747
 22
9.769449710934612
 13
0.0
 23
0.0
 14
0.063
 24
0.063
 15
0.25
 25
0.25
 16
0.0
 26
0.0
 36
1.0
 17
0.0
 27
0.0
 37
0.0
 40
31.78475744467834
 41
1.814583333333333
 42
50.0
 43
0.0
 44
0.0
 50
0.0
 51
0.0
 71
     0
 72
   100
 73
     1
 74
     0
 75
     0
 76
     0
 77
     0
 78
     0
281
     0
 65
     1
110
0.0
120
0.0
130
0.0
111
1.0
121
0.0
131
0.0
112
0.0
122
1.0
132
0.0
 79
     0
146
0.0
  0
ENDTAB
  0
TABLE
  2
LTYPE
  5
14
330
0
100
AcDbSymbolTable
 70
     1
  0
LTYPE
  5
15
330
14
100
AcDbSymbolTableRecord
100
AcDbLinetypeTableRecord
  2
ByBlock
 70
     0
  3

 72
    65
 73
     0
 40
0.0
  0
LTYPE
  5
16
330
14
100
AcDbSymbolTableRecord
100
AcDbLinetypeTableRecord
  2
ByLayer
 70
     0
  3

 72
    65
 73
     0
 40
0.0
  0
LTYPE
  5
8
330
14
100
AcDbSymbolTableRecord
100
AcDbLinetypeTableRecord
  2
CONTINUOUS
 70
     0
  3
Solid line
 72
    65
 73
     0
 40
0.0
  0
ENDTAB
  0
TABLE
  2
LAYER
  5
10
330
0
100
AcDbSymbolTable
 70
     2
  0
LAYER
  5
4
330
10
100
AcDbSymbolTableRecord
100
AcDbLayerTableRecord
  2
0
 70
     0
 62
     7
  6
CONTINUOUS
370
    -3
390
5
  0
ENDTAB
  0
TABLE
  2
STYLE
  5
11
330
0
100
AcDbSymbolTable
 70
     1
  0
STYLE
  5
12
330
11
100
AcDbSymbolTableRecord
100
AcDbTextStyleTableRecord
  2
STANDARD
 70
     0
 40
0.0
 41
1.0
 50
0.0
 71
     0
 42
0.27
  3
TXT
  4

  0
ENDTAB
  0
TABLE
  2
VIEW
  5
17
330
0
100
AcDbSymbolTable
 70
     0
  0
ENDTAB
  0
TABLE
  2
UCS
  5
18
330
0
100
AcDbSymbolTable
 70
     0
  0
ENDTAB
  0
TABLE
  2
APPID
  5
1B
330
0
100
AcDbSymbolTable
 70
     1
  0
APPID
  5
1C
330
1B
100
AcDbSymbolTableRecord
100
AcDbRegAppTableRecord
  2
ACAD
 70
     0
  0
ENDTAB
  0
TABLE
  2
DIMSTYLE
  5
1D
330
0
100
AcDbSymbolTable
 70
     1
100
AcDbDimStyleTable
  0
DIMSTYLE
105
24
330
1D
100
AcDbSymbolTableRecord
100
AcDbDimStyleTableRecord
  2
Standard
 70
     0
  3

  4

340
12
  0
ENDTAB
  0
TABLE
  2
BLOCK_RECORD
  5
1
330
0
100
AcDbSymbolTable
 70
     0
  0
BLOCK_RECORD
  5
2
102
{ACAD_XDICTIONARY
360
114
102
}
330
1
100
AcDbSymbolTableRecord
100
AcDbBlockTableRecord
  2
*Model_Space
340
A
  0
BLOCK_RECORD
  5
C
330
1
100
AcDbSymbolTableRecord
100
AcDbBlockTableRecord
  2
*Paper_Space
340
F
  0
ENDTAB
  0
ENDSEC
  0
SECTION
  2
BLOCKS
  0
BLOCK
  5
3
330
2
100
AcDbEntity
  8
0
100
AcDbBlockBegin
  2
*Model_Space
 70
     0
 10
0.0
 20
0.0
 30
0.0
  3
*Model_Space
  1

  4

  0
ENDBLK
  5
9
330
2
100
AcDbEntity
  8
0
100
AcDbBlockEnd
  0
BLOCK
  5
D
330
C
100
AcDbEntity
 67
     1
  8
0
100
AcDbBlockBegin
  2
*Paper_Space
 70
     0
 10
0.0
 20
0.0
 30
0.0
  3
*Paper_Space
  1

  4

  0
ENDBLK
  5
E
330
C
100
AcDbEntity
 67
     1
  8
0
100
AcDbBlockEnd
  0
ENDSEC
  0
SECTION
  2
ENTITIES
  0
LINE
  5
119
330
2
100
AcDbEntity
  8
0
100
AcDbLine
 10
-0.8683629840668097
 20
15.07141892097269
 30
0.0
 11
1.017637015933193
 21
15.07141892097269
 31
0.0
  0
LINE
  5
11A
330
2
100
AcDbEntity
  8
0
100
AcDbLine
 10
1.955724078475711
 20
18.82640392097269
 30
0.0
 11
0.0807240784757113
 21
18.82640392097269
 31
0.0
  0
ARC
  5
11B
330
2
100
AcDbEntity
  8
0
100
AcDbCircle
 10
0.445747078475712
 20
18.17956292097269
 30
0.0
 40
0.208949
100
AcDbArc
 50
31.290868
 51
148.446877
  0
ARC
  5
11C
330
2
100
AcDbEntity
  8
0
100
AcDbCircle
 10
0.4489390784757106
 20
17.20765392097269
 30
0.0
 40
0.231334
100
AcDbArc
 50
218.418055
 51
321.581945
  0
LINE
  5
11D
330
2
100
AcDbEntity
  8
0
100
AcDbLine
 10
-0.7693629840668095
 20
15.07141892097268
 30
0.0
 11
-0.7693629840668059
 21
17.07141892097268
 31
0.0
  0
LINE
  5
11E
330
2
100
AcDbEntity
  8
0
100
AcDbLine
 10
-0.8683629840668097
 20
15.07141892097268
 30
0.0
 11
-0.8683629840668097
 21
17.07141892097268
 31
0.0
  0
LINE
  5
11F
330
2
100
AcDbEntity
  8
0
100
AcDbLine
 10
-0.8058629840668097
 20
15.07141892097268
 30
0.0
 11
-0.7068629840668059
 21
15.07141892097269
 31
0.0
  0
LINE
  5
120
330
2
100
AcDbEntity
  8
0
100
AcDbLine
 10
-2.619729921524289
 20
17.07141892097268
 30
0.0
 11
-2.358517921524289
 21
17.07141892097268
 31
0.0
  0
LINE
  5
121
330
2
100
AcDbEntity
  8
0
100
AcDbLine
 10
-2.927322921524286
 20
19.57640392097269
 30
0.0
 11
-2.310398921524289
 21
19.57640392097269
 31
0.0
  0
LINE
  5
122
330
2
100
AcDbEntity
  8
0
100
AcDbLine
 10
-3.177322921524286
 20
17.07141892097268
 30
0.0
 11
-3.177322921524286
 21
19.32640392097269
 31
0.0
  0
LINE
  5
123
330
2
100
AcDbEntity
  8
0
100
AcDbLine
 10
-2.979795921524286
 20
17.07883492097269
 30
0.0
 11
-2.979795921524286
 21
18.28808792097269
 31
0.0
  0
LINE
  5
124
330
2
100
AcDbEntity
  8
0
100
AcDbLine
 10
-2.622898921524289
 20
17.07640392097269
 30
0.0
 11
-2.622898921524289
 21
18.28632692097268
 31
0.0
  0
ARC
  5
125
330
2
100
AcDbEntity
  8
0
100
AcDbCircle
 10
-2.804148921524288
 20
17.20765392097269
 30
0.0
 40
0.231334
100
AcDbArc
 50
218.418055
 51
321.581945
  0
LINE
  5
126
330
2
100
AcDbEntity
  8
0
100
AcDbLine
 10
-3.177322921524286
 20
17.07141892097268
 30
0.0
 11
-3.177322921524286
 21
17.07141892097268
 31
0.0
  0
LINE
  5
127
330
2
100
AcDbEntity
  8
0
100
AcDbLine
 10
-3.177322921524286
 20
17.07141892097268
 30
0.0
 11
-2.98205692152429
 21
17.07141892097268
 31
0.0
  0
ARC
  5
128
330
2
100
AcDbEntity
  8
0
100
AcDbCircle
 10
-2.800955921524288
 20
18.17956292097269
 30
0.0
 40
0.208949
100
AcDbArc
 50
31.55312299999999
 51
148.709132
  0
LINE
  5
129
330
2
100
AcDbEntity
  8
0
100
AcDbLine
 10
-2.927322921524286
 20
19.57640392097269
 30
0.0
 11
-3.177322921524286
 21
19.32640392097269
 31
0.0
  0
CIRCLE
  5
12A
330
2
100
AcDbEntity
  8
0
100
AcDbCircle
 10
-2.693935921524286
 20
19.26896792097269
 30
0.0
 40
0.109
  0
LINE
  5
12B
330
2
100
AcDbEntity
  8
0
100
AcDbLine
 10
0.0807240784757113
 20
18.33290592097269
 30
0.0
 11
-0.1178319215242887
 21
18.53146192097269
 31
0.0
  0
LINE
  5
12C
330
2
100
AcDbEntity
  8
0
100
AcDbLine
 10
0.2792790784757102
 20
18.53146192097269
 30
0.0
 11
0.0807240784757113
 21
18.33290592097269
 31
0.0
  0
LINE
  5
12D
330
2
100
AcDbEntity
  8
0
100
AcDbLine
 10
-1.372650921524286
 20
17.07141892097268
 30
0.0
 11
-0.4792609215242862
 21
17.07141892097269
 31
0.0
  0
LINE
  5
12E
330
2
100
AcDbEntity
  8
0
100
AcDbLine
 10
-1.372364921524287
 20
17.07640392097269
 30
0.0
 11
-1.372364921524287
 21
18.28632692097268
 31
0.0
  0
LINE
  5
12F
330
2
100
AcDbEntity
  8
0
100
AcDbLine
 10
-1.729260921524286
 20
17.07883492097269
 30
0.0
 11
-1.729260921524286
 21
18.28808792097269
 31
0.0
  0
LINE
  5
130
330
2
100
AcDbEntity
  8
0
100
AcDbLine
 10
-1.997631921524288
 20
17.07640392097269
 30
0.0
 11
-1.997631921524288
 21
18.28632692097268
 31
0.0
  0
LINE
  5
131
330
2
100
AcDbEntity
  8
0
100
AcDbLine
 10
-2.354527921524287
 20
17.07883492097269
 30
0.0
 11
-2.354527921524287
 21
18.28808792097269
 31
0.0
  0
LINE
  5
132
330
2
100
AcDbEntity
  8
0
100
AcDbLine
 10
-1.996189921524287
 20
17.07141892097268
 30
0.0
 11
-1.726550921524286
 21
17.07141892097268
 31
0.0
  0
ARC
  5
133
330
2
100
AcDbEntity
  8
0
100
AcDbCircle
 10
-2.178881921524287
 20
17.20765392097269
 30
0.0
 40
0.231334
100
AcDbArc
 50
218.418055
 51
321.581945
  0
ARC
  5
134
330
2
100
AcDbEntity
  8
0
100
AcDbCircle
 10
-1.553614921524286
 20
17.20765392097269
 30
0.0
 40
0.231334
100
AcDbArc
 50
218.418055
 51
321.581945
  0
ARC
  5
135
330
2
100
AcDbEntity
  8
0
100
AcDbCircle
 10
-2.175688921524287
 20
18.17956292097269
 30
0.0
 40
0.208949
100
AcDbArc
 50
31.55312299999999
 51
148.709132
  0
ARC
  5
136
330
2
100
AcDbEntity
  8
0
100
AcDbCircle
 10
-1.55042192152429
 20
18.17956292097269
 30
0.0
 40
0.208949
100
AcDbArc
 50
31.55312299999999
 51
148.709132
  0
LINE
  5
137
330
2
100
AcDbEntity
  8
0
100
AcDbLine
 10
0.267689078475712
 20
17.07640392097269
 30
0.0
 11
0.267689078475712
 21
18.28632692097268
 31
0.0
  0
LINE
  5
138
330
2
100
AcDbEntity
  8
0
100
AcDbLine
 10
-0.4792609215242862
 20
17.07141892097269
 30
0.0
 11
-0.4792609215242862
 21
18.28808792097269
 31
0.0
  0
LINE
  5
139
330
2
100
AcDbEntity
  8
0
100
AcDbLine
 10
-0.1223649215242872
 20
17.07640392097269
 30
0.0
 11
-0.1223649215242872
 21
18.28632692097268
 31
0.0
  0
ARC
  5
13A
330
2
100
AcDbEntity
  8
0
100
AcDbCircle
 10
-0.3036149215242858
 20
17.20765392097269
 30
0.0
 40
0.231334
100
AcDbArc
 50
218.418055
 51
321.581945
  0
LINE
  5
13B
330
2
100
AcDbEntity
  8
0
100
AcDbLine
 10
-0.1228989215242891
 20
17.07141892097268
 30
0.0
 11
0.0659830784757105
 21
17.07141892097268
 31
0.0
  0
LINE
  5
13C
330
2
100
AcDbEntity
  8
0
100
AcDbLine
 10
0.2682240784757113
 20
17.07141892097268
 30
0.0
 11
0.0793410784757143
 21
17.07141892097268
 31
0.0
  0
ARC
  5
13D
330
2
100
AcDbEntity
  8
0
100
AcDbCircle
 10
-0.3004219215242898
 20
18.17956292097269
 30
0.0
 40
0.208949
100
AcDbArc
 50
31.55312299999999
 51
148.709132
  0
LINE
  5
13E
330
2
100
AcDbEntity
  8
0
100
AcDbLine
 10
-1.810398921524289
 20
18.82640392097269
 30
0.0
 11
0.0646010784757109
 21
18.82640392097269
 31
0.0
  0
ARC
  5
13F
330
2
100
AcDbEntity
  8
0
100
AcDbCircle
 10
-1.810398921524289
 20
19.20140392097269
 30
0.0
 40
0.375
100
AcDbArc
 50
180.0
 51
270.0
  0
ARC
  5
140
330
2
100
AcDbEntity
  8
0
100
AcDbCircle
 10
-2.310398921524289
 20
19.45140392097269
 30
0.0
 40
0.125
100
AcDbArc
 50
0.0
 51
90.0
  0
LINE
  5
141
330
2
100
AcDbEntity
  8
0
100
AcDbLine
 10
-2.185398921524289
 20
19.45140392097269
 30
0.0
 11
-2.185398921524289
 21
19.20140392097269
 31
0.0
  0
LINE
  5
142
330
2
100
AcDbEntity
  8
0
100
AcDbLine
 10
-0.1178319215242887
 20
18.53146192097269
 30
0.0
 11
0.0807240784757113
 21
18.73001692097269
 31
0.0
  0
LINE
  5
143
330
2
100
AcDbEntity
  8
0
100
AcDbLine
 10
0.0807240784757113
 20
18.73001692097269
 30
0.0
 11
0.2792790784757102
 21
18.53146192097269
 31
0.0
  0
LINE
  5
144
330
2
100
AcDbEntity
  8
0
100
AcDbLine
 10
0.9186370159331894
 20
15.07141892097268
 30
0.0
 11
0.9186370159331929
 21
17.04839028379205
 31
0.0
  0
LINE
  5
145
330
2
100
AcDbEntity
  8
0
100
AcDbLine
 10
1.017637015933193
 20
15.07141892097268
 30
0.0
 11
1.017637015933193
 21
17.04839028379205
 31
0.0
  0
LINE
  5
146
330
2
100
AcDbEntity
  8
0
100
AcDbLine
 10
0.8593626270367452
 20
15.07141892097268
 30
0.0
 11
0.9583626270367454
 21
15.07141892097268
 31
0.0
  0
LINE
  5
147
330
2
100
AcDbEntity
  8
0
100
AcDbLine
 10
3.322647078475711
 20
17.07141892097268
 30
0.0
 11
3.127382078475712
 21
17.07141892097268
 31
0.0
  0
LINE
  5
148
330
2
100
AcDbEntity
  8
0
100
AcDbLine
 10
3.072647078475711
 20
19.57640392097269
 30
0.0
 11
3.322647078475711
 21
19.32640392097269
 31
0.0
  0
ARC
  5
149
330
2
100
AcDbEntity
  8
0
100
AcDbCircle
 10
1.698939078475711
 20
17.20765392097269
 30
0.0
 40
0.231334
100
AcDbArc
 50
218.418055
 51
321.581945
  0
ARC
  5
14A
330
2
100
AcDbEntity
  8
0
100
AcDbCircle
 10
1.695747078475712
 20
18.17956292097269
 30
0.0
 40
0.208949
100
AcDbArc
 50
31.290868
 51
148.446877
  0
LINE
  5
14B
330
2
100
AcDbEntity
  8
0
100
AcDbLine
 10
1.517689078475712
 20
17.07640392097269
 30
0.0
 11
1.517689078475712
 21
18.28632692097268
 31
0.0
  0
LINE
  5
14C
330
2
100
AcDbEntity
  8
0
100
AcDbLine
 10
0.624586078475712
 20
17.07883492097269
 30
0.0
 11
0.624586078475712
 21
18.28808792097269
 31
0.0
  0
LINE
  5
14D
330
2
100
AcDbEntity
  8
0
100
AcDbLine
 10
1.517975078475715
 20
17.07141892097268
 30
0.0
 11
0.6247970784757122
 21
17.07141892097268
 31
0.0
  0
LINE
  5
14E
330
2
100
AcDbEntity
  8
0
100
AcDbLine
 10
2.768224078475711
 20
17.07640392097269
 30
0.0
 11
2.768224078475711
 21
18.28632692097268
 31
0.0
  0
LINE
  5
14F
330
2
100
AcDbEntity
  8
0
100
AcDbLine
 10
3.12512007847571
 20
17.07883492097269
 30
0.0
 11
3.12512007847571
 21
18.28808792097269
 31
0.0
  0
LINE
  5
150
330
2
100
AcDbEntity
  8
0
100
AcDbLine
 10
2.499853078475713
 20
17.07883492097269
 30
0.0
 11
2.499853078475713
 21
18.28808792097269
 31
0.0
  0
LINE
  5
151
330
2
100
AcDbEntity
  8
0
100
AcDbLine
 10
2.14295707847571
 20
17.07640392097269
 30
0.0
 11
2.14295707847571
 21
18.28632692097268
 31
0.0
  0
LINE
  5
152
330
2
100
AcDbEntity
  8
0
100
AcDbLine
 10
1.874586078475712
 20
17.07883492097269
 30
0.0
 11
1.874586078475712
 21
18.28808792097269
 31
0.0
  0
ARC
  5
153
330
2
100
AcDbEntity
  8
0
100
AcDbCircle
 10
2.324207078475709
 20
17.20765392097269
 30
0.0
 40
0.231334
100
AcDbArc
 50
218.418055
 51
321.581945
  0
LINE
  5
154
330
2
100
AcDbEntity
  8
0
100
AcDbLine
 10
2.141515078475713
 20
17.07141892097268
 30
0.0
 11
1.871876078475712
 21
17.07141892097268
 31
0.0
  0
ARC
  5
155
330
2
100
AcDbEntity
  8
0
100
AcDbCircle
 10
2.949474078475713
 20
17.20765392097269
 30
0.0
 40
0.231334
100
AcDbArc
 50
218.418055
 51
321.581945
  0
LINE
  5
156
330
2
100
AcDbEntity
  8
0
100
AcDbLine
 10
2.765055078475712
 20
17.07141892097268
 30
0.0
 11
2.503842078475714
 21
17.07141892097268
 31
0.0
  0
ARC
  5
157
330
2
100
AcDbEntity
  8
0
100
AcDbCircle
 10
2.321014078475713
 20
18.17956292097269
 30
0.0
 40
0.208949
100
AcDbArc
 50
31.290868
 51
148.446877
  0
ARC
  5
158
330
2
100
AcDbEntity
  8
0
100
AcDbCircle
 10
2.946281078475714
 20
18.17956292097269
 30
0.0
 40
0.208949
100
AcDbArc
 50
31.290868
 51
148.446877
  0
ARC
  5
159
330
2
100
AcDbEntity
  8
0
100
AcDbCircle
 10
2.455724078475711
 20
19.45140392097269
 30
0.0
 40
0.125
100
AcDbArc
 50
90.0
 51
180.0
  0
ARC
  5
15A
330
2
100
AcDbEntity
  8
0
100
AcDbCircle
 10
1.955724078475711
 20
19.20140392097269
 30
0.0
 40
0.375
100
AcDbArc
 50
270.0
 51
0.0
  0
LINE
  5
15B
330
2
100
AcDbEntity
  8
0
100
AcDbLine
 10
2.330724078475711
 20
19.45140392097269
 30
0.0
 11
2.330724078475711
 21
19.20140392097269
 31
0.0
  0
LINE
  5
15C
330
2
100
AcDbEntity
  8
0
100
AcDbLine
 10
3.072647078475711
 20
19.57640392097269
 30
0.0
 11
2.455724078475711
 21
19.57640392097269
 31
0.0
  0
CIRCLE
  5
15D
330
2
100
AcDbEntity
  8
0
100
AcDbCircle
 10
2.833024078475713
 20
19.26896792097269
 30
0.0
 40
0.109
  0
LINE
  5
15E
330
2
100
AcDbEntity
  8
0
100
AcDbLine
 10
3.322647078475711
 20
17.07141892097268
 30
0.0
 11
3.322647078475711
 21
19.32640392097269
 31
0.0
  0
LINE
  5
15F
330
2
100
AcDbEntity
  8
0
100
AcDbLine
 10
3.322647078475711
 20
17.07141892097268
 30
0.0
 11
3.322647078475711
 21
17.07141892097268
 31
0.0
  0
LINE
  5
160
330
2
100
AcDbEntity
  8
0
100
AcDbLine
 10
-9.23913988421727
 20
-0.0000000000000036
 30
0.0
 11
-9.23913988421727
 21
12.099
 31
0.0
  0
LINE
  5
161
330
2
100
AcDbEntity
  8
0
100
AcDbLine
 10
-11.23913988421727
 20
-0.0000000000000036
 30
0.0
 11
-11.23913988421727
 21
11.95481903541515
 31
0.0
  0
LINE
  5
162
330
2
100
AcDbEntity
  8
0
100
AcDbLine
 10
-9.23913988421727
 20
-0.0000000000000036
 30
0.0
 11
-11.23913988421727
 21
-0.0000000000000036
 31
0.0
  0
LINE
  5
163
330
2
100
AcDbEntity
  8
0
100
AcDbLine
 10
-9.23913988421727
 20
0.0990000000000002
 30
0.0
 11
-9.23913988421727
 21
0.593
 31
0.0
  0
CIRCLE
  5
164
330
2
100
AcDbEntity
  8
0
100
AcDbCircle
 10
-9.73913988421727
 20
3.090510223603967
 30
0.0
 40
0.078125
  0
LINE
  5
165
330
2
100
AcDbEntity
  8
0
100
AcDbLine
 10
-9.23913988421727
 20
12.099
 30
0.0
 11
-11.17151231976613
 21
12.099
 31
0.0
  0
LINE
  5
166
330
2
100
AcDbEntity
  8
0
100
AcDbLine
 10
-11.33321883239599
 20
11.9380800730894
 30
0.0
 11
-11.33321883239599
 21
9.9401170730894
 31
0.0
  0
LINE
  5
167
330
2
100
AcDbEntity
  8
0
100
AcDbLine
 10
-11.33321883239599
 20
9.9378740730894
 30
0.0
 11
-11.23781883239599
 21
9.9378740730894
 31
0.0
  0
LINE
  5
168
330
2
100
AcDbEntity
  8
0
100
AcDbLine
 10
-11.24082883239599
 20
10.6875000730894
 30
0.0
 11
-11.330514832396
 21
10.6875000730894
 31
0.0
  0
LINE
  5
169
330
2
100
AcDbEntity
  8
0
100
AcDbLine
 10
-11.51781883239599
 20
12.2076520730894
 30
0.0
 11
-13.81361583239599
 21
12.2076520730894
 31
0.0
  0
LINE
  5
16A
330
2
100
AcDbEntity
  8
0
100
AcDbLine
 10
-13.81361583239599
 20
12.0940800730894
 30
0.0
 11
-11.489218832396
 21
12.0940800730894
 31
0.0
  0
LINE
  5
16B
330
2
100
AcDbEntity
  8
0
100
AcDbLine
 10
-13.81361583239599
 20
12.2076520730894
 30
0.0
 11
-13.81361583239599
 21
12.0940800730894
 31
0.0
  0
LINE
  5
16C
330
2
100
AcDbEntity
  8
0
100
AcDbLine
 10
-11.46504183239599
 20
12.2915620730894
 30
0.0
 11
-12.52883183239599
 21
12.2915620730894
 31
0.0
  0
ARC
  5
16D
330
2
100
AcDbEntity
  8
0
100
AcDbCircle
 10
-12.51897983239599
 20
12.2064920730894
 30
0.0
 40
0.085638
100
AcDbArc
 50
96.605975
 51
177.918159
  0
LINE
  5
16E
330
2
100
AcDbEntity
  8
0
100
AcDbLine
 10
-13.56361583239599
 20
12.2076520730894
 30
0.0
 11
-13.56361583239599
 21
12.0940800730894
 31
0.0
  0
ARC
  5
16F
330
2
100
AcDbEntity
  8
0
100
AcDbCircle
 10
-11.46504183239599
 20
11.9715620730894
 30
0.0
 40
0.32
100
AcDbArc
 50
0.0000000000000254
 51
90.00000000000003
  0
LINE
  5
170
330
2
100
AcDbEntity
  8
0
100
AcDbLine
 10
-11.14504183239599
 20
11.9715620730894
 30
0.0
 11
-11.14504183239599
 21
11.4719750730894
 31
0.0
  0
ARC
  5
171
330
2
100
AcDbEntity
  8
0
100
AcDbCircle
 10
-11.23627383239599
 20
11.4577470730894
 30
0.0
 40
0.092334
100
AcDbArc
 50
271.0753320000001
 51
8.864149000000028
  0
ARC
  5
172
330
2
100
AcDbEntity
  8
0
100
AcDbCircle
 10
-11.51781883239599
 20
11.9276520730894
 30
0.0
 40
0.28
100
AcDbArc
 50
5.29721945310571
 51
90.00000000000003
  0
ARC
  5
173
330
2
100
AcDbEntity
  8
0
100
AcDbCircle
 10
-11.489218832396
 20
11.9380800730894
 30
0.0
 40
0.156
100
AcDbArc
 50
0.0000000000000254
 51
90.00000000000003
  0
LINE
  5
174
330
2
100
AcDbEntity
  8
0
100
AcDbLine
 10
10.69669853652234
 20
-0.0000000000000036
 30
0.0
 11
10.69669853652234
 21
12.099
 31
0.0
  0
LINE
  5
175
330
2
100
AcDbEntity
  8
0
100
AcDbLine
 10
12.69669853652234
 20
-0.0000000000000036
 30
0.0
 11
12.69669853652234
 21
11.95481903541515
 31
0.0
  0
LINE
  5
176
330
2
100
AcDbEntity
  8
0
100
AcDbLine
 10
10.69669853652234
 20
-0.0000000000000036
 30
0.0
 11
12.69669853652234
 21
-0.0000000000000036
 31
0.0
  0
LINE
  5
177
330
2
100
AcDbEntity
  8
0
100
AcDbLine
 10
10.69669853652234
 20
0.0990000000000002
 30
0.0
 11
10.69669853652234
 21
0.593
 31
0.0
  0
CIRCLE
  5
178
330
2
100
AcDbEntity
  8
0
100
AcDbCircle
 10
11.19669853652234
 20
3.090510223603967
 30
0.0
 40
0.078125
  0
LINE
  5
179
330
2
100
AcDbEntity
  8
0
100
AcDbLine
 10
10.69669853652234
 20
12.099
 30
0.0
 11
12.6290709720712
 21
12.099
 31
0.0
  0
LINE
  5
17A
330
2
100
AcDbEntity
  8
0
100
AcDbLine
 10
12.79077748470106
 20
11.9380800730894
 30
0.0
 11
12.79077748470106
 21
9.9401170730894
 31
0.0
  0
LINE
  5
17B
330
2
100
AcDbEntity
  8
0
100
AcDbLine
 10
12.79077748470106
 20
9.9378740730894
 30
0.0
 11
12.69537748470107
 21
9.9378740730894
 31
0.0
  0
LINE
  5
17C
330
2
100
AcDbEntity
  8
0
100
AcDbLine
 10
12.69838748470107
 20
10.6875000730894
 30
0.0
 11
12.78807348470107
 21
10.6875000730894
 31
0.0
  0
LINE
  5
17D
330
2
100
AcDbEntity
  8
0
100
AcDbLine
 10
12.97537748470107
 20
12.2076520730894
 30
0.0
 11
15.27117448470107
 21
12.2076520730894
 31
0.0
  0
LINE
  5
17E
330
2
100
AcDbEntity
  8
0
100
AcDbLine
 10
15.27117448470107
 20
12.0940800730894
 30
0.0
 11
12.94677748470107
 21
12.0940800730894
 31
0.0
  0
LINE
  5
17F
330
2
100
AcDbEntity
  8
0
100
AcDbLine
 10
12.92260048470106
 20
12.2915620730894
 30
0.0
 11
13.98639048470107
 21
12.2915620730894
 31
0.0
  0
ARC
  5
180
330
2
100
AcDbEntity
  8
0
100
AcDbCircle
 10
12.92260048470106
 20
11.9715620730894
 30
0.0
 40
0.32
100
AcDbArc
 50
89.99999999999999
 51
180.0
  0
LINE
  5
181
330
2
100
AcDbEntity
  8
0
100
AcDbLine
 10
12.60260048470107
 20
11.9715620730894
 30
0.0
 11
12.60260048470107
 21
11.4719750730894
 31
0.0
  0
ARC
  5
182
330
2
100
AcDbEntity
  8
0
100
AcDbCircle
 10
12.69383248470107
 20
11.4577470730894
 30
0.0
 40
0.092334
100
AcDbArc
 50
171.135851
 51
268.9246679999999
  0
ARC
  5
183
330
2
100
AcDbEntity
  8
0
100
AcDbCircle
 10
12.97537748470107
 20
11.9276520730894
 30
0.0
 40
0.28
100
AcDbArc
 50
89.99999999999999
 51
174.7027805468943
  0
ARC
  5
184
330
2
100
AcDbEntity
  8
0
100
AcDbCircle
 10
12.94677748470107
 20
11.9380800730894
 30
0.0
 40
0.156
100
AcDbArc
 50
89.99999999999999
 51
180.0
  0
ARC
  5
185
330
2
100
AcDbEntity
  8
0
100
AcDbCircle
 10
13.97653848470106
 20
12.2064920730894
 30
0.0
 40
0.085638
100
AcDbArc
 50
2.081840999999982
 51
83.39402499999999
  0
LINE
  5
186
330
2
100
AcDbEntity
  8
0
100
AcDbLine
 10
15.02117448470107
 20
12.2076520730894
 30
0.0
 11
15.02117448470107
 21
12.0940800730894
 31
0.0
  0
LINE
  5
187
330
2
100
AcDbEntity
  8
0
100
AcDbLine
 10
15.27117448470107
 20
12.2076520730894
 30
0.0
 11
15.27117448470107
 21
12.0940800730894
 31
0.0
  0
LINE
  5
188
330
2
100
AcDbEntity
  8
0
100
AcDbLine
 10
-0.8439999999999976
 20
9.954468837213163
 30
0.0
 11
0.8440000000000012
 21
9.954468837213163
 31
0.0
  0
ARC
  5
189
330
2
100
AcDbEntity
  8
0
100
AcDbCircle
 10
0.3483645492717855
 20
12.07259983721316
 30
0.0
 40
0.221928
100
AcDbArc
 50
34.233319
 51
145.766681
  0
ARC
  5
18A
330
2
100
AcDbEntity
  8
0
100
AcDbCircle
 10
0.3483645492717855
 20
11.64708083721316
 30
0.0
 40
0.221928
100
AcDbArc
 50
214.233319
 51
325.766681
  0
LINE
  5
18B
330
2
100
AcDbEntity
  8
0
100
AcDbLine
 10
-0.7430000000000021
 20
0.0
 30
0.0
 11
0.7430000000000021
 21
0.0
 31
0.0
  0
LINE
  5
18C
330
2
100
AcDbEntity
  8
0
100
AcDbLine
 10
-0.7439999999999998
 20
0.0990000000000002
 30
0.0
 11
0.7440000000000033
 21
0.0990000000000002
 31
0.0
  0
LINE
  5
18D
330
2
100
AcDbEntity
  8
0
100
AcDbLine
 10
-0.9430000000000014
 20
12.099
 30
0.0
 11
-0.9430000000000014
 21
0.1999999999999993
 31
0.0
  0
LINE
  5
18E
330
2
100
AcDbEntity
  8
0
100
AcDbLine
 10
-0.8439999999999976
 20
12.099
 30
0.0
 11
-0.8439999999999976
 21
0.1990000000000016
 31
0.0
  0
ARC
  5
18F
330
2
100
AcDbEntity
  8
0
100
AcDbCircle
 10
-0.7430000000000021
 20
0.1999999999999993
 30
0.0
 40
0.2
100
AcDbArc
 50
180.0
 51
270.0
  0
ARC
  5
190
330
2
100
AcDbEntity
  8
0
100
AcDbCircle
 10
-0.7439999999999998
 20
0.1990000000000016
 30
0.0
 40
0.1
100
AcDbArc
 50
180.0
 51
270.0
  0
LINE
  5
191
330
2
100
AcDbEntity
  8
0
100
AcDbLine
 10
-3.024315450728217
 20
10.70446883721316
 30
0.0
 11
-2.379702450728217
 21
10.70446883721316
 31
0.0
  0
LINE
  5
192
330
2
100
AcDbEntity
  8
0
100
AcDbLine
 10
-1.899315450728217
 20
9.954468837213163
 30
0.0
 11
-0.9430000000000014
 21
9.95446883721316
 31
0.0
  0
LINE
  5
193
330
2
100
AcDbEntity
  8
0
100
AcDbLine
 10
-2.274315450728217
 20
10.57946883721316
 30
0.0
 11
-2.274315450728217
 21
10.32946883721316
 31
0.0
  0
ARC
  5
194
330
2
100
AcDbEntity
  8
0
100
AcDbCircle
 10
-1.899315450728217
 20
10.32946883721316
 30
0.0
 40
0.375
100
AcDbArc
 50
180.0
 51
270.0
  0
ARC
  5
195
330
2
100
AcDbEntity
  8
0
100
AcDbCircle
 10
-2.399315450728217
 20
10.57946883721316
 30
0.0
 40
0.125
100
AcDbArc
 50
0.0
 51
90.0
  0
LINE
  5
196
330
2
100
AcDbEntity
  8
0
100
AcDbLine
 10
-2.450698450728218
 20
12.20417483721317
 30
0.0
 11
-2.720287450728215
 21
12.20417483721317
 31
0.0
  0
LINE
  5
197
330
2
100
AcDbEntity
  8
0
100
AcDbLine
 10
-3.080055450728217
 20
11.52064683721316
 30
0.0
 11
-3.080055450728217
 21
11.86392683721316
 31
0.0
  0
LINE
  5
198
330
2
100
AcDbEntity
  8
0
100
AcDbLine
 10
-2.711815450728217
 20
11.86188383721316
 30
0.0
 11
-2.711815450728217
 21
11.52473383721316
 31
0.0
  0
ARC
  5
199
330
2
100
AcDbEntity
  8
0
100
AcDbCircle
 10
-2.896996450728217
 20
11.64708083721316
 30
0.0
 40
0.221928
100
AcDbArc
 50
214.233319
 51
325.766681
  0
ARC
  5
19A
330
2
100
AcDbEntity
  8
0
100
AcDbCircle
 10
-2.896996450728217
 20
12.07259983721316
 30
0.0
 40
0.221928
100
AcDbArc
 50
34.233319
 51
145.766681
  0
LINE
  5
19B
330
2
100
AcDbEntity
  8
0
100
AcDbLine
 10
-3.080055450728217
 20
12.19903283721317
 30
0.0
 11
-3.080055450728217
 21
11.85575383721316
 31
0.0
  0
LINE
  5
19C
330
2
100
AcDbEntity
  8
0
100
AcDbLine
 10
-2.711815450728217
 20
11.85779683721316
 30
0.0
 11
-2.711815450728217
 21
12.19494583721316
 31
0.0
  0
LINE
  5
19D
330
2
100
AcDbEntity
  8
0
100
AcDbLine
 10
-0.5759714507282183
 20
12.20417483721317
 30
0.0
 11
-1.468403450728218
 21
12.20417483721317
 31
0.0
  0
ARC
  5
19E
330
2
100
AcDbEntity
  8
0
100
AcDbCircle
 10
-1.646996450728217
 20
11.64708083721316
 30
0.0
 40
0.221928
100
AcDbArc
 50
214.233319
 51
325.766681
  0
ARC
  5
19F
330
2
100
AcDbEntity
  8
0
100
AcDbCircle
 10
-1.646996450728217
 20
12.07259983721316
 30
0.0
 40
0.221928
100
AcDbArc
 50
34.233319
 51
145.766681
  0
LINE
  5
1A0
330
2
100
AcDbEntity
  8
0
100
AcDbLine
 10
-1.830055450728217
 20
11.52064683721316
 30
0.0
 11
-1.830055450728217
 21
11.86392683721316
 31
0.0
  0
LINE
  5
1A1
330
2
100
AcDbEntity
  8
0
100
AcDbLine
 10
-2.455055450728217
 20
11.52064683721316
 30
0.0
 11
-2.455055450728217
 21
11.86392683721316
 31
0.0
  0
LINE
  5
1A2
330
2
100
AcDbEntity
  8
0
100
AcDbLine
 10
-2.086815450728217
 20
11.86188383721316
 30
0.0
 11
-2.086815450728217
 21
11.52473383721316
 31
0.0
  0
ARC
  5
1A3
330
2
100
AcDbEntity
  8
0
100
AcDbCircle
 10
-2.271996450728217
 20
11.64708083721316
 30
0.0
 40
0.221928
100
AcDbArc
 50
214.233319
 51
325.766681
  0
ARC
  5
1A4
330
2
100
AcDbEntity
  8
0
100
AcDbCircle
 10
-2.271996450728217
 20
12.07259983721316
 30
0.0
 40
0.221928
100
AcDbArc
 50
34.233319
 51
145.766681
  0
LINE
  5
1A5
330
2
100
AcDbEntity
  8
0
100
AcDbLine
 10
-2.455055450728217
 20
12.19903283721317
 30
0.0
 11
-2.455055450728217
 21
11.85575383721316
 31
0.0
  0
LINE
  5
1A6
330
2
100
AcDbEntity
  8
0
100
AcDbLine
 10
-1.830055450728217
 20
12.19903283721317
 30
0.0
 11
-1.830055450728217
 21
11.85575383721316
 31
0.0
  0
LINE
  5
1A7
330
2
100
AcDbEntity
  8
0
100
AcDbLine
 10
-2.086815450728217
 20
11.85779683721316
 30
0.0
 11
-2.086815450728217
 21
12.19494583721316
 31
0.0
  0
LINE
  5
1A8
330
2
100
AcDbEntity
  8
0
100
AcDbLine
 10
-1.827855450728215
 20
12.20417483721317
 30
0.0
 11
-2.091246450728217
 21
12.20417483721317
 31
0.0
  0
LINE
  5
1A9
330
2
100
AcDbEntity
  8
0
100
AcDbLine
 10
-1.461815450728217
 20
11.86188383721316
 30
0.0
 11
-1.461815450728217
 21
11.52473383721316
 31
0.0
  0
LINE
  5
1AA
330
2
100
AcDbEntity
  8
0
100
AcDbLine
 10
-1.461815450728217
 20
11.85779683721316
 30
0.0
 11
-1.461815450728217
 21
12.19494583721316
 31
0.0
  0
ARC
  5
1AB
330
2
100
AcDbEntity
  8
0
100
AcDbCircle
 10
-0.3969964507282171
 20
11.64708083721316
 30
0.0
 40
0.221928
100
AcDbArc
 50
214.233319
 51
325.766681
  0
ARC
  5
1AC
330
2
100
AcDbEntity
  8
0
100
AcDbCircle
 10
-0.3969964507282171
 20
12.07259983721316
 30
0.0
 40
0.221928
100
AcDbArc
 50
34.233319
 51
145.766681
  0
LINE
  5
1AD
330
2
100
AcDbEntity
  8
0
100
AcDbLine
 10
-0.5800554507282172
 20
11.52064683721316
 30
0.0
 11
-0.5800554507282172
 21
11.86392683721316
 31
0.0
  0
LINE
  5
1AE
330
2
100
AcDbEntity
  8
0
100
AcDbLine
 10
-0.8439999999999976
 20
12.099
 30
0.0
 11
-0.9430000000000014
 21
12.099
 31
0.0
  0
LINE
  5
1AF
330
2
100
AcDbEntity
  8
0
100
AcDbLine
 10
-0.5800554507282172
 20
12.19903283721317
 30
0.0
 11
-0.5800554507282172
 21
11.85575383721316
 31
0.0
  0
LINE
  5
1B0
330
2
100
AcDbEntity
  8
0
100
AcDbLine
 10
0.1631845492717829
 20
11.86188383721316
 30
0.0
 11
0.1631845492717829
 21
11.52473383721316
 31
0.0
  0
LINE
  5
1B1
330
2
100
AcDbEntity
  8
0
100
AcDbLine
 10
-0.2118154507282171
 20
11.86188383721316
 30
0.0
 11
-0.2118154507282171
 21
11.52473383721316
 31
0.0
  0
LINE
  5
1B2
330
2
100
AcDbEntity
  8
0
100
AcDbLine
 10
-0.0243154507282171
 20
12.20417483721317
 30
0.0
 11
0.1677225492717831
 21
12.20417483721317
 31
0.0
  0
LINE
  5
1B3
330
2
100
AcDbEntity
  8
0
100
AcDbLine
 10
-0.0243154507282171
 20
12.20417483721317
 30
0.0
 11
-0.2165194507282173
 21
12.20417483721317
 31
0.0
  0
LINE
  5
1B4
330
2
100
AcDbEntity
  8
0
100
AcDbLine
 10
-0.2118154507282171
 20
11.85779683721316
 30
0.0
 11
-0.2118154507282171
 21
12.19494583721316
 31
0.0
  0
LINE
  5
1B5
330
2
100
AcDbEntity
  8
0
100
AcDbLine
 10
0.1631845492717829
 20
11.85779683721316
 30
0.0
 11
0.1631845492717829
 21
12.19494583721316
 31
0.0
  0
LINE
  5
1B6
330
2
100
AcDbEntity
  8
0
100
AcDbLine
 10
0.9430000000000014
 20
0.1999999999999993
 30
0.0
 11
0.9430000000000014
 21
12.099
 31
0.0
  0
LINE
  5
1B7
330
2
100
AcDbEntity
  8
0
100
AcDbLine
 10
0.8440000000000048
 20
0.1990000000000016
 30
0.0
 11
0.8440000000000012
 21
12.099
 31
0.0
  0
ARC
  5
1B8
330
2
100
AcDbEntity
  8
0
100
AcDbCircle
 10
0.7430000000000021
 20
0.1999999999999993
 30
0.0
 40
0.2
100
AcDbArc
 50
270.0
 51
0.0
  0
ARC
  5
1B9
330
2
100
AcDbEntity
  8
0
100
AcDbCircle
 10
0.7440000000000033
 20
0.1990000000000016
 30
0.0
 40
0.1
100
AcDbArc
 50
270.0
 51
0.0
  0
LINE
  5
1BA
330
2
100
AcDbEntity
  8
0
100
AcDbLine
 10
3.225684549271783
 20
12.20417483721317
 30
0.0
 11
3.225684549271783
 21
10.95199383721317
 31
0.0
  0
LINE
  5
1BB
330
2
100
AcDbEntity
  8
0
100
AcDbLine
 10
2.975684549271783
 20
10.70446883721316
 30
0.0
 11
3.225684549271783
 21
10.95446883721316
 31
0.0
  0
LINE
  5
1BC
330
2
100
AcDbEntity
  8
0
100
AcDbLine
 10
1.850684549271783
 20
9.954468837213163
 30
0.0
 11
0.9430000000000014
 21
9.954468837213163
 31
0.0
  0
LINE
  5
1BD
330
2
100
AcDbEntity
  8
0
100
AcDbLine
 10
2.975684549271783
 20
10.70446883721316
 30
0.0
 11
2.329060549271784
 21
10.70446883721316
 31
0.0
  0
LINE
  5
1BE
330
2
100
AcDbEntity
  8
0
100
AcDbLine
 10
2.225684549271783
 20
10.57946883721316
 30
0.0
 11
2.225684549271783
 21
10.32946883721316
 31
0.0
  0
ARC
  5
1BF
330
2
100
AcDbEntity
  8
0
100
AcDbCircle
 10
1.850684549271783
 20
10.32946883721316
 30
0.0
 40
0.375
100
AcDbArc
 50
270.0
 51
0.0
  0
ARC
  5
1C0
330
2
100
AcDbEntity
  8
0
100
AcDbCircle
 10
2.350684549271783
 20
10.57946883721316
 30
0.0
 40
0.125
100
AcDbArc
 50
90.0
 51
180.0
  0
LINE
  5
1C1
330
2
100
AcDbEntity
  8
0
100
AcDbLine
 10
3.027842549271782
 20
12.20417483721317
 30
0.0
 11
3.225684549271783
 21
12.20417483721317
 31
0.0
  0
ARC
  5
1C2
330
2
100
AcDbEntity
  8
0
100
AcDbCircle
 10
1.598364549271786
 20
12.07259983721316
 30
0.0
 40
0.221928
100
AcDbArc
 50
34.233319
 51
145.766681
  0
ARC
  5
1C3
330
2
100
AcDbEntity
  8
0
100
AcDbCircle
 10
1.598364549271786
 20
11.64708083721316
 30
0.0
 40
0.221928
100
AcDbArc
 50
214.233319
 51
325.766681
  0
LINE
  5
1C4
330
2
100
AcDbEntity
  8
0
100
AcDbLine
 10
0.5271735492717866
 20
12.20417483721317
 30
0.0
 11
1.419605549271786
 21
12.20417483721317
 31
0.0
  0
LINE
  5
1C5
330
2
100
AcDbEntity
  8
0
100
AcDbLine
 10
0.5314235492717856
 20
11.52064683721316
 30
0.0
 11
0.5314235492717856
 21
11.86392683721316
 31
0.0
  0
LINE
  5
1C6
330
2
100
AcDbEntity
  8
0
100
AcDbLine
 10
0.5314235492717856
 20
12.19903283721317
 30
0.0
 11
0.5314235492717856
 21
11.85575383721316
 31
0.0
  0
LINE
  5
1C7
330
2
100
AcDbEntity
  8
0
100
AcDbLine
 10
0.8440000000000012
 20
12.099
 30
0.0
 11
0.9430000000000014
 21
12.099
 31
0.0
  0
LINE
  5
1C8
330
2
100
AcDbEntity
  8
0
100
AcDbLine
 10
1.413184549271783
 20
11.86188383721316
 30
0.0
 11
1.413184549271783
 21
11.52473383721316
 31
0.0
  0
LINE
  5
1C9
330
2
100
AcDbEntity
  8
0
100
AcDbLine
 10
1.413184549271783
 20
11.85779683721316
 30
0.0
 11
1.413184549271783
 21
12.19494583721316
 31
0.0
  0
LINE
  5
1CA
330
2
100
AcDbEntity
  8
0
100
AcDbLine
 10
2.401900549271783
 20
12.20417483721317
 30
0.0
 11
2.671489549271783
 21
12.20417483721317
 31
0.0
  0
LINE
  5
1CB
330
2
100
AcDbEntity
  8
0
100
AcDbLine
 10
2.038184549271783
 20
11.86188383721316
 30
0.0
 11
2.038184549271783
 21
11.52473383721316
 31
0.0
  0
LINE
  5
1CC
330
2
100
AcDbEntity
  8
0
100
AcDbLine
 10
2.406423549271786
 20
11.52064683721316
 30
0.0
 11
2.406423549271786
 21
11.86392683721316
 31
0.0
  0
LINE
  5
1CD
330
2
100
AcDbEntity
  8
0
100
AcDbLine
 10
1.781423549271786
 20
11.52064683721316
 30
0.0
 11
1.781423549271786
 21
11.86392683721316
 31
0.0
  0
ARC
  5
1CE
330
2
100
AcDbEntity
  8
0
100
AcDbCircle
 10
2.223364549271786
 20
11.64708083721316
 30
0.0
 40
0.221928
100
AcDbArc
 50
214.233319
 51
325.766681
  0
ARC
  5
1CF
330
2
100
AcDbEntity
  8
0
100
AcDbCircle
 10
2.223364549271786
 20
12.07259983721316
 30
0.0
 40
0.221928
100
AcDbArc
 50
34.233319
 51
145.766681
  0
LINE
  5
1D0
330
2
100
AcDbEntity
  8
0
100
AcDbLine
 10
2.038184549271783
 20
11.85779683721316
 30
0.0
 11
2.038184549271783
 21
12.19494583721316
 31
0.0
  0
LINE
  5
1D1
330
2
100
AcDbEntity
  8
0
100
AcDbLine
 10
1.781423549271786
 20
12.19903283721317
 30
0.0
 11
1.781423549271786
 21
11.85575383721316
 31
0.0
  0
LINE
  5
1D2
330
2
100
AcDbEntity
  8
0
100
AcDbLine
 10
1.775958549271785
 20
12.20417483721317
 30
0.0
 11
2.045547549271781
 21
12.20417483721317
 31
0.0
  0
LINE
  5
1D3
330
2
100
AcDbEntity
  8
0
100
AcDbLine
 10
2.406423549271786
 20
12.19903283721317
 30
0.0
 11
2.406423549271786
 21
11.85575383721316
 31
0.0
  0
LINE
  5
1D4
330
2
100
AcDbEntity
  8
0
100
AcDbLine
 10
2.663184549271783
 20
11.86188383721316
 30
0.0
 11
2.663184549271783
 21
11.52473383721316
 31
0.0
  0
LINE
  5
1D5
330
2
100
AcDbEntity
  8
0
100
AcDbLine
 10
3.031423549271786
 20
11.52064683721316
 30
0.0
 11
3.031423549271786
 21
11.86392683721316
 31
0.0
  0
ARC
  5
1D6
330
2
100
AcDbEntity
  8
0
100
AcDbCircle
 10
2.848364549271786
 20
11.64708083721316
 30
0.0
 40
0.221928
100
AcDbArc
 50
214.233319
 51
325.766681
  0
ARC
  5
1D7
330
2
100
AcDbEntity
  8
0
100
AcDbCircle
 10
2.848364549271786
 20
12.07259983721316
 30
0.0
 40
0.221928
100
AcDbArc
 50
34.233319
 51
145.766681
  0
LINE
  5
1D8
330
2
100
AcDbEntity
  8
0
100
AcDbLine
 10
2.663184549271783
 20
11.85779683721316
 30
0.0
 11
2.663184549271783
 21
12.19494583721316
 31
0.0
  0
LINE
  5
1D9
330
2
100
AcDbEntity
  8
0
100
AcDbLine
 10
3.031423549271786
 20
12.19903283721317
 30
0.0
 11
3.031423549271786
 21
11.85575383721316
 31
0.0
  0
LINE
  5
1DA
330
2
100
AcDbEntity
  8
0
100
AcDbLine
 10
-3.274315450728217
 20
12.20417483721317
 30
0.0
 11
-3.274315450728217
 21
10.95560583721316
 31
0.0
  0
LINE
  5
1DB
330
2
100
AcDbEntity
  8
0
100
AcDbLine
 10
-3.024315450728217
 20
10.70446883721316
 30
0.0
 11
-3.274315450728217
 21
10.95446883721316
 31
0.0
  0
LINE
  5
1DC
330
2
100
AcDbEntity
  8
0
100
AcDbLine
 10
-3.076640450728217
 20
12.20417483721317
 30
0.0
 11
-3.274315450728217
 21
12.20417483721317
 31
0.0
  0
ENDSEC
  0
SECTION
  2
OBJECTS
  0
DICTIONARY
  5
7
330
0
100
AcDbDictionary
281
     1
  3
ACAD_COLOR
350
10E
  3
ACAD_GROUP
350
1F
  3
ACAD_LAYOUT
350
B
  3
ACAD_MATERIAL
350
10D
  3
ACAD_MLINESTYLE
350
20
  3
ACAD_PLOTSETTINGS
350
21
  3
ACAD_PLOTSTYLENAME
350
6
  3
ACAD_TABLESTYLE
350
10F
  3
ACDBHEADERROUNDTRIPXREC
350
1F0
  3
AcDbVariableDictionary
350
109
  0
DICTIONARY
  5
114
330
2
100
AcDbDictionary
280
     1
281
     1
  3
ACAD_SORTENTS
360
115
  0
DICTIONARY
  5
10E
102
{ACAD_REACTORS
330
7
102
}
330
7
100
AcDbDictionary
281
     1
  0
DICTIONARY
  5
1F
102
{ACAD_REACTORS
330
7
102
}
330
7
100
AcDbDictionary
281
     1
  0
DICTIONARY
  5
B
102
{ACAD_REACTORS
330
7
102
}
330
7
100
AcDbDictionary
281
     1
  3
Layout1
350
F
  3
Model
350
A
  0
DICTIONARY
  5
10D
102
{ACAD_REACTORS
330
7
102
}
330
7
100
AcDbDictionary
281
     1
  0
DICTIONARY
  5
20
102
{ACAD_REACTORS
330
7
102
}
330
7
100
AcDbDictionary
281
     1
  3
Standard
350
23
  0
DICTIONARY
  5
21
102
{ACAD_REACTORS
330
7
102
}
330
7
100
AcDbDictionary
281
     1
  0
ACDBDICTIONARYWDFLT
  5
6
102
{ACAD_REACTORS
330
7
102
}
330
7
100
AcDbDictionary
281
     1
  3
Normal
350
5
100
AcDbDictionaryWithDefault
340
5
  0
DICTIONARY
  5
10F
102
{ACAD_REACTORS
330
7
102
}
330
7
100
AcDbDictionary
281
     1
  3
Standard
350
110
  0
DICTIONARY
  5
1F0
102
{ACAD_REACTORS
330
7
102
}
330
7
100
AcDbDictionary
281
     1
  3
COLORDICT
350
1F1
  3
MATERIALDICT
350
1F2
  0
DICTIONARY
  5
109
102
{ACAD_REACTORS
330
7
102
}
330
7
100
AcDbDictionary
281
     1
  3
CTABLESTYLE
350
1E4
  3
HIDETEXT
350
1EF
  0
SORTENTSTABLE
  5
115
102
{ACAD_REACTORS
330
114
102
}
330
114
100
AcDbSortentsTable
330
2
331
1C7
  5
158
331
137
  5
1B4
331
15F
  5
1DC
331
12C
  5
1A9
331
163
  5
185
331
1DB
  5
16C
331
18D
  5
11E
331
17E
  5
178
331
157
  5
1D4
331
194
  5
125
331
15E
  5
1DB
331
1D2
  5
163
331
1BA
  5
14B
331
161
  5
183
331
1AF
  5
140
331
148
  5
1C5
331
125
  5
1A2
331
1A8
  5
139
331
165
  5
187
331
1DC
  5
16D
331
183
  5
17D
331
12E
  5
1AB
331
15C
  5
1D9
331
1B4
  5
145
331
132
  5
1AF
331
170
  5
192
331
1C5
  5
156
331
135
  5
1B2
331
145
  5
1C2
331
122
  5
19F
331
167
  5
189
331
1A5
  5
136
331
1CD
  5
15E
331
1DA
  5
16B
331
1AE
  5
13F
331
1B1
  5
142
331
15B
  5
1D8
331
144
  5
1C1
331
150
  5
1CD
331
14F
  5
1CC
331
160
  5
182
331
17F
  5
179
331
147
  5
1C4
331
1B9
  5
14A
331
1A9
  5
13A
331
142
  5
1BF
331
12B
  5
1A8
331
127
  5
1A4
331
1A2
  5
133
331
131
  5
1AE
331
1C6
  5
157
331
181
  5
17B
331
1D7
  5
168
331
158
  5
1D5
331
134
  5
1B1
331
17D
  5
177
331
189
  5
11A
331
199
  5
12A
331
143
  5
1C0
331
123
  5
1A0
331
1BC
  5
14D
331
1CF
  5
160
331
1BD
  5
14E
331
162
  5
184
331
1A7
  5
138
331
1B5
  5
146
331
155
  5
1D2
331
18A
  5
11B
331
166
  5
188
331
1C1
  5
152
331
15A
  5
1D7
331
146
  5
1C3
331
180
  5
17A
331
154
  5
1D1
331
136
  5
1B3
331
16A
  5
18C
331
1BF
  5
150
331
159
  5
1D6
331
129
  5
1A6
331
18E
  5
11F
331
13F
  5
1BC
331
184
  5
17E
331
16D
  5
18F
331
190
  5
121
331
172
  5
194
331
128
  5
1A5
331
14E
  5
1CB
331
14C
  5
1C9
331
16B
  5
18D
331
17C
  5
176
331
120
  5
19D
331
13A
  5
1B7
331
169
  5
18B
331
1B3
  5
144
331
130
  5
1AD
331
16F
  5
191
331
177
  5
171
331
14D
  5
1CA
331
14B
  5
1C8
331
19A
  5
12B
331
133
  5
1B0
331
1C8
  5
159
331
195
  5
126
331
193
  5
124
331
139
  5
1B6
331
1D1
  5
162
331
149
  5
1C6
331
1AB
  5
13C
331
1A4
  5
135
331
1B2
  5
143
331
19D
  5
12E
331
19C
  5
12D
331
13D
  5
1BA
331
156
  5
1D3
331
12A
  5
1A7
331
1C0
  5
151
331
16C
  5
18E
331
1D3
  5
164
331
197
  5
128
331
153
  5
1D0
331
152
  5
1CF
331
18C
  5
11D
331
1AA
  5
13B
331
182
  5
17C
331
1D4
  5
165
331
1D5
  5
166
331
1D8
  5
169
331
141
  5
1BE
331
168
  5
18A
331
13B
  5
1B8
331
1BE
  5
14F
331
1B7
  5
148
331
1B8
  5
149
331
1AD
  5
13E
331
1B0
  5
141
331
19F
  5
130
331
1CA
  5
15B
331
140
  5
1BD
331
119
  5
196
331
14A
  5
1C7
331
1C3
  5
154
331
11C
  5
199
331
17B
  5
175
331
13C
  5
1B9
331
196
  5
127
331
1D6
  5
167
331
126
  5
1A3
331
13E
  5
1BB
331
124
  5
1A1
331
1C9
  5
15A
331
1B6
  5
147
331
186
  5
180
331
198
  5
129
331
171
  5
193
331
11F
  5
19C
331
1CB
  5
15C
331
19B
  5
12C
331
174
  5
16E
331
1C2
  5
153
331
12D
  5
1AA
331
1D0
  5
161
331
11A
  5
197
331
187
  5
181
331
188
  5
119
331
138
  5
1B5
331
12F
  5
1AC
331
11E
  5
19B
331
11B
  5
198
331
15D
  5
1DA
331
151
  5
1CE
331
1A1
  5
132
331
1CE
  5
15F
331
1C4
  5
155
331
19E
  5
12F
331
1A6
  5
137
331
179
  5
173
331
1D9
  5
16A
331
121
  5
19E
331
192
  5
123
331
191
  5
122
331
11D
  5
19A
331
175
  5
16F
331
17A
  5
174
331
1BB
  5
14C
331
1A3
  5
134
331
1AC
  5
13D
331
18F
  5
120
331
1CC
  5
15D
331
164
  5
186
331
176
  5
170
331
185
  5
17F
331
18B
  5
11C
331
178
  5
172
331
173
  5
195
331
16E
  5
190
331
1A0
  5
131
  0
LAYOUT
  5
F
102
{ACAD_REACTORS
330
B
102
}
102
{ACAD_XDICTIONARY
360
1F3
102
}
330
B
100
AcDbPlotSettings
  1

  2
HP LaserJet 2100 Series PS
  4

  6

 40
0.0
 41
0.0
 42
0.0
 43
0.0
 44
0.0
 45
0.0
 46
0.0
 47
0.0
 48
0.0
 49
0.0
140
0.0
141
0.0
142
1.0
143
1.0
 70
   688
 72
     0
 73
     0
 74
     5
  7
monochrome.ctb
 75
    16
147
1.0
148
0.0
149
0.0
100
AcDbLayout
  1
Layout1
 70
     0
 71
     1
 10
0.0
 20
0.0
 11
12.0
 21
9.0
 12
0.0
 22
0.0
 32
0.0
 14
1.000000000000000E+20
 24
1.000000000000000E+20
 34
1.000000000000000E+20
 15
-1.000000000000000E+20
 25
-1.000000000000000E+20
 35
-1.000000000000000E+20
146
0.0
 13
0.0
 23
0.0
 33
0.0
 16
1.0
 26
0.0
 36
0.0
 17
0.0
 27
1.0
 37
0.0
 76
     0
330
C
  0
LAYOUT
  5
A
102
{ACAD_REACTORS
330
B
102
}
102
{ACAD_XDICTIONARY
360
1F5
102
}
330
B
100
AcDbPlotSettings
  1

  2
HP LaserJet 2100 Series PS
  4
Letter
  6

 40
5.365749835968018
 41
5.408073902130127
 42
5.132904052734375
 43
5.090576171875
 44
215.8999938964844
 45
279.3999938964844
 46
0.0
 47
0.0
 48
0.0
 49
0.0
140
0.0
141
0.0
142
1.0
143
1.0
 70
 11952
 72
     0
 73
     1
 74
     0
  7
monochrome.ctb
 75
     0
147
1.0
148
-50.22775023688558
149
6.922250029240695
100
AcDbLayout
  1
Model
 70
     1
 71
     0
 10
0.0
 20
0.0
 11
12.0
 21
9.0
 12
0.0
 22
0.0
 32
0.0
 14
0.0
 24
0.0
 34
0.0
 15
0.0
 25
0.0
 35
0.0
146
0.0
 13
0.0
 23
0.0
 33
0.0
 16
1.0
 26
0.0
 36
0.0
 17
0.0
 27
1.0
 37
0.0
 76
     0
330
2
  0
MLINESTYLE
  5
23
102
{ACAD_REACTORS
330
20
102
}
330
20
100
AcDbMlineStyle
  2
STANDARD
 70
     0
  3

 62
   256
 51
90.0
 52
90.0
 71
     2
 49
0.5
 62
   256
  6
BYLAYER
 49
-0.5
 62
   256
  6
BYLAYER
  0
ACDBPLACEHOLDER
  5
5
102
{ACAD_REACTORS
330
6
102
}
330
6
  0
ACAD_PROXY_OBJECT
  5
110
102
{ACAD_REACTORS
330
10F
102
}
330
10F
100
AcDbProxyObject
 90
      499
 91
      504
 95
   983063
 70
     0
 93
     1841
310
4214DD185B99185C9928B81E85EB51B8AE3F2E07A17AD46E2B8FC02B5E8DC0F42B1CFD028000000C1008070000C3001FDFF8000000C1003FBFF000000182007F7FE00000030400FEFFC00000060801FDFF8000000C1003FBFF00000018200000000000000681FA0B0000001820100E000186003FBFF000000182007F7FE000
310
00030400FEFFC00000060801FDFF8000000C1003FBFF000000182007F7FE000000304000AD7A3703D0AC73F4160000003040201C00030C007F7FE00000030400FEFFC00000060801FDFF8000000C1003FBFF000000182007F7FE00000030400FEFFC000000608000
340
12
340
12
340
12
 94
        0
  0
XRECORD
  5
1F1
102
{ACAD_REACTORS
330
1F0
102
}
330
1F0
100
AcDbXrecord
340
10E
  0
XRECORD
  5
1F2
102
{ACAD_REACTORS
330
1F0
102
}
330
1F0
100
AcDbXrecord
340
10D
  0
DICTIONARYVAR
  5
1E4
102
{ACAD_REACTORS
330
109
102
}
330
109
100
DictionaryVariables
280
     0
  1
STANDARD
  0
DICTIONARYVAR
  5
1EF
102
{ACAD_REACTORS
330
109
102
}
330
109
100
DictionaryVariables
280
     0
  1
0
  0
DICTIONARY
  5
1F3
330
F
100
AcDbDictionary
280
     1
281
     1
  3
ACAD_XREC_ROUNDTRIP
360
1F4
  0
DICTIONARY
  5
1F5
330
A
100
AcDbDictionary
280
     1
281
     1
  3
ACAD_XREC_ROUNDTRIP
360
1F6
  0
XRECORD
  5
1F4
102
{ACAD_REACTORS
330
1F3
102
}
330
1F3
100
AcDbXrecord
102
SHADEPLOT
 70
     0
102
SHADEPLOTRESLEVEL
 70
     2
102
SHADEPLOTCUSTOMDPI
 70
   300
  0
XRECORD
  5
1F6
102
{ACAD_REACTORS
330
1F5
102
}
330
1F5
100
AcDbXrecord
102
SHADEPLOT
 70
     0
102
SHADEPLOTRESLEVEL
 70
     2
102
SHADEPLOTCUSTOMDPI
 70
   300
  0
ENDSEC
  0
EOF
