  0
SECTION
  2
HEADER
  9
$ACADVER
  1
AC1015
  9
$ACADMAINTVER
 70
     6
  9
$DWGCODEPAGE
  3
ANSI_1252
  9
$INSBASE
 10
0.0
 20
0.0
 30
0.0
  9
$EXTMIN
 10
-0.0803733235253541
 20
0.0
 30
0.0
  9
$EXTMAX
 10
19.48500902995333
 20
24.67320284432385
 30
0.0
  9
$LIMMIN
 10
0.0
 20
0.0
  9
$LIMMAX
 10
20.0
 20
26.25
  9
$ORTHOMODE
 70
     0
  9
$REGENMODE
 70
     1
  9
$FILLMODE
 70
     1
  9
$QTEXTMODE
 70
     0
  9
$MIRRTEXT
 70
     0
  9
$LTSCALE
 40
0.5
  9
$ATTMODE
 70
     1
  9
$TEXTSIZE
 40
0.225
  9
$TRACEWID
 40
0.05
  9
$TEXTSTYLE
  7
STANDARD
  9
$CLAYER
  8
0
  9
$CELTYPE
  6
ByLayer
  9
$CECOLOR
 62
   256
  9
$CELTSCALE
 40
1.0
  9
$DISPSILH
 70
     0
  9
$DIMSCALE
 40
2.5
  9
$DIMASZ
 40
0.125
  9
$DIMEXO
 40
0.062
  9
$DIMDLI
 40
0.375
  9
$DIMRND
 40
0.0
  9
$DIMDLE
 40
0.0
  9
$DIMEXE
 40
0.08
  9
$DIMTP
 40
0.0
  9
$DIMTM
 40
0.0
  9
$DIMTXT
 40
0.09
  9
$DIMCEN
 40
-0.0313
  9
$DIMTSZ
 40
0.0
  9
$DIMTOL
 70
     0
  9
$DIMLIM
 70
     0
  9
$DIMTIH
 70
     1
  9
$DIMTOH
 70
     1
  9
$DIMSE1
 70
     0
  9
$DIMSE2
 70
     0
  9
$DIMTAD
 70
     0
  9
$DIMZIN
 70
     0
  9
$DIMBLK
  1

  9
$DIMASO
 70
     0
  9
$DIMSHO
 70
     0
  9
$DIMPOST
  1

  9
$DIMAPOST
  1

  9
$DIMALT
 70
     0
  9
$DIMALTD
 70
     2
  9
$DIMALTF
 40
25.4
  9
$DIMLFAC
 40
1.0
  9
$DIMTOFL
 70
     0
  9
$DIMTVP
 40
0.0
  9
$DIMTIX
 70
     0
  9
$DIMSOXD
 70
     0
  9
$DIMSAH
 70
     0
  9
$DIMBLK1
  1

  9
$DIMBLK2
  1

  9
$DIMSTYLE
  2
Standard
  9
$DIMCLRD
 70
     0
  9
$DIMCLRE
 70
     0
  9
$DIMCLRT
 70
     0
  9
$DIMTFAC
 40
1.0
  9
$DIMGAP
 40
0.09
  9
$DIMJUST
 70
     0
  9
$DIMSD1
 70
     0
  9
$DIMSD2
 70
     0
  9
$DIMTOLJ
 70
     1
  9
$DIMTZIN
 70
     0
  9
$DIMALTZ
 70
     0
  9
$DIMALTTZ
 70
     0
  9
$DIMUPT
 70
     0
  9
$DIMDEC
 70
     4
  9
$DIMTDEC
 70
     4
  9
$DIMALTU
 70
     2
  9
$DIMALTTD
 70
     2
  9
$DIMTXSTY
  7
STANDARD
  9
$DIMAUNIT
 70
     0
  9
$DIMADEC
 70
     0
  9
$DIMALTRND
 40
0.0
  9
$DIMAZIN
 70
     0
  9
$DIMDSEP
 70
    46
  9
$DIMATFIT
 70
     3
  9
$DIMFRAC
 70
     0
  9
$DIMLDRBLK
  1

  9
$DIMLUNIT
 70
     2
  9
$DIMLWD
 70
    -2
  9
$DIMLWE
 70
    -2
  9
$DIMTMOVE
 70
     2
  9
$LUNITS
 70
     2
  9
$LUPREC
 70
     4
  9
$SKETCHINC
 40
0.1
  9
$FILLETRAD
 40
0.0
  9
$AUNITS
 70
     0
  9
$AUPREC
 70
     0
  9
$MENU
  1
qa
  9
$ELEVATION
 40
0.0
  9
$PELEVATION
 40
0.0
  9
$THICKNESS
 40
0.0
  9
$LIMCHECK
 70
     0
  9
$CHAMFERA
 40
0.0
  9
$CHAMFERB
 40
0.0
  9
$CHAMFERC
 40
0.0
  9
$CHAMFERD
 40
0.0
  9
$SKPOLY
 70
     0
  9
$TDCREATE
 40
2450246.741136458
  9
$TDUCREATE
 40
2450247.074469792
  9
$TDUPDATE
 40
2454160.76808022
  9
$TDUUPDATE
 40
2454161.101413553
  9
$TDINDWG
 40
0.6901118171
  9
$TDUSRTIMER
 40
0.6901118171
  9
$USRTIMER
 70
     1
  9
$ANGBASE
 50
0.0
  9
$ANGDIR
 70
     0
  9
$PDMODE
 70
     0
  9
$PDSIZE
 40
0.0
  9
$PLINEWID
 40
0.0
  9
$SPLFRAME
 70
     0
  9
$SPLINETYPE
 70
     6
  9
$SPLINESEGS
 70
     8
  9
$HANDSEED
  5
732
  9
$SURFTAB1
 70
     6
  9
$SURFTAB2
 70
     6
  9
$SURFTYPE
 70
     6
  9
$SURFU
 70
     6
  9
$SURFV
 70
     6
  9
$UCSBASE
  2

  9
$UCSNAME
  2

  9
$UCSORG
 10
0.0
 20
0.0
 30
0.0
  9
$UCSXDIR
 10
1.0
 20
0.0
 30
0.0
  9
$UCSYDIR
 10
0.0
 20
1.0
 30
0.0
  9
$UCSORTHOREF
  2

  9
$UCSORTHOVIEW
 70
     0
  9
$UCSORGTOP
 10
0.0
 20
0.0
 30
0.0
  9
$UCSORGBOTTOM
 10
0.0
 20
0.0
 30
0.0
  9
$UCSORGLEFT
 10
0.0
 20
0.0
 30
0.0
  9
$UCSORGRIGHT
 10
0.0
 20
0.0
 30
0.0
  9
$UCSORGFRONT
 10
0.0
 20
0.0
 30
0.0
  9
$UCSORGBACK
 10
0.0
 20
0.0
 30
0.0
  9
$PUCSBASE
  2

  9
$PUCSNAME
  2

  9
$PUCSORG
 10
0.0
 20
0.0
 30
0.0
  9
$PUCSXDIR
 10
1.0
 20
0.0
 30
0.0
  9
$PUCSYDIR
 10
0.0
 20
1.0
 30
0.0
  9
$PUCSORTHOREF
  2

  9
$PUCSORTHOVIEW
 70
     0
  9
$PUCSORGTOP
 10
0.0
 20
0.0
 30
0.0
  9
$PUCSORGBOTTOM
 10
0.0
 20
0.0
 30
0.0
  9
$PUCSORGLEFT
 10
0.0
 20
0.0
 30
0.0
  9
$PUCSORGRIGHT
 10
0.0
 20
0.0
 30
0.0
  9
$PUCSORGFRONT
 10
0.0
 20
0.0
 30
0.0
  9
$PUCSORGBACK
 10
0.0
 20
0.0
 30
0.0
  9
$USERI1
 70
     0
  9
$USERI2
 70
     0
  9
$USERI3
 70
     0
  9
$USERI4
 70
     0
  9
$USERI5
 70
     0
  9
$USERR1
 40
0.0
  9
$USERR2
 40
0.0
  9
$USERR3
 40
0.0
  9
$USERR4
 40
0.0
  9
$USERR5
 40
0.0
  9
$WORLDVIEW
 70
     1
  9
$SHADEDGE
 70
     3
  9
$SHADEDIF
 70
    70
  9
$TILEMODE
 70
     1
  9
$MAXACTVP
 70
    16
  9
$PINSBASE
 10
0.0
 20
0.0
 30
0.0
  9
$PLIMCHECK
 70
     0
  9
$PEXTMIN
 10
1.000000000000000E+20
 20
1.000000000000000E+20
 30
1.000000000000000E+20
  9
$PEXTMAX
 10
-1.000000000000000E+20
 20
-1.000000000000000E+20
 30
-1.000000000000000E+20
  9
$PLIMMIN
 10
0.0
 20
0.0
  9
$PLIMMAX
 10
12.0
 20
9.0
  9
$UNITMODE
 70
     0
  9
$VISRETAIN
 70
     0
  9
$PLINEGEN
 70
     0
  9
$PSLTSCALE
 70
     0
  9
$TREEDEPTH
 70
  3020
  9
$CMLSTYLE
  2
Standard
  9
$CMLJUST
 70
     0
  9
$CMLSCALE
 40
1.0
  9
$PROXYGRAPHICS
 70
     1
  9
$MEASUREMENT
 70
     0
  9
$CELWEIGHT
370
    -1
  9
$ENDCAPS
280
     0
  9
$JOINSTYLE
280
     0
  9
$LWDISPLAY
290
     0
  9
$INSUNITS
 70
     0
  9
$HYPERLINKBASE
  1

  9
$STYLESHEET
  1

  9
$XEDIT
290
     1
  9
$CEPSNTYPE
380
     0
  9
$PSTYLEMODE
290
     1
  9
$FINGERPRINTGUID
  2
{66D7973E-37E0-430D-A4B0-4CCF109300C5}
  9
$VERSIONGUID
  2
{55706F8B-9335-4F47-9551-1012C4847BC1}
  9
$EXTNAMES
290
     1
  9
$PSVPSCALE
 40
0.0
  9
$OLESTARTUP
290
     0
  0
ENDSEC
  0
SECTION
  2
CLASSES
  0
CLASS
  1
ACDBDICTIONARYWDFLT
  2
AcDbDictionaryWithDefault
  3
AutoCAD 2000
 90
        0
280
     0
281
     0
  0
CLASS
  1
ACDBPLACEHOLDER
  2
AcDbPlaceHolder
  3
ObjectDBX Classes
 90
        0
280
     0
281
     0
  0
CLASS
  1
LAYOUT
  2
AcDbLayout
  3
ObjectDBX Classes
 90
        0
280
     0
281
     0
  0
CLASS
  1
LONG_TRANSACTION
  2
AcDbLongTransaction
  3
ObjectDBX Classes
 90
   -65536
280
     1
281
     0
  0
CLASS
  1
LWPOLYLINE
  2
AcDbPolyline
  3
AutoCAD 2000
 90
        0
280
     0
281
     1
  0
CLASS
  1
HATCH
  2
AcDbHatch
  3
AutoCAD 2000
 90
        0
280
     0
281
     1
  0
CLASS
  1
XRECORD
  2
AcDbXrecord
  3
AutoCAD 2000
 90
        0
280
     0
281
     0
  0
CLASS
  1
LONG_TRANSACTION
  2
AcDbLongTransaction
  3
ObjectDBX Classes
 90
   -65536
280
     1
281
     0
  0
CLASS
  1
LWPOLYLINE
  2
AcDbPolyline
  3
AutoCAD 2000
 90
        0
280
     0
281
     1
  0
CLASS
  1
HATCH
  2
AcDbHatch
  3
AutoCAD 2000
 90
        0
280
     0
281
     1
  0
CLASS
  1
XRECORD
  2
AcDbXrecord
  3
AutoCAD 2000
 90
        0
280
     0
281
     0
  0
CLASS
  1
LONG_TRANSACTION
  2
AcDbLongTransaction
  3
ObjectDBX Classes
 90
   -65536
280
     1
281
     0
  0
CLASS
  1
LWPOLYLINE
  2
AcDbPolyline
  3
AutoCAD 2000
 90
        0
280
     0
281
     1
  0
CLASS
  1
HATCH
  2
AcDbHatch
  3
AutoCAD 2000
 90
        0
280
     0
281
     1
  0
CLASS
  1
XRECORD
  2
AcDbXrecord
  3
AutoCAD 2000
 90
        0
280
     0
281
     0
  0
CLASS
  1
TABLESTYLE
  2
AcDbTableStyle
  3
ObjectDBX Classes
 90
     2047
280
     1
281
     0
  0
CLASS
  1
DICTIONARYVAR
  2
AcDbDictionaryVar
  3
AutoCAD 2000
 90
        0
280
     0
281
     0
  0
ENDSEC
  0
SECTION
  2
TABLES
  0
TABLE
  2
VPORT
  5
8
330
0
100
AcDbSymbolTable
 70
     2
  0
VPORT
  5
724
330
8
100
AcDbSymbolTableRecord
100
AcDbViewportTableRecord
  2
*Active
 70
     0
 10
0.0
 20
0.0
 11
1.0
 21
1.0
 12
10.0
 22
13.125
 13
0.0
 23
0.0
 14
0.063
 24
0.063
 15
0.25
 25
0.25
 16
0.0
 26
0.0
 36
1.0
 17
0.0
 27
0.0
 37
0.0
 40
26.57744282744283
 41
1.814583333333333
 42
50.0
 43
0.0
 44
0.0
 50
0.0
 51
0.0
 71
     0
 72
   100
 73
     1
 74
     0
 75
     0
 76
     0
 77
     0
 78
     0
281
     0
 65
     1
110
0.0
120
0.0
130
0.0
111
1.0
121
0.0
131
0.0
112
0.0
122
1.0
132
0.0
 79
     0
146
0.0
  0
ENDTAB
  0
TABLE
  2
LTYPE
  5
5
330
0
100
AcDbSymbolTable
 70
     1
  0
LTYPE
  5
13
330
5
100
AcDbSymbolTableRecord
100
AcDbLinetypeTableRecord
  2
ByBlock
 70
     0
  3

 72
    65
 73
     0
 40
0.0
  0
LTYPE
  5
14
330
5
100
AcDbSymbolTableRecord
100
AcDbLinetypeTableRecord
  2
ByLayer
 70
     0
  3

 72
    65
 73
     0
 40
0.0
  0
LTYPE
  5
15
330
5
100
AcDbSymbolTableRecord
100
AcDbLinetypeTableRecord
  2
CONTINUOUS
 70
     0
  3
Solid line
 72
    65
 73
     0
 40
0.0
  0
ENDTAB
  0
TABLE
  2
LAYER
  5
2
330
0
100
AcDbSymbolTable
 70
     1
  0
LAYER
  5
10
330
2
100
AcDbSymbolTableRecord
100
AcDbLayerTableRecord
  2
0
 70
     0
 62
     7
  6
CONTINUOUS
370
    -3
390
F
  0
ENDTAB
  0
TABLE
  2
STYLE
  5
3
330
0
100
AcDbSymbolTable
 70
     1
  0
STYLE
  5
11
330
3
100
AcDbSymbolTableRecord
100
AcDbTextStyleTableRecord
  2
STANDARD
 70
     0
 40
0.0
 41
1.0
 50
0.0
 71
     0
 42
0.225
  3
TXT
  4

  0
ENDTAB
  0
TABLE
  2
VIEW
  5
6
330
0
100
AcDbSymbolTable
 70
     0
  0
ENDTAB
  0
TABLE
  2
UCS
  5
7
330
0
100
AcDbSymbolTable
 70
     0
  0
ENDTAB
  0
TABLE
  2
APPID
  5
9
330
0
100
AcDbSymbolTable
 70
     1
  0
APPID
  5
12
330
9
100
AcDbSymbolTableRecord
100
AcDbRegAppTableRecord
  2
ACAD
 70
     0
  0
ENDTAB
  0
TABLE
  2
DIMSTYLE
  5
A
330
0
100
AcDbSymbolTable
 70
     1
100
AcDbDimStyleTable
  0
DIMSTYLE
105
49A
330
A
100
AcDbSymbolTableRecord
100
AcDbDimStyleTableRecord
  2
Standard
 70
     0
  3

  4

340
11
  0
ENDTAB
  0
TABLE
  2
BLOCK_RECORD
  5
1
330
0
100
AcDbSymbolTable
 70
     0
  0
BLOCK_RECORD
  5
1E
330
1
100
AcDbSymbolTableRecord
100
AcDbBlockTableRecord
  2
*Model_Space
340
21
  0
BLOCK_RECORD
  5
1A
330
1
100
AcDbSymbolTableRecord
100
AcDbBlockTableRecord
  2
*Paper_Space
340
1D
  0
ENDTAB
  0
ENDSEC
  0
SECTION
  2
BLOCKS
  0
BLOCK
  5
4D
330
1E
100
AcDbEntity
  8
0
100
AcDbBlockBegin
  2
*Model_Space
 70
     0
 10
0.0
 20
0.0
 30
0.0
  3
*Model_Space
  1

  4

  0
ENDBLK
  5
4E
330
1E
100
AcDbEntity
  8
0
100
AcDbBlockEnd
  0
BLOCK
  5
4B
330
1A
100
AcDbEntity
 67
     1
  8
0
100
AcDbBlockBegin
  2
*Paper_Space
 70
     0
 10
0.0
 20
0.0
 30
0.0
  3
*Paper_Space
  1

  4

  0
ENDBLK
  5
4C
330
1A
100
AcDbEntity
 67
     1
  8
0
100
AcDbBlockEnd
  0
ENDSEC
  0
SECTION
  2
ENTITIES
  0
TEXT
  5
3BE
330
1E
100
AcDbEntity
  8
0
100
AcDbText
 10
2.805190382670112
 20
22.07331345252347
 30
0.0
 40
0.225
  1
   
 72
     2
 11
3.480190382670112
 21
22.18581345252347
 31
0.0
100
AcDbText
 73
     2
  0
TEXT
  5
3D3
330
1E
100
AcDbEntity
  8
0
100
AcDbText
 10
8.617027341630685
 20
6.430941465132424
 30
0.0
 40
0.225
  1
   
 11
8.617027341630685
 21
6.543441465132424
 31
0.0
100
AcDbText
 73
     2
  0
TEXT
  5
3D6
330
1E
100
AcDbEntity
  8
0
100
AcDbText
 10
10.78904500756172
 20
16.62494077545729
 30
0.0
 40
0.225
  1
   
 72
     2
 11
11.46404500756172
 21
16.73744077545729
 31
0.0
100
AcDbText
 73
     2
  0
TEXT
  5
413
330
1E
100
AcDbEntity
  8
0
100
AcDbText
 10
13.76511079184447
 20
17.92344767132316
 30
0.0
 40
0.225
  1
   
 11
13.76511079184447
 21
18.03594767132316
 31
0.0
100
AcDbText
 73
     2
  0
TEXT
  5
443
330
1E
100
AcDbEntity
  8
0
100
AcDbText
 10
12.97467189882041
 20
18.22641241536066
 30
0.0
 40
0.225
  1
   
 11
12.97467189882041
 21
18.33891241536066
 31
0.0
100
AcDbText
 73
     2
  0
TEXT
  5
48C
330
1E
100
AcDbEntity
  8
0
100
AcDbText
 10
1.072438080652655
 20
4.995130612825645
 30
0.0
 40
0.225
  1

100
AcDbText
  0
TEXT
  5
48D
330
1E
100
AcDbEntity
  8
0
100
AcDbText
 10
2.27071046987061
 20
4.620130612825645
 30
0.0
 40
0.225
  1

100
AcDbText
  0
TEXT
  5
48E
330
1E
100
AcDbEntity
  8
0
100
AcDbText
 10
2.27071046987061
 20
4.245130612825645
 30
0.0
 40
0.225
  1

100
AcDbText
  0
LINE
  5
6AD
330
1E
100
AcDbEntity
  8
0
100
AcDbLine
 10
3.147927643499306
 20
3.072229386577394
 30
0.0
 11
3.147927643499306
 21
1.401229386577388
 31
0.0
  0
LINE
  5
6AE
330
1E
100
AcDbEntity
  8
0
100
AcDbLine
 10
0.2729276434993047
 20
1.33872938657739
 30
0.0
 11
0.2729276434993047
 21
3.072229386577391
 31
0.0
  0
LINE
  5
6AF
330
1E
100
AcDbEntity
  8
0
100
AcDbLine
 10
1.460427643499305
 20
0.1512293865773895
 30
0.0
 11
0.2729276434993047
 21
1.33872938657739
 31
0.0
  0
CIRCLE
  5
6B0
330
1E
100
AcDbEntity
  8
0
100
AcDbCircle
 10
0.8354276434993047
 20
2.026229386577391
 30
0.0
 40
0.0855
  0
LINE
  5
6B1
330
1E
100
AcDbEntity
  8
0
100
AcDbLine
 10
3.147927643499306
 20
1.40122938657739
 30
0.0
 11
1.897927643499306
 21
0.1512293865773895
 31
0.0
  0
LINE
  5
6B2
330
1E
100
AcDbEntity
  8
0
100
AcDbLine
 10
1.897927643499306
 20
0.1512293865773895
 30
0.0
 11
1.460427643499306
 21
0.1512293865773895
 31
0.0
  0
CIRCLE
  5
6B3
330
1E
100
AcDbEntity
  8
0
100
AcDbCircle
 10
1.710427643499305
 20
0.4637293865773895
 30
0.0
 40
0.0855
  0
CIRCLE
  5
6B4
330
1E
100
AcDbEntity
  8
0
100
AcDbCircle
 10
2.585427643499306
 20
2.026229386577391
 30
0.0
 40
0.0855
  0
LINE
  5
6B5
330
1E
100
AcDbEntity
  8
0
100
AcDbLine
 10
0.193927643499304
 20
3.072229386577391
 30
0.0
 11
3.226927643499313
 21
3.072229386577394
 31
0.0
  0
LINE
  5
6B6
330
1E
100
AcDbEntity
  8
0
100
AcDbLine
 10
0.2729276434993047
 20
3.026229386577391
 30
0.0
 11
3.147927643499306
 21
3.026229386577391
 31
0.0
  0
LINE
  5
6B7
330
1E
100
AcDbEntity
  8
0
100
AcDbLine
 10
3.147927643499313
 20
13.16915657808565
 30
0.0
 11
0.2729276434993047
 21
13.16915657808565
 31
0.0
  0
LINE
  5
6B8
330
1E
100
AcDbEntity
  8
0
100
AcDbLine
 10
0.2729276434993047
 20
9.514656578085656
 30
0.0
 11
3.147927643499313
 21
9.514656578085656
 31
0.0
  0
LWPOLYLINE
  5
6B9
330
1E
100
AcDbEntity
  8
0
100
AcDbPolyline
 90
        8
 70
     1
 43
0.0
 10
2.397714226780974
 20
10.84190657808566
 42
0.4142135623730951
 10
2.522714226780974
 20
10.96690657808566
 10
2.522714226780974
 20
11.71690657808566
 42
0.4142135623730951
 10
2.397714226780974
 20
11.84190657808566
 10
1.022927643499305
 20
11.84190657808566
 42
0.4142135623730951
 10
0.8979276434993047
 20
11.71690657808566
 10
0.8979276434993047
 20
10.96690657808566
 42
0.4142135623730951
 10
1.022927643499305
 20
10.84190657808566
  0
LINE
  5
6BA
330
1E
100
AcDbEntity
  8
0
100
AcDbLine
 10
3.147927643499313
 20
13.12315657808565
 30
0.0
 11
0.2729276434993047
 21
13.12315657808565
 31
0.0
  0
LINE
  5
6BB
330
1E
100
AcDbEntity
  8
0
100
AcDbLine
 10
0.2729276434993047
 20
9.560656578085656
 30
0.0
 11
3.147927643499313
 21
9.560656578085656
 31
0.0
  0
LINE
  5
6BC
330
1E
100
AcDbEntity
  8
0
100
AcDbLine
 10
0.1479276434993047
 20
12.77940657808565
 30
0.0
 11
0.1479276434993047
 21
9.904406578085656
 31
0.0
  0
LINE
  5
6BD
330
1E
100
AcDbEntity
  8
0
100
AcDbLine
 10
0.1019276434993053
 20
12.77940657808565
 30
0.0
 11
0.1019276434993053
 21
9.904406578085656
 31
0.0
  0
LINE
  5
6BE
330
1E
100
AcDbEntity
  8
0
100
AcDbLine
 10
0.013195785662063
 20
4.226015068283804
 30
0.0
 11
-0.0478464115907649
 21
4.287057265536632
 31
0.0
  0
LINE
  5
6BF
330
1E
100
AcDbEntity
  8
0
100
AcDbLine
 10
0.1019276434993124
 20
4.072229386577394
 30
0.0
 11
-0.0803733235253432
 21
4.254530353602053
 31
0.0
  0
LINE
  5
6C0
330
1E
100
AcDbEntity
  8
0
100
AcDbLine
 10
0.1479276434993064
 20
6.040979386577391
 30
0.0
 11
0.1479276434993047
 21
3.11822938657739
 31
0.0
  0
LINE
  5
6C1
330
1E
100
AcDbEntity
  8
0
100
AcDbLine
 10
0.1019276434993071
 20
6.040979386577391
 30
0.0
 11
0.1019276434993053
 21
3.118229386577394
 31
0.0
  0
LINE
  5
6C2
330
1E
100
AcDbEntity
  8
0
100
AcDbLine
 10
0.1019276434993124
 20
4.137283210446554
 30
0.0
 11
0.048158050794239
 21
4.191052803151631
 31
0.0
  0
ARC
  5
6C3
330
1E
100
AcDbEntity
  8
0
100
AcDbCircle
 10
0.193927643499304
 20
3.118229386577394
 30
0.0
 40
0.092
100
AcDbArc
 50
180.0
 51
270.0
  0
LINE
  5
6C4
330
1E
100
AcDbEntity
  8
0
100
AcDbLine
 10
0.193927643499304
 20
3.026229386577391
 30
0.0
 11
0.2729276434993047
 21
3.026229386577391
 31
0.0
  0
ARC
  5
6C5
330
1E
100
AcDbEntity
  8
0
100
AcDbCircle
 10
0.193927643499304
 20
3.11822938657739
 30
0.0
 40
0.046
100
AcDbArc
 50
180.0
 51
270.0000000000001
  0
LINE
  5
6C6
330
1E
100
AcDbEntity
  8
0
100
AcDbLine
 10
0.1019276434993124
 20
4.436831320626709
 30
0.0
 11
-0.0803733235253432
 21
4.254530353602053
 31
0.0
  0
LINE
  5
6C7
330
1E
100
AcDbEntity
  8
0
100
AcDbLine
 10
0.1479276434993047
 20
4.822229386577391
 30
0.0
 11
0.1019276434993053
 21
4.822229386577391
 31
0.0
  0
LINE
  5
6C8
330
1E
100
AcDbEntity
  8
0
100
AcDbLine
 10
0.1019276434993053
 20
6.040979386577391
 30
0.0
 11
0.1479276434993047
 21
6.040979386577391
 31
0.0
  0
LINE
  5
6C9
330
1E
100
AcDbEntity
  8
0
100
AcDbLine
 10
0.1019276434993053
 20
6.009729386577391
 30
0.0
 11
0.1479276434993047
 21
6.009729386577391
 31
0.0
  0
ARC
  5
6CA
330
1E
100
AcDbEntity
  8
0
100
AcDbCircle
 10
0.1479276434993047
 20
9.779406578085656
 30
0.0
 40
0.125
100
AcDbArc
 50
0.0
 51
90.0
  0
LINE
  5
6CB
330
1E
100
AcDbEntity
  8
0
100
AcDbLine
 10
0.2729276434992976
 20
9.514656578085656
 30
0.0
 11
0.2729276434993047
 21
9.779406578085656
 31
0.0
  0
LINE
  5
6CC
330
1E
100
AcDbEntity
  8
0
100
AcDbLine
 10
0.1479276434993047
 20
9.904406578085656
 30
0.0
 11
0.1019276434993053
 21
9.904406578085656
 31
0.0
  0
ARC
  5
6CD
330
1E
100
AcDbEntity
  8
0
100
AcDbCircle
 10
0.1008040993596744
 20
11.34190657808566
 30
0.0
 40
0.1811774228850285
100
AcDbArc
 50
89.64468668952362
 51
270.3553133104763
  0
ARC
  5
6CE
330
1E
100
AcDbEntity
  8
0
100
AcDbCircle
 10
0.1010045668716195
 20
11.34190657808566
 30
0.0
 40
0.148850978462391
100
AcDbArc
 50
89.64468668952388
 51
270.3553133104761
  0
LINE
  5
6CF
330
1E
100
AcDbEntity
  8
0
100
AcDbLine
 10
0.1479276434993047
 20
11.09190657808566
 30
0.0
 11
0.1019276434993053
 21
11.09190657808566
 31
0.0
  0
LINE
  5
6D0
330
1E
100
AcDbEntity
  8
0
100
AcDbLine
 10
0.1479276434993047
 20
11.56065657808566
 30
0.0
 11
0.1019276434993053
 21
11.56065657808566
 31
0.0
  0
LINE
  5
6D1
330
1E
100
AcDbEntity
  8
0
100
AcDbLine
 10
0.2729276434993047
 20
12.90440657808565
 30
0.0
 11
0.2729276434992976
 21
13.16915657808565
 31
0.0
  0
ARC
  5
6D2
330
1E
100
AcDbEntity
  8
0
100
AcDbCircle
 10
0.1479276434993047
 20
12.90440657808565
 30
0.0
 40
0.125
100
AcDbArc
 50
270.0
 51
0.0
  0
LINE
  5
6D3
330
1E
100
AcDbEntity
  8
0
100
AcDbLine
 10
0.1479276434993047
 20
12.77940657808565
 30
0.0
 11
0.1019276434993053
 21
12.77940657808565
 31
0.0
  0
LINE
  5
6D4
330
1E
100
AcDbEntity
  8
0
100
AcDbLine
 10
3.272927643499313
 20
9.904406578085656
 30
0.0
 11
3.272927643499313
 21
12.77940657808565
 31
0.0
  0
LINE
  5
6D5
330
1E
100
AcDbEntity
  8
0
100
AcDbLine
 10
3.318927643499312
 20
9.904406578085656
 30
0.0
 11
3.318927643499312
 21
12.77940657808565
 31
0.0
  0
LINE
  5
6D6
330
1E
100
AcDbEntity
  8
0
100
AcDbLine
 10
3.407659501336554
 20
4.226015068283804
 30
0.0
 11
3.468701698589382
 21
4.287057265536632
 31
0.0
  0
LINE
  5
6D7
330
1E
100
AcDbEntity
  8
0
100
AcDbLine
 10
3.318927643499305
 20
4.072229386577394
 30
0.0
 11
3.501228610523961
 21
4.254530353602053
 31
0.0
  0
LINE
  5
6D8
330
1E
100
AcDbEntity
  8
0
100
AcDbLine
 10
3.272927643499313
 20
3.118229386577394
 30
0.0
 11
3.272927643499306
 21
6.040979386577391
 31
0.0
  0
LINE
  5
6D9
330
1E
100
AcDbEntity
  8
0
100
AcDbLine
 10
3.318927643499305
 20
3.118229386577394
 30
0.0
 11
3.318927643499305
 21
6.040979386577391
 31
0.0
  0
LINE
  5
6DA
330
1E
100
AcDbEntity
  8
0
100
AcDbLine
 10
3.147927643499306
 20
3.026229386577391
 30
0.0
 11
3.226927643499306
 21
3.026229386577391
 31
0.0
  0
ARC
  5
6DB
330
1E
100
AcDbEntity
  8
0
100
AcDbCircle
 10
3.226927643499306
 20
3.118229386577394
 30
0.0
 40
0.092
100
AcDbArc
 50
270.0
 51
0.0
  0
ARC
  5
6DC
330
1E
100
AcDbEntity
  8
0
100
AcDbCircle
 10
3.226927643499313
 20
3.118229386577394
 30
0.0
 40
0.046
100
AcDbArc
 50
270.0
 51
0.0
  0
LINE
  5
6DD
330
1E
100
AcDbEntity
  8
0
100
AcDbLine
 10
3.318927643499305
 20
4.137283210446554
 30
0.0
 11
3.372697236204378
 21
4.191052803151631
 31
0.0
  0
LINE
  5
6DE
330
1E
100
AcDbEntity
  8
0
100
AcDbLine
 10
3.318927643499305
 20
4.436831320626709
 30
0.0
 11
3.501228610523961
 21
4.254530353602053
 31
0.0
  0
LINE
  5
6DF
330
1E
100
AcDbEntity
  8
0
100
AcDbLine
 10
3.318927643499305
 20
4.822229386577391
 30
0.0
 11
3.272927643499306
 21
4.822229386577391
 31
0.0
  0
LINE
  5
6E0
330
1E
100
AcDbEntity
  8
0
100
AcDbLine
 10
3.272927643499306
 20
6.040979386577391
 30
0.0
 11
3.318927643499305
 21
6.040979386577394
 31
0.0
  0
ARC
  5
6E1
330
1E
100
AcDbEntity
  8
0
100
AcDbCircle
 10
3.272927643499313
 20
9.779406578085656
 30
0.0
 40
0.1249999999999999
100
AcDbArc
 50
90.0
 51
179.9999999999999
  0
LINE
  5
6E2
330
1E
100
AcDbEntity
  8
0
100
AcDbLine
 10
3.147927643499313
 20
9.779406578085656
 30
0.0
 11
3.147927643499306
 21
9.514656578085656
 31
0.0
  0
LINE
  5
6E3
330
1E
100
AcDbEntity
  8
0
100
AcDbLine
 10
3.318927643499312
 20
9.904406578085656
 30
0.0
 11
3.272927643499313
 21
9.904406578085656
 31
0.0
  0
ARC
  5
6E4
330
1E
100
AcDbEntity
  8
0
100
AcDbCircle
 10
3.320051187638943
 20
11.34190657808565
 30
0.0
 40
0.1811774228850321
100
AcDbArc
 50
269.6446866895237
 51
90.35531331047628
  0
ARC
  5
6E5
330
1E
100
AcDbEntity
  8
0
100
AcDbCircle
 10
3.319850720127001
 20
11.34190657808566
 30
0.0
 40
0.148850978462391
100
AcDbArc
 50
269.6446866895235
 51
90.35531331047646
  0
LINE
  5
6E6
330
1E
100
AcDbEntity
  8
0
100
AcDbLine
 10
3.318927643499312
 20
11.1231565780856
 30
0.0
 11
3.272927643499312
 21
11.1231565780856
 31
0.0
  0
LINE
  5
6E7
330
1E
100
AcDbEntity
  8
0
100
AcDbLine
 10
3.318927643499312
 20
11.59190657808566
 30
0.0
 11
3.272927643499313
 21
11.59190657808566
 31
0.0
  0
ARC
  5
6E8
330
1E
100
AcDbEntity
  8
0
100
AcDbCircle
 10
3.272927643499313
 20
12.90440657808565
 30
0.0
 40
0.125
100
AcDbArc
 50
180.0
 51
270.0
  0
LINE
  5
6E9
330
1E
100
AcDbEntity
  8
0
100
AcDbLine
 10
3.147927643499306
 20
13.16915657808565
 30
0.0
 11
3.147927643499313
 21
12.90440657808565
 31
0.0
  0
LINE
  5
6EA
330
1E
100
AcDbEntity
  8
0
100
AcDbLine
 10
3.318927643499312
 20
12.77940657808565
 30
0.0
 11
3.272927643499313
 21
12.77940657808565
 31
0.0
  0
LINE
  5
6EB
330
1E
100
AcDbEntity
  8
0
100
AcDbLine
 10
13.12317764349929
 20
2.980229386577388
 30
0.0
 11
13.1231776434993
 21
0.0887293865773895
 31
0.0
  0
LINE
  5
6EC
330
1E
100
AcDbEntity
  8
0
100
AcDbLine
 10
9.514677643499304
 20
0.0887293865773877
 30
0.0
 11
9.514677643499294
 21
2.980229386577392
 31
0.0
  0
LINE
  5
6ED
330
1E
100
AcDbEntity
  8
0
100
AcDbLine
 10
9.468677643499305
 20
0.0887293865773913
 30
0.0
 11
9.468677643499294
 21
2.980229386577392
 31
0.0
  0
LINE
  5
6EE
330
1E
100
AcDbEntity
  8
0
100
AcDbLine
 10
13.07717764349929
 20
2.980229386577392
 30
0.0
 11
13.07717764349929
 21
0.0887293865773895
 31
0.0
  0
LINE
  5
6EF
330
1E
100
AcDbEntity
  8
0
100
AcDbLine
 10
9.514677643499301
 20
0.0887293865773877
 30
0.0
 11
9.468677643499301
 21
0.0887293865773895
 31
0.0
  0
LINE
  5
6F0
330
1E
100
AcDbEntity
  8
0
100
AcDbLine
 10
9.514677643499301
 20
0.1199793865773877
 30
0.0
 11
9.468677643499301
 21
0.1199793865773895
 31
0.0
  0
LINE
  5
6F1
330
1E
100
AcDbEntity
  8
0
100
AcDbLine
 10
9.514677643499301
 20
1.369979386577631
 30
0.0
 11
9.4686776434993
 21
1.369979386577629
 31
0.0
  0
LINE
  5
6F2
330
1E
100
AcDbEntity
  8
0
100
AcDbLine
 10
13.1231776434993
 20
0.0887293865773895
 30
0.0
 11
13.07717764349929
 21
0.0887293865773877
 31
0.0
  0
LINE
  5
6F3
330
1E
100
AcDbEntity
  8
0
100
AcDbLine
 10
13.1231776434993
 20
1.276229386577391
 30
0.0
 11
13.07717764349929
 21
1.276229386577391
 31
0.0
  0
LINE
  5
6F4
330
1E
100
AcDbEntity
  8
0
100
AcDbLine
 10
11.0459276434993
 20
6.009729386577391
 30
0.0
 11
9.858427643499301
 21
4.822229386577392
 31
0.0
  0
LINE
  5
6F5
330
1E
100
AcDbEntity
  8
0
100
AcDbLine
 10
9.858427643499301
 20
3.072229386577394
 30
0.0
 11
12.7334276434993
 21
3.072229386577391
 31
0.0
  0
LINE
  5
6F6
330
1E
100
AcDbEntity
  8
0
100
AcDbLine
 10
9.560677643499293
 20
3.026229386577391
 30
0.0
 11
13.03117764349929
 21
3.026229386577391
 31
0.0
  0
LINE
  5
6F7
330
1E
100
AcDbEntity
  8
0
100
AcDbLine
 10
9.858427643499301
 20
4.822229386577392
 30
0.0
 11
9.858427643499301
 21
3.072229386577391
 31
0.0
  0
ARC
  5
6F8
330
1E
100
AcDbEntity
  8
0
100
AcDbCircle
 10
9.560677643499293
 20
2.980229386577392
 30
0.0
 40
0.092
100
AcDbArc
 50
89.99999999999996
 51
180.0
  0
ARC
  5
6F9
330
1E
100
AcDbEntity
  8
0
100
AcDbCircle
 10
9.733427643499301
 20
3.072229386577391
 30
0.0
 40
0.1249999999999999
100
AcDbArc
 50
338.4076751284291
 51
0.0
  0
LINE
  5
6FA
330
1E
100
AcDbEntity
  8
0
100
AcDbLine
 10
9.858427643499301
 20
3.072229386577391
 30
0.0
 11
9.560677643499293
 21
3.072229386577391
 31
0.0
  0
ARC
  5
6FB
330
1E
100
AcDbEntity
  8
0
100
AcDbCircle
 10
9.560677643499293
 20
2.980229386577392
 30
0.0
 40
0.046
100
AcDbArc
 50
90.0
 51
180.0
  0
POINT
  5
6FC
330
1E
100
AcDbEntity
  8
0
100
AcDbPoint
 10
9.847704338795939
 20
3.072229386577391
 30
0.0
  0
LINE
  5
6FD
330
1E
100
AcDbEntity
  8
0
100
AcDbLine
 10
12.7334276434993
 20
4.822229386577391
 30
0.0
 11
11.5459276434993
 21
6.009729386577391
 31
0.0
  0
LINE
  5
6FE
330
1E
100
AcDbEntity
  8
0
100
AcDbLine
 10
11.2959276434993
 20
4.072229386577391
 30
0.0
 11
11.45792106740252
 21
4.343304373729232
 31
0.0
  0
LINE
  5
6FF
330
1E
100
AcDbEntity
  8
0
100
AcDbLine
 10
11.13393421959608
 20
4.343304373729236
 30
0.0
 11
11.2959276434993
 21
4.072229386577391
 31
0.0
  0
CIRCLE
  5
700
330
1E
100
AcDbEntity
  8
0
100
AcDbCircle
 10
10.4209276434993
 20
3.822229386577391
 30
0.0
 40
0.0855
  0
ARC
  5
701
330
1E
100
AcDbEntity
  8
0
100
AcDbCircle
 10
11.2959276434993
 20
4.446718878964227
 30
0.0
 40
0.1921885253621738
100
AcDbArc
 50
182.9490083734134
 51
357.0509916265866
  0
ARC
  5
702
330
1E
100
AcDbEntity
  8
0
100
AcDbCircle
 10
11.2959276434993
 20
4.43590824399902
 30
0.0
 40
0.148850978462391
100
AcDbArc
 50
179.6446866895242
 51
0.3553133104758062
  0
LINE
  5
703
330
1E
100
AcDbEntity
  8
0
100
AcDbLine
 10
11.48786165682422
 20
4.436831320626705
 30
0.0
 11
11.10399363017438
 21
4.436831320626705
 31
0.0
  0
LINE
  5
704
330
1E
100
AcDbEntity
  8
0
100
AcDbLine
 10
11.5459276434993
 20
6.009729386577391
 30
0.0
 11
11.0459276434993
 21
6.009729386577391
 31
0.0
  0
CIRCLE
  5
705
330
1E
100
AcDbEntity
  8
0
100
AcDbCircle
 10
11.2959276434993
 20
5.447229386577391
 30
0.0
 40
0.0855
  0
LINE
  5
706
330
1E
100
AcDbEntity
  8
0
100
AcDbLine
 10
12.7334276434993
 20
3.072229386577391
 30
0.0
 11
12.7334276434993
 21
4.822229386577391
 31
0.0
  0
CIRCLE
  5
707
330
1E
100
AcDbEntity
  8
0
100
AcDbCircle
 10
12.1709276434993
 20
3.822229386577391
 30
0.0
 40
0.0855
  0
LINE
  5
708
330
1E
100
AcDbEntity
  8
0
100
AcDbLine
 10
13.03117764349929
 20
3.072229386577391
 30
0.0
 11
12.7334276434993
 21
3.072229386577391
 31
0.0
  0
ARC
  5
709
330
1E
100
AcDbEntity
  8
0
100
AcDbCircle
 10
12.8584276434993
 20
3.072229386577391
 30
0.0
 40
0.125
100
AcDbArc
 50
180.0
 51
201.5923248715703
  0
ARC
  5
70A
330
1E
100
AcDbEntity
  8
0
100
AcDbCircle
 10
13.03117764349929
 20
2.980229386577392
 30
0.0
 40
0.046
100
AcDbArc
 50
0.0
 51
90.0
  0
ARC
  5
70B
330
1E
100
AcDbEntity
  8
0
100
AcDbCircle
 10
13.03117764349929
 20
2.980229386577388
 30
0.0
 40
0.092
100
AcDbArc
 50
0.0
 51
90.0
  0
ENDSEC
  0
SECTION
  2
OBJECTS
  0
DICTIONARY
  5
C
330
0
100
AcDbDictionary
281
     1
  3
ACAD_COLOR
350
70F
  3
ACAD_GROUP
350
D
  3
ACAD_LAYOUT
350
19
  3
ACAD_MATERIAL
350
70E
  3
ACAD_MLINESTYLE
350
16
  3
ACAD_PLOTSETTINGS
350
18
  3
ACAD_PLOTSTYLENAME
350
E
  3
ACAD_TABLESTYLE
350
710
  3
ACDBHEADERROUNDTRIPXREC
350
72B
  3
AcDbVariableDictionary
350
71C
  0
DICTIONARY
  5
70F
102
{ACAD_REACTORS
330
C
102
}
330
C
100
AcDbDictionary
281
     1
  0
DICTIONARY
  5
D
102
{ACAD_REACTORS
330
C
102
}
330
C
100
AcDbDictionary
281
     1
  0
DICTIONARY
  5
19
102
{ACAD_REACTORS
330
C
102
}
330
C
100
AcDbDictionary
281
     1
  3
Layout1
350
1D
  3
Model
350
21
  0
DICTIONARY
  5
70E
102
{ACAD_REACTORS
330
C
102
}
330
C
100
AcDbDictionary
281
     1
  0
DICTIONARY
  5
16
102
{ACAD_REACTORS
330
C
102
}
330
C
100
AcDbDictionary
281
     1
  3
Standard
350
17
  0
DICTIONARY
  5
18
102
{ACAD_REACTORS
330
C
102
}
330
C
100
AcDbDictionary
281
     1
  0
ACDBDICTIONARYWDFLT
  5
E
102
{ACAD_REACTORS
330
C
102
}
330
C
100
AcDbDictionary
281
     1
  3
Normal
350
F
100
AcDbDictionaryWithDefault
340
F
  0
DICTIONARY
  5
710
102
{ACAD_REACTORS
330
C
102
}
330
C
100
AcDbDictionary
281
     1
  3
Standard
350
711
  0
DICTIONARY
  5
72B
102
{ACAD_REACTORS
330
C
102
}
330
C
100
AcDbDictionary
281
     1
  3
COLORDICT
350
72C
  3
MATERIALDICT
350
72D
  0
DICTIONARY
  5
71C
102
{ACAD_REACTORS
330
C
102
}
330
C
100
AcDbDictionary
281
     1
  3
CTABLESTYLE
350
71D
  0
LAYOUT
  5
1D
102
{ACAD_REACTORS
330
19
102
}
102
{ACAD_XDICTIONARY
360
72E
102
}
330
19
100
AcDbPlotSettings
  1

  2
C:\ACAD2000\plotters\HP LaserJet 2100 Series PS.pc3
  4

  6

 40
0.0
 41
0.0
 42
0.0
 43
0.0
 44
0.0
 45
0.0
 46
0.0
 47
0.0
 48
0.0
 49
0.0
140
0.0
141
0.0
142
1.0
143
1.0
 70
   688
 72
     0
 73
     0
 74
     5
  7

 75
    16
147
1.0
148
0.0
149
0.0
100
AcDbLayout
  1
Layout1
 70
     0
 71
     1
 10
0.0
 20
0.0
 11
12.0
 21
9.0
 12
0.0
 22
0.0
 32
0.0
 14
1.000000000000000E+20
 24
1.000000000000000E+20
 34
1.000000000000000E+20
 15
-1.000000000000000E+20
 25
-1.000000000000000E+20
 35
-1.000000000000000E+20
146
0.0
 13
0.0
 23
0.0
 33
0.0
 16
1.0
 26
0.0
 36
0.0
 17
0.0
 27
1.0
 37
0.0
 76
     0
330
1A
  0
LAYOUT
  5
21
102
{ACAD_REACTORS
330
19
102
}
102
{ACAD_XDICTIONARY
360
730
102
}
330
19
100
AcDbPlotSettings
  1

  2
HP LaserJet 2100 Series PS
  4
Letter
  6

 40
5.365749835968018
 41
5.408073902130127
 42
5.132904052734375
 43
5.090576171875
 44
215.8999938964844
 45
279.3999938964844
 46
0.0
 47
0.0
 48
0.0
 49
0.0
140
0.0
141
0.0
142
1.0
143
2.479533908317576
 70
 28336
 72
     0
 73
     1
 74
     2
  7

 75
     0
147
0.4033016030333396
148
0.0
149
0.0
100
AcDbLayout
  1
Model
 70
     1
 71
     0
 10
0.0
 20
0.0
 11
12.0
 21
9.0
 12
0.0
 22
0.0
 32
0.0
 14
0.0
 24
0.0
 34
0.0
 15
0.0
 25
0.0
 35
0.0
146
0.0
 13
0.0
 23
0.0
 33
0.0
 16
1.0
 26
0.0
 36
0.0
 17
0.0
 27
1.0
 37
0.0
 76
     0
330
1E
  0
MLINESTYLE
  5
17
102
{ACAD_REACTORS
330
16
102
}
330
16
100
AcDbMlineStyle
  2
STANDARD
 70
     0
  3

 62
   256
 51
90.0
 52
90.0
 71
     2
 49
0.5
 62
   256
  6
BYLAYER
 49
-0.5
 62
   256
  6
BYLAYER
  0
ACDBPLACEHOLDER
  5
F
102
{ACAD_REACTORS
330
E
102
}
330
E
  0
ACAD_PROXY_OBJECT
  5
711
102
{ACAD_REACTORS
330
710
102
}
330
710
100
AcDbProxyObject
 90
      499
 91
      515
 95
   983063
 70
     0
 93
     1841
310
4214DD185B99185C9928B81E85EB51B8AE3F2E07A17AD46E2B8FC02B5E8DC0F42B1CFD028000000C1008070000C3001FDFF8000000C1003FBFF000000182007F7FE00000030400FEFFC00000060801FDFF8000000C1003FBFF00000018200000000000000681FA0B0000001820100E000186003FBFF000000182007F7FE000
310
00030400FEFFC00000060801FDFF8000000C1003FBFF000000182007F7FE000000304000AD7A3703D0AC73F4160000003040201C00030C007F7FE00000030400FEFFC00000060801FDFF8000000C1003FBFF000000182007F7FE00000030400FEFFC000000608000
340
11
340
11
340
11
 94
        0
  0
XRECORD
  5
72C
102
{ACAD_REACTORS
330
72B
102
}
330
72B
100
AcDbXrecord
340
70F
  0
XRECORD
  5
72D
102
{ACAD_REACTORS
330
72B
102
}
330
72B
100
AcDbXrecord
340
70E
  0
DICTIONARYVAR
  5
71D
102
{ACAD_REACTORS
330
71C
102
}
330
71C
100
DictionaryVariables
280
     0
  1
STANDARD
  0
DICTIONARY
  5
72E
330
1D
100
AcDbDictionary
280
     1
281
     1
  3
ACAD_XREC_ROUNDTRIP
360
72F
  0
DICTIONARY
  5
730
330
21
100
AcDbDictionary
280
     1
281
     1
  3
ACAD_XREC_ROUNDTRIP
360
731
  0
XRECORD
  5
72F
102
{ACAD_REACTORS
330
72E
102
}
330
72E
100
AcDbXrecord
102
SHADEPLOT
 70
     0
102
SHADEPLOTRESLEVEL
 70
     2
102
SHADEPLOTCUSTOMDPI
 70
   300
  0
XRECORD
  5
731
102
{ACAD_REACTORS
330
730
102
}
330
730
100
AcDbXrecord
102
SHADEPLOT
 70
     0
102
SHADEPLOTRESLEVEL
 70
     2
102
SHADEPLOTCUSTOMDPI
 70
   300
  0
ENDSEC
  0
EOF
