  0
SECTION
  2
HEADER
  9
$ACADVER
  1
AC1015
  9
$ACADMAINTVER
 70
     6
  9
$DWGCODEPAGE
  3
ANSI_1252
  9
$INSBASE
 10
0.0
 20
0.0
 30
0.0
  9
$EXTMIN
 10
0.895
 20
-0.0176666666666668
 30
0.0
  9
$EXTMAX
 10
6.729
 20
5.966
 30
0.0
  9
$LIMMIN
 10
0.0
 20
0.0
  9
$LIMMAX
 10
9.0
 20
12.0
  9
$ORTHOMODE
 70
     0
  9
$REGENMODE
 70
     0
  9
$FILLMODE
 70
     1
  9
$QTEXTMODE
 70
     0
  9
$MIRRTEXT
 70
     1
  9
$LTSCALE
 40
0.25
  9
$ATTMODE
 70
     1
  9
$TEXTSIZE
 40
0.125
  9
$TRACEWID
 40
0.05
  9
$TEXTSTYLE
  7
STANDARD
  9
$CLAYER
  8
0
  9
$CELTYPE
  6
ByLayer
  9
$CECOLOR
 62
   256
  9
$CELTSCALE
 40
1.0
  9
$DISPSILH
 70
     0
  9
$DIMSCALE
 40
1.0
  9
$DIMASZ
 40
0.1
  9
$DIMEXO
 40
0.063
  9
$DIMDLI
 40
0.38
  9
$DIMRND
 40
0.0
  9
$DIMDLE
 40
0.0
  9
$DIMEXE
 40
0.18
  9
$DIMTP
 40
0.0
  9
$DIMTM
 40
0.0
  9
$DIMTXT
 40
0.1
  9
$DIMCEN
 40
0.09
  9
$DIMTSZ
 40
0.0
  9
$DIMTOL
 70
     0
  9
$DIMLIM
 70
     0
  9
$DIMTIH
 70
     1
  9
$DIMTOH
 70
     1
  9
$DIMSE1
 70
     0
  9
$DIMSE2
 70
     0
  9
$DIMTAD
 70
     0
  9
$DIMZIN
 70
     0
  9
$DIMBLK
  1

  9
$DIMASO
 70
     0
  9
$DIMSHO
 70
     0
  9
$DIMPOST
  1

  9
$DIMAPOST
  1

  9
$DIMALT
 70
     0
  9
$DIMALTD
 70
     2
  9
$DIMALTF
 40
25.4
  9
$DIMLFAC
 40
1.0
  9
$DIMTOFL
 70
     0
  9
$DIMTVP
 40
0.0
  9
$DIMTIX
 70
     0
  9
$DIMSOXD
 70
     0
  9
$DIMSAH
 70
     0
  9
$DIMBLK1
  1

  9
$DIMBLK2
  1

  9
$DIMSTYLE
  2
Standard
  9
$DIMCLRD
 70
     0
  9
$DIMCLRE
 70
     0
  9
$DIMCLRT
 70
     0
  9
$DIMTFAC
 40
1.0
  9
$DIMGAP
 40
0.09
  9
$DIMJUST
 70
     0
  9
$DIMSD1
 70
     0
  9
$DIMSD2
 70
     0
  9
$DIMTOLJ
 70
     1
  9
$DIMTZIN
 70
     0
  9
$DIMALTZ
 70
     0
  9
$DIMALTTZ
 70
     0
  9
$DIMUPT
 70
     0
  9
$DIMDEC
 70
     4
  9
$DIMTDEC
 70
     4
  9
$DIMALTU
 70
     2
  9
$DIMALTTD
 70
     2
  9
$DIMTXSTY
  7
STANDARD
  9
$DIMAUNIT
 70
     0
  9
$DIMADEC
 70
     0
  9
$DIMALTRND
 40
0.0
  9
$DIMAZIN
 70
     0
  9
$DIMDSEP
 70
    46
  9
$DIMATFIT
 70
     3
  9
$DIMFRAC
 70
     0
  9
$DIMLDRBLK
  1

  9
$DIMLUNIT
 70
     2
  9
$DIMLWD
 70
    -2
  9
$DIMLWE
 70
    -2
  9
$DIMTMOVE
 70
     0
  9
$LUNITS
 70
     2
  9
$LUPREC
 70
     4
  9
$SKETCHINC
 40
0.1
  9
$FILLETRAD
 40
0.0
  9
$AUNITS
 70
     0
  9
$AUPREC
 70
     0
  9
$MENU
  1
acad
  9
$ELEVATION
 40
0.0
  9
$PELEVATION
 40
0.0
  9
$THICKNESS
 40
0.0
  9
$LIMCHECK
 70
     0
  9
$CHAMFERA
 40
0.0
  9
$CHAMFERB
 40
0.0
  9
$CHAMFERC
 40
1.0
  9
$CHAMFERD
 40
0.0
  9
$SKPOLY
 70
     0
  9
$TDCREATE
 40
2453955.562631597
  9
$TDUCREATE
 40
2453955.895964931
  9
$TDUPDATE
 40
2453955.604298275
  9
$TDUUPDATE
 40
2453955.895964942
  9
$TDINDWG
 40
0.0000000116
  9
$TDUSRTIMER
 40
0.0000000116
  9
$USRTIMER
 70
     1
  9
$ANGBASE
 50
0.0
  9
$ANGDIR
 70
     0
  9
$PDMODE
 70
     0
  9
$PDSIZE
 40
0.0
  9
$PLINEWID
 40
0.0
  9
$SPLFRAME
 70
     0
  9
$SPLINETYPE
 70
     6
  9
$SPLINESEGS
 70
     8
  9
$HANDSEED
  5
238
  9
$SURFTAB1
 70
     6
  9
$SURFTAB2
 70
     6
  9
$SURFTYPE
 70
     6
  9
$SURFU
 70
     6
  9
$SURFV
 70
     6
  9
$UCSBASE
  2

  9
$UCSNAME
  2

  9
$UCSORG
 10
0.0
 20
0.0
 30
0.0
  9
$UCSXDIR
 10
1.0
 20
0.0
 30
0.0
  9
$UCSYDIR
 10
0.0
 20
1.0
 30
0.0
  9
$UCSORTHOREF
  2

  9
$UCSORTHOVIEW
 70
     0
  9
$UCSORGTOP
 10
0.0
 20
0.0
 30
0.0
  9
$UCSORGBOTTOM
 10
0.0
 20
0.0
 30
0.0
  9
$UCSORGLEFT
 10
0.0
 20
0.0
 30
0.0
  9
$UCSORGRIGHT
 10
0.0
 20
0.0
 30
0.0
  9
$UCSORGFRONT
 10
0.0
 20
0.0
 30
0.0
  9
$UCSORGBACK
 10
0.0
 20
0.0
 30
0.0
  9
$PUCSBASE
  2

  9
$PUCSNAME
  2

  9
$PUCSORG
 10
0.0
 20
0.0
 30
0.0
  9
$PUCSXDIR
 10
1.0
 20
0.0
 30
0.0
  9
$PUCSYDIR
 10
0.0
 20
1.0
 30
0.0
  9
$PUCSORTHOREF
  2

  9
$PUCSORTHOVIEW
 70
     0
  9
$PUCSORGTOP
 10
0.0
 20
0.0
 30
0.0
  9
$PUCSORGBOTTOM
 10
0.0
 20
0.0
 30
0.0
  9
$PUCSORGLEFT
 10
0.0
 20
0.0
 30
0.0
  9
$PUCSORGRIGHT
 10
0.0
 20
0.0
 30
0.0
  9
$PUCSORGFRONT
 10
0.0
 20
0.0
 30
0.0
  9
$PUCSORGBACK
 10
0.0
 20
0.0
 30
0.0
  9
$USERI1
 70
     0
  9
$USERI2
 70
     0
  9
$USERI3
 70
     0
  9
$USERI4
 70
     0
  9
$USERI5
 70
     0
  9
$USERR1
 40
0.0
  9
$USERR2
 40
0.0
  9
$USERR3
 40
0.0
  9
$USERR4
 40
0.0
  9
$USERR5
 40
0.0
  9
$WORLDVIEW
 70
     1
  9
$SHADEDGE
 70
     3
  9
$SHADEDIF
 70
    70
  9
$TILEMODE
 70
     1
  9
$MAXACTVP
 70
    16
  9
$PINSBASE
 10
0.0
 20
0.0
 30
0.0
  9
$PLIMCHECK
 70
     0
  9
$PEXTMIN
 10
1.000000000000000E+20
 20
1.000000000000000E+20
 30
1.000000000000000E+20
  9
$PEXTMAX
 10
-1.000000000000000E+20
 20
-1.000000000000000E+20
 30
-1.000000000000000E+20
  9
$PLIMMIN
 10
0.0
 20
0.0
  9
$PLIMMAX
 10
12.0
 20
9.0
  9
$UNITMODE
 70
     0
  9
$VISRETAIN
 70
     0
  9
$PLINEGEN
 70
     0
  9
$PSLTSCALE
 70
     0
  9
$TREEDEPTH
 70
  3020
  9
$CMLSTYLE
  2
Standard
  9
$CMLJUST
 70
     0
  9
$CMLSCALE
 40
1.0
  9
$PROXYGRAPHICS
 70
     1
  9
$MEASUREMENT
 70
     0
  9
$CELWEIGHT
370
    -1
  9
$ENDCAPS
280
     0
  9
$JOINSTYLE
280
     0
  9
$LWDISPLAY
290
     0
  9
$INSUNITS
 70
     1
  9
$HYPERLINKBASE
  1

  9
$STYLESHEET
  1

  9
$XEDIT
290
     1
  9
$CEPSNTYPE
380
     0
  9
$PSTYLEMODE
290
     0
  9
$FINGERPRINTGUID
  2
{FAEB1C30-E019-11D5-929B-00C0DF256EC4}
  9
$VERSIONGUID
  2
{FAEB1C32-E019-11D5-929B-00C0DF256EC4}
  9
$EXTNAMES
290
     1
  9
$PSVPSCALE
 40
0.0
  9
$OLESTARTUP
290
     0
  0
ENDSEC
  0
SECTION
  2
CLASSES
  0
CLASS
  1
ACDBDICTIONARYWDFLT
  2
AcDbDictionaryWithDefault
  3
AutoCAD 2000
 90
        0
280
     0
281
     0
  0
CLASS
  1
ACDBPLACEHOLDER
  2
AcDbPlaceHolder
  3
ObjectDBX Classes
 90
        0
280
     0
281
     0
  0
CLASS
  1
LAYOUT
  2
AcDbLayout
  3
ObjectDBX Classes
 90
        0
280
     0
281
     0
  0
ENDSEC
  0
SECTION
  2
TABLES
  0
TABLE
  2
VPORT
  5
8
330
0
100
AcDbSymbolTable
 70
     2
  0
VPORT
  5
21
330
8
100
AcDbSymbolTableRecord
100
AcDbViewportTableRecord
  2
*ACTIVE
 70
     0
 10
0.0
 20
0.0
 11
1.0
 21
1.0
 12
5.010398253031585
 22
3.033257997935964
 13
0.0
 23
0.0
 14
0.025
 24
0.025
 15
0.0
 25
0.0
 16
0.0
 26
0.0
 36
1.0
 17
0.0
 27
0.0
 37
0.0
 40
6.636955223880532
 41
0.6883671291355389
 42
50.0
 43
0.0
 44
0.0
 50
0.0
 51
0.0
 71
     0
 72
  2000
 73
     1
 74
     0
 75
     0
 76
     0
 77
     0
 78
     0
281
     0
 65
     1
110
0.0
120
0.0
130
0.0
111
1.0
121
0.0
131
0.0
112
0.0
122
1.0
132
0.0
 79
     0
146
0.0
  0
ENDTAB
  0
TABLE
  2
LTYPE
  5
5
330
0
100
AcDbSymbolTable
 70
     3
  0
LTYPE
  5
10
330
5
100
AcDbSymbolTableRecord
100
AcDbLinetypeTableRecord
  2
ByBlock
 70
     0
  3

 72
    65
 73
     0
 40
0.0
  0
LTYPE
  5
11
330
5
100
AcDbSymbolTableRecord
100
AcDbLinetypeTableRecord
  2
ByLayer
 70
     0
  3

 72
    65
 73
     0
 40
0.0
  0
LTYPE
  5
1B
330
5
100
AcDbSymbolTableRecord
100
AcDbLinetypeTableRecord
  2
CONTINUOUS
 70
     0
  3
Solid line
 72
    65
 73
     0
 40
0.0
  0
LTYPE
  5
1C
330
5
100
AcDbSymbolTableRecord
100
AcDbLinetypeTableRecord
  2
HIDDEN
 70
     0
  3
__ __ __ __ __ __ __ __ __ __ __ __ __ __ __ __
 72
    65
 73
     2
 40
0.375
 49
0.25
 74
     0
 49
-0.125
 74
     0
  0
LTYPE
  5
1D
330
5
100
AcDbSymbolTableRecord
100
AcDbLinetypeTableRecord
  2
CENTER
 70
     0
  3
____ _ ____ _ ____ _ ____ _ ____ _ ____ _ ____ 
 72
    65
 73
     4
 40
2.0
 49
1.25
 74
     0
 49
-0.25
 74
     0
 49
0.25
 74
     0
 49
-0.25
 74
     0
  0
ENDTAB
  0
TABLE
  2
LAYER
  5
2
330
0
100
AcDbSymbolTable
 70
     2
  0
LAYER
  5
1E
330
2
100
AcDbSymbolTableRecord
100
AcDbLayerTableRecord
  2
0
 70
     0
 62
     7
  6
CONTINUOUS
370
    -3
390
F
  0
LAYER
  5
1F
330
2
100
AcDbSymbolTableRecord
100
AcDbLayerTableRecord
  2
DIM
 70
     0
 62
     4
  6
CONTINUOUS
370
    -3
390
0
  0
ENDTAB
  0
TABLE
  2
STYLE
  5
3
330
0
100
AcDbSymbolTable
 70
     1
  0
STYLE
  5
23
330
3
100
AcDbSymbolTableRecord
100
AcDbTextStyleTableRecord
  2
STANDARD
 70
     0
 40
0.0
 41
1.0
 50
0.0
 71
     0
 42
0.125
  3
romans
  4

  0
ENDTAB
  0
TABLE
  2
VIEW
  5
6
330
0
100
AcDbSymbolTable
 70
     0
  0
ENDTAB
  0
TABLE
  2
UCS
  5
7
330
0
100
AcDbSymbolTable
 70
     0
  0
ENDTAB
  0
TABLE
  2
APPID
  5
9
330
0
100
AcDbSymbolTable
 70
     1
  0
APPID
  5
22
330
9
100
AcDbSymbolTableRecord
100
AcDbRegAppTableRecord
  2
ACAD
 70
     0
  0
ENDTAB
  0
TABLE
  2
DIMSTYLE
  5
A
330
0
100
AcDbSymbolTable
 70
     1
100
AcDbDimStyleTable
  0
DIMSTYLE
105
24
330
A
100
AcDbSymbolTableRecord
100
AcDbDimStyleTableRecord
  2
Standard
 70
     0
  3

  4

340
23
  0
ENDTAB
  0
TABLE
  2
BLOCK_RECORD
  5
1
330
0
100
AcDbSymbolTable
 70
     0
  0
BLOCK_RECORD
  5
18
330
1
100
AcDbSymbolTableRecord
100
AcDbBlockTableRecord
  2
*Model_Space
340
19
  0
BLOCK_RECORD
  5
16
330
1
100
AcDbSymbolTableRecord
100
AcDbBlockTableRecord
  2
*Paper_Space
340
17
  0
ENDTAB
  0
ENDSEC
  0
SECTION
  2
BLOCKS
  0
BLOCK
  5
22D
330
18
100
AcDbEntity
  8
0
100
AcDbBlockBegin
  2
*Model_Space
 70
     0
 10
0.0
 20
0.0
 30
0.0
  3
*Model_Space
  1

  4

  0
ENDBLK
  5
22E
330
18
100
AcDbEntity
  8
0
100
AcDbBlockEnd
  0
BLOCK
  5
22B
330
16
100
AcDbEntity
 67
     1
  8
0
100
AcDbBlockBegin
  2
*Paper_Space
 70
     0
 10
0.0
 20
0.0
 30
0.0
  3
*Paper_Space
  1

  4

  0
ENDBLK
  5
22C
330
16
100
AcDbEntity
 67
     1
  8
0
100
AcDbBlockEnd
  0
ENDSEC
  0
SECTION
  2
ENTITIES
  0
LINE
  5
25
330
18
100
AcDbEntity
  8
0
100
AcDbLine
 10
1.999
 20
3.975
 30
0.0
 11
1.945
 21
3.931
 31
0.0
  0
LINE
  5
26
330
18
100
AcDbEntity
  8
0
100
AcDbLine
 10
1.934
 20
4.025
 30
0.0
 11
1.894
 21
3.994
 31
0.0
  0
LINE
  5
27
330
18
100
AcDbEntity
  8
0
100
AcDbLine
 10
3.517
 20
5.582999999999999
 30
0.0
 11
3.487
 21
5.547000000000001
 31
0.0
  0
LINE
  5
28
330
18
100
AcDbEntity
  8
0
100
AcDbLine
 10
3.55
 20
5.631
 30
0.0
 11
3.517
 21
5.582999999999999
 31
0.0
  0
LINE
  5
29
330
18
100
AcDbEntity
  8
0
100
AcDbLine
 10
3.577
 20
5.676
 30
0.0
 11
3.55
 21
5.631
 31
0.0
  0
LINE
  5
2A
330
18
100
AcDbEntity
  8
0
100
AcDbLine
 10
3.644
 20
5.77
 30
0.0
 11
3.577
 21
5.676
 31
0.0
  0
LINE
  5
2B
330
18
100
AcDbEntity
  8
0
100
AcDbLine
 10
4.14
 20
5.377000000000001
 30
0.0
 11
4.108000000000001
 21
5.329
 31
0.0
  0
LINE
  5
2C
330
18
100
AcDbEntity
  8
0
100
AcDbLine
 10
4.168
 20
5.433
 30
0.0
 11
4.14
 21
5.377000000000001
 31
0.0
  0
LINE
  5
2D
330
18
100
AcDbEntity
  8
0
100
AcDbLine
 10
4.093999999999999
 20
5.474
 30
0.0
 11
4.055
 21
5.425
 31
0.0
  0
LINE
  5
2E
330
18
100
AcDbEntity
  8
0
100
AcDbLine
 10
3.805
 20
5.492999999999999
 30
0.0
 11
3.757
 21
5.419
 31
0.0
  0
LINE
  5
2F
330
18
100
AcDbEntity
  8
0
100
AcDbLine
 10
3.915
 20
5.641
 30
0.0
 11
3.805
 21
5.492999999999999
 31
0.0
  0
LINE
  5
30
330
18
100
AcDbEntity
  8
0
100
AcDbLine
 10
3.189
 20
5.718999999999999
 30
0.0
 11
3.176
 21
5.696000000000001
 31
0.0
  0
LINE
  5
31
330
18
100
AcDbEntity
  8
0
100
AcDbLine
 10
3.223
 20
5.785
 30
0.0
 11
3.189
 21
5.718999999999999
 31
0.0
  0
LINE
  5
32
330
18
100
AcDbEntity
  8
0
100
AcDbLine
 10
3.316
 20
5.927000000000001
 30
0.0
 11
3.223
 21
5.785
 31
0.0
  0
LINE
  5
33
330
18
100
AcDbEntity
  8
0
100
AcDbLine
 10
3.342
 20
5.683
 30
0.0
 11
3.297
 21
5.638
 31
0.0
  0
LINE
  5
34
330
18
100
AcDbEntity
  8
0
100
AcDbLine
 10
3.375
 20
5.752999999999999
 30
0.0
 11
3.342
 21
5.683
 31
0.0
  0
LINE
  5
35
330
18
100
AcDbEntity
  8
0
100
AcDbLine
 10
3.443
 20
5.866000000000001
 30
0.0
 11
3.375
 21
5.752999999999999
 31
0.0
  0
LINE
  5
36
330
18
100
AcDbEntity
  8
0
100
AcDbLine
 10
3.449
 20
5.632000000000001
 30
0.0
 11
3.42
 21
5.579
 31
0.0
  0
LINE
  5
37
330
18
100
AcDbEntity
  8
0
100
AcDbLine
 10
3.487
 20
5.691
 30
0.0
 11
3.449
 21
5.632000000000001
 31
0.0
  0
LINE
  5
38
330
18
100
AcDbEntity
  8
0
100
AcDbLine
 10
3.567
 20
5.807
 30
0.0
 11
3.487
 21
5.691
 31
0.0
  0
LINE
  5
39
330
18
100
AcDbEntity
  8
0
100
AcDbLine
 10
3.632
 20
5.544
 30
0.0
 11
3.602
 21
5.492999999999999
 31
0.0
  0
LINE
  5
3A
330
18
100
AcDbEntity
  8
0
100
AcDbLine
 10
3.676
 20
5.606
 30
0.0
 11
3.632
 21
5.544
 31
0.0
  0
LINE
  5
3B
330
18
100
AcDbEntity
  8
0
100
AcDbLine
 10
3.743
 20
5.723
 30
0.0
 11
3.676
 21
5.606
 31
0.0
  0
LINE
  5
3C
330
18
100
AcDbEntity
  8
0
100
AcDbLine
 10
3.736
 20
5.487
 30
0.0
 11
3.709
 21
5.442
 31
0.0
  0
LINE
  5
3D
330
18
100
AcDbEntity
  8
0
100
AcDbLine
 10
3.778
 20
5.553999999999999
 30
0.0
 11
3.736
 21
5.487
 31
0.0
  0
LINE
  5
3E
330
18
100
AcDbEntity
  8
0
100
AcDbLine
 10
3.843
 20
5.675
 30
0.0
 11
3.778
 21
5.553999999999999
 31
0.0
  0
LINE
  5
3F
330
18
100
AcDbEntity
  8
0
100
AcDbLine
 10
3.076
 20
5.332000000000001
 30
0.0
 11
3.044
 21
5.313
 31
0.0
  0
LINE
  5
40
330
18
100
AcDbEntity
  8
0
100
AcDbLine
 10
3.197
 20
5.372999999999999
 30
0.0
 11
3.076
 21
5.332000000000001
 31
0.0
  0
LINE
  5
41
330
18
100
AcDbEntity
  8
0
100
AcDbLine
 10
3.336
 20
5.406000000000001
 30
0.0
 11
3.197
 21
5.372999999999999
 31
0.0
  0
LINE
  5
42
330
18
100
AcDbEntity
  8
0
100
AcDbLine
 10
3.602
 20
5.492999999999999
 30
0.0
 11
3.336
 21
5.406000000000001
 31
0.0
  0
LINE
  5
43
330
18
100
AcDbEntity
  8
0
100
AcDbLine
 10
3.425
 20
5.367000000000001
 30
0.0
 11
3.382
 21
5.348
 31
0.0
  0
LINE
  5
44
330
18
100
AcDbEntity
  8
0
100
AcDbLine
 10
3.521
 20
5.394
 30
0.0
 11
3.425
 21
5.367000000000001
 31
0.0
  0
LINE
  5
45
330
18
100
AcDbEntity
  8
0
100
AcDbLine
 10
3.709
 20
5.442
 30
0.0
 11
3.521
 21
5.394
 31
0.0
  0
LINE
  5
46
330
18
100
AcDbEntity
  8
0
100
AcDbLine
 10
2.479
 20
5.57
 30
0.0
 11
2.425
 21
5.547000000000001
 31
0.0
  0
LINE
  5
47
330
18
100
AcDbEntity
  8
0
100
AcDbLine
 10
2.727
 20
5.662999999999999
 30
0.0
 11
2.479
 21
5.57
 31
0.0
  0
LINE
  5
48
330
18
100
AcDbEntity
  8
0
100
AcDbLine
 10
2.839
 20
5.706
 30
0.0
 11
2.727
 21
5.662999999999999
 31
0.0
  0
LINE
  5
49
330
18
100
AcDbEntity
  8
0
100
AcDbLine
 10
2.461
 20
5.66
 30
0.0
 11
2.336
 21
5.589
 31
0.0
  0
LINE
  5
4A
330
18
100
AcDbEntity
  8
0
100
AcDbLine
 10
2.473
 20
5.667999999999999
 30
0.0
 11
2.461
 21
5.66
 31
0.0
  0
LINE
  5
4B
330
18
100
AcDbEntity
  8
0
100
AcDbLine
 10
2.588
 20
5.509
 30
0.0
 11
2.544
 21
5.49
 31
0.0
  0
LINE
  5
4C
330
18
100
AcDbEntity
  8
0
100
AcDbLine
 10
2.746
 20
5.568
 30
0.0
 11
2.588
 21
5.509
 31
0.0
  0
LINE
  5
4D
330
18
100
AcDbEntity
  8
0
100
AcDbLine
 10
2.887
 20
5.609
 30
0.0
 11
2.746
 21
5.568
 31
0.0
  0
LINE
  5
4E
330
18
100
AcDbEntity
  8
0
100
AcDbLine
 10
3.176
 20
5.696000000000001
 30
0.0
 11
2.887
 21
5.609
 31
0.0
  0
LINE
  5
4F
330
18
100
AcDbEntity
  8
0
100
AcDbLine
 10
2.815
 20
5.484
 30
0.0
 11
2.683
 21
5.424
 31
0.0
  0
LINE
  5
50
330
18
100
AcDbEntity
  8
0
100
AcDbLine
 10
2.976
 20
5.549
 30
0.0
 11
2.815
 21
5.484
 31
0.0
  0
LINE
  5
51
330
18
100
AcDbEntity
  8
0
100
AcDbLine
 10
3.297
 20
5.638
 30
0.0
 11
2.976
 21
5.549
 31
0.0
  0
LINE
  5
52
330
18
100
AcDbEntity
  8
0
100
AcDbLine
 10
3.0
 20
5.382999999999999
 30
0.0
 11
2.886
 21
5.326000000000001
 31
0.0
  0
LINE
  5
53
330
18
100
AcDbEntity
  8
0
100
AcDbLine
 10
3.121
 20
5.432
 30
0.0
 11
3.0
 21
5.382999999999999
 31
0.0
  0
LINE
  5
54
330
18
100
AcDbEntity
  8
0
100
AcDbLine
 10
3.239
 20
5.464
 30
0.0
 11
3.121
 21
5.432
 31
0.0
  0
LINE
  5
55
330
18
100
AcDbEntity
  8
0
100
AcDbLine
 10
3.487
 20
5.547000000000001
 30
0.0
 11
3.239
 21
5.464
 31
0.0
  0
LINE
  5
56
330
18
100
AcDbEntity
  8
0
100
AcDbLine
 10
2.863
 20
5.408
 30
0.0
 11
2.786
 21
5.374
 31
0.0
  0
LINE
  5
57
330
18
100
AcDbEntity
  8
0
100
AcDbLine
 10
2.957
 20
5.444
 30
0.0
 11
2.863
 21
5.408
 31
0.0
  0
LINE
  5
58
330
18
100
AcDbEntity
  8
0
100
AcDbLine
 10
3.135
 20
5.51
 30
0.0
 11
2.957
 21
5.444
 31
0.0
  0
LINE
  5
59
330
18
100
AcDbEntity
  8
0
100
AcDbLine
 10
3.42
 20
5.579
 30
0.0
 11
3.135
 21
5.51
 31
0.0
  0
LINE
  5
5A
330
18
100
AcDbEntity
  8
0
100
AcDbLine
 10
4.277
 20
5.732
 30
0.0
 11
4.368
 21
5.757000000000001
 31
0.0
  0
LINE
  5
5B
330
18
100
AcDbEntity
  8
0
100
AcDbLine
 10
4.18
 20
5.695
 30
0.0
 11
4.277
 21
5.732
 31
0.0
  0
LINE
  5
5C
330
18
100
AcDbEntity
  8
0
100
AcDbLine
 10
4.032
 20
5.647
 30
0.0
 11
4.18
 21
5.695
 31
0.0
  0
LINE
  5
5D
330
18
100
AcDbEntity
  8
0
100
AcDbLine
 10
3.948
 20
5.622000000000001
 30
0.0
 11
4.032
 21
5.647
 31
0.0
  0
LINE
  5
5E
330
18
100
AcDbEntity
  8
0
100
AcDbLine
 10
4.067
 20
5.742999999999999
 30
0.0
 11
4.234
 21
5.822
 31
0.0
  0
LINE
  5
5F
330
18
100
AcDbEntity
  8
0
100
AcDbLine
 10
3.918
 20
5.678999999999999
 30
0.0
 11
4.067
 21
5.742999999999999
 31
0.0
  0
LINE
  5
60
330
18
100
AcDbEntity
  8
0
100
AcDbLine
 10
3.87
 20
5.662000000000001
 30
0.0
 11
3.918
 21
5.678999999999999
 31
0.0
  0
LINE
  5
61
330
18
100
AcDbEntity
  8
0
100
AcDbLine
 10
3.872
 20
5.77
 30
0.0
 11
3.964
 21
5.823
 31
0.0
  0
LINE
  5
62
330
18
100
AcDbEntity
  8
0
100
AcDbLine
 10
3.807
 20
5.744
 30
0.0
 11
3.872
 21
5.77
 31
0.0
  0
LINE
  5
63
330
18
100
AcDbEntity
  8
0
100
AcDbLine
 10
3.753
 20
5.718
 30
0.0
 11
3.807
 21
5.744
 31
0.0
  0
LINE
  5
64
330
18
100
AcDbEntity
  8
0
100
AcDbLine
 10
4.445
 20
5.678999999999999
 30
0.0
 11
4.503
 21
5.693
 31
0.0
  0
LINE
  5
65
330
18
100
AcDbEntity
  8
0
100
AcDbLine
 10
4.337
 20
5.649
 30
0.0
 11
4.445
 21
5.678999999999999
 31
0.0
  0
LINE
  5
66
330
18
100
AcDbEntity
  8
0
100
AcDbLine
 10
4.208
 20
5.615
 30
0.0
 11
4.337
 21
5.649
 31
0.0
  0
LINE
  5
67
330
18
100
AcDbEntity
  8
0
100
AcDbLine
 10
4.059
 20
5.569
 30
0.0
 11
4.208
 21
5.615
 31
0.0
  0
LINE
  5
68
330
18
100
AcDbEntity
  8
0
100
AcDbLine
 10
3.992
 20
5.542000000000001
 30
0.0
 11
4.059
 21
5.569
 31
0.0
  0
LINE
  5
69
330
18
100
AcDbEntity
  8
0
100
AcDbLine
 10
4.527
 20
5.611000000000001
 30
0.0
 11
4.618
 21
5.638
 31
0.0
  0
LINE
  5
6A
330
18
100
AcDbEntity
  8
0
100
AcDbLine
 10
4.329
 20
5.564
 30
0.0
 11
4.527
 21
5.611000000000001
 31
0.0
  0
LINE
  5
6B
330
18
100
AcDbEntity
  8
0
100
AcDbLine
 10
4.175
 20
5.516
 30
0.0
 11
4.329
 21
5.564
 31
0.0
  0
LINE
  5
6C
330
18
100
AcDbEntity
  8
0
100
AcDbLine
 10
4.093999999999999
 20
5.474
 30
0.0
 11
4.175
 21
5.516
 31
0.0
  0
LINE
  5
6D
330
18
100
AcDbEntity
  8
0
100
AcDbLine
 10
4.7
 20
5.582000000000001
 30
0.0
 11
4.721
 21
5.589
 31
0.0
  0
LINE
  5
6E
330
18
100
AcDbEntity
  8
0
100
AcDbLine
 10
4.613
 20
5.552000000000001
 30
0.0
 11
4.7
 21
5.582000000000001
 31
0.0
  0
LINE
  5
6F
330
18
100
AcDbEntity
  8
0
100
AcDbLine
 10
4.42
 20
5.497000000000001
 30
0.0
 11
4.613
 21
5.552000000000001
 31
0.0
  0
LINE
  5
70
330
18
100
AcDbEntity
  8
0
100
AcDbLine
 10
4.281000000000001
 20
5.462999999999999
 30
0.0
 11
4.42
 21
5.497000000000001
 31
0.0
  0
LINE
  5
71
330
18
100
AcDbEntity
  8
0
100
AcDbLine
 10
4.239
 20
5.437
 30
0.0
 11
4.281000000000001
 21
5.462999999999999
 31
0.0
  0
LINE
  5
72
330
18
100
AcDbEntity
  8
0
100
AcDbLine
 10
5.988
 20
1.758
 30
0.0
 11
6.072
 21
1.783
 31
0.0
  0
LINE
  5
73
330
18
100
AcDbEntity
  8
0
100
AcDbLine
 10
5.892
 20
1.728
 30
0.0
 11
5.988
 21
1.758
 31
0.0
  0
LINE
  5
74
330
18
100
AcDbEntity
  8
0
100
AcDbLine
 10
5.99
 20
1.575
 30
0.0
 11
6.066
 21
1.595
 31
0.0
  0
LINE
  5
75
330
18
100
AcDbEntity
  8
0
100
AcDbLine
 10
5.885
 20
1.546
 30
0.0
 11
5.99
 21
1.575
 31
0.0
  0
LINE
  5
76
330
18
100
AcDbEntity
  8
0
100
AcDbLine
 10
6.001
 20
1.421
 30
0.0
 11
6.059
 21
1.426
 31
0.0
  0
LINE
  5
77
330
18
100
AcDbEntity
  8
0
100
AcDbLine
 10
5.88
 20
1.39
 30
0.0
 11
6.001
 21
1.421
 31
0.0
  0
LINE
  5
78
330
18
100
AcDbEntity
  8
0
100
AcDbLine
 10
5.996
 20
1.271
 30
0.0
 11
6.053999999999999
 21
1.279
 31
0.0
  0
LINE
  5
79
330
18
100
AcDbEntity
  8
0
100
AcDbLine
 10
5.874
 20
1.225
 30
0.0
 11
5.996
 21
1.271
 31
0.0
  0
LINE
  5
7A
330
18
100
AcDbEntity
  8
0
100
AcDbLine
 10
6.027
 20
1.139
 30
0.0
 11
6.049
 21
1.142
 31
0.0
  0
LINE
  5
7B
330
18
100
AcDbEntity
  8
0
100
AcDbLine
 10
5.964
 20
1.127
 30
0.0
 11
6.027
 21
1.139
 31
0.0
  0
LINE
  5
7C
330
18
100
AcDbEntity
  8
0
100
AcDbLine
 10
5.869
 20
1.103
 30
0.0
 11
5.964
 21
1.127
 31
0.0
  0
LINE
  5
7D
330
18
100
AcDbEntity
  8
0
100
AcDbLine
 10
5.842000000000001
 20
1.553
 30
0.0
 11
5.888
 21
1.624
 31
0.0
  0
LINE
  5
7E
330
18
100
AcDbEntity
  8
0
100
AcDbLine
 10
5.809
 20
1.489
 30
0.0
 11
5.842000000000001
 21
1.553
 31
0.0
  0
LINE
  5
7F
330
18
100
AcDbEntity
  8
0
100
AcDbLine
 10
5.886
 20
1.812
 30
0.0
 11
5.896
 21
1.828
 31
0.0
  0
LINE
  5
80
330
18
100
AcDbEntity
  8
0
100
AcDbLine
 10
5.853
 20
1.742
 30
0.0
 11
5.886
 21
1.812
 31
0.0
  0
LINE
  5
81
330
18
100
AcDbEntity
  8
0
100
AcDbLine
 10
5.816
 20
1.67
 30
0.0
 11
5.853
 21
1.742
 31
0.0
  0
LINE
  5
82
330
18
100
AcDbEntity
  8
0
100
AcDbLine
 10
5.846
 20
1.38
 30
0.0
 11
5.882000000000001
 21
1.448
 31
0.0
  0
LINE
  5
83
330
18
100
AcDbEntity
  8
0
100
AcDbLine
 10
5.802000000000001
 20
1.29
 30
0.0
 11
5.846
 21
1.38
 31
0.0
  0
LINE
  5
84
330
18
100
AcDbEntity
  8
0
100
AcDbLine
 10
5.85
 20
1.216
 30
0.0
 11
5.875
 21
1.259
 31
0.0
  0
LINE
  5
85
330
18
100
AcDbEntity
  8
0
100
AcDbLine
 10
5.796
 20
1.13
 30
0.0
 11
5.85
 21
1.216
 31
0.0
  0
LINE
  5
86
330
18
100
AcDbEntity
  8
0
100
AcDbLine
 10
5.854
 20
1.115
 30
0.0
 11
5.871
 21
1.151
 31
0.0
  0
LINE
  5
87
330
18
100
AcDbEntity
  8
0
100
AcDbLine
 10
5.79
 20
0.963
 30
0.0
 11
5.854
 21
1.115
 31
0.0
  0
LINE
  5
88
330
18
100
AcDbEntity
  8
0
100
AcDbLine
 10
5.787999999999999
 20
1.485
 30
0.0
 11
5.809
 21
1.489
 31
0.0
  0
LINE
  5
89
330
18
100
AcDbEntity
  8
0
100
AcDbLine
 10
5.677000000000001
 20
1.457
 30
0.0
 11
5.787999999999999
 21
1.485
 31
0.0
  0
LINE
  5
8A
330
18
100
AcDbEntity
  8
0
100
AcDbLine
 10
5.566
 20
1.433
 30
0.0
 11
5.677000000000001
 21
1.457
 31
0.0
  0
LINE
  5
8B
330
18
100
AcDbEntity
  8
0
100
AcDbLine
 10
5.699
 20
1.271
 30
0.0
 11
5.802000000000001
 21
1.29
 31
0.0
  0
LINE
  5
8C
330
18
100
AcDbEntity
  8
0
100
AcDbLine
 10
5.559
 20
1.254
 30
0.0
 11
5.699
 21
1.271
 31
0.0
  0
LINE
  5
8D
330
18
100
AcDbEntity
  8
0
100
AcDbLine
 10
5.721
 20
1.124
 30
0.0
 11
5.796
 21
1.13
 31
0.0
  0
LINE
  5
8E
330
18
100
AcDbEntity
  8
0
100
AcDbLine
 10
5.553999999999999
 20
1.105
 30
0.0
 11
5.721
 21
1.124
 31
0.0
  0
LINE
  5
8F
330
18
100
AcDbEntity
  8
0
100
AcDbLine
 10
5.761
 20
0.9570000000000001
 30
0.0
 11
5.79
 21
0.963
 31
0.0
  0
LINE
  5
90
330
18
100
AcDbEntity
  8
0
100
AcDbLine
 10
5.67
 20
0.943
 30
0.0
 11
5.761
 21
0.9570000000000001
 31
0.0
  0
LINE
  5
91
330
18
100
AcDbEntity
  8
0
100
AcDbLine
 10
5.547999999999999
 20
0.9340000000000001
 30
0.0
 11
5.67
 21
0.943
 31
0.0
  0
LINE
  5
92
330
18
100
AcDbEntity
  8
0
100
AcDbLine
 10
5.709
 20
1.649
 30
0.0
 11
5.816
 21
1.67
 31
0.0
  0
LINE
  5
93
330
18
100
AcDbEntity
  8
0
100
AcDbLine
 10
5.573
 20
1.631
 30
0.0
 11
5.709
 21
1.649
 31
0.0
  0
LINE
  5
94
330
18
100
AcDbEntity
  8
0
100
AcDbLine
 10
6.609
 20
1.297
 30
0.0
 11
6.704
 21
1.349
 31
0.0
  0
LINE
  5
95
330
18
100
AcDbEntity
  8
0
100
AcDbLine
 10
6.445
 20
1.191
 30
0.0
 11
6.609
 21
1.297
 31
0.0
  0
LINE
  5
96
330
18
100
AcDbEntity
  8
0
100
AcDbLine
 10
6.32
 20
1.079
 30
0.0
 11
6.445
 21
1.191
 31
0.0
  0
LINE
  5
97
330
18
100
AcDbEntity
  8
0
100
AcDbLine
 10
6.19
 20
1.845
 30
0.0
 11
6.295
 21
1.926
 31
0.0
  0
LINE
  5
98
330
18
100
AcDbEntity
  8
0
100
AcDbLine
 10
6.072
 20
1.783
 30
0.0
 11
6.19
 21
1.845
 31
0.0
  0
LINE
  5
99
330
18
100
AcDbEntity
  8
0
100
AcDbLine
 10
6.486000000000001
 20
1.964
 30
0.0
 11
6.492999999999999
 21
1.972
 31
0.0
  0
LINE
  5
9A
330
18
100
AcDbEntity
  8
0
100
AcDbLine
 10
6.367999999999999
 20
1.85
 30
0.0
 11
6.486000000000001
 21
1.964
 31
0.0
  0
LINE
  5
9B
330
18
100
AcDbEntity
  8
0
100
AcDbLine
 10
6.259
 20
1.745
 30
0.0
 11
6.367999999999999
 21
1.85
 31
0.0
  0
LINE
  5
9C
330
18
100
AcDbEntity
  8
0
100
AcDbLine
 10
6.066
 20
1.595
 30
0.0
 11
6.259
 21
1.745
 31
0.0
  0
LINE
  5
9D
330
18
100
AcDbEntity
  8
0
100
AcDbLine
 10
6.662999999999999
 20
1.971
 30
0.0
 11
6.729
 21
2.025
 31
0.0
  0
LINE
  5
9E
330
18
100
AcDbEntity
  8
0
100
AcDbLine
 10
6.539
 20
1.86
 30
0.0
 11
6.662999999999999
 21
1.971
 31
0.0
  0
LINE
  5
9F
330
18
100
AcDbEntity
  8
0
100
AcDbLine
 10
6.32
 20
1.647
 30
0.0
 11
6.539
 21
1.86
 31
0.0
  0
LINE
  5
A0
330
18
100
AcDbEntity
  8
0
100
AcDbLine
 10
6.059
 20
1.426
 30
0.0
 11
6.32
 21
1.647
 31
0.0
  0
LINE
  5
A1
330
18
100
AcDbEntity
  8
0
100
AcDbLine
 10
6.648
 20
1.808
 30
0.0
 11
6.723
 21
1.864
 31
0.0
  0
LINE
  5
A2
330
18
100
AcDbEntity
  8
0
100
AcDbLine
 10
6.577999999999999
 20
1.737
 30
0.0
 11
6.648
 21
1.808
 31
0.0
  0
LINE
  5
A3
330
18
100
AcDbEntity
  8
0
100
AcDbLine
 10
6.455
 20
1.63
 30
0.0
 11
6.577999999999999
 21
1.737
 31
0.0
  0
LINE
  5
A4
330
18
100
AcDbEntity
  8
0
100
AcDbLine
 10
6.317
 20
1.501
 30
0.0
 11
6.455
 21
1.63
 31
0.0
  0
LINE
  5
A5
330
18
100
AcDbEntity
  8
0
100
AcDbLine
 10
6.053999999999999
 20
1.279
 30
0.0
 11
6.317
 21
1.501
 31
0.0
  0
LINE
  5
A6
330
18
100
AcDbEntity
  8
0
100
AcDbLine
 10
6.69
 20
1.674
 30
0.0
 11
6.717000000000001
 21
1.692
 31
0.0
  0
LINE
  5
A7
330
18
100
AcDbEntity
  8
0
100
AcDbLine
 10
6.527
 20
1.544
 30
0.0
 11
6.69
 21
1.674
 31
0.0
  0
LINE
  5
A8
330
18
100
AcDbEntity
  8
0
100
AcDbLine
 10
6.326000000000001
 20
1.375
 30
0.0
 11
6.527
 21
1.544
 31
0.0
  0
LINE
  5
A9
330
18
100
AcDbEntity
  8
0
100
AcDbLine
 10
6.049
 20
1.142
 30
0.0
 11
6.326000000000001
 21
1.375
 31
0.0
  0
LINE
  5
AA
330
18
100
AcDbEntity
  8
0
100
AcDbLine
 10
6.7
 20
1.521
 30
0.0
 11
6.711
 21
1.528
 31
0.0
  0
LINE
  5
AB
330
18
100
AcDbEntity
  8
0
100
AcDbLine
 10
6.539
 20
1.424
 30
0.0
 11
6.7
 21
1.521
 31
0.0
  0
LINE
  5
AC
330
18
100
AcDbEntity
  8
0
100
AcDbLine
 10
6.352
 20
1.276
 30
0.0
 11
6.539
 21
1.424
 31
0.0
  0
LINE
  5
AD
330
18
100
AcDbEntity
  8
0
100
AcDbLine
 10
6.045
 20
1.036
 30
0.0
 11
6.352
 21
1.276
 31
0.0
  0
LINE
  5
AE
330
18
100
AcDbEntity
  8
0
100
AcDbLine
 10
4.83
 20
1.244
 30
0.0
 11
4.751
 21
1.195
 31
0.0
  0
LINE
  5
AF
330
18
100
AcDbEntity
  8
0
100
AcDbLine
 10
4.998
 20
1.389
 30
0.0
 11
4.83
 21
1.244
 31
0.0
  0
LINE
  5
B0
330
18
100
AcDbEntity
  8
0
100
AcDbLine
 10
5.202999999999999
 20
1.587
 30
0.0
 11
4.998
 21
1.389
 31
0.0
  0
LINE
  5
B1
330
18
100
AcDbEntity
  8
0
100
AcDbLine
 10
5.296
 20
1.692
 30
0.0
 11
5.202999999999999
 21
1.587
 31
0.0
  0
LINE
  5
B2
330
18
100
AcDbEntity
  8
0
100
AcDbLine
 10
4.845
 20
1.149
 30
0.0
 11
4.747
 21
1.085
 31
0.0
  0
LINE
  5
B3
330
18
100
AcDbEntity
  8
0
100
AcDbLine
 10
4.996
 20
1.272
 30
0.0
 11
4.845
 21
1.149
 31
0.0
  0
LINE
  5
B4
330
18
100
AcDbEntity
  8
0
100
AcDbLine
 10
5.169
 20
1.424
 30
0.0
 11
4.996
 21
1.272
 31
0.0
  0
LINE
  5
B5
330
18
100
AcDbEntity
  8
0
100
AcDbLine
 10
5.415
 20
1.648
 30
0.0
 11
5.169
 21
1.424
 31
0.0
  0
LINE
  5
B6
330
18
100
AcDbEntity
  8
0
100
AcDbLine
 10
5.53
 20
1.747
 30
0.0
 11
5.415
 21
1.648
 31
0.0
  0
LINE
  5
B7
330
18
100
AcDbEntity
  8
0
100
AcDbLine
 10
4.855
 20
1.405
 30
0.0
 11
4.756
 21
1.329
 31
0.0
  0
LINE
  5
B8
330
18
100
AcDbEntity
  8
0
100
AcDbLine
 10
5.018
 20
1.552
 30
0.0
 11
4.855
 21
1.405
 31
0.0
  0
LINE
  5
B9
330
18
100
AcDbEntity
  8
0
100
AcDbLine
 10
5.137000000000001
 20
1.655
 30
0.0
 11
5.018
 21
1.552
 31
0.0
  0
LINE
  5
BA
330
18
100
AcDbEntity
  8
0
100
AcDbLine
 10
4.821000000000001
 20
1.483
 30
0.0
 11
4.76
 21
1.438
 31
0.0
  0
LINE
  5
BB
330
18
100
AcDbEntity
  8
0
100
AcDbLine
 10
4.949
 20
1.591
 30
0.0
 11
4.821000000000001
 21
1.483
 31
0.0
  0
LINE
  5
BC
330
18
100
AcDbEntity
  8
0
100
AcDbLine
 10
4.973
 20
1.616
 30
0.0
 11
4.949
 21
1.591
 31
0.0
  0
LINE
  5
BD
330
18
100
AcDbEntity
  8
0
100
AcDbLine
 10
5.342000000000001
 20
0.9320000000000001
 30
0.0
 11
5.215
 21
0.82
 31
0.0
  0
LINE
  5
BE
330
18
100
AcDbEntity
  8
0
100
AcDbLine
 10
5.553999999999999
 20
1.105
 30
0.0
 11
5.342000000000001
 21
0.9320000000000001
 31
0.0
  0
LINE
  5
BF
330
18
100
AcDbEntity
  8
0
100
AcDbLine
 10
5.007
 20
0.8020000000000001
 30
0.0
 11
4.96
 21
0.7609999999999999
 31
0.0
  0
LINE
  5
C0
330
18
100
AcDbEntity
  8
0
100
AcDbLine
 10
5.143
 20
0.9179999999999999
 30
0.0
 11
5.007
 21
0.8020000000000001
 31
0.0
  0
LINE
  5
C1
330
18
100
AcDbEntity
  8
0
100
AcDbLine
 10
5.299
 20
1.048
 30
0.0
 11
5.143
 21
0.9179999999999999
 31
0.0
  0
LINE
  5
C2
330
18
100
AcDbEntity
  8
0
100
AcDbLine
 10
5.559
 20
1.254
 30
0.0
 11
5.299
 21
1.048
 31
0.0
  0
LINE
  5
C3
330
18
100
AcDbEntity
  8
0
100
AcDbLine
 10
4.805
 20
0.79
 30
0.0
 11
4.735
 21
0.742
 31
0.0
  0
LINE
  5
C4
330
18
100
AcDbEntity
  8
0
100
AcDbLine
 10
4.928999999999999
 20
0.884
 30
0.0
 11
4.805
 21
0.79
 31
0.0
  0
LINE
  5
C5
330
18
100
AcDbEntity
  8
0
100
AcDbLine
 10
5.063
 20
1.017
 30
0.0
 11
4.928999999999999
 21
0.884
 31
0.0
  0
LINE
  5
C6
330
18
100
AcDbEntity
  8
0
100
AcDbLine
 10
5.242000000000001
 20
1.168
 30
0.0
 11
5.063
 21
1.017
 31
0.0
  0
LINE
  5
C7
330
18
100
AcDbEntity
  8
0
100
AcDbLine
 10
5.566
 20
1.433
 30
0.0
 11
5.242000000000001
 21
1.168
 31
0.0
  0
LINE
  5
C8
330
18
100
AcDbEntity
  8
0
100
AcDbLine
 10
4.767
 20
0.9350000000000001
 30
0.0
 11
4.741000000000001
 21
0.917
 31
0.0
  0
LINE
  5
C9
330
18
100
AcDbEntity
  8
0
100
AcDbLine
 10
4.907
 20
1.034
 30
0.0
 11
4.767
 21
0.9350000000000001
 31
0.0
  0
LINE
  5
CA
330
18
100
AcDbEntity
  8
0
100
AcDbLine
 10
5.102
 20
1.198
 30
0.0
 11
4.907
 21
1.034
 31
0.0
  0
LINE
  5
CB
330
18
100
AcDbEntity
  8
0
100
AcDbLine
 10
5.242999999999999
 20
1.362
 30
0.0
 11
5.102
 21
1.198
 31
0.0
  0
LINE
  5
CC
330
18
100
AcDbEntity
  8
0
100
AcDbLine
 10
5.573
 20
1.631
 30
0.0
 11
5.242999999999999
 21
1.362
 31
0.0
  0
TEXT
  5
CD
330
18
100
AcDbEntity
  8
0
100
AcDbText
 10
2.797
 20
0.024
 30
0.0
 40
0.125
  1
A21 and/or A23 Angle
100
AcDbText
  0
CIRCLE
  5
CE
330
18
100
AcDbEntity
  8
DIM
100
AcDbCircle
 10
4.51
 20
2.232
 30
0.0
 40
0.021
  0
CIRCLE
  5
CF
330
18
100
AcDbEntity
  8
DIM
100
AcDbCircle
 10
5.122000000000001
 20
2.148
 30
0.0
 40
0.021
  0
ARC
  5
D0
330
18
100
AcDbEntity
  8
DIM
100
AcDbCircle
 10
2.527
 20
3.934
 30
0.0
 40
2.614
100
AcDbArc
 50
281.983
 51
319.352
  0
LINE
  5
D1
330
18
100
AcDbEntity
  8
DIM
100
AcDbLine
 10
4.768
 20
2.402
 30
0.0
 11
4.961
 21
2.287
 31
0.0
  0
ARC
  5
D2
330
18
100
AcDbEntity
  8
DIM
100
AcDbCircle
 10
3.597
 20
2.466
 30
0.0
 40
1.558
100
AcDbArc
 50
283.68
 51
348.223
  0
SOLID
  5
D3
330
18
100
AcDbEntity
  8
DIM
100
AcDbTrace
 10
4.811
 20
2.312
 30
0.0
 11
4.818000000000001
 21
2.279
 31
0.0
 12
4.913
 22
2.316
 32
0.0
 13
4.913
 23
2.316
 33
0.0
  0
LINE
  5
D4
330
18
100
AcDbEntity
  8
DIM
100
AcDbLine
 10
4.108000000000001
 20
2.148
 30
0.0
 11
4.913
 21
2.316
 31
0.0
  0
SOLID
  5
D5
330
18
100
AcDbEntity
  8
DIM
100
AcDbTrace
 10
4.209
 20
2.152
 30
0.0
 11
4.202
 21
2.185
 31
0.0
 12
4.108000000000001
 22
2.148
 32
0.0
 13
4.108000000000001
 23
2.148
 33
0.0
  0
SOLID
  5
D6
330
18
100
AcDbEntity
  8
DIM
100
AcDbTrace
 10
5.772
 20
2.301
 30
0.0
 11
5.779
 21
2.268
 31
0.0
 12
5.874
 22
2.305
 32
0.0
 13
5.874
 23
2.305
 33
0.0
  0
SOLID
  5
D7
330
18
100
AcDbEntity
  8
DIM
100
AcDbTrace
 10
4.472
 20
1.995
 30
0.0
 11
4.465
 21
2.028
 31
0.0
 12
4.37
 22
1.991
 32
0.0
 13
4.37
 23
1.991
 33
0.0
  0
LINE
  5
D8
330
18
100
AcDbEntity
  8
DIM
100
AcDbLine
 10
5.39
 20
2.593
 30
0.0
 11
5.967000000000001
 21
2.249
 31
0.0
  0
LINE
  5
D9
330
18
100
AcDbEntity
  8
DIM
100
AcDbLine
 10
4.37
 20
1.991
 30
0.0
 11
5.874
 21
2.305
 31
0.0
  0
LINE
  5
DA
330
18
100
AcDbEntity
  8
DIM
100
AcDbLine
 10
3.967
 20
2.232
 30
0.0
 11
4.464
 21
1.935
 31
0.0
  0
TEXT
  5
DB
330
18
100
AcDbEntity
  8
DIM
  6
CENTER
100
AcDbText
 10
3.051
 20
0.715
 30
0.0
 40
0.35
  1
A23
 41
0.8
100
AcDbText
  0
TEXT
  5
DC
330
18
100
AcDbEntity
  8
DIM
  6
CENTER
100
AcDbText
 10
2.173
 20
1.194
 30
0.0
 40
0.35
  1
A21
 41
0.8
100
AcDbText
  0
LINE
  5
DD
330
18
100
AcDbEntity
  8
0
100
AcDbLine
 10
5.343
 20
2.622
 30
0.0
 11
5.341
 21
2.565
 31
0.0
  0
LINE
  5
DE
330
18
100
AcDbEntity
  8
0
100
AcDbLine
 10
5.324
 20
2.516
 30
0.0
 11
5.341
 21
2.565
 31
0.0
  0
LINE
  5
DF
330
18
100
AcDbEntity
  8
0
  6
HIDDEN
100
AcDbLine
 10
4.035
 20
3.918
 30
0.0
 11
4.035
 21
2.849
 31
0.0
  0
LINE
  5
E0
330
18
100
AcDbEntity
  8
0
100
AcDbLine
 10
2.148
 20
3.984
 30
0.0
 11
2.225
 21
3.992
 31
0.0
  0
LINE
  5
E1
330
18
100
AcDbEntity
  8
0
100
AcDbLine
 10
1.897
 20
4.053999999999999
 30
0.0
 11
2.148
 21
3.984
 31
0.0
  0
LINE
  5
E2
330
18
100
AcDbEntity
  8
0
100
AcDbLine
 10
0.9259999999999999
 20
3.857
 30
0.0
 11
1.8
 21
3.948
 31
0.0
  0
LINE
  5
E3
330
18
100
AcDbEntity
  8
0
100
AcDbLine
 10
3.425
 20
2.693
 30
0.0
 11
4.677
 21
2.916
 31
0.0
  0
LINE
  5
E4
330
18
100
AcDbEntity
  8
0
100
AcDbLine
 10
3.34
 20
2.725
 30
0.0
 11
4.592
 21
2.949
 31
0.0
  0
LINE
  5
E5
330
18
100
AcDbEntity
  8
0
100
AcDbLine
 10
4.723
 20
2.952
 30
0.0
 11
4.895
 21
2.981
 31
0.0
  0
ARC
  5
E6
330
18
100
AcDbEntity
  8
0
100
AcDbCircle
 10
3.289
 20
2.724
 30
0.0
 40
0.025
100
AcDbArc
 50
180.0
 51
239.18
  0
ARC
  5
E7
330
18
100
AcDbEntity
  8
0
100
AcDbCircle
 10
4.799
 20
3.017
 30
0.0
 40
0.1
100
AcDbArc
 50
180.0
 51
242.544
  0
LINE
  5
E8
330
18
100
AcDbEntity
  8
0
100
AcDbLine
 10
4.535
 20
4.017
 30
0.0
 11
4.585
 21
3.993
 31
0.0
  0
LINE
  5
E9
330
18
100
AcDbEntity
  8
0
100
AcDbLine
 10
4.699
 20
3.915
 30
0.0
 11
4.585
 21
3.993
 31
0.0
  0
LINE
  5
EA
330
18
100
AcDbEntity
  8
0
100
AcDbLine
 10
4.699
 20
3.915
 30
0.0
 11
4.699
 21
3.017
 31
0.0
  0
LINE
  5
EB
330
18
100
AcDbEntity
  8
0
100
AcDbLine
 10
5.343
 20
2.622
 30
0.0
 11
4.753
 21
2.928
 31
0.0
  0
LINE
  5
EC
330
18
100
AcDbEntity
  8
0
100
AcDbLine
 10
5.327000000000001
 20
2.573
 30
0.0
 11
5.324
 21
2.516
 31
0.0
  0
LINE
  5
ED
330
18
100
AcDbEntity
  8
0
100
AcDbLine
 10
5.327000000000001
 20
2.573
 30
0.0
 11
5.343
 21
2.622
 31
0.0
  0
LINE
  5
EE
330
18
100
AcDbEntity
  8
0
100
AcDbLine
 10
4.075
 20
2.312
 30
0.0
 11
5.327000000000001
 21
2.573
 31
0.0
  0
LINE
  5
EF
330
18
100
AcDbEntity
  8
0
100
AcDbLine
 10
4.075
 20
2.312
 30
0.0
 11
4.073
 21
2.255
 31
0.0
  0
LINE
  5
F0
330
18
100
AcDbEntity
  8
0
100
AcDbLine
 10
3.871
 20
2.347
 30
0.0
 11
4.075
 21
2.312
 31
0.0
  0
LINE
  5
F1
330
18
100
AcDbEntity
  8
0
100
AcDbLine
 10
3.871
 20
2.347
 30
0.0
 11
3.869
 21
2.29
 31
0.0
  0
LINE
  5
F2
330
18
100
AcDbEntity
  8
0
100
AcDbLine
 10
3.276
 20
2.702
 30
0.0
 11
3.871
 21
2.347
 31
0.0
  0
LINE
  5
F3
330
18
100
AcDbEntity
  8
0
100
AcDbLine
 10
3.869
 20
2.29
 30
0.0
 11
4.073
 21
2.255
 31
0.0
  0
LINE
  5
F4
330
18
100
AcDbEntity
  8
0
100
AcDbLine
 10
4.073
 20
2.255
 30
0.0
 11
5.324
 21
2.516
 31
0.0
  0
ARC
  5
F5
330
18
100
AcDbEntity
  8
0
100
AcDbCircle
 10
3.264
 20
2.709
 30
0.0
 40
0.05
100
AcDbArc
 50
180.0
 51
239.18
  0
LINE
  5
F6
330
18
100
AcDbEntity
  8
0
100
AcDbLine
 10
3.238
 20
2.666
 30
0.0
 11
3.869
 21
2.29
 31
0.0
  0
LINE
  5
F7
330
18
100
AcDbEntity
  8
0
100
AcDbLine
 10
3.369
 20
3.827
 30
0.0
 11
4.585
 21
3.993
 31
0.0
  0
LINE
  5
F8
330
18
100
AcDbEntity
  8
0
100
AcDbLine
 10
3.264
 20
3.696
 30
0.0
 11
3.369
 21
3.827
 31
0.0
  0
LINE
  5
F9
330
18
100
AcDbEntity
  8
0
100
AcDbLine
 10
3.319
 20
3.851
 30
0.0
 11
3.369
 21
3.827
 31
0.0
  0
LINE
  5
FA
330
18
100
AcDbEntity
  8
0
100
AcDbLine
 10
3.264
 20
3.696
 30
0.0
 11
3.264
 21
2.724
 31
0.0
  0
LINE
  5
FB
330
18
100
AcDbEntity
  8
0
100
AcDbLine
 10
3.214
 20
3.72
 30
0.0
 11
3.264
 21
3.696
 31
0.0
  0
LINE
  5
FC
330
18
100
AcDbEntity
  8
0
100
AcDbLine
 10
3.214
 20
3.72
 30
0.0
 11
3.319
 21
3.851
 31
0.0
  0
LINE
  5
FD
330
18
100
AcDbEntity
  8
0
100
AcDbLine
 10
3.319
 20
3.851
 30
0.0
 11
4.535
 21
4.017
 31
0.0
  0
LINE
  5
FE
330
18
100
AcDbEntity
  8
0
100
AcDbLine
 10
3.214
 20
3.72
 30
0.0
 11
3.214
 21
2.709
 31
0.0
  0
LINE
  5
FF
330
18
100
AcDbEntity
  8
0
100
AcDbLine
 10
2.937
 20
2.658
 30
0.0
 11
3.214
 21
2.703
 31
0.0
  0
LINE
  5
100
330
18
100
AcDbEntity
  8
0
100
AcDbLine
 10
1.897
 20
4.053999999999999
 30
0.0
 11
1.892
 21
3.937
 31
0.0
  0
LINE
  5
101
330
18
100
AcDbEntity
  8
0
100
AcDbLine
 10
2.076
 20
3.916
 30
0.0
 11
1.897
 21
4.053999999999999
 31
0.0
  0
LINE
  5
102
330
18
100
AcDbEntity
  8
0
100
AcDbLine
 10
1.8
 20
3.948
 30
0.0
 11
2.076
 21
3.916
 31
0.0
  0
LINE
  5
103
330
18
100
AcDbEntity
  8
0
100
AcDbLine
 10
3.611
 20
5.786000000000001
 30
0.0
 11
4.184
 21
5.846
 31
0.0
  0
LINE
  5
104
330
18
100
AcDbEntity
  8
0
100
AcDbLine
 10
3.099
 20
5.733
 30
0.0
 11
3.234
 21
5.966
 31
0.0
  0
LINE
  5
105
330
18
100
AcDbEntity
  8
0
100
AcDbLine
 10
3.099
 20
5.733
 30
0.0
 11
3.811
 21
5.393
 31
0.0
  0
LINE
  5
106
330
18
100
AcDbEntity
  8
0
100
AcDbLine
 10
3.234
 20
5.966
 30
0.0
 11
3.946
 21
5.626
 31
0.0
  0
LINE
  5
107
330
18
100
AcDbEntity
  8
0
100
AcDbLine
 10
4.005
 20
5.517
 30
0.0
 11
4.184
 21
5.432
 31
0.0
  0
LINE
  5
108
330
18
100
AcDbEntity
  8
0
100
AcDbLine
 10
4.184
 20
5.432
 30
0.0
 11
4.895
 21
5.506
 31
0.0
  0
LINE
  5
109
330
18
100
AcDbEntity
  8
0
100
AcDbLine
 10
4.138
 20
5.274
 30
0.0
 11
4.184
 21
5.432
 31
0.0
  0
LINE
  5
10A
330
18
100
AcDbEntity
  8
0
100
AcDbLine
 10
3.946
 20
5.626
 30
0.0
 11
4.138
 21
5.274
 31
0.0
  0
LINE
  5
10B
330
18
100
AcDbEntity
  8
0
100
AcDbLine
 10
3.811
 20
5.393
 30
0.0
 11
3.946
 21
5.626
 31
0.0
  0
LINE
  5
10C
330
18
100
AcDbEntity
  8
0
100
AcDbLine
 10
4.184
 20
5.846
 30
0.0
 11
4.895
 21
5.506
 31
0.0
  0
LINE
  5
10D
330
18
100
AcDbEntity
  8
0
100
AcDbLine
 10
2.225
 20
5.642
 30
0.0
 11
3.099
 21
5.733
 31
0.0
  0
LINE
  5
10E
330
18
100
AcDbEntity
  8
0
100
AcDbLine
 10
2.937
 20
5.302000000000001
 30
0.0
 11
3.811
 21
5.393
 31
0.0
  0
LINE
  5
10F
330
18
100
AcDbEntity
  8
0
100
AcDbLine
 10
4.895
 20
5.506
 30
0.0
 11
4.895
 21
2.981
 31
0.0
  0
LINE
  5
110
330
18
100
AcDbEntity
  8
0
100
AcDbLine
 10
2.225
 20
5.642
 30
0.0
 11
2.937
 21
5.302000000000001
 31
0.0
  0
LINE
  5
111
330
18
100
AcDbEntity
  8
0
100
AcDbLine
 10
2.225
 20
5.642
 30
0.0
 11
2.225
 21
3.082
 31
0.0
  0
LINE
  5
112
330
18
100
AcDbEntity
  8
0
100
AcDbLine
 10
2.937
 20
5.302000000000001
 30
0.0
 11
2.937
 21
2.658
 31
0.0
  0
LINE
  5
113
330
18
100
AcDbEntity
  8
0
100
AcDbLine
 10
6.729
 20
2.028
 30
0.0
 11
4.895
 21
2.981
 31
0.0
  0
LINE
  5
114
330
18
100
AcDbEntity
  8
0
100
AcDbLine
 10
5.546
 20
0.898
 30
0.0
 11
5.785
 21
0.826
 31
0.0
  0
LINE
  5
115
330
18
100
AcDbEntity
  8
0
100
AcDbLine
 10
5.785
 20
0.826
 30
0.0
 11
5.867000000000001
 21
1.055
 31
0.0
  0
LINE
  5
116
330
18
100
AcDbEntity
  8
0
100
AcDbLine
 10
5.867000000000001
 20
1.055
 30
0.0
 11
6.044
 21
1.015
 31
0.0
  0
LINE
  5
117
330
18
100
AcDbEntity
  8
0
100
AcDbLine
 10
5.899
 20
1.914
 30
0.0
 11
5.867000000000001
 21
1.055
 31
0.0
  0
LINE
  5
118
330
18
100
AcDbEntity
  8
0
100
AcDbLine
 10
5.577999999999999
 20
1.758
 30
0.0
 11
5.546
 21
0.898
 31
0.0
  0
LINE
  5
119
330
18
100
AcDbEntity
  8
0
100
AcDbLine
 10
5.816
 20
1.685
 30
0.0
 11
5.785
 21
0.826
 31
0.0
  0
LINE
  5
11A
330
18
100
AcDbEntity
  8
0
100
AcDbLine
 10
6.076000000000001
 20
1.875
 30
0.0
 11
6.044
 21
1.015
 31
0.0
  0
LINE
  5
11B
330
18
100
AcDbEntity
  8
0
100
AcDbLine
 10
5.541
 20
0.897
 30
0.0
 11
4.733000000000001
 21
0.708
 31
0.0
  0
LINE
  5
11C
330
18
100
AcDbEntity
  8
0
100
AcDbLine
 10
5.577999999999999
 20
1.758
 30
0.0
 11
4.765
 21
1.567
 31
0.0
  0
LINE
  5
11D
330
18
100
AcDbEntity
  8
0
100
AcDbLine
 10
5.899
 20
1.914
 30
0.0
 11
6.076000000000001
 21
1.875
 31
0.0
  0
LINE
  5
11E
330
18
100
AcDbEntity
  8
0
100
AcDbLine
 10
5.816
 20
1.685
 30
0.0
 11
5.899
 21
1.914
 31
0.0
  0
LINE
  5
11F
330
18
100
AcDbEntity
  8
0
100
AcDbLine
 10
5.577999999999999
 20
1.758
 30
0.0
 11
5.816
 21
1.685
 31
0.0
  0
LINE
  5
120
330
18
100
AcDbEntity
  8
0
100
AcDbLine
 10
6.729
 20
2.028
 30
0.0
 11
6.698
 21
1.168
 31
0.0
  0
LINE
  5
121
330
18
100
AcDbEntity
  8
0
100
AcDbLine
 10
6.698
 20
1.168
 30
0.0
 11
6.05
 21
1.016
 31
0.0
  0
LINE
  5
122
330
18
100
AcDbEntity
  8
0
100
AcDbLine
 10
6.729
 20
2.028
 30
0.0
 11
6.076000000000001
 21
1.875
 31
0.0
  0
LINE
  5
123
330
18
100
AcDbEntity
  8
0
100
AcDbLine
 10
0.9259999999999999
 20
3.857
 30
0.0
 11
0.895
 21
2.998
 31
0.0
  0
LINE
  5
124
330
18
100
AcDbEntity
  8
0
100
AcDbLine
 10
0.9259999999999999
 20
3.857
 30
0.0
 11
4.765
 21
1.567
 31
0.0
  0
LINE
  5
125
330
18
100
AcDbEntity
  8
0
100
AcDbLine
 10
4.765
 20
1.567
 30
0.0
 11
4.733000000000001
 21
0.708
 31
0.0
  0
LINE
  5
126
330
18
100
AcDbEntity
  8
0
100
AcDbLine
 10
0.895
 20
2.998
 30
0.0
 11
3.434
 21
1.483
 31
0.0
  0
LINE
  5
127
330
18
100
AcDbEntity
  8
0
100
AcDbLine
 10
4.257
 20
0.992
 30
0.0
 11
4.733000000000001
 21
0.708
 31
0.0
  0
LINE
  5
128
330
18
100
AcDbEntity
  8
0
100
AcDbLine
 10
3.488
 20
1.45
 30
0.0
 11
4.196000000000001
 21
1.028
 31
0.0
  0
LWPOLYLINE
  5
129
330
18
100
AcDbEntity
  8
0
100
AcDbPolyline
 90
        6
 70
     0
 43
0.0
 10
4.044
 20
2.415
 42
0.076
 10
4.064
 20
2.422
 42
0.107
 10
4.079
 20
2.435
 42
0.149
 10
4.084
 20
2.449
 42
0.149
 10
4.081
 20
2.463
 10
4.081
 20
2.463
 42
0.076
  0
LINE
  5
132
330
18
100
AcDbEntity
  8
0
  6
HIDDEN
100
AcDbLine
 10
4.106
 20
2.797
 30
0.0
 11
4.701000000000001
 21
2.442
 31
0.0
  0
LWPOLYLINE
  5
133
330
18
100
AcDbEntity
  8
0
100
AcDbPolyline
 90
        7
 70
     0
 43
0.0
 10
4.016
 20
2.654
 42
0.128
 10
4.012
 20
2.642
 42
0.149
 10
4.016
 20
2.628
 42
0.107
 10
4.029
 20
2.614
 42
0.076
 10
4.048
 20
2.604
 42
0.062
 10
4.074
 20
2.6
 42
0.062
 10
4.099
 20
2.601
 42
0.076
  0
LWPOLYLINE
  5
13D
330
18
100
AcDbEntity
  8
0
100
AcDbPolyline
 90
        7
 70
     0
 43
0.0
 10
4.718
 20
2.814
 42
0.128
 10
4.714
 20
2.802
 42
0.149
 10
4.718
 20
2.788
 42
0.107
 10
4.731
 20
2.774
 42
0.076
 10
4.75
 20
2.764
 42
0.062
 10
4.776
 20
2.76
 42
0.062
 10
4.801
 20
2.761
 42
0.076
  0
LWPOLYLINE
  5
147
330
18
100
AcDbEntity
  8
0
100
AcDbPolyline
 90
        6
 70
     0
 43
0.0
 10
4.749
 20
2.565
 42
0.076
 10
4.769
 20
2.573
 42
0.107
 10
4.785
 20
2.586
 42
0.149
 10
4.79
 20
2.599
 42
0.149
 10
4.786000000000001
 20
2.613
 10
4.786000000000001
 20
2.613
 42
0.076
  0
ARC
  5
150
330
18
100
AcDbEntity
  8
0
100
AcDbCircle
 10
4.031000000000001
 20
2.511
 30
0.0
 40
0.071
100
AcDbArc
 50
281.039
 51
298.347
  0
ARC
  5
151
330
18
100
AcDbEntity
  8
0
100
AcDbCircle
 10
4.042
 20
2.49
 30
0.0
 40
0.047
100
AcDbArc
 50
298.347
 51
322.795
  0
ARC
  5
152
330
18
100
AcDbEntity
  8
0
100
AcDbCircle
 10
4.06
 20
2.477
 30
0.0
 40
0.025
100
AcDbArc
 50
322.795
 51
356.7380000000001
  0
ARC
  5
153
330
18
100
AcDbEntity
  8
0
100
AcDbCircle
 10
4.06
 20
2.477
 30
0.0
 40
0.025
100
AcDbArc
 50
356.7380000000001
 51
30.682
  0
ARC
  5
154
330
18
100
AcDbEntity
  8
0
100
AcDbCircle
 10
4.04
 20
2.465
 30
0.0
 40
0.047
100
AcDbArc
 50
30.682
 51
55.13
  0
ARC
  5
155
330
18
100
AcDbEntity
  8
0
100
AcDbCircle
 10
4.027
 20
2.446
 30
0.0
 40
0.071
100
AcDbArc
 50
55.13
 51
72.438
  0
ARC
  5
156
330
18
100
AcDbEntity
  8
0
100
AcDbCircle
 10
4.017
 20
2.415
 30
0.0
 40
0.103
100
AcDbArc
 50
72.438
 51
86.738
  0
ARC
  5
157
330
18
100
AcDbEntity
  8
0
100
AcDbCircle
 10
4.017
 20
2.415
 30
0.0
 40
0.103
100
AcDbArc
 50
86.738
 51
101.039
  0
ARC
  5
158
330
18
100
AcDbEntity
  8
0
100
AcDbCircle
 10
4.011
 20
2.447
 30
0.0
 40
0.071
100
AcDbArc
 50
101.039
 51
118.347
  0
ARC
  5
159
330
18
100
AcDbEntity
  8
0
100
AcDbCircle
 10
4.0
 20
2.467
 30
0.0
 40
0.047
100
AcDbArc
 50
118.347
 51
142.795
  0
ARC
  5
15A
330
18
100
AcDbEntity
  8
0
100
AcDbCircle
 10
3.982
 20
2.481
 30
0.0
 40
0.025
100
AcDbArc
 50
142.795
 51
176.738
  0
ARC
  5
15B
330
18
100
AcDbEntity
  8
0
100
AcDbCircle
 10
3.982
 20
2.481
 30
0.0
 40
0.025
100
AcDbArc
 50
176.738
 51
210.682
  0
ARC
  5
15C
330
18
100
AcDbEntity
  8
0
100
AcDbCircle
 10
4.001
 20
2.492
 30
0.0
 40
0.047
100
AcDbArc
 50
210.682
 51
235.13
  0
ARC
  5
15D
330
18
100
AcDbEntity
  8
0
100
AcDbCircle
 10
4.015
 20
2.512
 30
0.0
 40
0.071
100
AcDbArc
 50
235.13
 51
252.438
  0
ARC
  5
15E
330
18
100
AcDbEntity
  8
0
100
AcDbCircle
 10
4.024
 20
2.543
 30
0.0
 40
0.103
100
AcDbArc
 50
252.438
 51
266.738
  0
ARC
  5
15F
330
18
100
AcDbEntity
  8
0
100
AcDbCircle
 10
4.024
 20
2.543
 30
0.0
 40
0.103
100
AcDbArc
 50
266.738
 51
281.039
  0
ARC
  5
160
330
18
100
AcDbEntity
  8
0
100
AcDbCircle
 10
3.981
 20
2.455
 30
0.0
 40
0.025
100
AcDbArc
 50
147.57
 51
176.738
  0
ARC
  5
161
330
18
100
AcDbEntity
  8
0
100
AcDbCircle
 10
3.981
 20
2.455
 30
0.0
 40
0.025
100
AcDbArc
 50
176.738
 51
210.682
  0
ARC
  5
162
330
18
100
AcDbEntity
  8
0
100
AcDbCircle
 10
4.001
 20
2.466
 30
0.0
 40
0.047
100
AcDbArc
 50
210.682
 51
235.13
  0
ARC
  5
163
330
18
100
AcDbEntity
  8
0
100
AcDbCircle
 10
4.013999999999999
 20
2.486
 30
0.0
 40
0.071
100
AcDbArc
 50
235.13
 51
252.438
  0
ARC
  5
164
330
18
100
AcDbEntity
  8
0
100
AcDbCircle
 10
4.024
 20
2.517
 30
0.0
 40
0.103
100
AcDbArc
 50
252.438
 51
266.738
  0
ARC
  5
165
330
18
100
AcDbEntity
  8
0
100
AcDbCircle
 10
4.024
 20
2.517
 30
0.0
 40
0.103
100
AcDbArc
 50
266.738
 51
281.039
  0
ARC
  5
166
330
18
100
AcDbEntity
  8
0
100
AcDbCircle
 10
4.086
 20
2.697
 30
0.0
 40
0.071
100
AcDbArc
 50
281.039
 51
298.347
  0
ARC
  5
167
330
18
100
AcDbEntity
  8
0
100
AcDbCircle
 10
4.097
 20
2.676
 30
0.0
 40
0.047
100
AcDbArc
 50
298.347
 51
322.795
  0
ARC
  5
168
330
18
100
AcDbEntity
  8
0
100
AcDbCircle
 10
4.115
 20
2.663
 30
0.0
 40
0.025
100
AcDbArc
 50
322.795
 51
356.7380000000001
  0
ARC
  5
169
330
18
100
AcDbEntity
  8
0
100
AcDbCircle
 10
4.115
 20
2.663
 30
0.0
 40
0.025
100
AcDbArc
 50
356.7380000000001
 51
30.682
  0
ARC
  5
16A
330
18
100
AcDbEntity
  8
0
100
AcDbCircle
 10
4.096
 20
2.651
 30
0.0
 40
0.047
100
AcDbArc
 50
30.682
 51
55.13
  0
ARC
  5
16B
330
18
100
AcDbEntity
  8
0
100
AcDbCircle
 10
4.082
 20
2.632
 30
0.0
 40
0.071
100
AcDbArc
 50
55.13
 51
72.438
  0
ARC
  5
16C
330
18
100
AcDbEntity
  8
0
100
AcDbCircle
 10
4.073
 20
2.601
 30
0.0
 40
0.103
100
AcDbArc
 50
72.438
 51
86.738
  0
ARC
  5
16D
330
18
100
AcDbEntity
  8
0
100
AcDbCircle
 10
4.073
 20
2.601
 30
0.0
 40
0.103
100
AcDbArc
 50
86.738
 51
101.039
  0
ARC
  5
16E
330
18
100
AcDbEntity
  8
0
100
AcDbCircle
 10
4.066
 20
2.633
 30
0.0
 40
0.071
100
AcDbArc
 50
101.039
 51
118.347
  0
ARC
  5
16F
330
18
100
AcDbEntity
  8
0
100
AcDbCircle
 10
4.055
 20
2.654
 30
0.0
 40
0.047
100
AcDbArc
 50
118.347
 51
142.795
  0
ARC
  5
170
330
18
100
AcDbEntity
  8
0
100
AcDbCircle
 10
4.037
 20
2.667
 30
0.0
 40
0.025
100
AcDbArc
 50
142.795
 51
176.738
  0
ARC
  5
171
330
18
100
AcDbEntity
  8
0
100
AcDbCircle
 10
4.037
 20
2.667
 30
0.0
 40
0.025
100
AcDbArc
 50
176.738
 51
210.682
  0
ARC
  5
172
330
18
100
AcDbEntity
  8
0
100
AcDbCircle
 10
4.057
 20
2.679
 30
0.0
 40
0.047
100
AcDbArc
 50
210.682
 51
235.13
  0
ARC
  5
173
330
18
100
AcDbEntity
  8
0
100
AcDbCircle
 10
4.07
 20
2.698
 30
0.0
 40
0.071
100
AcDbArc
 50
235.13
 51
252.438
  0
ARC
  5
174
330
18
100
AcDbEntity
  8
0
100
AcDbCircle
 10
4.08
 20
2.729
 30
0.0
 40
0.103
100
AcDbArc
 50
252.438
 51
266.738
  0
ARC
  5
175
330
18
100
AcDbEntity
  8
0
100
AcDbCircle
 10
4.08
 20
2.729
 30
0.0
 40
0.103
100
AcDbArc
 50
266.738
 51
281.039
  0
ARC
  5
176
330
18
100
AcDbEntity
  8
0
100
AcDbCircle
 10
4.086
 20
2.671
 30
0.0
 40
0.071
100
AcDbArc
 50
281.039
 51
298.347
  0
ARC
  5
177
330
18
100
AcDbEntity
  8
0
100
AcDbCircle
 10
4.097
 20
2.65
 30
0.0
 40
0.047
100
AcDbArc
 50
298.347
 51
322.795
  0
ARC
  5
178
330
18
100
AcDbEntity
  8
0
100
AcDbCircle
 10
4.115
 20
2.637
 30
0.0
 40
0.025
100
AcDbArc
 50
322.795
 51
356.7380000000001
  0
ARC
  5
179
330
18
100
AcDbEntity
  8
0
100
AcDbCircle
 10
4.115
 20
2.637
 30
0.0
 40
0.025
100
AcDbArc
 50
356.7380000000001
 51
30.682
  0
ARC
  5
17A
330
18
100
AcDbEntity
  8
0
100
AcDbCircle
 10
4.096
 20
2.625
 30
0.0
 40
0.047
100
AcDbArc
 50
30.682
 51
30.74
  0
ARC
  5
17B
330
18
100
AcDbEntity
  8
0
100
AcDbCircle
 10
4.736000000000001
 20
2.661
 30
0.0
 40
0.071
100
AcDbArc
 50
281.039
 51
298.347
  0
ARC
  5
17C
330
18
100
AcDbEntity
  8
0
100
AcDbCircle
 10
4.747
 20
2.64
 30
0.0
 40
0.047
100
AcDbArc
 50
298.347
 51
322.795
  0
ARC
  5
17D
330
18
100
AcDbEntity
  8
0
100
AcDbCircle
 10
4.765
 20
2.627
 30
0.0
 40
0.025
100
AcDbArc
 50
322.795
 51
356.7380000000001
  0
ARC
  5
17E
330
18
100
AcDbEntity
  8
0
100
AcDbCircle
 10
4.765
 20
2.627
 30
0.0
 40
0.025
100
AcDbArc
 50
356.7380000000001
 51
30.682
  0
ARC
  5
17F
330
18
100
AcDbEntity
  8
0
100
AcDbCircle
 10
4.746
 20
2.615
 30
0.0
 40
0.047
100
AcDbArc
 50
30.682
 51
55.13
  0
ARC
  5
180
330
18
100
AcDbEntity
  8
0
100
AcDbCircle
 10
4.732
 20
2.596
 30
0.0
 40
0.071
100
AcDbArc
 50
55.13
 51
72.438
  0
ARC
  5
181
330
18
100
AcDbEntity
  8
0
100
AcDbCircle
 10
4.722
 20
2.565
 30
0.0
 40
0.103
100
AcDbArc
 50
72.438
 51
86.738
  0
ARC
  5
182
330
18
100
AcDbEntity
  8
0
100
AcDbCircle
 10
4.722
 20
2.565
 30
0.0
 40
0.103
100
AcDbArc
 50
86.738
 51
101.039
  0
ARC
  5
183
330
18
100
AcDbEntity
  8
0
100
AcDbCircle
 10
4.716
 20
2.597
 30
0.0
 40
0.071
100
AcDbArc
 50
101.039
 51
118.347
  0
ARC
  5
184
330
18
100
AcDbEntity
  8
0
100
AcDbCircle
 10
4.705
 20
2.618
 30
0.0
 40
0.047
100
AcDbArc
 50
118.347
 51
142.795
  0
ARC
  5
185
330
18
100
AcDbEntity
  8
0
100
AcDbCircle
 10
4.687
 20
2.631
 30
0.0
 40
0.025
100
AcDbArc
 50
142.795
 51
176.738
  0
ARC
  5
186
330
18
100
AcDbEntity
  8
0
100
AcDbCircle
 10
4.687
 20
2.631
 30
0.0
 40
0.025
100
AcDbArc
 50
176.738
 51
210.682
  0
ARC
  5
187
330
18
100
AcDbEntity
  8
0
100
AcDbCircle
 10
4.707
 20
2.643
 30
0.0
 40
0.047
100
AcDbArc
 50
210.682
 51
235.13
  0
ARC
  5
188
330
18
100
AcDbEntity
  8
0
100
AcDbCircle
 10
4.72
 20
2.662
 30
0.0
 40
0.071
100
AcDbArc
 50
235.13
 51
252.438
  0
ARC
  5
189
330
18
100
AcDbEntity
  8
0
100
AcDbCircle
 10
4.73
 20
2.693
 30
0.0
 40
0.103
100
AcDbArc
 50
252.438
 51
266.738
  0
ARC
  5
18A
330
18
100
AcDbEntity
  8
0
100
AcDbCircle
 10
4.73
 20
2.693
 30
0.0
 40
0.103
100
AcDbArc
 50
266.738
 51
281.039
  0
ARC
  5
18B
330
18
100
AcDbEntity
  8
0
100
AcDbCircle
 10
4.687
 20
2.605
 30
0.0
 40
0.025
100
AcDbArc
 50
147.57
 51
176.738
  0
ARC
  5
18C
330
18
100
AcDbEntity
  8
0
100
AcDbCircle
 10
4.687
 20
2.605
 30
0.0
 40
0.025
100
AcDbArc
 50
176.738
 51
210.682
  0
ARC
  5
18D
330
18
100
AcDbEntity
  8
0
100
AcDbCircle
 10
4.706
 20
2.617
 30
0.0
 40
0.047
100
AcDbArc
 50
210.682
 51
235.13
  0
ARC
  5
18E
330
18
100
AcDbEntity
  8
0
100
AcDbCircle
 10
4.72
 20
2.636
 30
0.0
 40
0.071
100
AcDbArc
 50
235.13
 51
252.438
  0
ARC
  5
18F
330
18
100
AcDbEntity
  8
0
100
AcDbCircle
 10
4.729
 20
2.667
 30
0.0
 40
0.103
100
AcDbArc
 50
252.438
 51
266.738
  0
ARC
  5
190
330
18
100
AcDbEntity
  8
0
100
AcDbCircle
 10
4.729
 20
2.667
 30
0.0
 40
0.103
100
AcDbArc
 50
266.738
 51
281.039
  0
ARC
  5
191
330
18
100
AcDbEntity
  8
0
100
AcDbCircle
 10
4.788
 20
2.831
 30
0.0
 40
0.071
100
AcDbArc
 50
281.039
 51
298.347
  0
ARC
  5
192
330
18
100
AcDbEntity
  8
0
100
AcDbCircle
 10
4.799
 20
2.81
 30
0.0
 40
0.047
100
AcDbArc
 50
298.347
 51
322.795
  0
ARC
  5
193
330
18
100
AcDbEntity
  8
0
100
AcDbCircle
 10
4.817
 20
2.797
 30
0.0
 40
0.025
100
AcDbArc
 50
322.795
 51
356.7380000000001
  0
ARC
  5
194
330
18
100
AcDbEntity
  8
0
100
AcDbCircle
 10
4.817
 20
2.797
 30
0.0
 40
0.025
100
AcDbArc
 50
356.7380000000001
 51
30.682
  0
ARC
  5
195
330
18
100
AcDbEntity
  8
0
100
AcDbCircle
 10
4.798
 20
2.785
 30
0.0
 40
0.047
100
AcDbArc
 50
30.682
 51
30.74
  0
ARC
  5
196
330
18
100
AcDbEntity
  8
0
100
AcDbCircle
 10
4.788
 20
2.857
 30
0.0
 40
0.071
100
AcDbArc
 50
281.039
 51
298.347
  0
ARC
  5
197
330
18
100
AcDbEntity
  8
0
100
AcDbCircle
 10
4.799
 20
2.836
 30
0.0
 40
0.047
100
AcDbArc
 50
298.347
 51
322.795
  0
ARC
  5
198
330
18
100
AcDbEntity
  8
0
100
AcDbCircle
 10
4.817
 20
2.823
 30
0.0
 40
0.025
100
AcDbArc
 50
322.795
 51
356.7380000000001
  0
ARC
  5
199
330
18
100
AcDbEntity
  8
0
100
AcDbCircle
 10
4.817
 20
2.823
 30
0.0
 40
0.025
100
AcDbArc
 50
356.7380000000001
 51
30.682
  0
ARC
  5
19A
330
18
100
AcDbEntity
  8
0
100
AcDbCircle
 10
4.798
 20
2.811
 30
0.0
 40
0.047
100
AcDbArc
 50
30.682
 51
55.13
  0
ARC
  5
19B
330
18
100
AcDbEntity
  8
0
100
AcDbCircle
 10
4.785
 20
2.792
 30
0.0
 40
0.071
100
AcDbArc
 50
55.13
 51
72.438
  0
ARC
  5
19C
330
18
100
AcDbEntity
  8
0
100
AcDbCircle
 10
4.775
 20
2.761
 30
0.0
 40
0.103
100
AcDbArc
 50
72.438
 51
86.738
  0
ARC
  5
19D
330
18
100
AcDbEntity
  8
0
100
AcDbCircle
 10
4.775
 20
2.761
 30
0.0
 40
0.103
100
AcDbArc
 50
86.738
 51
101.039
  0
ARC
  5
19E
330
18
100
AcDbEntity
  8
0
100
AcDbCircle
 10
4.768
 20
2.793
 30
0.0
 40
0.071
100
AcDbArc
 50
101.039
 51
118.347
  0
ARC
  5
19F
330
18
100
AcDbEntity
  8
0
100
AcDbCircle
 10
4.757
 20
2.814
 30
0.0
 40
0.047
100
AcDbArc
 50
118.347
 51
142.795
  0
ARC
  5
1A0
330
18
100
AcDbEntity
  8
0
100
AcDbCircle
 10
4.739
 20
2.827
 30
0.0
 40
0.025
100
AcDbArc
 50
142.795
 51
176.738
  0
ARC
  5
1A1
330
18
100
AcDbEntity
  8
0
100
AcDbCircle
 10
4.739
 20
2.827
 30
0.0
 40
0.025
100
AcDbArc
 50
176.738
 51
210.682
  0
ARC
  5
1A2
330
18
100
AcDbEntity
  8
0
100
AcDbCircle
 10
4.759
 20
2.839
 30
0.0
 40
0.047
100
AcDbArc
 50
210.682
 51
235.13
  0
ARC
  5
1A3
330
18
100
AcDbEntity
  8
0
100
AcDbCircle
 10
4.772
 20
2.858
 30
0.0
 40
0.071
100
AcDbArc
 50
235.13
 51
252.438
  0
ARC
  5
1A4
330
18
100
AcDbEntity
  8
0
100
AcDbCircle
 10
4.782
 20
2.889
 30
0.0
 40
0.103
100
AcDbArc
 50
252.438
 51
266.738
  0
ARC
  5
1A5
330
18
100
AcDbEntity
  8
0
100
AcDbCircle
 10
4.782
 20
2.889
 30
0.0
 40
0.103
100
AcDbArc
 50
266.738
 51
281.039
  0
LINE
  5
1A6
330
18
100
AcDbEntity
  8
DIM
100
AcDbLine
 10
4.489
 20
2.23
 30
0.0
 11
4.531000000000001
 21
2.23
 31
0.0
  0
LINE
  5
1A7
330
18
100
AcDbEntity
  8
DIM
100
AcDbLine
 10
4.49
 20
2.24
 30
0.0
 11
4.53
 21
2.24
 31
0.0
  0
LINE
  5
1A8
330
18
100
AcDbEntity
  8
DIM
100
AcDbLine
 10
4.498
 20
2.25
 30
0.0
 11
4.522
 21
2.25
 31
0.0
  0
LINE
  5
1A9
330
18
100
AcDbEntity
  8
DIM
100
AcDbLine
 10
4.492
 20
2.22
 30
0.0
 11
4.528000000000001
 21
2.22
 31
0.0
  0
LINE
  5
1AA
330
18
100
AcDbEntity
  8
DIM
100
AcDbLine
 10
5.101
 20
2.146
 30
0.0
 11
5.143
 21
2.146
 31
0.0
  0
LINE
  5
1AB
330
18
100
AcDbEntity
  8
DIM
100
AcDbLine
 10
5.102
 20
2.156
 30
0.0
 11
5.142
 21
2.156
 31
0.0
  0
LINE
  5
1AC
330
18
100
AcDbEntity
  8
DIM
100
AcDbLine
 10
5.11
 20
2.166
 30
0.0
 11
5.134
 21
2.166
 31
0.0
  0
LINE
  5
1AD
330
18
100
AcDbEntity
  8
DIM
100
AcDbLine
 10
5.104
 20
2.136
 30
0.0
 11
5.14
 21
2.136
 31
0.0
  0
ARC
  5
1AE
330
18
100
AcDbEntity
  8
0
100
AcDbCircle
 10
4.541
 20
3.82
 30
0.0
 40
0.071
100
AcDbArc
 50
131.83
 51
149.138
  0
ARC
  5
1AF
330
18
100
AcDbEntity
  8
0
100
AcDbCircle
 10
4.525
 20
3.838
 30
0.0
 40
0.047
100
AcDbArc
 50
107.382
 51
131.83
  0
ARC
  5
1B0
330
18
100
AcDbEntity
  8
0
100
AcDbCircle
 10
4.518
 20
3.859
 30
0.0
 40
0.025
100
AcDbArc
 50
73.43899999999999
 51
107.382
  0
ARC
  5
1B1
330
18
100
AcDbEntity
  8
0
100
AcDbCircle
 10
4.518
 20
3.859
 30
0.0
 40
0.025
100
AcDbArc
 50
39.495
 51
73.43899999999999
  0
ARC
  5
1B2
330
18
100
AcDbEntity
  8
0
100
AcDbCircle
 10
4.501
 20
3.845
 30
0.0
 40
0.047
100
AcDbArc
 50
39.437
 51
39.495
  0
ARC
  5
1B3
330
18
100
AcDbEntity
  8
0
100
AcDbCircle
 10
4.566
 20
3.812
 30
0.0
 40
0.071
100
AcDbArc
 50
131.83
 51
149.138
  0
ARC
  5
1B4
330
18
100
AcDbEntity
  8
0
100
AcDbCircle
 10
4.55
 20
3.829
 30
0.0
 40
0.047
100
AcDbArc
 50
107.382
 51
131.83
  0
ARC
  5
1B5
330
18
100
AcDbEntity
  8
0
100
AcDbCircle
 10
4.543
 20
3.85
 30
0.0
 40
0.025
100
AcDbArc
 50
73.43899999999999
 51
107.382
  0
ARC
  5
1B6
330
18
100
AcDbEntity
  8
0
100
AcDbCircle
 10
4.543
 20
3.85
 30
0.0
 40
0.025
100
AcDbArc
 50
39.495
 51
73.43899999999999
  0
ARC
  5
1B7
330
18
100
AcDbEntity
  8
0
100
AcDbCircle
 10
4.526
 20
3.836
 30
0.0
 40
0.047
100
AcDbArc
 50
15.047
 51
39.495
  0
ARC
  5
1B8
330
18
100
AcDbEntity
  8
0
100
AcDbCircle
 10
4.503
 20
3.83
 30
0.0
 40
0.071
100
AcDbArc
 50
357.739
 51
15.047
  0
ARC
  5
1B9
330
18
100
AcDbEntity
  8
0
100
AcDbCircle
 10
4.471
 20
3.831
 30
0.0
 40
0.103
100
AcDbArc
 50
343.439
 51
357.739
  0
ARC
  5
1BA
330
18
100
AcDbEntity
  8
0
100
AcDbCircle
 10
4.471
 20
3.831
 30
0.0
 40
0.103
100
AcDbArc
 50
329.138
 51
343.439
  0
ARC
  5
1BB
330
18
100
AcDbEntity
  8
0
100
AcDbCircle
 10
4.499
 20
3.815
 30
0.0
 40
0.071
100
AcDbArc
 50
311.83
 51
329.138
  0
ARC
  5
1BC
330
18
100
AcDbEntity
  8
0
100
AcDbCircle
 10
4.513999999999999
 20
3.797
 30
0.0
 40
0.047
100
AcDbArc
 50
287.382
 51
311.83
  0
ARC
  5
1BD
330
18
100
AcDbEntity
  8
0
100
AcDbCircle
 10
4.521
 20
3.776
 30
0.0
 40
0.025
100
AcDbArc
 50
253.439
 51
287.382
  0
LWPOLYLINE
  5
1BE
330
18
100
AcDbEntity
  8
0
100
AcDbPolyline
 90
        7
 70
     0
 43
0.0
 10
4.502
 20
3.76
 42
-0.128
 10
4.489
 20
3.76
 42
-0.149
 10
4.477
 20
3.768
 42
-0.107
 10
4.468
 20
3.786
 42
-0.076
 10
4.465
 20
3.807
 42
-0.062
 10
4.47
 20
3.833
 42
-0.062
 10
4.48
 20
3.856
 42
-0.076
  0
ARC
  5
1C8
330
18
100
AcDbEntity
  8
0
100
AcDbCircle
 10
4.521
 20
3.776
 30
0.0
 40
0.025
100
AcDbArc
 50
219.495
 51
253.439
  0
ARC
  5
1C9
330
18
100
AcDbEntity
  8
0
100
AcDbCircle
 10
4.538
 20
3.79
 30
0.0
 40
0.047
100
AcDbArc
 50
195.047
 51
219.495
  0
ARC
  5
1CA
330
18
100
AcDbEntity
  8
0
100
AcDbCircle
 10
4.561
 20
3.796
 30
0.0
 40
0.071
100
AcDbArc
 50
177.739
 51
195.047
  0
ARC
  5
1CB
330
18
100
AcDbEntity
  8
0
100
AcDbCircle
 10
4.593999999999999
 20
3.795
 30
0.0
 40
0.103
100
AcDbArc
 50
163.439
 51
177.739
  0
ARC
  5
1CC
330
18
100
AcDbEntity
  8
0
100
AcDbCircle
 10
4.593999999999999
 20
3.795
 30
0.0
 40
0.103
100
AcDbArc
 50
149.138
 51
163.439
  0
ARC
  5
1CD
330
18
100
AcDbEntity
  8
0
100
AcDbCircle
 10
4.209
 20
3.502
 30
0.0
 40
0.071
100
AcDbArc
 50
131.83
 51
149.138
  0
ARC
  5
1CE
330
18
100
AcDbEntity
  8
0
100
AcDbCircle
 10
4.194
 20
3.519
 30
0.0
 40
0.047
100
AcDbArc
 50
107.382
 51
131.83
  0
ARC
  5
1CF
330
18
100
AcDbEntity
  8
0
100
AcDbCircle
 10
4.187
 20
3.541
 30
0.0
 40
0.025
100
AcDbArc
 50
73.43899999999999
 51
107.382
  0
ARC
  5
1D0
330
18
100
AcDbEntity
  8
0
100
AcDbCircle
 10
4.187
 20
3.541
 30
0.0
 40
0.025
100
AcDbArc
 50
39.495
 51
73.43899999999999
  0
ARC
  5
1D1
330
18
100
AcDbEntity
  8
0
100
AcDbCircle
 10
4.169
 20
3.526
 30
0.0
 40
0.047
100
AcDbArc
 50
39.437
 51
39.495
  0
ARC
  5
1D2
330
18
100
AcDbEntity
  8
0
100
AcDbCircle
 10
4.234
 20
3.493
 30
0.0
 40
0.071
100
AcDbArc
 50
131.83
 51
149.138
  0
ARC
  5
1D3
330
18
100
AcDbEntity
  8
0
100
AcDbCircle
 10
4.218
 20
3.511
 30
0.0
 40
0.047
100
AcDbArc
 50
107.382
 51
131.83
  0
ARC
  5
1D4
330
18
100
AcDbEntity
  8
0
100
AcDbCircle
 10
4.212
 20
3.532
 30
0.0
 40
0.025
100
AcDbArc
 50
73.43899999999999
 51
107.382
  0
ARC
  5
1D5
330
18
100
AcDbEntity
  8
0
100
AcDbCircle
 10
4.212
 20
3.532
 30
0.0
 40
0.025
100
AcDbArc
 50
39.495
 51
73.43899999999999
  0
ARC
  5
1D6
330
18
100
AcDbEntity
  8
0
100
AcDbCircle
 10
4.194
 20
3.518
 30
0.0
 40
0.047
100
AcDbArc
 50
15.047
 51
39.495
  0
ARC
  5
1D7
330
18
100
AcDbEntity
  8
0
100
AcDbCircle
 10
4.172
 20
3.512
 30
0.0
 40
0.071
100
AcDbArc
 50
357.739
 51
15.047
  0
ARC
  5
1D8
330
18
100
AcDbEntity
  8
0
100
AcDbCircle
 10
4.138999999999999
 20
3.513
 30
0.0
 40
0.103
100
AcDbArc
 50
343.439
 51
357.739
  0
ARC
  5
1D9
330
18
100
AcDbEntity
  8
0
100
AcDbCircle
 10
4.138999999999999
 20
3.513
 30
0.0
 40
0.103
100
AcDbArc
 50
329.138
 51
343.439
  0
ARC
  5
1DA
330
18
100
AcDbEntity
  8
0
100
AcDbCircle
 10
4.167
 20
3.496
 30
0.0
 40
0.071
100
AcDbArc
 50
311.83
 51
329.138
  0
ARC
  5
1DB
330
18
100
AcDbEntity
  8
0
100
AcDbCircle
 10
4.183
 20
3.479
 30
0.0
 40
0.047
100
AcDbArc
 50
287.382
 51
311.83
  0
ARC
  5
1DC
330
18
100
AcDbEntity
  8
0
100
AcDbCircle
 10
4.189
 20
3.457
 30
0.0
 40
0.025
100
AcDbArc
 50
253.439
 51
287.382
  0
LWPOLYLINE
  5
1DD
330
18
100
AcDbEntity
  8
0
100
AcDbPolyline
 90
        7
 70
     0
 43
0.0
 10
4.17
 20
3.441
 42
-0.128
 10
4.157
 20
3.442
 42
-0.149
 10
4.145
 20
3.45
 42
-0.107
 10
4.136
 20
3.468
 42
-0.076
 10
4.134
 20
3.489
 42
-0.062
 10
4.138
 20
3.514
 42
-0.062
 10
4.148
 20
3.538
 42
-0.076
  0
ARC
  5
1E7
330
18
100
AcDbEntity
  8
0
100
AcDbCircle
 10
4.189
 20
3.457
 30
0.0
 40
0.025
100
AcDbArc
 50
219.495
 51
253.439
  0
ARC
  5
1E8
330
18
100
AcDbEntity
  8
0
100
AcDbCircle
 10
4.207
 20
3.472
 30
0.0
 40
0.047
100
AcDbArc
 50
195.047
 51
219.495
  0
ARC
  5
1E9
330
18
100
AcDbEntity
  8
0
100
AcDbCircle
 10
4.229
 20
3.478
 30
0.0
 40
0.071
100
AcDbArc
 50
177.739
 51
195.047
  0
ARC
  5
1EA
330
18
100
AcDbEntity
  8
0
100
AcDbCircle
 10
4.262
 20
3.476
 30
0.0
 40
0.103
100
AcDbArc
 50
163.439
 51
177.739
  0
ARC
  5
1EB
330
18
100
AcDbEntity
  8
0
100
AcDbCircle
 10
4.262
 20
3.476
 30
0.0
 40
0.103
100
AcDbArc
 50
149.138
 51
163.439
  0
ARC
  5
1EC
330
18
100
AcDbEntity
  8
0
100
AcDbCircle
 10
3.77
 20
3.703
 30
0.0
 40
0.071
100
AcDbArc
 50
131.83
 51
149.138
  0
ARC
  5
1ED
330
18
100
AcDbEntity
  8
0
100
AcDbCircle
 10
3.754
 20
3.721
 30
0.0
 40
0.047
100
AcDbArc
 50
107.382
 51
131.83
  0
ARC
  5
1EE
330
18
100
AcDbEntity
  8
0
100
AcDbCircle
 10
3.748
 20
3.742
 30
0.0
 40
0.025
100
AcDbArc
 50
73.43899999999999
 51
107.382
  0
ARC
  5
1EF
330
18
100
AcDbEntity
  8
0
100
AcDbCircle
 10
3.748
 20
3.742
 30
0.0
 40
0.025
100
AcDbArc
 50
39.495
 51
73.43899999999999
  0
ARC
  5
1F0
330
18
100
AcDbEntity
  8
0
100
AcDbCircle
 10
3.73
 20
3.728
 30
0.0
 40
0.047
100
AcDbArc
 50
39.437
 51
39.495
  0
ARC
  5
1F1
330
18
100
AcDbEntity
  8
0
100
AcDbCircle
 10
3.795
 20
3.695
 30
0.0
 40
0.071
100
AcDbArc
 50
131.83
 51
149.138
  0
ARC
  5
1F2
330
18
100
AcDbEntity
  8
0
100
AcDbCircle
 10
3.779
 20
3.712
 30
0.0
 40
0.047
100
AcDbArc
 50
107.382
 51
131.83
  0
ARC
  5
1F3
330
18
100
AcDbEntity
  8
0
100
AcDbCircle
 10
3.772
 20
3.734
 30
0.0
 40
0.025
100
AcDbArc
 50
73.43899999999999
 51
107.382
  0
ARC
  5
1F4
330
18
100
AcDbEntity
  8
0
100
AcDbCircle
 10
3.772
 20
3.734
 30
0.0
 40
0.025
100
AcDbArc
 50
39.495
 51
73.43899999999999
  0
ARC
  5
1F5
330
18
100
AcDbEntity
  8
0
100
AcDbCircle
 10
3.755
 20
3.72
 30
0.0
 40
0.047
100
AcDbArc
 50
15.047
 51
39.495
  0
ARC
  5
1F6
330
18
100
AcDbEntity
  8
0
100
AcDbCircle
 10
3.732
 20
3.713
 30
0.0
 40
0.071
100
AcDbArc
 50
357.739
 51
15.047
  0
ARC
  5
1F7
330
18
100
AcDbEntity
  8
0
100
AcDbCircle
 10
3.7
 20
3.715
 30
0.0
 40
0.103
100
AcDbArc
 50
343.439
 51
357.739
  0
ARC
  5
1F8
330
18
100
AcDbEntity
  8
0
100
AcDbCircle
 10
3.7
 20
3.715
 30
0.0
 40
0.103
100
AcDbArc
 50
329.138
 51
343.439
  0
ARC
  5
1F9
330
18
100
AcDbEntity
  8
0
100
AcDbCircle
 10
3.728
 20
3.698
 30
0.0
 40
0.071
100
AcDbArc
 50
311.83
 51
329.138
  0
ARC
  5
1FA
330
18
100
AcDbEntity
  8
0
100
AcDbCircle
 10
3.743
 20
3.681
 30
0.0
 40
0.047
100
AcDbArc
 50
287.382
 51
311.83
  0
ARC
  5
1FB
330
18
100
AcDbEntity
  8
0
100
AcDbCircle
 10
3.75
 20
3.659
 30
0.0
 40
0.025
100
AcDbArc
 50
253.439
 51
287.382
  0
LWPOLYLINE
  5
1FC
330
18
100
AcDbEntity
  8
0
100
AcDbPolyline
 90
        7
 70
     0
 43
0.0
 10
3.731
 20
3.643
 42
-0.128
 10
3.718
 20
3.644
 42
-0.149
 10
3.706
 20
3.652
 42
-0.107
 10
3.697
 20
3.67
 42
-0.076
 10
3.695
 20
3.691
 42
-0.062
 10
3.699
 20
3.716
 42
-0.062
 10
3.709
 20
3.74
 42
-0.076
  0
ARC
  5
206
330
18
100
AcDbEntity
  8
0
100
AcDbCircle
 10
3.75
 20
3.659
 30
0.0
 40
0.025
100
AcDbArc
 50
219.495
 51
253.439
  0
ARC
  5
207
330
18
100
AcDbEntity
  8
0
100
AcDbCircle
 10
3.767
 20
3.673
 30
0.0
 40
0.047
100
AcDbArc
 50
195.047
 51
219.495
  0
ARC
  5
208
330
18
100
AcDbEntity
  8
0
100
AcDbCircle
 10
3.79
 20
3.679
 30
0.0
 40
0.071
100
AcDbArc
 50
177.739
 51
195.047
  0
ARC
  5
209
330
18
100
AcDbEntity
  8
0
100
AcDbCircle
 10
3.823
 20
3.678
 30
0.0
 40
0.103
100
AcDbArc
 50
163.439
 51
177.739
  0
ARC
  5
20A
330
18
100
AcDbEntity
  8
0
100
AcDbCircle
 10
3.823
 20
3.678
 30
0.0
 40
0.103
100
AcDbArc
 50
149.138
 51
163.439
  0
ARC
  5
20B
330
18
100
AcDbEntity
  8
0
100
AcDbCircle
 10
3.447
 20
3.367
 30
0.0
 40
0.071
100
AcDbArc
 50
131.83
 51
149.138
  0
ARC
  5
20C
330
18
100
AcDbEntity
  8
0
100
AcDbCircle
 10
3.432
 20
3.385
 30
0.0
 40
0.047
100
AcDbArc
 50
107.382
 51
131.83
  0
ARC
  5
20D
330
18
100
AcDbEntity
  8
0
100
AcDbCircle
 10
3.425
 20
3.406
 30
0.0
 40
0.025
100
AcDbArc
 50
73.43899999999999
 51
107.382
  0
ARC
  5
20E
330
18
100
AcDbEntity
  8
0
100
AcDbCircle
 10
3.425
 20
3.406
 30
0.0
 40
0.025
100
AcDbArc
 50
39.495
 51
73.43899999999999
  0
ARC
  5
20F
330
18
100
AcDbEntity
  8
0
100
AcDbCircle
 10
3.408
 20
3.392
 30
0.0
 40
0.047
100
AcDbArc
 50
39.437
 51
39.495
  0
ARC
  5
210
330
18
100
AcDbEntity
  8
0
100
AcDbCircle
 10
3.472
 20
3.359
 30
0.0
 40
0.071
100
AcDbArc
 50
131.83
 51
149.138
  0
ARC
  5
211
330
18
100
AcDbEntity
  8
0
100
AcDbCircle
 10
3.456
 20
3.376
 30
0.0
 40
0.047
100
AcDbArc
 50
107.382
 51
131.83
  0
ARC
  5
212
330
18
100
AcDbEntity
  8
0
100
AcDbCircle
 10
3.45
 20
3.397
 30
0.0
 40
0.025
100
AcDbArc
 50
73.43899999999999
 51
107.382
  0
ARC
  5
213
330
18
100
AcDbEntity
  8
0
100
AcDbCircle
 10
3.45
 20
3.397
 30
0.0
 40
0.025
100
AcDbArc
 50
39.495
 51
73.43899999999999
  0
ARC
  5
214
330
18
100
AcDbEntity
  8
0
100
AcDbCircle
 10
3.432
 20
3.383
 30
0.0
 40
0.047
100
AcDbArc
 50
15.047
 51
39.495
  0
ARC
  5
215
330
18
100
AcDbEntity
  8
0
100
AcDbCircle
 10
3.41
 20
3.377
 30
0.0
 40
0.071
100
AcDbArc
 50
357.739
 51
15.047
  0
ARC
  5
216
330
18
100
AcDbEntity
  8
0
100
AcDbCircle
 10
3.377
 20
3.378
 30
0.0
 40
0.103
100
AcDbArc
 50
343.439
 51
357.739
  0
ARC
  5
217
330
18
100
AcDbEntity
  8
0
100
AcDbCircle
 10
3.377
 20
3.378
 30
0.0
 40
0.103
100
AcDbArc
 50
329.138
 51
343.439
  0
ARC
  5
218
330
18
100
AcDbEntity
  8
0
100
AcDbCircle
 10
3.405
 20
3.362
 30
0.0
 40
0.071
100
AcDbArc
 50
311.83
 51
329.138
  0
ARC
  5
219
330
18
100
AcDbEntity
  8
0
100
AcDbCircle
 10
3.421
 20
3.344
 30
0.0
 40
0.047
100
AcDbArc
 50
287.382
 51
311.83
  0
ARC
  5
21A
330
18
100
AcDbEntity
  8
0
100
AcDbCircle
 10
3.427
 20
3.323
 30
0.0
 40
0.025
100
AcDbArc
 50
253.439
 51
287.382
  0
LWPOLYLINE
  5
21B
330
18
100
AcDbEntity
  8
0
100
AcDbPolyline
 90
        7
 70
     0
 43
0.0
 10
3.408
 20
3.307
 42
-0.128
 10
3.396
 20
3.307
 42
-0.149
 10
3.383
 20
3.315
 42
-0.107
 10
3.374
 20
3.333
 42
-0.076
 10
3.372
 20
3.354
 42
-0.062
 10
3.376
 20
3.38
 42
-0.062
 10
3.386
 20
3.403
 42
-0.076
  0
ARC
  5
225
330
18
100
AcDbEntity
  8
0
100
AcDbCircle
 10
3.427
 20
3.323
 30
0.0
 40
0.025
100
AcDbArc
 50
219.495
 51
253.439
  0
ARC
  5
226
330
18
100
AcDbEntity
  8
0
100
AcDbCircle
 10
3.445
 20
3.337
 30
0.0
 40
0.047
100
AcDbArc
 50
195.047
 51
219.495
  0
ARC
  5
227
330
18
100
AcDbEntity
  8
0
100
AcDbCircle
 10
3.467
 20
3.343
 30
0.0
 40
0.071
100
AcDbArc
 50
177.739
 51
195.047
  0
ARC
  5
228
330
18
100
AcDbEntity
  8
0
100
AcDbCircle
 10
3.5
 20
3.342
 30
0.0
 40
0.103
100
AcDbArc
 50
163.439
 51
177.739
  0
ARC
  5
229
330
18
100
AcDbEntity
  8
0
100
AcDbCircle
 10
3.5
 20
3.342
 30
0.0
 40
0.103
100
AcDbArc
 50
149.138
 51
163.439
  0
TEXT
  5
22A
330
18
100
AcDbEntity
  8
0
100
AcDbText
 10
2.818
 20
0.246
 30
0.0
 40
0.125
  1
Simpson Strong-Tie
100
AcDbText
  0
ENDSEC
  0
SECTION
  2
OBJECTS
  0
DICTIONARY
  5
C
330
0
100
AcDbDictionary
281
     1
  3
ACAD_COLOR
350
230
  3
ACAD_GROUP
350
D
  3
ACAD_LAYOUT
350
15
  3
ACAD_MATERIAL
350
232
  3
ACAD_MLINESTYLE
350
12
  3
ACAD_PLOTSETTINGS
350
14
  3
ACAD_PLOTSTYLENAME
350
E
  3
ACDBHEADERROUNDTRIPXREC
350
22F
  0
DICTIONARY
  5
230
102
{ACAD_REACTORS
330
C
102
}
330
C
100
AcDbDictionary
281
     1
  0
DICTIONARY
  5
D
102
{ACAD_REACTORS
330
C
102
}
330
C
100
AcDbDictionary
281
     1
  0
DICTIONARY
  5
15
102
{ACAD_REACTORS
330
C
102
}
330
C
100
AcDbDictionary
281
     1
  3
Layout1
350
17
  3
Model
350
19
  0
DICTIONARY
  5
232
102
{ACAD_REACTORS
330
C
102
}
330
C
100
AcDbDictionary
281
     1
  0
DICTIONARY
  5
12
102
{ACAD_REACTORS
330
C
102
}
330
C
100
AcDbDictionary
281
     1
  3
Standard
350
13
  0
DICTIONARY
  5
14
102
{ACAD_REACTORS
330
C
102
}
330
C
100
AcDbDictionary
281
     1
  0
ACDBDICTIONARYWDFLT
  5
E
102
{ACAD_REACTORS
330
C
102
}
330
C
100
AcDbDictionary
281
     1
  3
Normal
350
F
100
AcDbDictionaryWithDefault
340
F
  0
DICTIONARY
  5
22F
102
{ACAD_REACTORS
330
C
102
}
330
C
100
AcDbDictionary
281
     1
  3
COLORDICT
350
231
  3
MATERIALDICT
350
233
  0
LAYOUT
  5
17
102
{ACAD_REACTORS
330
15
102
}
102
{ACAD_XDICTIONARY
360
234
102
}
330
15
100
AcDbPlotSettings
  1

  2

  4

  6

 40
0.0
 41
0.0
 42
0.0
 43
0.0
 44
0.0
 45
0.0
 46
0.0
 47
0.0
 48
0.0
 49
0.0
140
0.0
141
0.0
142
1.0
143
1.0
 70
   688
 72
     0
 73
     0
 74
     5
  7

 75
    16
147
1.0
148
0.0
149
0.0
100
AcDbLayout
  1
Layout1
 70
     1
 71
     1
 10
0.0
 20
0.0
 11
12.0
 21
9.0
 12
0.0
 22
0.0
 32
0.0
 14
1.000000000000000E+20
 24
1.000000000000000E+20
 34
1.000000000000000E+20
 15
-1.000000000000000E+20
 25
-1.000000000000000E+20
 35
-1.000000000000000E+20
146
0.0
 13
0.0
 23
0.0
 33
0.0
 16
1.0
 26
0.0
 36
0.0
 17
0.0
 27
1.0
 37
0.0
 76
     0
330
16
  0
LAYOUT
  5
19
102
{ACAD_REACTORS
330
15
102
}
102
{ACAD_XDICTIONARY
360
236
102
}
330
15
100
AcDbPlotSettings
  1

  2

  4

  6

 40
0.0
 41
0.0
 42
0.0
 43
0.0
 44
0.0
 45
0.0
 46
0.0
 47
0.0
 48
0.0
 49
0.0
140
0.0
141
0.0
142
1.0
143
1.0
 70
  1712
 72
     0
 73
     0
 74
     0
  7

 75
     0
147
1.0
148
0.0
149
0.0
100
AcDbLayout
  1
Model
 70
     1
 71
     0
 10
0.0
 20
0.0
 11
0.0
 21
0.0
 12
0.0
 22
0.0
 32
0.0
 14
0.0
 24
0.0
 34
0.0
 15
0.0
 25
0.0
 35
0.0
146
0.0
 13
0.0
 23
0.0
 33
0.0
 16
1.0
 26
0.0
 36
0.0
 17
0.0
 27
1.0
 37
0.0
 76
     0
330
18
  0
MLINESTYLE
  5
13
102
{ACAD_REACTORS
330
12
102
}
330
12
100
AcDbMlineStyle
  2
Standard
 70
     0
  3

 62
   256
 51
90.0
 52
90.0
 71
     2
 49
0.5
 62
   256
  6
BYLAYER
 49
-0.5
 62
   256
  6
BYLAYER
  0
ACDBPLACEHOLDER
  5
F
102
{ACAD_REACTORS
330
E
102
}
330
E
  0
XRECORD
  5
231
102
{ACAD_REACTORS
330
22F
102
}
330
22F
100
AcDbXrecord
340
230
  0
XRECORD
  5
233
102
{ACAD_REACTORS
330
22F
102
}
330
22F
100
AcDbXrecord
340
232
  0
DICTIONARY
  5
234
330
17
100
AcDbDictionary
280
     1
281
     1
  3
ACAD_XREC_ROUNDTRIP
360
235
  0
DICTIONARY
  5
236
330
19
100
AcDbDictionary
280
     1
281
     1
  3
ACAD_XREC_ROUNDTRIP
360
237
  0
XRECORD
  5
235
102
{ACAD_REACTORS
330
234
102
}
330
234
100
AcDbXrecord
102
SHADEPLOT
 70
     0
102
SHADEPLOTRESLEVEL
 70
     0
102
SHADEPLOTCUSTOMDPI
 70
     0
  0
XRECORD
  5
237
102
{ACAD_REACTORS
330
236
102
}
330
236
100
AcDbXrecord
102
SHADEPLOT
 70
-25416
102
SHADEPLOTRESLEVEL
 70
 -2880
102
SHADEPLOTCUSTOMDPI
 70
 20968
  0
ENDSEC
  0
EOF
