  0
SECTION
  2
HEADER
  9
$ACADVER
  1
AC1015
  9
$ACADMAINTVER
 70
     6
  9
$DWGCODEPAGE
  3
ANSI_1252
  9
$INSBASE
 10
0.0
 20
0.0
 30
0.0
  9
$EXTMIN
 10
24.18317480429965
 20
63.46578269038648
 30
-0.0015258207003612
  9
$EXTMAX
 10
172.6946270232178
 20
203.3999392106035
 30
0.0000000349246008
  9
$LIMMIN
 10
50.51664089626735
 20
81.12820909288193
  9
$LIMMAX
 10
157.7951917860243
 20
203.5269395616319
  9
$ORTHOMODE
 70
     0
  9
$REGENMODE
 70
     1
  9
$FILLMODE
 70
     1
  9
$QTEXTMODE
 70
     0
  9
$MIRRTEXT
 70
     1
  9
$LTSCALE
 40
1.0
  9
$ATTMODE
 70
     1
  9
$TEXTSIZE
 40
0.2
  9
$TRACEWID
 40
0.05
  9
$TEXTSTYLE
  7
STANDARD
  9
$CLAYER
  8
0
  9
$CELTYPE
  6
CONTINUOUS
  9
$CECOLOR
 62
   256
  9
$CELTSCALE
 40
1.0
  9
$DISPSILH
 70
     0
  9
$DIMSCALE
 40
1.0
  9
$DIMASZ
 40
0.18
  9
$DIMEXO
 40
0.0625
  9
$DIMDLI
 40
0.38
  9
$DIMRND
 40
0.0
  9
$DIMDLE
 40
0.0
  9
$DIMEXE
 40
0.18
  9
$DIMTP
 40
0.0
  9
$DIMTM
 40
0.0
  9
$DIMTXT
 40
0.18
  9
$DIMCEN
 40
0.09
  9
$DIMTSZ
 40
0.0
  9
$DIMTOL
 70
     0
  9
$DIMLIM
 70
     0
  9
$DIMTIH
 70
     1
  9
$DIMTOH
 70
     1
  9
$DIMSE1
 70
     0
  9
$DIMSE2
 70
     0
  9
$DIMTAD
 70
     0
  9
$DIMZIN
 70
     0
  9
$DIMBLK
  1

  9
$DIMASO
 70
     1
  9
$DIMSHO
 70
     1
  9
$DIMPOST
  1

  9
$DIMAPOST
  1

  9
$DIMALT
 70
     0
  9
$DIMALTD
 70
     2
  9
$DIMALTF
 40
25.4
  9
$DIMLFAC
 40
1.0
  9
$DIMTOFL
 70
     0
  9
$DIMTVP
 40
0.0
  9
$DIMTIX
 70
     0
  9
$DIMSOXD
 70
     0
  9
$DIMSAH
 70
     0
  9
$DIMBLK1
  1

  9
$DIMBLK2
  1

  9
$DIMSTYLE
  2
STANDARD
  9
$DIMCLRD
 70
     0
  9
$DIMCLRE
 70
     0
  9
$DIMCLRT
 70
     0
  9
$DIMTFAC
 40
1.0
  9
$DIMGAP
 40
0.09
  9
$DIMJUST
 70
     0
  9
$DIMSD1
 70
     0
  9
$DIMSD2
 70
     0
  9
$DIMTOLJ
 70
     1
  9
$DIMTZIN
 70
     0
  9
$DIMALTZ
 70
     0
  9
$DIMALTTZ
 70
     0
  9
$DIMUPT
 70
     0
  9
$DIMDEC
 70
     4
  9
$DIMTDEC
 70
     4
  9
$DIMALTU
 70
     2
  9
$DIMALTTD
 70
     2
  9
$DIMTXSTY
  7
STANDARD
  9
$DIMAUNIT
 70
     0
  9
$DIMADEC
 70
     0
  9
$DIMALTRND
 40
0.0
  9
$DIMAZIN
 70
     0
  9
$DIMDSEP
 70
    46
  9
$DIMATFIT
 70
     3
  9
$DIMFRAC
 70
     0
  9
$DIMLDRBLK
  1

  9
$DIMLUNIT
 70
     2
  9
$DIMLWD
 70
    -2
  9
$DIMLWE
 70
    -2
  9
$DIMTMOVE
 70
     0
  9
$LUNITS
 70
     2
  9
$LUPREC
 70
     4
  9
$SKETCHINC
 40
0.1
  9
$FILLETRAD
 40
0.0
  9
$AUNITS
 70
     0
  9
$AUPREC
 70
     0
  9
$MENU
  1
acad
  9
$ELEVATION
 40
0.0
  9
$PELEVATION
 40
0.0
  9
$THICKNESS
 40
0.0
  9
$LIMCHECK
 70
     0
  9
$CHAMFERA
 40
0.0
  9
$CHAMFERB
 40
0.0
  9
$CHAMFERC
 40
0.0
  9
$CHAMFERD
 40
0.0
  9
$SKPOLY
 70
     0
  9
$TDCREATE
 40
2444971.666666667
  9
$TDUCREATE
 40
2444972.0
  9
$TDUPDATE
 40
2452215.415187731
  9
$TDUUPDATE
 40
2452215.748521065
  9
$TDINDWG
 40
0.00051875
  9
$TDUSRTIMER
 40
0.00051875
  9
$USRTIMER
 70
     1
  9
$ANGBASE
 50
0.0
  9
$ANGDIR
 70
     0
  9
$PDMODE
 70
     0
  9
$PDSIZE
 40
0.0
  9
$PLINEWID
 40
0.0
  9
$SPLFRAME
 70
     0
  9
$SPLINETYPE
 70
     6
  9
$SPLINESEGS
 70
     8
  9
$HANDSEED
  5
140
  9
$SURFTAB1
 70
     6
  9
$SURFTAB2
 70
     6
  9
$SURFTYPE
 70
     6
  9
$SURFU
 70
     6
  9
$SURFV
 70
     6
  9
$UCSBASE
  2

  9
$UCSNAME
  2

  9
$UCSORG
 10
0.0
 20
0.0
 30
0.0
  9
$UCSXDIR
 10
1.0
 20
0.0
 30
0.0
  9
$UCSYDIR
 10
0.0
 20
1.0
 30
0.0
  9
$UCSORTHOREF
  2

  9
$UCSORTHOVIEW
 70
     0
  9
$UCSORGTOP
 10
0.0
 20
0.0
 30
0.0
  9
$UCSORGBOTTOM
 10
0.0
 20
0.0
 30
0.0
  9
$UCSORGLEFT
 10
0.0
 20
0.0
 30
0.0
  9
$UCSORGRIGHT
 10
0.0
 20
0.0
 30
0.0
  9
$UCSORGFRONT
 10
0.0
 20
0.0
 30
0.0
  9
$UCSORGBACK
 10
0.0
 20
0.0
 30
0.0
  9
$PUCSBASE
  2

  9
$PUCSNAME
  2

  9
$PUCSORG
 10
0.0
 20
0.0
 30
0.0
  9
$PUCSXDIR
 10
1.0
 20
0.0
 30
0.0
  9
$PUCSYDIR
 10
0.0
 20
1.0
 30
0.0
  9
$PUCSORTHOREF
  2

  9
$PUCSORTHOVIEW
 70
     0
  9
$PUCSORGTOP
 10
0.0
 20
0.0
 30
0.0
  9
$PUCSORGBOTTOM
 10
0.0
 20
0.0
 30
0.0
  9
$PUCSORGLEFT
 10
0.0
 20
0.0
 30
0.0
  9
$PUCSORGRIGHT
 10
0.0
 20
0.0
 30
0.0
  9
$PUCSORGFRONT
 10
0.0
 20
0.0
 30
0.0
  9
$PUCSORGBACK
 10
0.0
 20
0.0
 30
0.0
  9
$USERI1
 70
     0
  9
$USERI2
 70
     0
  9
$USERI3
 70
     0
  9
$USERI4
 70
     0
  9
$USERI5
 70
     0
  9
$USERR1
 40
0.0
  9
$USERR2
 40
0.0
  9
$USERR3
 40
0.0
  9
$USERR4
 40
0.0
  9
$USERR5
 40
0.0
  9
$WORLDVIEW
 70
     1
  9
$SHADEDGE
 70
     3
  9
$SHADEDIF
 70
    70
  9
$TILEMODE
 70
     1
  9
$MAXACTVP
 70
    16
  9
$PINSBASE
 10
0.0
 20
0.0
 30
0.0
  9
$PLIMCHECK
 70
     0
  9
$PEXTMIN
 10
1.000000000000000E+20
 20
1.000000000000000E+20
 30
1.000000000000000E+20
  9
$PEXTMAX
 10
-1.000000000000000E+20
 20
-1.000000000000000E+20
 30
-1.000000000000000E+20
  9
$PLIMMIN
 10
0.0
 20
0.0
  9
$PLIMMAX
 10
12.0
 20
9.0
  9
$UNITMODE
 70
     0
  9
$VISRETAIN
 70
     0
  9
$PLINEGEN
 70
     1
  9
$PSLTSCALE
 70
     0
  9
$TREEDEPTH
 70
  3020
  9
$CMLSTYLE
  2
STANDARD
  9
$CMLJUST
 70
     0
  9
$CMLSCALE
 40
1.0
  9
$PROXYGRAPHICS
 70
     0
  9
$MEASUREMENT
 70
     0
  9
$CELWEIGHT
370
    -1
  9
$ENDCAPS
280
     0
  9
$JOINSTYLE
280
     0
  9
$LWDISPLAY
290
     0
  9
$INSUNITS
 70
     0
  9
$HYPERLINKBASE
  1

  9
$STYLESHEET
  1

  9
$XEDIT
290
     1
  9
$CEPSNTYPE
380
     0
  9
$PSTYLEMODE
290
     1
  9
$FINGERPRINTGUID
  2
{87DE94DA-CEA3-11D5-923F-00805F198AD5}
  9
$VERSIONGUID
  2
{87DE94DC-CEA3-11D5-923F-00805F198AD5}
  9
$EXTNAMES
290
     1
  9
$PSVPSCALE
 40
0.0
  9
$OLESTARTUP
290
     0
  0
ENDSEC
  0
SECTION
  2
CLASSES
  0
CLASS
  1
LWPOLYLINE
  2
AcDbPolyline
  3
AutoCAD 2000
 90
        0
280
     0
281
     1
  0
CLASS
  1
IMAGE
  2
AcDbRasterImage
  3
ISM
 90
      127
280
     0
281
     1
  0
CLASS
  1
OLE2FRAME
  2
AcDbOle2Frame
  3
AutoCAD 2000
 90
        0
280
     0
281
     1
  0
CLASS
  1
HATCH
  2
AcDbHatch
  3
AutoCAD 2000
 90
        0
280
     0
281
     1
  0
CLASS
  1
DICTIONARYVAR
  2
AcDbDictionaryVar
  3
AutoCAD 2000
 90
        0
280
     0
281
     0
  0
CLASS
  1
RASTERVARIABLES
  2
AcDbRasterVariables
  3
ISM
 90
        0
280
     0
281
     0
  0
CLASS
  1
IMAGEDEF
  2
AcDbRasterImageDef
  3
ISM
 90
        0
280
     0
281
     0
  0
CLASS
  1
IMAGEDEF_REACTOR
  2
AcDbRasterImageDefReactor
  3
ISM
 90
        1
280
     0
281
     0
  0
CLASS
  1
IDBUFFER
  2
AcDbIdBuffer
  3
AutoCAD 2000
 90
        0
280
     0
281
     0
  0
CLASS
  1
SPATIAL_FILTER
  2
AcDbSpatialFilter
  3
AutoCAD 2000
 90
        0
280
     0
281
     0
  0
CLASS
  1
XRECORD
  2
AcDbXrecord
  3
AutoCAD 2000
 90
        0
280
     0
281
     0
  0
CLASS
  1
SORTENTSTABLE
  2
AcDbSortentsTable
  3
AutoCAD 2000
 90
        0
280
     0
281
     0
  0
CLASS
  1
LAYER_INDEX
  2
AcDbLayerIndex
  3
AutoCAD 2000
 90
        0
280
     0
281
     0
  0
CLASS
  1
SPATIAL_INDEX
  2
AcDbSpatialIndex
  3
AutoCAD 2000
 90
        0
280
     0
281
     0
  0
CLASS
  1
OBJECT_PTR
  2
CAseDLPNTableRecord
  3
ASE-LPNTableRecord
 90
        1
280
     1
281
     0
  0
CLASS
  1
LAYOUT
  2
AcDbLayout
  3
ObjectDBX Classes
 90
        0
280
     0
281
     0
  0
CLASS
  1
PLOTSETTINGS
  2
AcDbPlotSettings
  3
AutoCAD 2000
 90
        0
280
     0
281
     0
  0
CLASS
  1
ACDBDICTIONARYWDFLT
  2
AcDbDictionaryWithDefault
  3
AutoCAD 2000
 90
        0
280
     0
281
     0
  0
CLASS
  1
ACDBPLACEHOLDER
  2
AcDbPlaceHolder
  3
ObjectDBX Classes
 90
        0
280
     0
281
     0
  0
CLASS
  1
VBAPROJECT
  2
AcDbVbaProject
  3
ObjectDBX Classes
 90
        0
280
     0
281
     0
  0
CLASS
  1
WIPEOUT
  2
AcDbWipeout
  3
WipeOut|AutoCAD Express Tool|expresstools@autodesk.com
 90
      127
280
     0
281
     1
  0
CLASS
  1
WIPEOUTVARIABLES
  2
AcDbWipeoutVariables
  3
WipeOut|AutoCAD Express Tool|expresstools@autodesk.com
 90
        0
280
     0
281
     0
  0
CLASS
  1
RTEXT
  2
RText
  3
RText|AutoCAD Express Tool|expresstools@autodesk.com
 90
        0
280
     0
281
     1
  0
CLASS
  1
ARCALIGNEDTEXT
  2
AcDbArcAlignedText
  3
ATEXT|AutoCAD Express Tool|expresstools@autodesk.com
 90
        0
280
     0
281
     1
  0
CLASS
  1
LONG_TRANSACTION
  2
AcDbLongTransaction
  3
AutoCAD 2000
 90
        0
280
     1
281
     0
  0
CLASS
  1
LWPOLYLINE
  2
AcDbPolyline
  3
AutoCAD 2000
 90
        0
280
     0
281
     1
  0
CLASS
  1
HATCH
  2
AcDbHatch
  3
AutoCAD 2000
 90
        0
280
     0
281
     1
  0
CLASS
  1
XRECORD
  2
AcDbXrecord
  3
AutoCAD 2000
 90
        0
280
     0
281
     0
  0
ENDSEC
  0
SECTION
  2
TABLES
  0
TABLE
  2
VPORT
  5
7
330
0
100
AcDbSymbolTable
 70
     2
  0
VPORT
  5
10C
330
7
100
AcDbSymbolTableRecord
100
AcDbViewportTableRecord
  2
*Active
 70
     0
 10
0.0
 20
0.0
 11
1.0
 21
1.0
 12
98.43890091375874
 22
133.432860950495
 13
0.0
 23
0.0
 14
1.0
 24
1.0
 15
0.0
 25
0.0
 16
0.0
 26
0.0
 36
1.0
 17
0.0
 27
0.0
 37
0.0
 40
142.1378440244724
 41
1.836842105263158
 42
50.0
 43
0.0
 44
0.0
 50
0.0
 51
0.0
 71
     0
 72
   100
 73
     1
 74
     1
 75
     0
 76
     0
 77
     0
 78
     0
281
     0
 65
     1
110
0.0
120
0.0
130
0.0
111
1.0
121
0.0
131
0.0
112
0.0
122
1.0
132
0.0
 79
     0
146
0.0
  0
ENDTAB
  0
TABLE
  2
LTYPE
  5
4
330
0
100
AcDbSymbolTable
 70
     1
  0
LTYPE
  5
11
330
4
100
AcDbSymbolTableRecord
100
AcDbLinetypeTableRecord
  2
BYBLOCK
 70
     0
  3

 72
    65
 73
     0
 40
0.0
  0
LTYPE
  5
12
330
4
100
AcDbSymbolTableRecord
100
AcDbLinetypeTableRecord
  2
BYLAYER
 70
     0
  3

 72
    65
 73
     0
 40
0.0
  0
LTYPE
  5
13
330
4
100
AcDbSymbolTableRecord
100
AcDbLinetypeTableRecord
  2
CONTINUOUS
 70
     0
  3
Solid line
 72
    65
 73
     0
 40
0.0
  0
ENDTAB
  0
TABLE
  2
LAYER
  5
2
330
0
100
AcDbSymbolTable
 70
     2
  0
LAYER
  5
14
330
2
100
AcDbSymbolTableRecord
100
AcDbLayerTableRecord
  2
0
 70
     0
 62
     7
  6
CONTINUOUS
370
    -3
390
0
  0
LAYER
  5
21
330
2
100
AcDbSymbolTableRecord
100
AcDbLayerTableRecord
  2
LAYER_1
 70
     0
 62
     5
  6
CONTINUOUS
370
    -3
390
0
  0
ENDTAB
  0
TABLE
  2
STYLE
  5
3
330
0
100
AcDbSymbolTable
 70
     5
  0
STYLE
  5
17
330
3
100
AcDbSymbolTableRecord
100
AcDbTextStyleTableRecord
  2
STANDARD
 70
     0
 40
0.0
 41
1.0
 50
0.0
 71
     0
 42
0.2
  3
txt
  4

  0
STYLE
  5
1D
330
3
100
AcDbSymbolTableRecord
100
AcDbTextStyleTableRecord
  2
STD
 70
     0
 40
0.0
 41
1.0
 50
0.0
 71
     0
 42
0.2
  3
txt
  4

  0
STYLE
  5
1E
330
3
100
AcDbSymbolTableRecord
100
AcDbTextStyleTableRecord
  2
TATESTD
 70
     4
 40
0.0
 41
1.0
 50
0.0
 71
     0
 42
0.2
  3
txt
  4

  0
STYLE
  5
1F
330
3
100
AcDbSymbolTableRecord
100
AcDbTextStyleTableRecord
  2
KANJISTD
 70
     0
 40
0.0
 41
1.0
 50
0.0
 71
     0
 42
0.2
  3
txt
  4
extfont
  0
STYLE
  5
20
330
3
100
AcDbSymbolTableRecord
100
AcDbTextStyleTableRecord
  2
KANJITATE
 70
     4
 40
0.0
 41
1.0
 50
0.0
 71
     0
 42
0.2
  3
txt
  4
extfont
  0
ENDTAB
  0
TABLE
  2
VIEW
  5
5
330
0
100
AcDbSymbolTable
 70
     0
  0
ENDTAB
  0
TABLE
  2
UCS
  5
6
330
0
100
AcDbSymbolTable
 70
     0
  0
ENDTAB
  0
TABLE
  2
APPID
  5
8
330
0
100
AcDbSymbolTable
 70
     1
  0
APPID
  5
16
330
8
100
AcDbSymbolTableRecord
100
AcDbRegAppTableRecord
  2
ACAD
 70
     0
  0
ENDTAB
  0
TABLE
  2
DIMSTYLE
  5
9
330
0
100
AcDbSymbolTable
 70
     1
100
AcDbDimStyleTable
  0
DIMSTYLE
105
18
330
9
100
AcDbSymbolTableRecord
100
AcDbDimStyleTableRecord
  2
STANDARD
 70
     0
  3

  4

289
     0
340
17
  0
ENDTAB
  0
TABLE
  2
BLOCK_RECORD
  5
1
330
0
100
AcDbSymbolTable
 70
     3
  0
BLOCK_RECORD
  5
A
330
1
100
AcDbSymbolTableRecord
100
AcDbBlockTableRecord
  2
*MODEL_SPACE
340
107
  0
BLOCK_RECORD
  5
B
330
1
100
AcDbSymbolTableRecord
100
AcDbBlockTableRecord
  2
*PAPER_SPACE
340
108
  0
BLOCK_RECORD
  5
78
330
1
100
AcDbSymbolTableRecord
100
AcDbBlockTableRecord
  2
AI9-BLK1
340
0
102
{BLKREFS
331
79
102
}
  0
BLOCK_RECORD
  5
7F
330
1
100
AcDbSymbolTableRecord
100
AcDbBlockTableRecord
  2
AI9-BLK2
340
0
102
{BLKREFS
331
80
102
}
  0
BLOCK_RECORD
  5
95
330
1
100
AcDbSymbolTableRecord
100
AcDbBlockTableRecord
  2
AI9-BLK3
340
0
102
{BLKREFS
331
96
102
}
  0
ENDTAB
  0
ENDSEC
  0
SECTION
  2
BLOCKS
  0
BLOCK
  5
D
330
A
100
AcDbEntity
  8
0
100
AcDbBlockBegin
  2
*MODEL_SPACE
 70
     0
 10
0.0
 20
0.0
 30
0.0
  3
*MODEL_SPACE
  1

  4

  0
ENDBLK
  5
E
330
A
100
AcDbEntity
  8
0
100
AcDbBlockEnd
  0
BLOCK
  5
F
330
B
100
AcDbEntity
 67
     1
  8
0
100
AcDbBlockBegin
  2
*PAPER_SPACE
 70
     0
 10
0.0
 20
0.0
 30
0.0
  3
*PAPER_SPACE
  1

  4

  0
ENDBLK
  5
10
330
B
100
AcDbEntity
 67
     1
  8
0
100
AcDbBlockEnd
  0
BLOCK
  5
7A
330
78
100
AcDbEntity
  8
LAYER_1
 62
     7
100
AcDbBlockBegin
  2
AI9-BLK1
 70
     0
 10
0.0
 20
0.0
 30
0.0
  3
AI9-BLK1
  1

  4

  0
INSERT
  5
96
330
78
100
AcDbEntity
  8
LAYER_1
 62
     7
100
AcDbBlockReference
  2
AI9-BLK3
 10
-1.221027967664931
 20
7.972898356119791
 30
0.0
  0
INSERT
  5
80
330
78
100
AcDbEntity
  8
LAYER_1
 62
     7
100
AcDbBlockReference
  2
AI9-BLK2
 10
5.336108398437499
 20
-17.01713528103299
 30
0.0
  0
ELLIPSE
  5
7E
330
78
100
AcDbEntity
  8
LAYER_1
 62
     7
100
AcDbEllipse
 10
2.067660183376736
 20
20.21297810872396
 30
0.0
 11
-0.5885945638020834
 21
-0.7710984971788195
 31
0.0
210
0.0
220
0.0
230
1.0
 40
0.6061200001915523
 41
0.0
 42
6.283185307179586
  0
ELLIPSE
  5
7D
330
78
100
AcDbEntity
  8
LAYER_1
 62
     7
100
AcDbEllipse
 10
-9.044839816623263
 20
12.27547810872396
 30
0.0
 11
-0.5885945638020834
 21
-0.7710984971788195
 31
0.0
210
0.0
220
0.0
230
1.0
 40
0.6061200001915523
 41
0.0
 42
6.283185307179586
  0
SPLINE
  5
7C
330
78
100
AcDbEntity
  8
LAYER_1
 62
     7
100
AcDbSpline
210
0.0
220
0.0
230
1.0
 70
     8
 71
     3
 72
    14
 73
    10
 74
     0
 42
0.0000000001
 43
0.0000000001
 40
0.0
 40
0.0
 40
0.0
 40
0.0
 40
1.0
 40
1.0
 40
1.0
 40
2.0
 40
2.0
 40
2.0
 40
3.0
 40
3.0
 40
3.0
 40
3.0
 10
-9.853920491536458
 20
11.68076850043403
 30
0.0
 10
-10.11213039822049
 20
11.87782796223958
 30
0.0
 10
-10.05769788953993
 20
12.38287896050347
 30
0.0
 10
-9.732653130425346
 20
12.80869276258681
 30
0.0
 10
-9.407608371310763
 20
13.23450656467014
 30
0.0
 10
-8.934769015842013
 20
13.42002495659722
 30
0.0
 10
-8.676559109157985
 20
13.22296549479167
 30
0.0
 10
-8.637629530164929
 20
13.19333767361111
 30
0.0
 10
-8.605762396918403
 20
13.15664740668403
 30
0.0
 10
-8.580957709418403
 20
13.11427273220486
 30
0.0
  0
SPLINE
  5
7B
330
78
100
AcDbEntity
  8
LAYER_1
 62
     7
100
AcDbSpline
210
0.0
220
0.0
230
1.0
 70
     8
 71
     3
 72
    14
 73
    10
 74
     0
 42
0.0000000001
 43
0.0000000001
 40
0.0
 40
0.0
 40
0.0
 40
0.0
 40
1.0
 40
1.0
 40
1.0
 40
2.0
 40
2.0
 40
2.0
 40
3.0
 40
3.0
 40
3.0
 40
3.0
 10
1.302676730685764
 20
19.5741712782118
 30
0.0
 10
1.044466824001736
 20
19.77123074001736
 30
0.0
 10
1.098899332682292
 20
20.27628173828125
 30
0.0
 10
1.423944091796875
 20
20.70209554036458
 30
0.0
 10
1.748988850911458
 20
21.12790934244791
 30
0.0
 10
2.221828206380208
 20
21.313427734375
 30
0.0
 10
2.480038113064236
 20
21.11636827256944
 30
0.0
 10
2.518967692057291
 20
21.08674045138889
 30
0.0
 10
2.550834825303819
 20
21.0500501844618
 30
0.0
 10
2.575639512803819
 20
21.00767550998264
 30
0.0
  0
ENDBLK
  5
AB
330
78
100
AcDbEntity
  8
LAYER_1
100
AcDbBlockEnd
  0
BLOCK
  5
81
330
7F
100
AcDbEntity
  8
LAYER_1
 62
     7
100
AcDbBlockBegin
  2
AI9-BLK2
 70
     0
 10
0.0
 20
0.0
 30
0.0
  3
AI9-BLK2
  1

  4

  0
LWPOLYLINE
  5
8C
330
7F
100
AcDbEntity
  8
LAYER_1
 62
     7
100
AcDbPolyline
 90
        6
 70
     1
 43
0.0
 10
-4.556224907769097
 20
1.82254163953993
 10
-2.674858262803819
 20
4.17433607313368
 10
2.381680636935764
 20
3.939208306206597
 10
4.615997314453125
 20
1.704891628689236
 10
2.499330647786458
 20
-0.5294250488281249
 10
-2.557208251953125
 20
-0.5294250488281249
  0
LWPOLYLINE
  5
84
330
7F
100
AcDbEntity
  8
LAYER_1
 62
     7
100
AcDbPolyline
 90
        6
 70
     0
 43
0.0
 10
-4.556224907769097
 20
1.82254163953993
 10
-4.673874918619791
 20
-1.822886149088542
 10
-2.557208251953125
 20
-3.939552815755208
 10
2.558069525824652
 20
-4.174680582682291
 10
4.674736192491319
 20
-2.058013916015625
 10
4.615997314453125
 20
1.704891628689236
  0
LINE
  5
83
330
7F
100
AcDbEntity
  8
LAYER_1
 62
     7
100
AcDbLine
 10
-2.557208251953125
 20
-0.5294250488281249
 30
0.0
 11
-2.557208251953125
 21
-3.939552815755208
 31
0.0
  0
LINE
  5
82
330
7F
100
AcDbEntity
  8
LAYER_1
 62
     7
100
AcDbLine
 10
2.499330647786458
 20
-0.5294250488281249
 30
0.0
 11
2.499330647786458
 21
-4.115941704644097
 31
0.0
  0
ENDBLK
  5
94
330
7F
100
AcDbEntity
  8
LAYER_1
100
AcDbBlockEnd
  0
BLOCK
  5
97
330
95
100
AcDbEntity
  8
LAYER_1
 62
     7
100
AcDbBlockBegin
  2
AI9-BLK3
 70
     0
 10
0.0
 20
0.0
 30
0.0
  3
AI9-BLK3
  1

  4

  0
LWPOLYLINE
  5
A0
330
95
100
AcDbEntity
  8
LAYER_1
 62
     7
100
AcDbPolyline
 90
        8
 70
     1
 43
0.0
 10
-3.173277452256944
 20
2.820413547092014
 10
0.5898003472222222
 20
5.524985758463541
 10
3.529500325520833
 20
3.996396891276041
 10
4.940611436631944
 20
1.056524658203125
 10
3.29437255859375
 20
-3.294458685980902
 10
-0.3510552300347222
 20
-5.528603108723958
 10
-3.408405219184028
 20
-4.000014241536458
 10
-4.937166341145833
 20
-1.177792019314236
  0
LWPOLYLINE
  5
9A
330
95
100
AcDbEntity
  8
LAYER_1
 62
     7
100
AcDbPolyline
 90
        4
 70
     0
 43
0.0
 10
3.529500325520833
 20
3.996396891276041
 10
-0.4685329861111111
 20
1.409302435980903
 10
-1.997294108072917
 20
-2.471253119574653
 10
-0.3510552300347222
 20
-5.528603108723958
  0
LINE
  5
99
330
95
100
AcDbEntity
  8
LAYER_1
 62
     7
100
AcDbLine
 10
-3.173277452256944
 20
2.820413547092014
 30
0.0
 11
-0.4685329861111111
 21
1.409302435980903
 31
0.0
  0
LINE
  5
98
330
95
100
AcDbEntity
  8
LAYER_1
 62
     7
100
AcDbLine
 10
-4.937166341145833
 20
-1.177792019314236
 30
0.0
 11
-1.997294108072917
 21
-2.471253119574653
 31
0.0
  0
ENDBLK
  5
AA
330
95
100
AcDbEntity
  8
LAYER_1
100
AcDbBlockEnd
  0
ENDSEC
  0
SECTION
  2
ENTITIES
  0
LINE
  5
101
330
A
100
AcDbEntity
  8
LAYER_1
 62
     7
100
AcDbLine
 10
128.8886013454861
 20
190.8965304904514
 30
0.0
 11
128.7004991319444
 21
180.6246337890625
 31
0.0
  0
LWPOLYLINE
  5
FC
330
A
100
AcDbEntity
  8
LAYER_1
 62
     7
100
AcDbPolyline
 90
        3
 70
     0
 43
0.0
 10
128.6157497829861
 20
180.9402045355903
 10
128.0114800347222
 20
152.1495415581597
 10
123.0353841145833
 20
149.1323269314236
  0
LWPOLYLINE
  5
F7
330
A
100
AcDbEntity
  8
LAYER_1
 62
     7
100
AcDbPolyline
 90
        3
 70
     0
 43
0.0
 10
119.4917588975694
 20
199.5843722873264
 10
121.2797634548611
 20
194.4849419487847
 10
128.69912109375
 20
191.1294189453125
  0
LINE
  5
F6
330
A
100
AcDbEntity
  8
LAYER_1
 62
     7
100
AcDbLine
 10
119.2381998697917
 20
199.7207980685764
 30
0.0
 11
85.58306206597221
 21
186.2490966796875
 31
0.0
  0
LWPOLYLINE
  5
F1
330
A
100
AcDbEntity
  8
LAYER_1
 62
     7
100
AcDbPolyline
 90
        3
 70
     0
 43
0.0
 10
110.44287109375
 20
196.4410671657986
 10
109.4052083333333
 20
199.6477620442708
 10
101.172119140625
 20
203.2478868272569
  0
LINE
  5
F0
330
A
100
AcDbEntity
  8
LAYER_1
 62
     7
100
AcDbLine
 10
101.0260470920139
 20
203.3946478949653
 30
0.0
 11
67.86631401909722
 21
191.4339653862847
 31
0.0
  0
LINE
  5
EF
330
A
100
AcDbEntity
  8
LAYER_1
 62
     7
100
AcDbLine
 10
67.79327799479167
 20
191.1418212890625
 30
0.0
 11
68.628369140625
 21
152.5939588758681
 31
0.0
  0
LINE
  5
EE
330
A
100
AcDbEntity
  8
LAYER_1
 62
     7
100
AcDbLine
 10
68.628369140625
 20
152.5939588758681
 30
0.0
 11
95.48840060763888
 21
133.0898952907986
 31
0.0
  0
LINE
  5
ED
330
A
100
AcDbEntity
  8
LAYER_1
 62
     7
100
AcDbLine
 10
95.48840060763888
 20
133.016859266493
 30
0.0
 11
103.0138671875
 21
137.4493191189236
 31
0.0
  0
LINE
  5
EC
330
A
100
AcDbEntity
  8
LAYER_1
 62
     7
100
AcDbLine
 10
95.68890516493055
 20
133.3565456814236
 30
0.0
 11
95.58417426215277
 21
176.4705376519097
 31
0.0
  0
LINE
  5
EB
330
A
100
AcDbEntity
  8
LAYER_1
 62
     7
100
AcDbLine
 10
68.31073133680555
 20
191.2658447265625
 30
0.0
 11
76.53417426215277
 21
186.8209825303819
 31
0.0
  0
LINE
  5
EA
330
A
100
AcDbEntity
  8
LAYER_1
 62
     7
100
AcDbLine
 10
76.53417426215277
 20
186.8209825303819
 30
0.0
 11
78.24845377604166
 21
182.2486518012153
 31
0.0
  0
LINE
  5
E9
330
A
100
AcDbEntity
  8
LAYER_1
 62
     7
100
AcDbLine
 10
78.24845377604166
 20
182.2486518012153
 30
0.0
 11
85.58306206597221
 21
186.1319634331597
 31
0.0
  0
LWPOLYLINE
  5
E4
330
A
100
AcDbEntity
  8
LAYER_1
 62
     7
100
AcDbPolyline
 90
        3
 70
     0
 43
0.0
 10
85.72913411458333
 20
186.1319634331597
 10
87.55090060763888
 20
180.5026774088541
 10
95.54903428819443
 20
176.2286919487847
  0
LINE
  5
E3
330
A
100
AcDbEntity
  8
LAYER_1
 62
     7
100
AcDbLine
 10
95.32992621527777
 20
176.3747639973958
 30
0.0
 11
128.5723415798611
 21
191.0432915581597
 31
0.0
  0
LINE
  5
E2
330
A
100
AcDbEntity
  8
LAYER_1
 62
     7
100
AcDbLine
 10
120.9207845052083
 20
194.5993191189236
 30
0.0
 11
87.71006401909722
 21
180.7148952907986
 31
0.0
  0
LINE
  5
E1
330
A
100
AcDbEntity
  8
LAYER_1
 62
     7
100
AcDbLine
 10
76.62925889756944
 20
187.0745415581597
 30
0.0
 11
108.9821506076389
 21
199.5526774088542
 31
0.0
  0
SPLINE
  5
E0
330
A
100
AcDbEntity
  8
LAYER_1
 62
     7
100
AcDbSpline
210
0.0
220
0.0
230
1.0
 70
     8
 71
     3
 72
    14
 73
    10
 74
     0
 42
0.0000000001
 43
0.0000000001
 40
0.0
 40
0.0
 40
0.0
 40
0.0
 40
1.0
 40
1.0
 40
1.0
 40
2.0
 40
2.0
 40
2.0
 40
3.0
 40
3.0
 40
3.0
 40
3.0
 10
118.0213921440972
 20
126.5083848741319
 30
0.0
 10
118.0213921440972
 20
126.5083848741319
 30
0.0
 10
103.7628309461805
 20
136.4144124348958
 30
0.0
 10
103.7628309461805
 20
136.4144124348958
 30
0.0
 10
103.7628309461805
 20
136.4144124348958
 30
0.0
 10
102.8547037760417
 20
137.0049018012153
 30
0.0
 10
103.0138671875
 20
138.2113742404514
 30
0.0
 10
103.0138671875
 20
138.2113742404514
 30
0.0
 10
103.0359157986111
 20
172.5017876519097
 30
0.0
 10
103.0359157986111
 20
172.5017876519097
 30
0.0
  0
LINE
  5
DF
330
A
100
AcDbEntity
  8
LAYER_1
 62
     7
100
AcDbLine
 10
103.0111111111111
 20
172.5083333333333
 30
0.0
 11
121.3238606770833
 21
181.2013427734375
 31
0.0
  0
LINE
  5
DE
330
A
100
AcDbEntity
  8
LAYER_1
 62
     7
100
AcDbLine
 10
121.3238606770833
 20
181.274378797743
 30
0.0
 11
123.4191677517361
 21
180.3214653862847
 31
0.0
  0
LINE
  5
DD
330
A
100
AcDbEntity
  8
LAYER_1
 62
     7
100
AcDbLine
 10
123.4191677517361
 20
180.2484293619792
 30
0.0
 11
122.8355685763889
 21
149.1047661675347
 31
0.0
  0
SPLINE
  5
DC
330
A
100
AcDbEntity
  8
LAYER_1
 62
     7
100
AcDbSpline
210
0.0
220
0.0
230
1.0
 70
     8
 71
     3
 72
    11
 73
     7
 74
     0
 42
0.0000000001
 43
0.0000000001
 40
0.0
 40
0.0
 40
0.0
 40
0.0
 40
1.0
 40
1.0
 40
1.0
 40
2.0
 40
2.0
 40
2.0
 40
2.0
 10
122.8355685763889
 20
149.1778021918403
 30
0.0
 10
122.8355685763889
 20
149.1778021918403
 30
0.0
 10
122.603369140625
 20
148.4350396050347
 30
0.0
 10
123.2069498697917
 20
147.9589274088542
 30
0.0
 10
123.2069498697917
 20
147.9589274088542
 30
0.0
 10
136.1605088975694
 20
140.0751708984375
 30
0.0
 10
136.1605088975694
 20
140.0751708984375
 30
0.0
  0
LINE
  5
DB
330
A
100
AcDbEntity
  8
LAYER_1
 62
     7
100
AcDbLine
 10
136.1605088975694
 20
140.0021348741319
 30
0.0
 11
136.1508626302083
 21
138.2747639973958
 31
0.0
  0
LINE
  5
DA
330
A
100
AcDbEntity
  8
LAYER_1
 62
     7
100
AcDbLine
 10
136.1508626302083
 20
138.2747639973958
 30
0.0
 11
118.1681532118056
 21
126.654456922743
 31
0.0
  0
SPLINE
  5
D9
330
A
100
AcDbEntity
  8
LAYER_1
 62
     7
100
AcDbSpline
210
0.0
220
0.0
230
1.0
 70
     8
 71
     3
 72
    17
 73
    13
 74
     0
 42
0.0000000001
 43
0.0000000001
 40
0.0
 40
0.0
 40
0.0
 40
0.0
 40
1.0
 40
1.0
 40
1.0
 40
2.0
 40
2.0
 40
2.0
 40
3.0
 40
3.0
 40
3.0
 40
4.0
 40
4.0
 40
4.0
 40
4.0
 10
123.1781833224826
 20
180.2694444444444
 30
0.0
 10
123.1781833224826
 20
180.2694444444444
 30
0.0
 10
104.483544921875
 20
171.5709228515625
 30
0.0
 10
104.483544921875
 20
171.5709228515625
 30
0.0
 10
104.483544921875
 20
171.5709228515625
 30
0.0
 10
104.3788140190972
 20
138.7198703342014
 30
0.0
 10
104.3788140190972
 20
138.7198703342014
 30
0.0
 10
104.3788140190972
 20
138.7198703342014
 30
0.0
 10
104.2196506076389
 20
137.7352620442708
 30
0.0
 10
104.9500108506944
 20
137.3225396050347
 30
0.0
 10
104.9500108506944
 20
137.3225396050347
 30
0.0
 10
118.0951171875
 20
128.3687364366319
 30
0.0
 10
118.0951171875
 20
128.3687364366319
 30
0.0
  0
LINE
  5
D8
330
A
100
AcDbEntity
  8
LAYER_1
 62
     7
100
AcDbLine
 10
118.0951171875
 20
128.2957004123264
 30
0.0
 11
135.8111762152778
 21
139.7258382161458
 31
0.0
  0
LINE
  5
D7
330
A
100
AcDbEntity
  8
LAYER_1
 62
     7
100
AcDbLine
 10
104.2837293836806
 20
171.7080376519097
 30
0.0
 11
103.2674262152778
 21
172.4060139973958
 31
0.0
  0
LINE
  5
D6
330
A
100
AcDbEntity
  8
LAYER_1
 62
     7
100
AcDbLine
 10
118.1364583333333
 20
128.1785671657986
 30
0.0
 11
118.1047634548611
 21
126.6861518012153
 31
0.0
  0
LINE
  5
D5
330
A
100
AcDbEntity
  8
LAYER_1
 62
     7
100
AcDbLine
 10
105.4902018229167
 20
139.1325927734375
 30
0.0
 11
120.8573947482639
 21
148.085706922743
 31
0.0
  0
LINE
  5
D4
330
A
100
AcDbEntity
  8
LAYER_1
 62
     7
100
AcDbLine
 10
106.1247884114583
 20
138.4339274088542
 30
0.0
 11
121.015869140625
 21
147.1334825303819
 31
0.0
  0
SPLINE
  5
D3
330
A
100
AcDbEntity
  8
LAYER_1
 62
     7
100
AcDbSpline
210
0.0
220
0.0
230
1.0
 70
     8
 71
     3
 72
    41
 73
    37
 74
     0
 42
0.0000000001
 43
0.0000000001
 40
0.0
 40
0.0
 40
0.0
 40
0.0
 40
1.0
 40
1.0
 40
1.0
 40
2.0
 40
2.0
 40
2.0
 40
3.0
 40
3.0
 40
3.0
 40
4.0
 40
4.0
 40
4.0
 40
5.0
 40
5.0
 40
5.0
 40
6.0
 40
6.0
 40
6.0
 40
7.0
 40
7.0
 40
7.0
 40
8.0
 40
8.0
 40
8.0
 40
9.0
 40
9.0
 40
9.0
 40
10.0
 40
10.0
 40
10.0
 40
11.0
 40
11.0
 40
11.0
 40
12.0
 40
12.0
 40
12.0
 40
12.0
 10
69.54889865451388
 20
191.9328152126736
 30
0.0
 10
69.83484157986111
 20
191.8370415581597
 30
0.0
 10
69.99331597222222
 20
191.5517876519097
 30
0.0
 10
70.24756401909721
 20
191.4560139973958
 30
0.0
 10
70.69198133680555
 20
191.2975396050347
 30
0.0
 10
71.19978841145833
 20
191.2341498480903
 30
0.0
 10
71.54912109374999
 20
190.8848171657986
 30
0.0
 10
71.80336914062499
 20
190.6305691189236
 30
0.0
 10
72.2160915798611
 20
190.5671793619792
 30
0.0
 10
72.56542426215277
 20
190.4403998480903
 30
0.0
 10
72.94645182291666
 20
190.3136203342014
 30
0.0
 10
73.29578450520833
 20
190.154456922743
 30
0.0
 10
73.67681206597221
 20
189.9325927734375
 30
0.0
 10
73.74020182291666
 20
189.900208875868
 30
0.0
 10
73.83528645833333
 20
189.8685139973958
 30
0.0
 10
73.93037109375
 20
189.8051242404514
 30
0.0
 10
73.99376085069444
 20
189.7734293619791
 30
0.0
 10
74.08953450520832
 20
189.7734293619791
 30
0.0
 10
74.15292426215277
 20
189.7417344835069
 30
0.0
 10
74.31139865451388
 20
189.5832600911458
 30
0.0
 10
74.53395182291666
 20
189.5832600911458
 30
0.0
 10
74.72412109375
 20
189.4874864366319
 30
0.0
 10
74.88328450520832
 20
189.3607069227431
 30
0.0
 10
74.97836914062499
 20
189.1705376519097
 30
0.0
 10
75.13684353298611
 20
189.106458875868
 30
0.0
 10
75.3910915798611
 20
189.0113742404514
 30
0.0
 10
75.64465060763888
 20
188.8845947265625
 30
0.0
 10
75.89889865451389
 20
188.7895100911458
 30
0.0
 10
75.99398328993055
 20
188.7895100911458
 30
0.0
 10
76.08975694444443
 20
188.7895100911458
 30
0.0
 10
76.1848415798611
 20
188.7578152126736
 30
0.0
 10
76.82011718749999
 20
188.4401774088541
 30
0.0
 10
77.45470377604165
 20
188.1542344835069
 30
0.0
 10
78.12167426215277
 20
187.8682915581597
 30
0.0
 10
78.12167426215277
 20
187.8365966796875
 30
0.0
 10
78.12167426215277
 20
187.8049018012153
 30
0.0
 10
78.15336914062499
 20
187.773206922743
 30
0.0
  0
SPLINE
  5
D2
330
A
100
AcDbEntity
  8
LAYER_1
 62
     7
100
AcDbSpline
210
0.0
220
0.0
230
1.0
 70
     8
 71
     3
 72
    35
 73
    31
 74
     0
 42
0.0000000001
 43
0.0000000001
 40
0.0
 40
0.0
 40
0.0
 40
0.0
 40
1.0
 40
1.0
 40
1.0
 40
2.0
 40
2.0
 40
2.0
 40
3.0
 40
3.0
 40
3.0
 40
4.0
 40
4.0
 40
4.0
 40
5.0
 40
5.0
 40
5.0
 40
6.0
 40
6.0
 40
6.0
 40
7.0
 40
7.0
 40
7.0
 40
8.0
 40
8.0
 40
8.0
 40
9.0
 40
9.0
 40
9.0
 40
10.0
 40
10.0
 40
10.0
 40
10.0
 10
74.12122938368054
 20
193.583704969618
 30
0.0
 10
74.3430935329861
 20
193.4562364366319
 30
0.0
 10
74.53395182291666
 20
193.2977620442708
 30
0.0
 10
74.75581597222221
 20
193.1709825303819
 30
0.0
 10
74.94667426215277
 20
193.075208875868
 30
0.0
 10
75.16853841145833
 20
193.075208875868
 30
0.0
 10
75.35939670138889
 20
193.0118191189236
 30
0.0
 10
75.58126085069443
 20
192.9167344835069
 30
0.0
 10
75.80381401909722
 20
192.8533447265625
 30
0.0
 10
75.99398328993055
 20
192.6948703342014
 30
0.0
 10
76.40670572916666
 20
192.4406222873264
 30
0.0
 10
76.78773328993054
 20
192.281458875868
 30
0.0
 10
77.23215060763889
 20
192.1863742404514
 30
0.0
 10
77.67725694444444
 20
192.0595947265625
 30
0.0
 10
78.02590060763889
 20
191.8053466796875
 30
0.0
 10
78.47100694444444
 20
191.6468722873264
 30
0.0
 10
78.59778645833333
 20
191.5834825303819
 30
0.0
 10
78.72456597222221
 20
191.487708875868
 30
0.0
 10
78.85203450520832
 20
191.3926242404514
 30
0.0
 10
79.67747938368055
 20
190.9799018012153
 30
0.0
 10
80.534619140625
 20
190.7897325303819
 30
0.0
 10
81.42345377604165
 20
190.5354844835069
 30
0.0
 10
81.4868435329861
 20
190.5354844835069
 30
0.0
 10
81.55023328993055
 20
190.4403998480903
 30
0.0
 10
81.61431206597221
 20
190.4403998480903
 30
0.0
 10
81.77278645833333
 20
190.4403998480903
 30
0.0
 10
81.93126085069444
 20
190.408704969618
 30
0.0
 10
82.05872938368054
 20
190.3453152126736
 30
0.0
 10
82.50314670138889
 20
190.154456922743
 30
0.0
 10
82.88417426215277
 20
189.8368191189236
 30
0.0
 10
83.36028645833332
 20
189.6466498480903
 30
0.0
  0
SPLINE
  5
D1
330
A
100
AcDbEntity
  8
LAYER_1
 62
     7
100
AcDbSpline
210
0.0
220
0.0
230
1.0
 70
     8
 71
     3
 72
    26
 73
    22
 74
     0
 42
0.0000000001
 43
0.0000000001
 40
0.0
 40
0.0
 40
0.0
 40
0.0
 40
1.0
 40
1.0
 40
1.0
 40
2.0
 40
2.0
 40
2.0
 40
3.0
 40
3.0
 40
3.0
 40
4.0
 40
4.0
 40
4.0
 40
5.0
 40
5.0
 40
5.0
 40
6.0
 40
6.0
 40
6.0
 40
7.0
 40
7.0
 40
7.0
 40
7.0
 10
79.58170572916666
 20
195.5522325303819
 30
0.0
 10
79.58170572916666
 20
195.3930691189236
 30
0.0
 10
79.77256401909722
 20
195.3296793619792
 30
0.0
 10
79.86764865451389
 20
195.2028998480903
 30
0.0
 10
79.93103841145833
 20
195.171204969618
 30
0.0
 10
79.99511718749999
 20
195.1395100911458
 30
0.0
 10
80.05850694444443
 20
195.1395100911458
 30
0.0
 10
80.1535915798611
 20
195.0761203342014
 30
0.0
 10
80.21698133680555
 20
195.0120415581597
 30
0.0
 10
80.31206597222221
 20
194.9803466796875
 30
0.0
 10
80.82056206597221
 20
194.7584825303819
 30
0.0
 10
81.32836914062499
 20
194.5993191189236
 30
0.0
 10
81.80448133680555
 20
194.3140652126736
 30
0.0
 10
82.31228841145833
 20
193.9964274088542
 30
0.0
 10
82.82078450520832
 20
193.7104844835069
 30
0.0
 10
83.36028645833332
 20
193.4886203342014
 30
0.0
 10
83.83639865451389
 20
193.3294569227431
 30
0.0
 10
84.31251085069444
 20
193.2343722873264
 30
0.0
 10
84.78931206597221
 20
193.075208875868
 30
0.0
 10
86.02747938368054
 20
192.6307915581597
 30
0.0
 10
87.26564670138887
 20
192.2180691189236
 30
0.0
 10
88.472119140625
 20
191.7102620442708
 30
0.0
  0
SPLINE
  5
D0
330
A
100
AcDbEntity
  8
LAYER_1
 62
     7
100
AcDbSpline
210
0.0
220
0.0
230
1.0
 70
     8
 71
     3
 72
    32
 73
    28
 74
     0
 42
0.0000000001
 43
0.0000000001
 40
0.0
 40
0.0
 40
0.0
 40
0.0
 40
1.0
 40
1.0
 40
1.0
 40
2.0
 40
2.0
 40
2.0
 40
3.0
 40
3.0
 40
3.0
 40
4.0
 40
4.0
 40
4.0
 40
5.0
 40
5.0
 40
5.0
 40
6.0
 40
6.0
 40
6.0
 40
7.0
 40
7.0
 40
7.0
 40
8.0
 40
8.0
 40
8.0
 40
9.0
 40
9.0
 40
9.0
 40
9.0
 10
83.96386718749999
 20
197.1397325303819
 30
0.0
 10
84.37590060763888
 20
196.9805691189236
 30
0.0
 10
84.69353841145832
 20
196.6312364366319
 30
0.0
 10
85.13795572916666
 20
196.4727620442708
 30
0.0
 10
85.90001085069444
 20
196.250208875868
 30
0.0
 10
86.59867621527776
 20
195.9332600911458
 30
0.0
 10
87.36073133680554
 20
195.6790120442708
 30
0.0
 10
88.05939670138888
 20
195.456458875868
 30
0.0
 10
88.72636718749999
 20
195.0761203342014
 30
0.0
 10
89.39264865451388
 20
194.7584825303819
 30
0.0
 10
89.71028645833333
 20
194.6310139973958
 30
0.0
 10
90.02792426215277
 20
194.5993191189236
 30
0.0
 10
90.34556206597222
 20
194.5042344835069
 30
0.0
 10
90.40895182291666
 20
194.4725396050347
 30
0.0
 10
90.44064670138889
 20
194.4091498480903
 30
0.0
 10
90.50403645833333
 20
194.377454969618
 30
0.0
 10
90.69420572916665
 20
194.3457600911458
 30
0.0
 10
90.85336914062499
 20
194.3140652126736
 30
0.0
 10
91.01184353298611
 20
194.2499864366319
 30
0.0
 10
91.13931206597222
 20
194.1865966796875
 30
0.0
 10
91.2660915798611
 20
194.0915120442708
 30
0.0
 10
91.39287109374999
 20
194.0598171657986
 30
0.0
 10
91.61542426215277
 20
194.0281222873264
 30
0.0
 10
91.77389865451389
 20
193.9013427734375
 30
0.0
 10
91.99645182291665
 20
193.868958875868
 30
0.0
 10
92.25001085069444
 20
193.8055691189236
 30
0.0
 10
92.31340060763888
 20
193.5203152126736
 30
0.0
 10
92.56764865451387
 20
193.4886203342014
 30
0.0
  0
SPLINE
  5
CF
330
A
100
AcDbEntity
  8
LAYER_1
 62
     7
100
AcDbSpline
210
0.0
220
0.0
230
1.0
 70
     8
 71
     3
 72
    26
 73
    22
 74
     0
 42
0.0000000001
 43
0.0000000001
 40
0.0
 40
0.0
 40
0.0
 40
0.0
 40
1.0
 40
1.0
 40
1.0
 40
2.0
 40
2.0
 40
2.0
 40
3.0
 40
3.0
 40
3.0
 40
4.0
 40
4.0
 40
4.0
 40
5.0
 40
5.0
 40
5.0
 40
6.0
 40
6.0
 40
6.0
 40
7.0
 40
7.0
 40
7.0
 40
7.0
 10
88.53550889756944
 20
198.6004530164931
 30
0.0
 10
88.59889865451387
 20
198.6004530164931
 30
0.0
 10
88.6305935329861
 20
198.6004530164931
 30
0.0
 10
88.69398328993054
 20
198.6004530164931
 30
0.0
 10
89.17078450520833
 20
198.4095947265625
 30
0.0
 10
89.61520182291666
 20
198.2511203342014
 30
0.0
 10
90.09131401909721
 20
198.091956922743
 30
0.0
 10
90.47234157986111
 20
197.9334825303819
 30
0.0
 10
90.88506401909721
 20
197.7743191189236
 30
0.0
 10
91.29778645833332
 20
197.6158447265625
 30
0.0
 10
91.67881401909722
 20
197.4249864366319
 30
0.0
 10
92.09153645833332
 20
197.2982069227431
 30
0.0
 10
92.53595377604165
 20
197.2982069227431
 30
0.0
 10
93.42478841145832
 20
196.758704969618
 30
0.0
 10
94.37770182291666
 20
196.3459825303819
 30
0.0
 10
95.36162109374999
 20
196.0600396050347
 30
0.0
 10
95.48840060763888
 20
195.9966498480903
 30
0.0
 10
95.64756401909722
 20
195.9966498480903
 30
0.0
 10
95.77434353298611
 20
195.9649549696181
 30
0.0
 10
96.409619140625
 20
195.710706922743
 30
0.0
 10
97.07590060763889
 20
195.5205376519097
 30
0.0
 10
97.71117621527777
 20
195.2979844835069
 30
0.0
  0
SPLINE
  5
CE
330
A
100
AcDbEntity
  8
LAYER_1
 62
     7
100
AcDbSpline
210
0.0
220
0.0
230
1.0
 70
     8
 71
     3
 72
    23
 73
    19
 74
     0
 42
0.0000000001
 43
0.0000000001
 40
0.0
 40
0.0
 40
0.0
 40
0.0
 40
1.0
 40
1.0
 40
1.0
 40
2.0
 40
2.0
 40
2.0
 40
3.0
 40
3.0
 40
3.0
 40
4.0
 40
4.0
 40
4.0
 40
5.0
 40
5.0
 40
5.0
 40
6.0
 40
6.0
 40
6.0
 40
6.0
 10
93.93328450520832
 20
200.7591498480903
 30
0.0
 10
93.99667426215277
 20
200.7591498480903
 30
0.0
 10
94.06006401909721
 20
200.727454969618
 30
0.0
 10
94.09175889756943
 20
200.6957600911458
 30
0.0
 10
94.28261718749999
 20
200.5689805772569
 30
0.0
 10
94.47278645833333
 20
200.473206922743
 30
0.0
 10
94.66295572916665
 20
200.3464274088541
 30
0.0
 10
95.10806206597222
 20
200.0604844835069
 30
0.0
 10
95.48840060763888
 20
199.8386203342014
 30
0.0
 10
95.93350694444443
 20
199.679456922743
 30
0.0
 10
97.83795572916665
 20
198.9490966796875
 30
0.0
 10
99.61631401909722
 20
198.1870415581597
 30
0.0
 10
101.6482313368056
 20
197.6792344835069
 30
0.0
 10
101.8707845052083
 20
197.6475396050347
 30
0.0
 10
102.0609537760417
 20
197.4890652126736
 30
0.0
 10
102.2518120659722
 20
197.3932915581597
 30
0.0
 10
102.3785915798611
 20
197.3615966796875
 30
0.0
 10
102.5370659722222
 20
197.3299018012153
 30
0.0
 10
102.6645345052083
 20
197.2982069227431
 30
0.0
  0
SPLINE
  5
CD
330
A
100
AcDbEntity
  8
LAYER_1
 62
     7
100
AcDbSpline
210
0.0
220
0.0
230
1.0
 70
     8
 71
     3
 72
    29
 73
    25
 74
     0
 42
0.0000000001
 43
0.0000000001
 40
0.0
 40
0.0
 40
0.0
 40
0.0
 40
1.0
 40
1.0
 40
1.0
 40
2.0
 40
2.0
 40
2.0
 40
3.0
 40
3.0
 40
3.0
 40
4.0
 40
4.0
 40
4.0
 40
5.0
 40
5.0
 40
5.0
 40
6.0
 40
6.0
 40
6.0
 40
7.0
 40
7.0
 40
7.0
 40
8.0
 40
8.0
 40
8.0
 40
8.0
 10
97.29845377604165
 20
201.9973171657986
 30
0.0
 10
97.77456597222222
 20
201.9022325303819
 30
0.0
 10
98.21898328993055
 20
201.7113742404514
 30
0.0
 10
98.69578450520832
 20
201.521204969618
 30
0.0
 10
99.2035915798611
 20
201.3303466796875
 30
0.0
 10
99.71139865451389
 20
201.1718722873264
 30
0.0
 10
100.2192057291667
 20
200.981703016493
 30
0.0
 10
100.378369140625
 20
200.9493191189236
 30
0.0
 10
100.5368435329861
 20
200.9493191189236
 30
0.0
 10
100.6960069444444
 20
200.8859293619792
 30
0.0
 10
101.71162109375
 20
200.5999864366319
 30
0.0
 10
102.6962293836806
 20
200.3464274088541
 30
0.0
 10
103.7118435329861
 20
199.9653998480903
 30
0.0
 10
104.0611762152778
 20
199.8703152126736
 30
0.0
 10
104.3788140190972
 20
199.7111518012153
 30
0.0
 10
104.7281467013889
 20
199.5526774088542
 30
0.0
 10
104.9500108506944
 20
199.4575927734375
 30
0.0
 10
105.1725640190972
 20
199.4892876519097
 30
0.0
 10
105.3627332899306
 20
199.3618191189236
 30
0.0
 10
105.4585069444444
 20
199.2984293619792
 30
0.0
 10
105.5218967013889
 20
199.3618191189236
 30
0.0
 10
105.6169813368056
 20
199.3301242404514
 30
0.0
 10
106.1564832899306
 20
199.1082600911458
 30
0.0
 10
106.6649793836806
 20
198.9174018012153
 30
0.0
 10
107.2044813368055
 20
198.7906222873264
 30
0.0
  0
SPLINE
  5
CC
330
A
100
AcDbEntity
  8
LAYER_1
 62
     7
100
AcDbSpline
210
0.0
220
0.0
230
1.0
 70
     8
 71
     3
 72
    20
 73
    16
 74
     0
 42
0.0000000001
 43
0.0000000001
 40
0.0
 40
0.0
 40
0.0
 40
0.0
 40
1.0
 40
1.0
 40
1.0
 40
2.0
 40
2.0
 40
2.0
 40
3.0
 40
3.0
 40
3.0
 40
4.0
 40
4.0
 40
4.0
 40
5.0
 40
5.0
 40
5.0
 40
5.0
 10
107.4904242621528
 20
198.9174018012153
 30
0.0
 10
107.6805935329861
 20
197.9334825303819
 30
0.0
 10
107.7763671875
 20
196.9171793619792
 30
0.0
 10
108.1250108506944
 20
195.9649549696181
 30
0.0
 10
108.1250108506944
 20
195.9015652126736
 30
0.0
 10
108.1250108506944
 20
195.8698703342014
 30
0.0
 10
108.1250108506944
 20
195.8057915581597
 30
0.0
 10
108.1250108506944
 20
195.7740966796875
 30
0.0
 10
108.1884006076389
 20
195.7740966796875
 30
0.0
 10
108.1884006076389
 20
195.7424018012153
 30
0.0
 10
108.1884006076389
 20
195.6790120442708
 30
0.0
 10
108.1884006076389
 20
195.6473171657986
 30
0.0
 10
108.1884006076389
 20
195.5839274088542
 30
0.0
 10
108.1884006076389
 20
195.5522325303819
 30
0.0
 10
108.2207845052083
 20
195.5522325303819
 30
0.0
 10
108.2524793836806
 20
195.5205376519097
 30
0.0
  0
SPLINE
  5
CB
330
A
100
AcDbEntity
  8
LAYER_1
 62
     7
100
AcDbSpline
210
0.0
220
0.0
230
1.0
 70
     8
 71
     3
 72
    11
 73
     7
 74
     0
 42
0.0000000001
 43
0.0000000001
 40
0.0
 40
0.0
 40
0.0
 40
0.0
 40
1.0
 40
1.0
 40
1.0
 40
2.0
 40
2.0
 40
2.0
 40
2.0
 10
102.8547037760417
 20
197.1080376519097
 30
0.0
 10
103.0138671875
 20
196.5361518012153
 30
0.0
 10
103.29912109375
 20
196.0283447265625
 30
0.0
 10
103.5216742621528
 20
195.4888427734375
 30
0.0
 10
103.7435384114583
 20
194.8852620442708
 30
0.0
 10
103.9660915798611
 20
194.2823703342014
 30
0.0
 10
104.0611762152778
 20
193.6470947265625
 30
0.0
  0
SPLINE
  5
CA
330
A
100
AcDbEntity
  8
LAYER_1
 62
     7
100
AcDbSpline
210
0.0
220
0.0
230
1.0
 70
     8
 71
     3
 72
    14
 73
    10
 74
     0
 42
0.0000000001
 43
0.0000000001
 40
0.0
 40
0.0
 40
0.0
 40
0.0
 40
1.0
 40
1.0
 40
1.0
 40
2.0
 40
2.0
 40
2.0
 40
3.0
 40
3.0
 40
3.0
 40
3.0
 10
97.58439670138888
 20
195.0761203342014
 30
0.0
 10
97.90203450520832
 20
194.4091498480903
 30
0.0
 10
98.06050889756943
 20
193.7104844835069
 30
0.0
 10
98.21898328993055
 20
192.9801242404514
 30
0.0
 10
98.28306206597222
 20
192.8533447265625
 30
0.0
 10
98.31475694444444
 20
192.6948703342014
 30
0.0
 10
98.40984157986111
 20
192.5674018012153
 30
0.0
 10
98.63170572916665
 20
192.3138427734375
 30
0.0
 10
98.88595377604166
 20
192.0595947265625
 30
0.0
 10
98.98103841145833
 20
191.7102620442708
 30
0.0
  0
SPLINE
  5
C9
330
A
100
AcDbEntity
  8
LAYER_1
 62
     7
100
AcDbSpline
210
0.0
220
0.0
230
1.0
 70
     8
 71
     3
 72
    17
 73
    13
 74
     0
 42
0.0000000001
 43
0.0000000001
 40
0.0
 40
0.0
 40
0.0
 40
0.0
 40
1.0
 40
1.0
 40
1.0
 40
2.0
 40
2.0
 40
2.0
 40
3.0
 40
3.0
 40
3.0
 40
4.0
 40
4.0
 40
4.0
 40
4.0
 10
93.10715060763889
 20
193.3928466796875
 30
0.0
 10
93.36139865451388
 20
192.8533447265625
 30
0.0
 10
93.58395182291666
 20
192.3138427734375
 30
0.0
 10
93.80581597222222
 20
191.7736518012153
 30
0.0
 10
93.90090060763887
 20
191.5200927734375
 30
0.0
 10
93.96497938368054
 20
191.2658447265625
 30
0.0
 10
94.06006401909721
 20
191.0115966796875
 30
0.0
 10
94.12345377604166
 20
190.7580376519097
 30
0.0
 10
94.25023328993055
 20
190.5354844835069
 30
0.0
 10
94.40939670138889
 20
190.2812364366319
 30
0.0
 10
94.50448133680554
 20
190.1227620442708
 30
0.0
 10
94.69465060763888
 20
190.1227620442708
 30
0.0
 10
94.75872938368055
 20
189.9642876519097
 30
0.0
  0
SPLINE
  5
C8
330
A
100
AcDbEntity
  8
LAYER_1
 62
     7
100
AcDbSpline
210
0.0
220
0.0
230
1.0
 70
     8
 71
     3
 72
    14
 73
    10
 74
     0
 42
0.0000000001
 43
0.0000000001
 40
0.0
 40
0.0
 40
0.0
 40
0.0
 40
1.0
 40
1.0
 40
1.0
 40
2.0
 40
2.0
 40
2.0
 40
3.0
 40
3.0
 40
3.0
 40
3.0
 10
88.50381401909722
 20
191.6151774088542
 30
0.0
 10
88.66228841145832
 20
190.9799018012153
 30
0.0
 10
88.8848415798611
 20
190.3770100911458
 30
0.0
 10
89.07501085069444
 20
189.7417344835069
 30
0.0
 10
89.26586914062499
 20
189.2022325303819
 30
0.0
 10
89.64689670138888
 20
188.7261203342014
 30
0.0
 10
89.80537109375
 20
188.1542344835069
 30
0.0
 10
89.80537109375
 20
188.0908447265625
 30
0.0
 10
89.80537109375
 20
188.0591498480903
 30
0.0
 10
89.80537109375
 20
187.9957600911458
 30
0.0
  0
SPLINE
  5
C7
330
A
100
AcDbEntity
  8
LAYER_1
 62
     7
100
AcDbSpline
210
0.0
220
0.0
230
1.0
 70
     8
 71
     3
 72
    14
 73
    10
 74
     0
 42
0.0000000001
 43
0.0000000001
 40
0.0
 40
0.0
 40
0.0
 40
0.0
 40
1.0
 40
1.0
 40
1.0
 40
2.0
 40
2.0
 40
2.0
 40
3.0
 40
3.0
 40
3.0
 40
3.0
 10
83.3285915798611
 20
189.5198703342014
 30
0.0
 10
83.45537109374999
 20
188.9796793619792
 30
0.0
 10
83.64622938368055
 20
188.5035671657986
 30
0.0
 10
83.80470377604166
 20
187.9640652126736
 30
0.0
 10
83.99556206597221
 20
187.3604844835069
 30
0.0
 10
84.24912109374999
 20
186.8526774088542
 30
0.0
 10
84.37590060763888
 20
186.2490966796875
 30
0.0
 10
84.43997938368055
 20
186.0272325303819
 30
0.0
 10
84.53506401909722
 20
185.8680691189236
 30
0.0
 10
84.53506401909722
 20
185.646204969618
 30
0.0
  0
SPLINE
  5
C6
330
A
100
AcDbEntity
  8
LAYER_1
 62
     7
100
AcDbSpline
210
0.0
220
0.0
230
1.0
 70
     8
 71
     3
 72
    14
 73
    10
 74
     0
 42
0.0000000001
 43
0.0000000001
 40
0.0
 40
0.0
 40
0.0
 40
0.0
 40
1.0
 40
1.0
 40
1.0
 40
2.0
 40
2.0
 40
2.0
 40
3.0
 40
3.0
 40
3.0
 40
3.0
 10
78.3118435329861
 20
187.5830376519097
 30
0.0
 10
78.37523328993055
 20
186.7892876519097
 30
0.0
 10
78.75626085069443
 20
186.0906222873264
 30
0.0
 10
79.04220377604166
 20
185.3602620442708
 30
0.0
 10
79.23306206597222
 20
184.8841498480903
 30
0.0
 10
79.3598415798611
 20
184.4080376519097
 30
0.0
 10
79.55001085069443
 20
183.9636203342014
 30
0.0
 10
79.64578450520833
 20
183.7410671657986
 30
0.0
 10
79.74086914062499
 20
183.4868191189236
 30
0.0
 10
79.89934353298611
 20
183.264954969618
 30
0.0
  0
SPLINE
  5
C5
330
A
100
AcDbEntity
  8
LAYER_1
 62
     7
100
AcDbSpline
210
0.0
220
0.0
230
1.0
 70
     8
 71
     3
 72
    26
 73
    22
 74
     0
 42
0.0000000001
 43
0.0000000001
 40
0.0
 40
0.0
 40
0.0
 40
0.0
 40
1.0
 40
1.0
 40
1.0
 40
2.0
 40
2.0
 40
2.0
 40
3.0
 40
3.0
 40
3.0
 40
4.0
 40
4.0
 40
4.0
 40
5.0
 40
5.0
 40
5.0
 40
6.0
 40
6.0
 40
6.0
 40
7.0
 40
7.0
 40
7.0
 40
7.0
 10
87.90023328993055
 20
187.1703152126736
 30
0.0
 10
87.83684353298611
 20
186.5984293619792
 30
0.0
 10
87.99600694444443
 20
186.0906222873264
 30
0.0
 10
88.15448133680555
 20
185.5511203342014
 30
0.0
 10
88.21787109374999
 20
185.3919569227431
 30
0.0
 10
88.28126085069444
 20
185.2651774088542
 30
0.0
 10
88.40872938368055
 20
185.137708875868
 30
0.0
 10
88.72636718749999
 20
184.6615966796875
 30
0.0
 10
88.72636718749999
 20
184.1854844835069
 30
0.0
 10
89.04331597222222
 20
183.7093722873264
 30
0.0
 10
89.07501085069444
 20
183.6142876519097
 30
0.0
 10
89.10670572916666
 20
183.5185139973958
 30
0.0
 10
89.13840060763889
 20
183.4234293619792
 30
0.0
 10
89.13840060763889
 20
183.3283447265625
 30
0.0
 10
89.20247938368055
 20
183.2332600911458
 30
0.0
 10
89.23417426215276
 20
183.1374864366319
 30
0.0
 10
89.36095377604165
 20
182.7888427734375
 30
0.0
 10
89.52011718749999
 20
182.5028998480903
 30
0.0
 10
89.74198133680555
 20
182.216956922743
 30
0.0
 10
89.80537109375
 20
182.1218722873264
 30
0.0
 10
89.83706597222222
 20
182.0267876519097
 30
0.0
 10
89.86876085069444
 20
181.9310139973958
 30
0.0
  0
SPLINE
  5
C4
330
A
100
AcDbEntity
  8
LAYER_1
 62
     7
100
AcDbSpline
210
0.0
220
0.0
230
1.0
 70
     8
 71
     3
 72
    14
 73
    10
 74
     0
 42
0.0000000001
 43
0.0000000001
 40
0.0
 40
0.0
 40
0.0
 40
0.0
 40
1.0
 40
1.0
 40
1.0
 40
2.0
 40
2.0
 40
2.0
 40
3.0
 40
3.0
 40
3.0
 40
3.0
 10
91.86898328993055
 20
188.821204969618
 30
0.0
 10
92.09153645833332
 20
188.0591498480903
 30
0.0
 10
92.40917426215277
 20
187.2970947265625
 30
0.0
 10
92.75850694444443
 20
186.5667344835069
 30
0.0
 10
93.10715060763889
 20
185.8363742404514
 30
0.0
 10
93.58395182291666
 20
185.137708875868
 30
0.0
 10
93.90090060763887
 20
184.3763427734375
 30
0.0
 10
94.02836914062499
 20
184.0903998480903
 30
0.0
 10
94.15514865451388
 20
183.7727620442708
 30
0.0
 10
94.21853841145833
 20
183.4551242404514
 30
0.0
  0
SPLINE
  5
C3
330
A
100
AcDbEntity
  8
LAYER_1
 62
     7
100
AcDbSpline
210
0.0
220
0.0
230
1.0
 70
     8
 71
     3
 72
    14
 73
    10
 74
     0
 42
0.0000000001
 43
0.0000000001
 40
0.0
 40
0.0
 40
0.0
 40
0.0
 40
1.0
 40
1.0
 40
1.0
 40
2.0
 40
2.0
 40
2.0
 40
3.0
 40
3.0
 40
3.0
 40
3.0
 10
97.13997938368054
 20
190.7580376519097
 30
0.0
 10
97.10828450520833
 20
190.6305691189236
 30
0.0
 10
97.13997938368054
 20
190.5037896050347
 30
0.0
 10
97.17167426215276
 20
190.3770100911458
 30
0.0
 10
97.61609157986111
 20
189.0430691189236
 30
0.0
 10
98.37814670138889
 20
187.9640652126736
 30
0.0
 10
98.98103841145833
 20
186.7252088758681
 30
0.0
 10
99.17189670138887
 20
186.3765652126736
 30
0.0
 10
99.26698133680554
 20
185.9955376519097
 30
0.0
 10
99.39376085069443
 20
185.646204969618
 30
0.0
  0
SPLINE
  5
C2
330
A
100
AcDbEntity
  8
LAYER_1
 62
     7
100
AcDbSpline
210
0.0
220
0.0
230
1.0
 70
     8
 71
     3
 72
    17
 73
    13
 74
     0
 42
0.0000000001
 43
0.0000000001
 40
0.0
 40
0.0
 40
0.0
 40
0.0
 40
1.0
 40
1.0
 40
1.0
 40
2.0
 40
2.0
 40
2.0
 40
3.0
 40
3.0
 40
3.0
 40
4.0
 40
4.0
 40
4.0
 40
4.0
 10
102.0609537760417
 20
192.789954969618
 30
0.0
 10
102.0292588975694
 20
192.4723171657986
 30
0.0
 10
102.1243435329861
 20
192.1863742404514
 30
0.0
 10
102.2835069444444
 20
191.9011203342014
 30
0.0
 10
102.6645345052083
 20
191.3609293619792
 30
0.0
 10
102.8863986545139
 20
190.7897325303819
 30
0.0
 10
103.1723415798611
 20
190.1861518012153
 30
0.0
 10
103.3625108506944
 20
189.7100396050347
 30
0.0
 10
103.553369140625
 20
189.2339274088542
 30
0.0
 10
103.8393120659722
 20
188.7578152126736
 30
0.0
 10
104.09287109375
 20
188.3767876519097
 30
0.0
 10
104.4105088975694
 20
188.1859293619792
 30
0.0
 10
104.7281467013889
 20
187.8999864366319
 30
0.0
  0
SPLINE
  5
C1
330
A
100
AcDbEntity
  8
LAYER_1
 62
     7
100
AcDbSpline
210
0.0
220
0.0
230
1.0
 70
     8
 71
     3
 72
    17
 73
    13
 74
     0
 42
0.0000000001
 43
0.0000000001
 40
0.0
 40
0.0
 40
0.0
 40
0.0
 40
1.0
 40
1.0
 40
1.0
 40
2.0
 40
2.0
 40
2.0
 40
3.0
 40
3.0
 40
3.0
 40
4.0
 40
4.0
 40
4.0
 40
4.0
 10
106.4107313368055
 20
194.3457600911458
 30
0.0
 10
106.728369140625
 20
193.7104844835069
 30
0.0
 10
106.9826171875
 20
193.075208875868
 30
0.0
 10
107.3629557291667
 20
192.4406222873264
 30
0.0
 10
107.4587293836806
 20
192.281458875868
 30
0.0
 10
107.6805935329861
 20
192.1863742404514
 30
0.0
 10
107.7763671875
 20
192.0595947265625
 30
0.0
 10
108.1884006076389
 20
191.5517876519097
 30
0.0
 10
108.315869140625
 20
190.9165120442708
 30
0.0
 10
108.6968967013889
 20
190.3453152126736
 30
0.0
 10
108.8236762152778
 20
190.1861518012153
 30
0.0
 10
108.8870659722222
 20
189.9642876519097
 30
0.0
 10
109.109619140625
 20
189.8685139973958
 30
0.0
  0
SPLINE
  5
C0
330
A
100
AcDbEntity
  8
LAYER_1
 62
     7
100
AcDbSpline
210
0.0
220
0.0
230
1.0
 70
     8
 71
     3
 72
    26
 73
    22
 74
     0
 42
0.0000000001
 43
0.0000000001
 40
0.0
 40
0.0
 40
0.0
 40
0.0
 40
1.0
 40
1.0
 40
1.0
 40
2.0
 40
2.0
 40
2.0
 40
3.0
 40
3.0
 40
3.0
 40
4.0
 40
4.0
 40
4.0
 40
5.0
 40
5.0
 40
5.0
 40
6.0
 40
6.0
 40
6.0
 40
7.0
 40
7.0
 40
7.0
 40
7.0
 10
110.4745659722222
 20
196.0600396050347
 30
0.0
 10
110.44287109375
 20
195.9649549696181
 30
0.0
 10
110.5062608506944
 20
195.8698703342014
 30
0.0
 10
110.5696506076389
 20
195.7740966796875
 30
0.0
 10
110.6337293836806
 20
195.6473171657986
 30
0.0
 10
110.7288140190972
 20
195.5522325303819
 30
0.0
 10
110.8238986545139
 20
195.4247639973958
 30
0.0
 10
110.9189832899306
 20
195.2345947265625
 30
0.0
 10
111.0147569444444
 20
195.0437364366319
 30
0.0
 10
111.1415364583333
 20
194.8852620442708
 30
0.0
 10
111.490869140625
 20
194.5676242404514
 30
0.0
 10
111.6176486545139
 20
194.1549018012153
 30
0.0
 10
111.9035915798611
 20
193.8372639973958
 30
0.0
 10
112.0937608506944
 20
193.6470947265625
 30
0.0
 10
112.1571506076389
 20
193.4245415581597
 30
0.0
 10
112.284619140625
 20
193.2026774088542
 30
0.0
 10
112.5064832899305
 20
192.8533447265625
 30
0.0
 10
112.82412109375
 20
192.6307915581597
 30
0.0
 10
113.1417588975694
 20
192.3772325303819
 30
0.0
 10
113.4277018229167
 20
192.1863742404514
 30
0.0
 10
113.7136447482639
 20
192.0912896050347
 30
0.0
 10
113.9988986545139
 20
191.9645100911458
 30
0.0
  0
SPLINE
  5
BF
330
A
100
AcDbEntity
  8
LAYER_1
 62
     7
100
AcDbSpline
210
0.0
220
0.0
230
1.0
 70
     8
 71
     3
 72
    20
 73
    16
 74
     0
 42
0.0000000001
 43
0.0000000001
 40
0.0
 40
0.0
 40
0.0
 40
0.0
 40
1.0
 40
1.0
 40
1.0
 40
2.0
 40
2.0
 40
2.0
 40
3.0
 40
3.0
 40
3.0
 40
4.0
 40
4.0
 40
4.0
 40
5.0
 40
5.0
 40
5.0
 40
5.0
 10
115.0152018229167
 20
197.9334825303819
 30
0.0
 10
114.9835069444444
 20
197.7109293619791
 30
0.0
 10
115.0785915798611
 20
197.5207600911458
 30
0.0
 10
115.1736762152778
 20
197.2982069227431
 30
0.0
 10
115.3011447482639
 20
196.8220947265625
 30
0.0
 10
115.7455620659722
 20
196.5678466796875
 30
0.0
 10
115.99912109375
 20
196.1234293619792
 30
0.0
 10
116.2850640190972
 20
195.6790120442708
 30
0.0
 10
116.5076171875
 20
195.2979844835069
 30
0.0
 10
116.7611762152778
 20
194.8535671657986
 30
0.0
 10
116.9520345052083
 20
194.5359293619792
 30
0.0
 10
117.2379774305556
 20
194.2823703342014
 30
0.0
 10
117.4598415798611
 20
193.9964274088542
 30
0.0
 10
117.6500108506944
 20
193.8055691189236
 30
0.0
 10
117.9042588975694
 20
193.6787896050347
 30
0.0
 10
118.1268120659722
 20
193.5203152126736
 30
0.0
  0
SPLINE
  5
BE
330
A
100
AcDbEntity
  8
LAYER_1
 62
     7
100
AcDbSpline
210
0.0
220
0.0
230
1.0
 70
     8
 71
     3
 72
    20
 73
    16
 74
     0
 42
0.0000000001
 43
0.0000000001
 40
0.0
 40
0.0
 40
0.0
 40
0.0
 40
1.0
 40
1.0
 40
1.0
 40
2.0
 40
2.0
 40
2.0
 40
3.0
 40
3.0
 40
3.0
 40
4.0
 40
4.0
 40
4.0
 40
5.0
 40
5.0
 40
5.0
 40
5.0
 10
117.9993435329861
 20
199.139954969618
 30
0.0
 10
118.1268120659722
 20
198.6638427734375
 30
0.0
 10
118.38037109375
 20
198.2187364366319
 30
0.0
 10
118.7613986545139
 20
197.9017876519097
 30
0.0
 10
119.2698947482639
 20
197.4890652126736
 30
0.0
 10
119.5234537760417
 20
196.9171793619792
 30
0.0
 10
119.9361762152778
 20
196.4093722873264
 30
0.0
 10
120.1587293836806
 20
196.1551242404514
 30
0.0
 10
120.4129774305555
 20
195.9332600911458
 30
0.0
 10
120.4763671875
 20
195.5839274088542
 30
0.0
 10
120.5080620659722
 20
195.3930691189236
 30
0.0
 10
120.5397569444444
 20
195.2028998480903
 30
0.0
 10
120.6031467013889
 20
195.0120415581597
 30
0.0
 10
120.6348415798611
 20
194.916956922743
 30
0.0
 10
120.6665364583333
 20
194.8218722873264
 30
0.0
 10
120.7299262152778
 20
194.7267876519097
 30
0.0
  0
SPLINE
  5
BD
330
A
100
AcDbEntity
  8
LAYER_1
 62
     7
100
AcDbSpline
210
0.0
220
0.0
230
1.0
 70
     8
 71
     3
 72
    23
 73
    19
 74
     0
 42
0.0000000001
 43
0.0000000001
 40
0.0
 40
0.0
 40
0.0
 40
0.0
 40
1.0
 40
1.0
 40
1.0
 40
2.0
 40
2.0
 40
2.0
 40
3.0
 40
3.0
 40
3.0
 40
4.0
 40
4.0
 40
4.0
 40
5.0
 40
5.0
 40
5.0
 40
6.0
 40
6.0
 40
6.0
 40
6.0
 10
118.6663140190972
 20
193.5203152126736
 30
0.0
 10
118.7930935329861
 20
193.4886203342014
 30
0.0
 10
118.9205620659722
 20
193.4245415581597
 30
0.0
 10
119.0473415798611
 20
193.3928466796875
 30
0.0
 10
119.6826171875
 20
193.3294569227431
 30
0.0
 10
120.2538140190972
 20
193.1709825303819
 30
0.0
 10
120.8573947482639
 20
192.9801242404514
 30
0.0
 10
120.9524793836805
 20
192.9801242404514
 30
0.0
 10
121.0792588975694
 20
192.9484293619792
 30
0.0
 10
121.1743435329861
 20
192.9484293619792
 30
0.0
 10
121.3968967013889
 20
192.8850396050347
 30
0.0
 10
121.5870659722222
 20
192.6624864366319
 30
0.0
 10
121.809619140625
 20
192.6307915581597
 30
0.0
 10
122.4131998697917
 20
192.5674018012153
 30
0.0
 10
122.9843967013889
 20
192.4089274088541
 30
0.0
 10
123.5555935329861
 20
192.3772325303819
 30
0.0
 10
124.4451171875
 20
192.3138427734375
 30
0.0
 10
125.3022569444444
 20
192.2497639973958
 30
0.0
 10
126.1910915798611
 20
192.281458875868
 30
0.0
  0
SPLINE
  5
BC
330
A
100
AcDbEntity
  8
LAYER_1
 62
     7
100
AcDbSpline
210
0.0
220
0.0
230
1.0
 70
     8
 71
     3
 72
    23
 73
    19
 74
     0
 42
0.0000000001
 43
0.0000000001
 40
0.0
 40
0.0
 40
0.0
 40
0.0
 40
1.0
 40
1.0
 40
1.0
 40
2.0
 40
2.0
 40
2.0
 40
3.0
 40
3.0
 40
3.0
 40
4.0
 40
4.0
 40
4.0
 40
5.0
 40
5.0
 40
5.0
 40
6.0
 40
6.0
 40
6.0
 40
6.0
 10
114.7292588975694
 20
191.7736518012153
 30
0.0
 10
115.4913140190972
 20
191.7102620442708
 30
0.0
 10
116.2216742621528
 20
191.5200927734375
 30
0.0
 10
116.9837293836805
 20
191.3292344835069
 30
0.0
 10
117.1738986545139
 20
191.2975396050347
 30
0.0
 10
117.3964518229167
 20
191.2975396050347
 30
0.0
 10
117.58662109375
 20
191.2341498480903
 30
0.0
 10
118.2218967013889
 20
191.1073703342014
 30
0.0
 10
118.8254774305556
 20
191.0432915581597
 30
0.0
 10
119.4917588975694
 20
190.948206922743
 30
0.0
 10
120.1587293836806
 20
190.8214274088542
 30
0.0
 10
120.7299262152778
 20
190.5671793619792
 30
0.0
 10
121.4285915798611
 20
190.4403998480903
 30
0.0
 10
121.7462293836805
 20
190.3770100911458
 30
0.0
 10
122.0004774305556
 20
190.2495415581597
 30
0.0
 10
122.3174262152778
 20
190.1861518012153
 30
0.0
 10
123.397119140625
 20
189.9959825303819
 30
0.0
 10
124.4451171875
 20
189.9325927734375
 30
0.0
 10
125.4924262152778
 20
189.614954969618
 30
0.0
  0
SPLINE
  5
BB
330
A
100
AcDbEntity
  8
LAYER_1
 62
     7
100
AcDbSpline
210
0.0
220
0.0
230
1.0
 70
     8
 71
     3
 72
    26
 73
    22
 74
     0
 42
0.0000000001
 43
0.0000000001
 40
0.0
 40
0.0
 40
0.0
 40
0.0
 40
1.0
 40
1.0
 40
1.0
 40
2.0
 40
2.0
 40
2.0
 40
3.0
 40
3.0
 40
3.0
 40
4.0
 40
4.0
 40
4.0
 40
5.0
 40
5.0
 40
5.0
 40
6.0
 40
6.0
 40
6.0
 40
7.0
 40
7.0
 40
7.0
 40
7.0
 10
109.5540364583333
 20
189.7734293619791
 30
0.0
 10
109.6174262152778
 20
189.7100396050347
 30
0.0
 10
109.6808159722222
 20
189.614954969618
 30
0.0
 10
109.7759006076389
 20
189.5832600911458
 30
0.0
 10
110.5062608506944
 20
189.3607069227431
 30
0.0
 10
111.23662109375
 20
189.3290120442708
 30
0.0
 10
111.9035915798611
 20
188.9796793619792
 30
0.0
 10
112.0620659722222
 20
188.8845947265625
 30
0.0
 10
112.2212293836806
 20
188.9162896050347
 30
0.0
 10
112.4113986545139
 20
188.8528998480903
 30
0.0
 10
112.82412109375
 20
188.7895100911458
 30
0.0
 10
113.1734537760417
 20
188.566956922743
 30
0.0
 10
113.5861762152778
 20
188.4401774088541
 30
0.0
 10
113.872119140625
 20
188.3450927734375
 30
0.0
 10
114.0939832899306
 20
188.1225396050347
 30
0.0
 10
114.3482313368055
 20
188.0591498480903
 30
0.0
 10
115.2370659722222
 20
187.8682915581597
 30
0.0
 10
116.0948947482639
 20
187.773206922743
 30
0.0
 10
116.9837293836805
 20
187.6464274088542
 30
0.0
 10
117.9676486545139
 20
187.518958875868
 30
0.0
 10
118.9205620659722
 20
187.3287896050347
 30
0.0
 10
119.9044813368056
 20
187.2020100911458
 30
0.0
  0
SPLINE
  5
BA
330
A
100
AcDbEntity
  8
LAYER_1
 62
     7
100
AcDbSpline
210
0.0
220
0.0
230
1.0
 70
     8
 71
     3
 72
    23
 73
    19
 74
     0
 42
0.0000000001
 43
0.0000000001
 40
0.0
 40
0.0
 40
0.0
 40
0.0
 40
1.0
 40
1.0
 40
1.0
 40
2.0
 40
2.0
 40
2.0
 40
3.0
 40
3.0
 40
3.0
 40
4.0
 40
4.0
 40
4.0
 40
5.0
 40
5.0
 40
5.0
 40
6.0
 40
6.0
 40
6.0
 40
6.0
 10
105.2359537760417
 20
187.8999864366319
 30
0.0
 10
105.5852864583333
 20
187.6464274088542
 30
0.0
 10
105.9663140190972
 20
187.4555691189236
 30
0.0
 10
106.3473415798611
 20
187.3287896050347
 30
0.0
 10
107.2044813368055
 20
187.0111518012153
 30
0.0
 10
107.9982313368056
 20
186.7575927734375
 30
0.0
 10
108.8870659722222
 20
186.5033447265625
 30
0.0
 10
109.4906467013889
 20
186.3448703342014
 30
0.0
 10
110.0301486545139
 20
186.1223171657986
 30
0.0
 10
110.6337293836806
 20
185.8997639973958
 30
0.0
 10
110.9830620659722
 20
185.8046793619791
 30
0.0
 10
111.3000108506944
 20
185.8046793619791
 30
0.0
 10
111.6493435329861
 20
185.7412896050347
 30
0.0
 10
112.3797037760417
 20
185.5828152126736
 30
0.0
 10
113.0466742621528
 20
185.5187364366319
 30
0.0
 10
113.7770345052083
 20
185.3919569227431
 30
0.0
 10
114.1897569444444
 20
185.3285671657986
 30
0.0
 10
114.6024793836806
 20
185.1700927734375
 30
0.0
 10
115.0152018229167
 20
185.137708875868
 30
0.0
  0
SPLINE
  5
B9
330
A
100
AcDbEntity
  8
LAYER_1
 62
     7
100
AcDbSpline
210
0.0
220
0.0
230
1.0
 70
     8
 71
     3
 72
    14
 73
    10
 74
     0
 42
0.0000000001
 43
0.0000000001
 40
0.0
 40
0.0
 40
0.0
 40
0.0
 40
1.0
 40
1.0
 40
1.0
 40
2.0
 40
2.0
 40
2.0
 40
3.0
 40
3.0
 40
3.0
 40
3.0
 10
99.83886718749999
 20
185.5828152126736
 30
0.0
 10
100.0290364583333
 20
185.2334825303819
 30
0.0
 10
100.4734537760417
 20
185.2017876519097
 30
0.0
 10
100.7910915798611
 20
185.1060139973958
 30
0.0
 10
101.9341742621528
 20
184.7249864366319
 30
0.0
 10
103.0455620659722
 20
184.343958875868
 30
0.0
 10
104.09287109375
 20
183.804456922743
 30
0.0
 10
105.7754557291667
 20
183.4234293619792
 30
0.0
 10
107.4270345052083
 20
182.8522325303819
 30
0.0
 10
109.109619140625
 20
182.5028998480903
 30
0.0
  0
SPLINE
  5
B8
330
A
100
AcDbEntity
  8
LAYER_1
 62
     7
100
AcDbSpline
210
0.0
220
0.0
230
1.0
 70
     8
 71
     3
 72
    23
 73
    19
 74
     0
 42
0.0000000001
 43
0.0000000001
 40
0.0
 40
0.0
 40
0.0
 40
0.0
 40
1.0
 40
1.0
 40
1.0
 40
2.0
 40
2.0
 40
2.0
 40
3.0
 40
3.0
 40
3.0
 40
4.0
 40
4.0
 40
4.0
 40
5.0
 40
5.0
 40
5.0
 40
6.0
 40
6.0
 40
6.0
 40
6.0
 10
94.53617621527776
 20
183.5185139973958
 30
0.0
 10
94.75872938368055
 20
183.2015652126736
 30
0.0
 10
95.04398328993055
 20
182.9790120442708
 30
0.0
 10
95.42501085069443
 20
182.8522325303819
 30
0.0
 10
96.15537109374999
 20
182.6613742404514
 30
0.0
 10
96.91742621527777
 20
182.6613742404514
 30
0.0
 10
97.58439670138888
 20
182.3120415581597
 30
0.0
 10
98.12389865451388
 20
182.0267876519097
 30
0.0
 10
98.66340060763888
 20
181.9310139973958
 30
0.0
 10
99.23528645833332
 20
181.7725396050347
 30
0.0
 10
99.58461914062499
 20
181.677454969618
 30
0.0
 10
99.87056206597221
 20
181.3915120442708
 30
0.0
 10
100.2192057291667
 20
181.2647325303819
 30
0.0
 10
100.7910915798611
 20
181.1055691189236
 30
0.0
 10
101.2988986545139
 20
180.9153998480903
 30
0.0
 10
101.8384006076389
 20
180.7562364366319
 30
0.0
 10
102.6962293836806
 20
180.5343722873264
 30
0.0
 10
103.4899793836806
 20
180.2484293619792
 30
0.0
 10
104.347119140625
 20
180.1850396050347
 30
0.0
  0
SPLINE
  5
B7
330
A
100
AcDbEntity
  8
LAYER_1
 62
     7
100
AcDbSpline
210
0.0
220
0.0
230
1.0
 70
     8
 71
     3
 72
    14
 73
    10
 74
     0
 42
0.0000000001
 43
0.0000000001
 40
0.0
 40
0.0
 40
0.0
 40
0.0
 40
1.0
 40
1.0
 40
1.0
 40
2.0
 40
2.0
 40
2.0
 40
3.0
 40
3.0
 40
3.0
 40
3.0
 10
90.09131401909721
 20
181.5499864366319
 30
0.0
 10
90.82167426215277
 20
180.8520100911458
 30
0.0
 10
91.71050889756944
 20
180.4075927734375
 30
0.0
 10
92.69511718749999
 20
180.2484293619792
 30
0.0
 10
93.64734157986111
 20
179.6455376519097
 30
0.0
 10
94.66295572916665
 20
179.1687364366319
 30
0.0
 10
95.74264865451389
 20
178.8200927734375
 30
0.0
 10
96.79064670138888
 20
178.502454969618
 30
0.0
 10
97.77456597222222
 20
178.0897325303819
 30
0.0
 10
98.79086914062499
 20
177.8037896050347
 30
0.0
  0
SPLINE
  5
B6
330
A
100
AcDbEntity
  8
LAYER_1
 62
     7
100
AcDbSpline
210
0.0
220
0.0
230
1.0
 70
     8
 71
     3
 72
   167
 73
   163
 74
     0
 42
0.0000000001
 43
0.0000000001
 40
0.0
 40
0.0
 40
0.0
 40
0.0
 40
1.0
 40
1.0
 40
1.0
 40
2.0
 40
2.0
 40
2.0
 40
3.0
 40
3.0
 40
3.0
 40
4.0
 40
4.0
 40
4.0
 40
5.0
 40
5.0
 40
5.0
 40
6.0
 40
6.0
 40
6.0
 40
7.0
 40
7.0
 40
7.0
 40
8.0
 40
8.0
 40
8.0
 40
9.0
 40
9.0
 40
9.0
 40
10.0
 40
10.0
 40
10.0
 40
11.0
 40
11.0
 40
11.0
 40
12.0
 40
12.0
 40
12.0
 40
13.0
 40
13.0
 40
13.0
 40
14.0
 40
14.0
 40
14.0
 40
15.0
 40
15.0
 40
15.0
 40
16.0
 40
16.0
 40
16.0
 40
17.0
 40
17.0
 40
17.0
 40
18.0
 40
18.0
 40
18.0
 40
19.0
 40
19.0
 40
19.0
 40
20.0
 40
20.0
 40
20.0
 40
21.0
 40
21.0
 40
21.0
 40
22.0
 40
22.0
 40
22.0
 40
23.0
 40
23.0
 40
23.0
 40
24.0
 40
24.0
 40
24.0
 40
25.0
 40
25.0
 40
25.0
 40
26.0
 40
26.0
 40
26.0
 40
27.0
 40
27.0
 40
27.0
 40
28.0
 40
28.0
 40
28.0
 40
29.0
 40
29.0
 40
29.0
 40
30.0
 40
30.0
 40
30.0
 40
31.0
 40
31.0
 40
31.0
 40
32.0
 40
32.0
 40
32.0
 40
33.0
 40
33.0
 40
33.0
 40
34.0
 40
34.0
 40
34.0
 40
35.0
 40
35.0
 40
35.0
 40
36.0
 40
36.0
 40
36.0
 40
37.0
 40
37.0
 40
37.0
 40
38.0
 40
38.0
 40
38.0
 40
39.0
 40
39.0
 40
39.0
 40
40.0
 40
40.0
 40
40.0
 40
41.0
 40
41.0
 40
41.0
 40
42.0
 40
42.0
 40
42.0
 40
43.0
 40
43.0
 40
43.0
 40
44.0
 40
44.0
 40
44.0
 40
45.0
 40
45.0
 40
45.0
 40
46.0
 40
46.0
 40
46.0
 40
47.0
 40
47.0
 40
47.0
 40
48.0
 40
48.0
 40
48.0
 40
49.0
 40
49.0
 40
49.0
 40
50.0
 40
50.0
 40
50.0
 40
51.0
 40
51.0
 40
51.0
 40
52.0
 40
52.0
 40
52.0
 40
53.0
 40
53.0
 40
53.0
 40
54.0
 40
54.0
 40
54.0
 40
54.0
 10
68.21564670138888
 20
173.6765652126736
 30
0.0
 10
68.21564670138888
 20
173.6765652126736
 30
0.0
 10
52.27725694444444
 20
166.9455376519097
 30
0.0
 10
52.27725694444444
 20
166.9455376519097
 30
0.0
 10
52.27725694444444
 20
166.9455376519097
 30
0.0
 10
51.49866536458333
 20
159.4448757595486
 30
0.0
 10
51.49866536458333
 20
159.4448757595486
 30
0.0
 10
51.49866536458333
 20
159.4448757595486
 30
0.0
 10
51.82250434027777
 20
154.7285400390625
 30
0.0
 10
51.82250434027777
 20
154.7285400390625
 30
0.0
 10
51.82250434027777
 20
154.7285400390625
 30
0.0
 10
52.39852430555555
 20
152.8206461588542
 30
0.0
 10
52.39852430555555
 20
152.8206461588542
 30
0.0
 10
52.39852430555555
 20
152.8206461588542
 30
0.0
 10
53.37073025173611
 20
149.9763753255208
 30
0.0
 10
53.37073025173611
 20
149.9763753255208
 30
0.0
 10
53.37073025173611
 20
149.9763753255208
 30
0.0
 10
53.23981662326388
 20
145.9366563585069
 30
0.0
 10
53.23981662326388
 20
145.9366563585069
 30
0.0
 10
53.23981662326388
 20
145.9366563585069
 30
0.0
 10
51.26095377604166
 20
143.577454969618
 30
0.0
 10
51.26095377604166
 20
143.577454969618
 30
0.0
 10
51.26095377604166
 20
143.577454969618
 30
0.0
 10
50.65323893229166
 20
141.4676784939236
 30
0.0
 10
50.65323893229166
 20
141.4676784939236
 30
0.0
 10
50.65323893229166
 20
141.4676784939236
 30
0.0
 10
51.82870551215277
 20
136.2938340928819
 30
0.0
 10
51.82870551215277
 20
136.2938340928819
 30
0.0
 10
51.82870551215277
 20
136.2938340928819
 30
0.0
 10
55.32478841145833
 20
129.6075927734375
 30
0.0
 10
55.32478841145833
 20
129.6075927734375
 30
0.0
 10
55.32478841145833
 20
129.6075927734375
 30
0.0
 10
56.2976833767361
 20
127.5922119140625
 30
0.0
 10
56.2976833767361
 20
127.5922119140625
 30
0.0
 10
56.2976833767361
 20
127.5922119140625
 30
0.0
 10
57.23750542534722
 20
127.3565673828125
 30
0.0
 10
57.47314995659722
 20
125.7105007595486
 30
0.0
 10
57.70879448784721
 20
124.0644341362847
 30
0.0
 10
57.70879448784721
 20
120.0660563151042
 30
0.0
 10
57.70879448784721
 20
120.0660563151042
 30
0.0
 10
57.70879448784721
 20
120.0660563151042
 30
0.0
 10
59.35486111111111
 20
115.1271674262153
 30
0.0
 10
59.35486111111111
 20
115.1271674262153
 30
0.0
 10
59.35486111111111
 20
115.1271674262153
 30
0.0
 10
62.17708333333333
 20
113.4811008029514
 30
0.0
 10
62.17708333333333
 20
113.4811008029514
 30
0.0
 10
62.17708333333333
 20
113.4811008029514
 30
0.0
 10
64.52870551215277
 20
111.5993896484375
 30
0.0
 10
64.52870551215277
 20
111.5993896484375
 30
0.0
 10
64.52870551215277
 20
111.5993896484375
 30
0.0
 10
65.93981662326388
 20
106.1899007161458
 30
0.0
 10
65.93981662326388
 20
106.1899007161458
 30
0.0
 10
65.93981662326388
 20
106.1899007161458
 30
0.0
 10
67.58657226562499
 20
105.4843451605903
 30
0.0
 10
67.58657226562499
 20
105.4843451605903
 30
0.0
 10
67.58657226562499
 20
105.4843451605903
 30
0.0
 10
68.7620388454861
 20
105.2493896484375
 30
0.0
 10
68.7620388454861
 20
105.2493896484375
 30
0.0
 10
68.7620388454861
 20
105.2493896484375
 30
0.0
 10
72.52546115451388
 20
105.0144341362847
 30
0.0
 10
72.52546115451388
 20
105.0144341362847
 30
0.0
 10
72.52546115451388
 20
105.0144341362847
 30
0.0
 10
77.69930555555555
 20
103.3676784939236
 30
0.0
 10
77.69930555555555
 20
103.3676784939236
 30
0.0
 10
77.69930555555555
 20
103.3676784939236
 30
0.0
 10
79.70917426215277
 20
99.50779351128472
 30
0.0
 10
79.70917426215277
 20
99.50779351128472
 30
0.0
 10
79.70917426215277
 20
99.50779351128472
 30
0.0
 10
84.28426106770833
 20
98.19383409288193
 30
0.0
 10
84.28426106770833
 20
98.19383409288193
 30
0.0
 10
84.28426106770833
 20
98.19383409288193
 30
0.0
 10
88.0476833767361
 20
97.0176784939236
 30
0.0
 10
88.0476833767361
 20
97.0176784939236
 30
0.0
 10
88.0476833767361
 20
97.0176784939236
 30
0.0
 10
92.28170572916666
 20
93.41204155815971
 30
0.0
 10
92.28170572916666
 20
93.41204155815971
 30
0.0
 10
92.28170572916666
 20
93.41204155815971
 30
0.0
 10
95.33819444444444
 20
85.72878960503472
 30
0.0
 10
95.33819444444444
 20
85.72878960503472
 30
0.0
 10
95.33819444444444
 20
85.72878960503472
 30
0.0
 10
100.5120388454861
 20
83.84776746961805
 30
0.0
 10
100.5120388454861
 20
83.84776746961805
 30
0.0
 10
100.5120388454861
 20
83.84776746961805
 30
0.0
 10
104.7453721788194
 20
82.20101182725693
 30
0.0
 10
104.7453721788194
 20
82.20101182725693
 30
0.0
 10
104.7453721788194
 20
82.20101182725693
 30
0.0
 10
109.4493055555555
 20
81.49545627170139
 30
0.0
 10
109.4493055555555
 20
81.49545627170139
 30
0.0
 10
109.4493055555555
 20
81.49545627170139
 30
0.0
 10
112.2715277777778
 20
81.26050075954861
 30
0.0
 10
112.2715277777778
 20
81.26050075954861
 30
0.0
 10
112.2715277777778
 20
81.26050075954861
 30
0.0
 10
115.7993055555556
 20
81.26050075954861
 30
0.0
 10
115.7993055555556
 20
81.26050075954861
 30
0.0
 10
115.7993055555556
 20
81.26050075954861
 30
0.0
 10
118.386572265625
 20
81.49545627170139
 30
0.0
 10
118.386572265625
 20
81.49545627170139
 30
0.0
 10
118.386572265625
 20
81.49545627170139
 30
0.0
 10
120.9731499565972
 20
82.9065673828125
 30
0.0
 10
120.9731499565972
 20
82.9065673828125
 30
0.0
 10
120.9731499565972
 20
82.9065673828125
 30
0.0
 10
124.9212293836805
 20
83.88704155815971
 30
0.0
 10
124.9212293836805
 20
83.88704155815971
 30
0.0
 10
124.9212293836805
 20
83.88704155815971
 30
0.0
 10
128.0287055121528
 20
87.13990071614583
 30
0.0
 10
128.0287055121528
 20
87.13990071614583
 30
0.0
 10
128.0287055121528
 20
87.13990071614583
 30
0.0
 10
131.7921278211805
 20
89.49221191406249
 30
0.0
 10
131.7921278211805
 20
89.49221191406249
 30
0.0
 10
131.7921278211805
 20
89.49221191406249
 30
0.0
 10
136.7957845052083
 20
92.96762424045139
 30
0.0
 10
136.7957845052083
 20
92.96762424045139
 30
0.0
 10
136.7957845052083
 20
92.96762424045139
 30
0.0
 10
138.6120388454861
 20
93.25494520399305
 30
0.0
 10
138.6120388454861
 20
93.25494520399305
 30
0.0
 10
138.6120388454861
 20
93.25494520399305
 30
0.0
 10
140.49375
 20
99.36998969184027
 30
0.0
 10
140.49375
 20
99.36998969184027
 30
0.0
 10
140.49375
 20
99.36998969184027
 30
0.0
 10
142.1398166232639
 20
101.4866563585069
 30
0.0
 10
142.1398166232639
 20
101.4866563585069
 30
0.0
 10
142.1398166232639
 20
101.4866563585069
 30
0.0
 10
143.1457845052083
 20
101.2861518012153
 30
0.0
 10
143.1457845052083
 20
101.2861518012153
 30
0.0
 10
143.1457845052083
 20
101.2861518012153
 30
0.0
 10
144.9620388454861
 20
102.662122938368
 30
0.0
 10
144.9620388454861
 20
102.662122938368
 30
0.0
 10
144.9620388454861
 20
102.662122938368
 30
0.0
 10
145.8763671875
 20
102.8736518012153
 30
0.0
 10
145.8763671875
 20
102.8736518012153
 30
0.0
 10
145.8763671875
 20
102.8736518012153
 30
0.0
 10
149.4310167100694
 20
110.6588785807292
 30
0.0
 10
149.4310167100694
 20
110.6588785807292
 30
0.0
 10
149.4310167100694
 20
110.6588785807292
 30
0.0
 10
151.7826388888889
 20
112.5399007161458
 30
0.0
 10
151.7826388888889
 20
112.5399007161458
 30
0.0
 10
151.7826388888889
 20
112.5399007161458
 30
0.0
 10
153.6230088975694
 20
115.3827935112847
 30
0.0
 10
153.6230088975694
 20
115.3827935112847
 30
0.0
 10
153.6230088975694
 20
115.3827935112847
 30
0.0
 10
154.3699055989583
 20
119.3605007595486
 30
0.0
 10
154.3699055989583
 20
119.3605007595486
 30
0.0
 10
154.3699055989583
 20
119.3605007595486
 30
0.0
 10
155.3104166666666
 20
125.2399007161458
 30
0.0
 10
155.3104166666666
 20
125.2399007161458
 30
0.0
 10
155.3104166666666
 20
125.2399007161458
 30
0.0
 10
156.9564832899305
 20
129.7088785807292
 30
0.0
 10
156.9564832899305
 20
129.7088785807292
 30
0.0
 10
156.9564832899305
 20
129.7088785807292
 30
0.0
 10
157.6620388454861
 20
134.647767469618
 30
0.0
 10
157.6620388454861
 20
134.647767469618
 30
0.0
 10
157.6620388454861
 20
134.647767469618
 30
0.0
 10
156.9888671875
 20
142.0533447265625
 30
0.0
 10
156.9888671875
 20
142.0533447265625
 30
0.0
 10
156.9888671875
 20
142.0533447265625
 30
0.0
 10
155.5281467013889
 20
150.1176242404514
 30
0.0
 10
155.5281467013889
 20
150.1176242404514
 30
0.0
 10
155.5281467013889
 20
150.1176242404514
 30
0.0
 10
156.7215277777778
 20
155.3438340928819
 30
0.0
 10
156.7215277777778
 20
155.3438340928819
 30
0.0
 10
156.7215277777778
 20
155.3438340928819
 30
0.0
 10
128.4138671875
 20
170.8185139973958
 30
0.0
 10
128.4138671875
 20
170.8185139973958
 30
0.0
  0
LWPOLYLINE
  5
AE
330
A
100
AcDbEntity
  8
LAYER_1
 62
     7
100
AcDbPolyline
 90
        6
 70
     0
 43
0.0
 10
51.49866536458333
 20
159.4448757595486
 10
54.05492621527777
 20
155.3045600043403
 10
54.91895616319444
 20
152.3886311848958
 10
54.88312717013888
 20
151.5962592230903
 10
54.18101671006944
 20
148.7588785807292
 10
53.23981662326388
 20
147.5827229817708
  0
SPLINE
  5
AD
330
A
100
AcDbEntity
  8
LAYER_1
 62
     7
100
AcDbSpline
210
0.0
220
0.0
230
1.0
 70
     8
 71
     3
 72
    98
 73
    94
 74
     0
 42
0.0000000001
 43
0.0000000001
 40
0.0
 40
0.0
 40
0.0
 40
0.0
 40
1.0
 40
1.0
 40
1.0
 40
2.0
 40
2.0
 40
2.0
 40
3.0
 40
3.0
 40
3.0
 40
4.0
 40
4.0
 40
4.0
 40
5.0
 40
5.0
 40
5.0
 40
6.0
 40
6.0
 40
6.0
 40
7.0
 40
7.0
 40
7.0
 40
8.0
 40
8.0
 40
8.0
 40
9.0
 40
9.0
 40
9.0
 40
10.0
 40
10.0
 40
10.0
 40
11.0
 40
11.0
 40
11.0
 40
12.0
 40
12.0
 40
12.0
 40
13.0
 40
13.0
 40
13.0
 40
14.0
 40
14.0
 40
14.0
 40
15.0
 40
15.0
 40
15.0
 40
16.0
 40
16.0
 40
16.0
 40
17.0
 40
17.0
 40
17.0
 40
18.0
 40
18.0
 40
18.0
 40
19.0
 40
19.0
 40
19.0
 40
20.0
 40
20.0
 40
20.0
 40
21.0
 40
21.0
 40
21.0
 40
22.0
 40
22.0
 40
22.0
 40
23.0
 40
23.0
 40
23.0
 40
24.0
 40
24.0
 40
24.0
 40
25.0
 40
25.0
 40
25.0
 40
26.0
 40
26.0
 40
26.0
 40
27.0
 40
27.0
 40
27.0
 40
28.0
 40
28.0
 40
28.0
 40
29.0
 40
29.0
 40
29.0
 40
30.0
 40
30.0
 40
30.0
 40
31.0
 40
31.0
 40
31.0
 40
31.0
 10
50.65323893229166
 20
141.4676784939236
 30
0.0
 10
50.65323893229166
 20
141.4676784939236
 30
0.0
 10
53.71041666666666
 20
140.0565673828125
 30
0.0
 10
53.71041666666666
 20
140.0565673828125
 30
0.0
 10
53.71041666666666
 20
140.0565673828125
 30
0.0
 10
55.35717230902777
 20
136.0588785807292
 30
0.0
 10
55.59212782118055
 20
135.3533230251736
 30
0.0
 10
55.82708333333333
 20
134.647767469618
 30
0.0
 10
57.94374999999999
 20
132.5311008029514
 30
0.0
 10
57.94374999999999
 20
132.5311008029514
 30
0.0
 10
57.94374999999999
 20
132.5311008029514
 30
0.0
 10
61.70648328993055
 20
130.8843451605903
 30
0.0
 10
61.70648328993055
 20
130.8843451605903
 30
0.0
 10
61.70648328993055
 20
130.8843451605903
 30
0.0
 10
62.88263888888888
 20
128.5327229817708
 30
0.0
 10
64.29374999999999
 20
127.8271674262153
 30
0.0
 10
65.7048611111111
 20
127.1216118706597
 30
0.0
 10
68.05648328993055
 20
125.7105007595486
 30
0.0
 10
68.05648328993055
 20
125.7105007595486
 30
0.0
 10
68.05648328993055
 20
125.7105007595486
 30
0.0
 10
74.87708333333333
 20
119.8311008029514
 30
0.0
 10
74.87708333333333
 20
119.8311008029514
 30
0.0
 10
74.87708333333333
 20
119.8311008029514
 30
0.0
 10
72.75972764756943
 20
120.0667453342014
 30
0.0
 10
78.63981662326388
 20
118.4199896918403
 30
0.0
 10
84.51990559895833
 20
116.7732340494792
 30
0.0
 10
85.22546115451388
 20
118.4199896918403
 30
0.0
 10
85.22546115451388
 20
118.4199896918403
 30
0.0
 10
85.22546115451388
 20
118.4199896918403
 30
0.0
 10
87.57708333333332
 20
118.6556342230903
 30
0.0
 10
88.28263888888888
 20
118.4199896918403
 30
0.0
 10
88.98819444444443
 20
118.1843451605903
 30
0.0
 10
92.51597222222222
 20
117.4787896050347
 30
0.0
 10
92.51597222222222
 20
117.4787896050347
 30
0.0
 10
92.51597222222222
 20
117.4787896050347
 30
0.0
 10
94.16203884548611
 20
116.7732340494792
 30
0.0
 10
94.16203884548611
 20
116.7732340494792
 30
0.0
 10
94.16203884548611
 20
116.7732340494792
 30
0.0
 10
95.80879448784721
 20
112.7755452473958
 30
0.0
 10
95.80879448784721
 20
112.7755452473958
 30
0.0
 10
95.80879448784721
 20
112.7755452473958
 30
0.0
 10
95.80810546874999
 20
112.0699896918403
 30
0.0
 10
97.68981662326388
 20
112.0699896918403
 30
0.0
 10
99.57152777777777
 20
112.0699896918403
 30
0.0
 10
98.86528320312499
 20
111.5987006293403
 30
0.0
 10
101.2175944010417
 20
111.1287896050347
 30
0.0
 10
103.5699055989583
 20
110.6588785807292
 30
0.0
 10
105.686572265625
 20
110.1889675564236
 30
0.0
 10
106.3921278211806
 20
109.9533230251736
 30
0.0
 10
107.0976833767361
 20
109.7176784939236
 30
0.0
 10
109.4499945746528
 20
110.6588785807292
 30
0.0
 10
111.3310167100694
 20
110.6588785807292
 30
0.0
 10
113.2120388454861
 20
110.6588785807292
 30
0.0
 10
113.6826388888889
 20
111.3644341362847
 30
0.0
 10
115.09375
 20
111.3644341362847
 30
0.0
 10
116.5048611111111
 20
111.3644341362847
 30
0.0
 10
114.1532389322917
 20
112.3056342230903
 30
0.0
 10
116.5048611111111
 20
111.3644341362847
 30
0.0
 10
118.8564832899306
 20
110.4232340494792
 30
0.0
 10
118.2942437065972
 20
111.1156982421875
 30
0.0
 10
120.0326388888889
 20
110.1882785373264
 30
0.0
 10
121.7710340711806
 20
109.2608588324653
 30
0.0
 10
122.3849500868056
 20
112.5399007161458
 30
0.0
 10
123.3254611545139
 20
112.5399007161458
 30
0.0
 10
124.2659722222222
 20
112.5399007161458
 30
0.0
 10
126.8532389322917
 20
112.7755452473958
 30
0.0
 10
127.5587944878472
 20
112.7755452473958
 30
0.0
 10
128.2643500434028
 20
112.7755452473958
 30
0.0
 10
130.850927734375
 20
113.0105007595486
 30
0.0
 10
130.850927734375
 20
113.0105007595486
 30
0.0
 10
130.850927734375
 20
113.0105007595486
 30
0.0
 10
133.4381944444444
 20
113.7160563151042
 30
0.0
 10
134.14375
 20
113.7160563151042
 30
0.0
 10
134.8493055555555
 20
113.7160563151042
 30
0.0
 10
153.19375
 20
128.7676784939236
 30
0.0
 10
153.19375
 20
128.7676784939236
 30
0.0
 10
153.19375
 20
128.7676784939236
 30
0.0
 10
154.3699055989583
 20
131.3549452039931
 30
0.0
 10
154.3699055989583
 20
131.3549452039931
 30
0.0
 10
154.3699055989583
 20
131.3549452039931
 30
0.0
 10
155.3111056857639
 20
132.7667453342014
 30
0.0
 10
155.0754611545139
 20
133.9422119140625
 30
0.0
 10
154.8398166232639
 20
135.1176784939236
 30
0.0
 10
153.6643500434028
 20
136.9993896484375
 30
0.0
 10
153.6643500434028
 20
136.9993896484375
 30
0.0
 10
153.6643500434028
 20
136.9993896484375
 30
0.0
 10
154.1349500868055
 20
138.4098117404514
 30
0.0
 10
154.3699055989583
 20
139.3510118272569
 30
0.0
 10
154.6048611111111
 20
140.2922119140625
 30
0.0
 10
155.7810167100694
 20
141.2327229817708
 30
0.0
 10
155.7810167100694
 20
141.9382785373264
 30
0.0
 10
155.7810167100694
 20
142.6438340928819
 30
0.0
 10
156.250927734375
 20
144.9954562717014
 30
0.0
 10
156.250927734375
 20
144.9954562717014
 30
0.0
  0
LINE
  5
AC
330
A
100
AcDbEntity
  8
LAYER_1
 62
     7
100
AcDbLine
 10
149.4310167100694
 20
110.6588785807292
 30
0.0
 11
150.6064832899305
 21
118.6549452039931
 31
0.0
  0
INSERT
  5
79
330
A
100
AcDbEntity
  8
LAYER_1
 62
     7
100
AcDbBlockReference
  2
AI9-BLK1
 10
116.4599887424045
 20
155.3650214301215
 30
0.0
  0
SPLINE
  5
77
330
A
100
AcDbEntity
  8
LAYER_1
 62
     7
100
AcDbSpline
210
0.0
220
0.0
230
1.0
 70
    11
 71
     3
 72
    17
 73
    13
 74
     0
 42
0.0000000001
 43
0.0000000001
 40
0.0
 40
0.0
 40
0.0
 40
0.0
 40
1.0
 40
1.0
 40
1.0
 40
2.0
 40
2.0
 40
2.0
 40
3.0
 40
3.0
 40
3.0
 40
4.0
 40
4.0
 40
4.0
 40
4.0
 10
128.8610405815972
 20
104.4582234700521
 30
0.0
 10
129.424658203125
 20
104.1839938693576
 30
0.0
 10
130.3272732204861
 20
104.2473836263021
 30
0.0
 10
131.0438530815972
 20
104.4334187825521
 30
0.0
 10
132.4274034288195
 20
104.783440483941
 30
0.0
 10
131.669482421875
 20
105.7122382269965
 30
0.0
 10
131.2450466579861
 20
105.763225640191
 30
0.0
 10
130.8206108940972
 20
105.8142130533854
 30
0.0
 10
129.6120713975694
 20
106.1656127929687
 30
0.0
 10
129.1118435329861
 20
106.0140285915798
 30
0.0
 10
128.6102376302083
 20
105.8610663519965
 30
0.0
 10
127.5780870225694
 20
105.0852308485243
 30
0.0
 10
128.8610405815972
 20
104.4582234700521
 30
0.0
  0
SPLINE
  5
76
330
A
100
AcDbEntity
  8
LAYER_1
 62
     7
100
AcDbSpline
210
0.0
220
0.0
230
1.0
 70
    11
 71
     3
 72
    17
 73
    13
 74
     0
 42
0.0000000001
 43
0.0000000001
 40
0.0
 40
0.0
 40
0.0
 40
0.0
 40
1.0
 40
1.0
 40
1.0
 40
2.0
 40
2.0
 40
2.0
 40
3.0
 40
3.0
 40
3.0
 40
4.0
 40
4.0
 40
4.0
 40
4.0
 10
129.1614529079861
 20
101.1454196506076
 30
0.0
 10
129.5266330295139
 20
100.9607625325521
 30
0.0
 10
130.6194173177083
 20
101.0213962131076
 30
0.0
 10
130.7958062065972
 20
101.1454196506076
 30
0.0
 10
130.9694390190972
 20
101.2694430881076
 30
0.0
 10
131.0218044704861
 20
101.8206583658854
 30
0.0
 10
130.8206108940972
 20
101.9212551540799
 30
0.0
 10
130.6166612413194
 20
102.0218519422743
 30
0.0
 10
130.1122992621528
 20
102.4242390950521
 30
0.0
 10
129.6878634982639
 20
102.1720581054687
 30
0.0
 10
129.263427734375
 20
101.9212551540799
 30
0.0
 10
128.3842393663194
 20
101.546428765191
 30
0.0
 10
129.1614529079861
 20
101.1454196506076
 30
0.0
  0
SPLINE
  5
75
330
A
100
AcDbEntity
  8
LAYER_1
 62
     7
100
AcDbSpline
210
0.0
220
0.0
230
1.0
 70
    11
 71
     3
 72
    11
 73
     7
 74
     0
 42
0.0000000001
 43
0.0000000001
 40
0.0
 40
0.0
 40
0.0
 40
0.0
 40
1.0
 40
1.0
 40
1.0
 40
2.0
 40
2.0
 40
2.0
 40
2.0
 10
127.1632975260417
 20
106.3171969943576
 30
0.0
 10
127.5105631510417
 20
106.1642347547743
 30
0.0
 10
127.241845703125
 20
105.6874335394965
 30
0.0
 10
126.9262749565972
 20
105.8142130533854
 30
0.0
 10
126.5652289496528
 20
105.9602851019965
 30
0.0
 10
126.8132758246528
 20
106.4729153103299
 30
0.0
 10
127.1632975260417
 20
106.3171969943576
 30
0.0
  0
SPLINE
  5
74
330
A
100
AcDbEntity
  8
LAYER_1
 62
     7
100
AcDbSpline
210
0.0
220
0.0
230
1.0
 70
    11
 71
     3
 72
    11
 73
     7
 74
     0
 42
0.0000000001
 43
0.0000000001
 40
0.0
 40
0.0
 40
0.0
 40
0.0
 40
1.0
 40
1.0
 40
1.0
 40
2.0
 40
2.0
 40
2.0
 40
2.0
 10
125.542724609375
 20
105.428362358941
 30
0.0
 10
125.8927463107639
 20
105.2712660047743
 30
0.0
 10
125.6198947482639
 20
104.795842827691
 30
0.0
 10
125.307080078125
 20
104.9240003797743
 30
0.0
 10
124.9446560329861
 20
105.0700724283854
 30
0.0
 10
125.1927029079861
 20
105.5813245985243
 30
0.0
 10
125.542724609375
 20
105.428362358941
 30
0.0
  0
SPLINE
  5
73
330
A
100
AcDbEntity
  8
LAYER_1
 62
     7
100
AcDbSpline
210
0.0
220
0.0
230
1.0
 70
    11
 71
     3
 72
    11
 73
     7
 74
     0
 42
0.0000000001
 43
0.0000000001
 40
0.0
 40
0.0
 40
0.0
 40
0.0
 40
1.0
 40
1.0
 40
1.0
 40
2.0
 40
2.0
 40
2.0
 40
2.0
 10
142.5844061957465
 20
111.9197835286458
 30
0.0
 10
142.9316718207465
 20
111.7654432508681
 30
0.0
 10
142.6615763346354
 20
111.2900200737847
 30
0.0
 10
142.3487616644965
 20
111.4154215494792
 30
0.0
 10
141.9863376193576
 20
111.5642496744792
 30
0.0
 10
142.2343844943576
 20
112.0741238064236
 30
0.0
 10
142.5844061957465
 20
111.9197835286458
 30
0.0
  0
SPLINE
  5
72
330
A
100
AcDbEntity
  8
LAYER_1
 62
     7
100
AcDbSpline
210
0.0
220
0.0
230
1.0
 70
    11
 71
     3
 72
    11
 73
     7
 74
     0
 42
0.0000000001
 43
0.0000000001
 40
0.0
 40
0.0
 40
0.0
 40
0.0
 40
1.0
 40
1.0
 40
1.0
 40
2.0
 40
2.0
 40
2.0
 40
2.0
 10
140.8012247721354
 20
110.1379801432292
 30
0.0
 10
141.1512464735243
 20
109.9850179036458
 30
0.0
 10
140.8811509874132
 20
109.5082166883681
 30
0.0
 10
140.5655802408854
 20
109.6349962022569
 30
0.0
 10
140.2031561957465
 20
109.7810682508681
 30
0.0
 10
140.4512030707465
 20
110.2936984592014
 30
0.0
 10
140.8012247721354
 20
110.1379801432292
 30
0.0
  0
SPLINE
  5
71
330
A
100
AcDbEntity
  8
LAYER_1
 62
     7
100
AcDbSpline
210
0.0
220
0.0
230
1.0
 70
    11
 71
     3
 72
    17
 73
    13
 74
     0
 42
0.0000000001
 43
0.0000000001
 40
0.0
 40
0.0
 40
0.0
 40
0.0
 40
1.0
 40
1.0
 40
1.0
 40
2.0
 40
2.0
 40
2.0
 40
3.0
 40
3.0
 40
3.0
 40
4.0
 40
4.0
 40
4.0
 40
4.0
 10
109.7083767361111
 20
105.5468736436632
 30
0.0
 10
110.0583984375
 20
105.4311184353299
 30
0.0
 10
110.3367621527778
 20
105.192717827691
 30
0.0
 10
110.8659288194444
 20
105.3429239908854
 30
0.0
 10
111.3909613715278
 20
105.4972642686632
 30
0.0
 10
112.2467230902778
 20
106.0209187825521
 30
0.0
 10
111.7933485243055
 20
106.3240871853298
 30
0.0
 10
111.3399739583333
 20
106.6244995117187
 30
0.0
 10
110.3133355034722
 20
106.953850640191
 30
0.0
 10
109.9591796875
 20
106.8270711263021
 30
0.0
 10
109.6077799479167
 20
106.7009806315104
 30
0.0
 10
108.0519748263889
 20
106.098088921441
 30
0.0
 10
109.7083767361111
 20
105.5468736436632
 30
0.0
  0
SPLINE
  5
70
330
A
100
AcDbEntity
  8
LAYER_1
 62
     7
100
AcDbSpline
210
0.0
220
0.0
230
1.0
 70
    11
 71
     3
 72
    17
 73
    13
 74
     0
 42
0.0000000001
 43
0.0000000001
 40
0.0
 40
0.0
 40
0.0
 40
0.0
 40
1.0
 40
1.0
 40
1.0
 40
2.0
 40
2.0
 40
2.0
 40
3.0
 40
3.0
 40
3.0
 40
4.0
 40
4.0
 40
4.0
 40
4.0
 10
141.2580444335937
 20
115.2124335394965
 30
0.0
 10
141.8216620551215
 20
114.9382039388021
 30
0.0
 10
142.7242770724826
 20
115.0015936957465
 30
0.0
 10
143.4408569335938
 20
115.1876288519965
 30
0.0
 10
144.824407280816
 20
115.5376505533854
 30
0.0
 10
144.0664862738715
 20
116.466448296441
 30
0.0
 10
143.6420505099826
 20
116.5174357096354
 30
0.0
 10
143.2176147460937
 20
116.5677341037326
 30
0.0
 10
142.009075249566
 20
116.9198228624132
 30
0.0
 10
141.5088473849826
 20
116.7675496419271
 30
0.0
 10
141.0072414822049
 20
116.6145874023437
 30
0.0
 10
139.975090874566
 20
115.8387518988715
 30
0.0
 10
141.2580444335937
 20
115.2124335394965
 30
0.0
  0
SPLINE
  5
6F
330
A
100
AcDbEntity
  8
LAYER_1
 62
     7
100
AcDbSpline
210
0.0
220
0.0
230
1.0
 70
    11
 71
     3
 72
    17
 73
    13
 74
     0
 42
0.0000000001
 43
0.0000000001
 40
0.0
 40
0.0
 40
0.0
 40
0.0
 40
1.0
 40
1.0
 40
1.0
 40
2.0
 40
2.0
 40
2.0
 40
3.0
 40
3.0
 40
3.0
 40
4.0
 40
4.0
 40
4.0
 40
4.0
 10
118.7455512152778
 20
98.4933851453993
 30
0.0
 10
119.1107313368055
 20
98.30941704644097
 30
0.0
 10
120.203515625
 20
98.37005072699652
 30
0.0
 10
120.3799045138889
 20
98.4933851453993
 30
0.0
 10
120.5535373263889
 20
98.61809760199652
 30
0.0
 10
120.6059027777778
 20
99.1693128797743
 30
0.0
 10
120.4047092013889
 20
99.26922064887152
 30
0.0
 10
120.2007595486111
 20
99.36981743706596
 30
0.0
 10
119.6963975694444
 20
99.77289360894096
 30
0.0
 10
119.2719618055556
 20
99.52071261935762
 30
0.0
 10
118.8475260416667
 20
99.26922064887152
 30
0.0
 10
117.9683376736111
 20
98.89508327907986
 30
0.0
 10
118.7455512152778
 20
98.4933851453993
 30
0.0
  0
SPLINE
  5
6E
330
A
100
AcDbEntity
  8
LAYER_1
 62
     7
100
AcDbSpline
210
0.0
220
0.0
230
1.0
 70
    11
 71
     3
 72
    20
 73
    16
 74
     0
 42
0.0000000001
 43
0.0000000001
 40
0.0
 40
0.0
 40
0.0
 40
0.0
 40
1.0
 40
1.0
 40
1.0
 40
2.0
 40
2.0
 40
2.0
 40
3.0
 40
3.0
 40
3.0
 40
4.0
 40
4.0
 40
4.0
 40
5.0
 40
5.0
 40
5.0
 40
5.0
 10
127.7083116319444
 20
92.94609239366319
 30
0.0
 10
128.1217230902778
 20
92.75867919921875
 30
0.0
 10
128.5599392361111
 20
92.44173041449652
 30
0.0
 10
129.2393120659722
 20
92.51890055338541
 30
0.0
 10
129.9159288194445
 20
92.5933146158854
 30
0.0
 10
130.4450954861111
 20
92.74489881727429
 30
0.0
 10
130.4189127604167
 20
93.17071261935763
 30
0.0
 10
130.3927300347222
 20
93.59928249782985
 30
0.0
 10
130.2907552083333
 20
93.77222629123263
 30
0.0
 10
129.7919053819445
 20
94.07470567491319
 30
0.0
 10
129.2889214409722
 20
94.37373996310762
 30
0.0
 10
128.5365125868055
 20
94.67690836588541
 30
0.0
 10
128.0101019965278
 20
94.45091010199651
 30
0.0
 10
127.4823133680555
 20
94.22766791449652
 30
0.0
 10
126.8787326388889
 20
93.32091878255207
 30
0.0
 10
127.7083116319444
 20
92.94609239366319
 30
0.0
  0
SPLINE
  5
6D
330
A
100
AcDbEntity
  8
LAYER_1
 62
     7
100
AcDbSpline
210
0.0
220
0.0
230
1.0
 70
    11
 71
     3
 72
    11
 73
     7
 74
     0
 42
0.0000000001
 43
0.0000000001
 40
0.0
 40
0.0
 40
0.0
 40
0.0
 40
1.0
 40
1.0
 40
1.0
 40
2.0
 40
2.0
 40
2.0
 40
2.0
 10
122.088671875
 20
97.10776774088541
 30
0.0
 10
122.4414496527778
 20
96.95067138671874
 30
0.0
 10
122.1713541666667
 20
96.47662624782986
 30
0.0
 10
121.8571614583333
 20
96.60340576171875
 30
0.0
 10
121.493359375
 20
96.74947781032985
 30
0.0
 10
121.7441623263889
 20
97.25866292317707
 30
0.0
 10
122.088671875
 20
97.10776774088541
 30
0.0
  0
SPLINE
  5
6C
330
A
100
AcDbEntity
  8
LAYER_1
 62
     7
100
AcDbSpline
210
0.0
220
0.0
230
1.0
 70
    11
 71
     3
 72
    11
 73
     7
 74
     0
 42
0.0000000001
 43
0.0000000001
 40
0.0
 40
0.0
 40
0.0
 40
0.0
 40
1.0
 40
1.0
 40
1.0
 40
2.0
 40
2.0
 40
2.0
 40
2.0
 10
124.1970703125
 20
95.80965576171874
 30
0.0
 10
124.5443359375
 20
95.65807156032986
 30
0.0
 10
124.2769965277778
 20
95.17989230685762
 30
0.0
 10
123.9628038194444
 20
95.30529378255207
 30
0.0
 10
123.6003797743055
 20
95.45274386935763
 30
0.0
 10
123.8484266493055
 20
95.96537407769097
 30
0.0
 10
124.1970703125
 20
95.80965576171874
 30
0.0
  0
SPLINE
  5
6B
330
A
100
AcDbEntity
  8
LAYER_1
 62
     7
100
AcDbSpline
210
0.0
220
0.0
230
1.0
 70
    11
 71
     3
 72
    11
 73
     7
 74
     0
 42
0.0000000001
 43
0.0000000001
 40
0.0
 40
0.0
 40
0.0
 40
0.0
 40
1.0
 40
1.0
 40
1.0
 40
2.0
 40
2.0
 40
2.0
 40
2.0
 10
126.950390625
 20
96.13487277560763
 30
0.0
 10
127.3031684027778
 20
95.97915445963541
 30
0.0
 10
127.0316948784722
 20
95.50373128255208
 30
0.0
 10
126.7161241319444
 20
95.62913275824651
 30
0.0
 10
126.3537000868056
 20
95.7772718641493
 30
0.0
 10
126.6017469618056
 20
96.28852403428819
 30
0.0
 10
126.950390625
 20
96.13487277560763
 30
0.0
  0
SPLINE
  5
6A
330
A
100
AcDbEntity
  8
LAYER_1
 62
     7
100
AcDbSpline
210
0.0
220
0.0
230
1.0
 70
    11
 71
     3
 72
    11
 73
     7
 74
     0
 42
0.0000000001
 43
0.0000000001
 40
0.0
 40
0.0
 40
0.0
 40
0.0
 40
1.0
 40
1.0
 40
1.0
 40
2.0
 40
2.0
 40
2.0
 40
2.0
 10
128.1789116753472
 20
97.88498128255208
 30
0.0
 10
128.5289333767361
 20
97.72788492838541
 30
0.0
 10
128.2560818142361
 20
97.25108371310763
 30
0.0
 10
127.9418891059028
 20
97.3806193033854
 30
0.0
 10
127.5822211371528
 20
97.52806939019096
 30
0.0
 10
127.8288899739583
 20
98.03794352213541
 30
0.0
 10
128.1789116753472
 20
97.88498128255208
 30
0.0
  0
SPLINE
  5
69
330
A
100
AcDbEntity
  8
LAYER_1
 62
     7
100
AcDbSpline
210
0.0
220
0.0
230
1.0
 70
    11
 71
     3
 72
    11
 73
     7
 74
     0
 42
0.0000000001
 43
0.0000000001
 40
0.0
 40
0.0
 40
0.0
 40
0.0
 40
1.0
 40
1.0
 40
1.0
 40
2.0
 40
2.0
 40
2.0
 40
2.0
 10
125.8272894965278
 20
102.1183146158854
 30
0.0
 10
126.1745551215278
 20
101.9639743381076
 30
0.0
 10
125.9058376736111
 20
101.4885511610243
 30
0.0
 10
125.5930230034722
 20
101.6139526367187
 30
0.0
 10
125.2292209201389
 20
101.7614027235243
 30
0.0
 10
125.4772677951389
 20
102.2726548936632
 30
0.0
 10
125.8272894965278
 20
102.1183146158854
 30
0.0
  0
SPLINE
  5
68
330
A
100
AcDbEntity
  8
LAYER_1
 62
     7
100
AcDbSpline
210
0.0
220
0.0
230
1.0
 70
    11
 71
     3
 72
    11
 73
     7
 74
     0
 42
0.0000000001
 43
0.0000000001
 40
0.0
 40
0.0
 40
0.0
 40
0.0
 40
1.0
 40
1.0
 40
1.0
 40
2.0
 40
2.0
 40
2.0
 40
2.0
 10
139.2945122612847
 20
105.9759602864583
 30
0.0
 10
139.645912000868
 20
105.8216200086805
 30
0.0
 10
139.3758165147569
 20
105.3448187934028
 30
0.0
 10
139.0616238064236
 20
105.4702202690972
 30
0.0
 10
138.6991997612847
 20
105.6176703559028
 30
0.0
 10
138.9458685980903
 20
106.1303005642361
 30
0.0
 10
139.2945122612847
 20
105.9759602864583
 30
0.0
  0
SPLINE
  5
67
330
A
100
AcDbEntity
  8
LAYER_1
 62
     7
100
AcDbSpline
210
0.0
220
0.0
230
1.0
 70
    11
 71
     3
 72
    11
 73
     7
 74
     0
 42
0.0000000001
 43
0.0000000001
 40
0.0
 40
0.0
 40
0.0
 40
0.0
 40
1.0
 40
1.0
 40
1.0
 40
2.0
 40
2.0
 40
2.0
 40
2.0
 10
137.9206081814236
 20
105.1642957899306
 30
0.0
 10
138.2678738064236
 20
105.0099555121528
 30
0.0
 10
137.9977783203125
 20
104.5345323350694
 30
0.0
 10
137.6849636501736
 20
104.6613118489583
 30
0.0
 10
137.3197835286458
 20
104.8073838975694
 30
0.0
 10
137.5705864800347
 20
105.3193250868056
 30
0.0
 10
137.9206081814236
 20
105.1642957899306
 30
0.0
  0
SPLINE
  5
66
330
A
100
AcDbEntity
  8
LAYER_1
 62
     7
100
AcDbSpline
210
0.0
220
0.0
230
1.0
 70
    11
 71
     3
 72
    11
 73
     7
 74
     0
 42
0.0000000001
 43
0.0000000001
 40
0.0
 40
0.0
 40
0.0
 40
0.0
 40
1.0
 40
1.0
 40
1.0
 40
2.0
 40
2.0
 40
2.0
 40
2.0
 10
117.8815212673611
 20
105.4490329318576
 30
0.0
 10
118.2301649305556
 20
105.2933146158854
 30
0.0
 10
117.9600694444444
 20
104.8192694769965
 30
0.0
 10
117.6444986979167
 20
104.9460489908854
 30
0.0
 10
117.2820746527778
 20
105.0921210394965
 30
0.0
 10
117.5314995659722
 20
105.6033732096354
 30
0.0
 10
117.8815212673611
 20
105.4490329318576
 30
0.0
  0
SPLINE
  5
65
330
A
100
AcDbEntity
  8
LAYER_1
 62
     7
100
AcDbSpline
210
0.0
220
0.0
230
1.0
 70
    11
 71
     3
 72
    11
 73
     7
 74
     0
 42
0.0000000001
 43
0.0000000001
 40
0.0
 40
0.0
 40
0.0
 40
0.0
 40
1.0
 40
1.0
 40
1.0
 40
2.0
 40
2.0
 40
2.0
 40
2.0
 10
113.5972005208333
 20
107.0572035047743
 30
0.0
 10
113.9444661458333
 20
106.904241265191
 30
0.0
 10
113.6757486979167
 20
106.4274400499132
 30
0.0
 10
113.3601779513889
 20
106.5535305447049
 30
0.0
 10
112.9991319444444
 20
106.7002916124132
 30
0.0
 10
113.2471788194444
 20
107.2122328016493
 30
0.0
 10
113.5972005208333
 20
107.0572035047743
 30
0.0
  0
SPLINE
  5
64
330
A
100
AcDbEntity
  8
LAYER_1
 62
     7
100
AcDbSpline
210
0.0
220
0.0
230
1.0
 70
    11
 71
     3
 72
    11
 73
     7
 74
     0
 42
0.0000000001
 43
0.0000000001
 40
0.0
 40
0.0
 40
0.0
 40
0.0
 40
1.0
 40
1.0
 40
1.0
 40
2.0
 40
2.0
 40
2.0
 40
2.0
 10
113.5889322916667
 20
104.7999769422743
 30
0.0
 10
113.9361979166667
 20
104.6456366644965
 30
0.0
 10
113.6661024305555
 20
104.1702134874132
 30
0.0
 10
113.3532877604167
 20
104.2956149631076
 30
0.0
 10
112.9908637152778
 20
104.4437540690104
 30
0.0
 10
113.2389105902778
 20
104.9543172200521
 30
0.0
 10
113.5889322916667
 20
104.7999769422743
 30
0.0
  0
SPLINE
  5
63
330
A
100
AcDbEntity
  8
LAYER_1
 62
     7
100
AcDbSpline
210
0.0
220
0.0
230
1.0
 70
    11
 71
     3
 72
    11
 73
     7
 74
     0
 42
0.0000000001
 43
0.0000000001
 40
0.0
 40
0.0
 40
0.0
 40
0.0
 40
1.0
 40
1.0
 40
1.0
 40
2.0
 40
2.0
 40
2.0
 40
2.0
 10
111.8057508680555
 20
103.0181735568576
 30
0.0
 10
112.1557725694444
 20
102.8652113172743
 30
0.0
 10
111.8856770833333
 20
102.3884101019965
 30
0.0
 10
111.5701063368056
 20
102.5151896158854
 30
0.0
 10
111.2076822916667
 20
102.6612616644965
 30
0.0
 10
111.4557291666667
 20
103.1732028537326
 30
0.0
 10
111.8057508680555
 20
103.0181735568576
 30
0.0
  0
SPLINE
  5
62
330
A
100
AcDbEntity
  8
LAYER_1
 62
     7
100
AcDbSpline
210
0.0
220
0.0
230
1.0
 70
    11
 71
     3
 72
    11
 73
     7
 74
     0
 42
0.0000000001
 43
0.0000000001
 40
0.0
 40
0.0
 40
0.0
 40
0.0
 40
1.0
 40
1.0
 40
1.0
 40
2.0
 40
2.0
 40
2.0
 40
2.0
 10
107.1893229166667
 20
104.4747599283854
 30
0.0
 10
107.5393446180556
 20
104.3217976888021
 30
0.0
 10
107.2692491319444
 20
103.8463745117187
 30
0.0
 10
106.9536783854167
 20
103.9731540256076
 30
0.0
 10
106.5912543402778
 20
104.1192260742187
 30
0.0
 10
106.8393012152778
 20
104.6304782443576
 30
0.0
 10
107.1893229166667
 20
104.4747599283854
 30
0.0
  0
SPLINE
  5
61
330
A
100
AcDbEntity
  8
LAYER_1
 62
     7
100
AcDbSpline
210
0.0
220
0.0
230
1.0
 70
    11
 71
     3
 72
    11
 73
     7
 74
     0
 42
0.0000000001
 43
0.0000000001
 40
0.0
 40
0.0
 40
0.0
 40
0.0
 40
1.0
 40
1.0
 40
1.0
 40
2.0
 40
2.0
 40
2.0
 40
2.0
 10
103.8682508680555
 20
106.9869235568576
 30
0.0
 10
104.2182725694444
 20
106.8325832790799
 30
0.0
 10
103.9481770833333
 20
106.3571601019965
 30
0.0
 10
103.633984375
 20
106.4839396158854
 30
0.0
 10
103.2701822916667
 20
106.6300116644965
 30
0.0
 10
103.5209852430556
 20
107.1419528537326
 30
0.0
 10
103.8682508680555
 20
106.9869235568576
 30
0.0
  0
SPLINE
  5
60
330
A
100
AcDbEntity
  8
LAYER_1
 62
     7
100
AcDbSpline
210
0.0
220
0.0
230
1.0
 70
    11
 71
     3
 72
    14
 73
    10
 74
     0
 42
0.0000000001
 43
0.0000000001
 40
0.0
 40
0.0
 40
0.0
 40
0.0
 40
1.0
 40
1.0
 40
1.0
 40
2.0
 40
2.0
 40
2.0
 40
3.0
 40
3.0
 40
3.0
 40
3.0
 10
106.9219835069444
 20
106.0209187825521
 30
0.0
 10
107.2857855902778
 20
105.9299682617187
 30
0.0
 10
107.7997938368056
 20
106.098088921441
 30
0.0
 10
107.5737955729167
 20
106.4508666992187
 30
0.0
 10
107.3477973090278
 20
106.8015774197049
 30
0.0
 10
106.9991536458333
 20
106.8773695203993
 30
0.0
 10
106.7703993055555
 20
106.7760837131076
 30
0.0
 10
106.5471571180556
 20
106.6768649631076
 30
0.0
 10
105.9435763888889
 20
106.2724107530382
 30
0.0
 10
106.9219835069444
 20
106.0209187825521
 30
0.0
  0
SPLINE
  5
5F
330
A
100
AcDbEntity
  8
LAYER_1
 62
     7
100
AcDbSpline
210
0.0
220
0.0
230
1.0
 70
    11
 71
     3
 72
    11
 73
     7
 74
     0
 42
0.0000000001
 43
0.0000000001
 40
0.0
 40
0.0
 40
0.0
 40
0.0
 40
1.0
 40
1.0
 40
1.0
 40
2.0
 40
2.0
 40
2.0
 40
2.0
 10
66.20853407118055
 20
116.8857164171007
 30
0.0
 10
66.20853407118055
 20
116.5039998372396
 30
0.0
 10
65.74000108506944
 20
116.6287122938368
 30
0.0
 10
65.74000108506944
 20
117.0124959309896
 30
0.0
 10
65.74000108506944
 20
117.3949015299479
 30
0.0
 10
66.20853407118055
 20
117.268122016059
 30
0.0
 10
66.20853407118055
 20
116.8857164171007
 30
0.0
  0
SPLINE
  5
5E
330
A
100
AcDbEntity
  8
LAYER_1
 62
     7
100
AcDbSpline
210
0.0
220
0.0
230
1.0
 70
    11
 71
     3
 72
    11
 73
     7
 74
     0
 42
0.0000000001
 43
0.0000000001
 40
0.0
 40
0.0
 40
0.0
 40
0.0
 40
1.0
 40
1.0
 40
1.0
 40
2.0
 40
2.0
 40
2.0
 40
2.0
 10
77.92668185763888
 20
110.9613579644097
 30
0.0
 10
77.92668185763888
 20
110.5796413845486
 30
0.0
 10
77.45814887152777
 20
110.705042860243
 30
0.0
 10
77.45814887152777
 20
111.0908935546875
 30
0.0
 10
77.45814887152777
 20
111.4726101345486
 30
0.0
 10
77.92668185763888
 20
111.3458306206597
 30
0.0
 10
77.92668185763888
 20
110.9613579644097
 30
0.0
  0
SPLINE
  5
5D
330
A
100
AcDbEntity
  8
LAYER_1
 62
     7
100
AcDbSpline
210
0.0
220
0.0
230
1.0
 70
    11
 71
     3
 72
    11
 73
     7
 74
     0
 42
0.0000000001
 43
0.0000000001
 40
0.0
 40
0.0
 40
0.0
 40
0.0
 40
1.0
 40
1.0
 40
1.0
 40
2.0
 40
2.0
 40
2.0
 40
2.0
 10
88.6678005642361
 20
101.4122422960069
 30
0.0
 10
88.70431857638889
 20
102.0013536241319
 30
0.0
 10
89.23968641493055
 20
102.0998833550347
 30
0.0
 10
89.20661349826388
 20
101.5748508029514
 30
0.0
 10
89.17422960069443
 20
101.0518853081597
 30
0.0
 10
88.64506293402776
 20
101.0518853081597
 30
0.0
 10
88.6678005642361
 20
101.4122422960069
 30
0.0
  0
SPLINE
  5
5C
330
A
100
AcDbEntity
  8
LAYER_1
 62
     7
100
AcDbSpline
210
0.0
220
0.0
230
1.0
 70
    11
 71
     3
 72
    11
 73
     7
 74
     0
 42
0.0000000001
 43
0.0000000001
 40
0.0
 40
0.0
 40
0.0
 40
0.0
 40
1.0
 40
1.0
 40
1.0
 40
2.0
 40
2.0
 40
2.0
 40
2.0
 10
95.70268554687499
 20
101.2606580946181
 30
0.0
 10
95.73989257812499
 20
101.8518364800347
 30
0.0
 10
96.27457139756943
 20
101.9482991536458
 30
0.0
 10
96.24218749999999
 20
101.4253336588542
 30
0.0
 10
96.20911458333333
 20
100.9003011067708
 30
0.0
 10
95.68063693576389
 20
100.9030571831597
 30
0.0
 10
95.70268554687499
 20
101.2606580946181
 30
0.0
  0
SPLINE
  5
5B
330
A
100
AcDbEntity
  8
LAYER_1
 62
     7
100
AcDbSpline
210
0.0
220
0.0
230
1.0
 70
    11
 71
     3
 72
    11
 73
     7
 74
     0
 42
0.0000000001
 43
0.0000000001
 40
0.0
 40
0.0
 40
0.0
 40
0.0
 40
1.0
 40
1.0
 40
1.0
 40
2.0
 40
2.0
 40
2.0
 40
2.0
 10
92.37954644097222
 20
105.7985378689236
 30
0.0
 10
92.41606445312499
 20
106.3869601779514
 30
0.0
 10
92.95281032986111
 20
106.4861789279514
 30
0.0
 10
92.91973741319444
 20
105.9604573567708
 30
0.0
 10
92.88666449652777
 20
105.4354248046875
 30
0.0
 10
92.35680881076388
 20
105.4381808810764
 30
0.0
 10
92.37954644097222
 20
105.7985378689236
 30
0.0
  0
SPLINE
  5
5A
330
A
100
AcDbEntity
  8
LAYER_1
 62
     7
100
AcDbSpline
210
0.0
220
0.0
230
1.0
 70
    11
 71
     3
 72
    11
 73
     7
 74
     0
 42
0.0000000001
 43
0.0000000001
 40
0.0
 40
0.0
 40
0.0
 40
0.0
 40
1.0
 40
1.0
 40
1.0
 40
2.0
 40
2.0
 40
2.0
 40
2.0
 10
86.55113389756944
 20
107.7622422960069
 30
0.0
 10
86.58765190972221
 20
108.3527316623264
 30
0.0
 10
87.12301974826389
 20
108.4505723741319
 30
0.0
 10
87.08994683159722
 20
107.9248508029514
 30
0.0
 10
87.05687391493055
 20
107.4005072699653
 30
0.0
 10
86.5283962673611
 20
107.4025743272569
 30
0.0
 10
86.55113389756944
 20
107.7622422960069
 30
0.0
  0
SPLINE
  5
59
330
A
100
AcDbEntity
  8
LAYER_1
 62
     7
100
AcDbSpline
210
0.0
220
0.0
230
1.0
 70
    11
 71
     3
 72
    11
 73
     7
 74
     0
 42
0.0000000001
 43
0.0000000001
 40
0.0
 40
0.0
 40
0.0
 40
0.0
 40
1.0
 40
1.0
 40
1.0
 40
2.0
 40
2.0
 40
2.0
 40
2.0
 10
94.57062717013888
 20
109.0858479817708
 30
0.0
 10
94.60714518229166
 20
109.6742702907986
 30
0.0
 10
95.14113498263887
 20
109.7734890407986
 30
0.0
 10
95.10875108506944
 20
109.2491455078125
 30
0.0
 10
95.07567816840277
 20
108.7254909939236
 30
0.0
 10
94.54788953993055
 20
108.7268690321181
 30
0.0
 10
94.57062717013888
 20
109.0858479817708
 30
0.0
  0
SPLINE
  5
58
330
A
100
AcDbEntity
  8
LAYER_1
 62
     7
100
AcDbSpline
210
0.0
220
0.0
230
1.0
 70
    11
 71
     3
 72
    11
 73
     7
 74
     0
 42
0.0000000001
 43
0.0000000001
 40
0.0
 40
0.0
 40
0.0
 40
0.0
 40
1.0
 40
1.0
 40
1.0
 40
2.0
 40
2.0
 40
2.0
 40
2.0
 10
60.73324381510416
 20
125.4522908528646
 30
0.0
 10
60.76976182725694
 20
126.0407131618924
 30
0.0
 10
61.30788574218749
 20
126.1426879882812
 30
0.0
 10
61.27481282552083
 20
125.6169664171007
 30
0.0
 10
61.24173990885416
 20
125.0919338650174
 30
0.0
 10
60.71050618489583
 20
125.0933119032118
 30
0.0
 10
60.73324381510416
 20
125.4522908528646
 30
0.0
  0
SPLINE
  5
57
330
A
100
AcDbEntity
  8
LAYER_1
 62
     7
100
AcDbSpline
210
0.0
220
0.0
230
1.0
 70
    11
 71
     3
 72
    11
 73
     7
 74
     0
 42
0.0000000001
 43
0.0000000001
 40
0.0
 40
0.0
 40
0.0
 40
0.0
 40
1.0
 40
1.0
 40
1.0
 40
2.0
 40
2.0
 40
2.0
 40
2.0
 10
91.84624565972221
 20
110.2475341796875
 30
0.0
 10
91.882763671875
 20
110.8387125651042
 30
0.0
 10
92.41813151041666
 20
110.9365532769097
 30
0.0
 10
92.38505859374999
 20
110.4128987630208
 30
0.0
 10
92.35198567708332
 20
109.8871771918403
 30
0.0
 10
91.82350802951387
 20
109.8885552300347
 30
0.0
 10
91.84624565972221
 20
110.2475341796875
 30
0.0
  0
SPLINE
  5
56
330
A
100
AcDbEntity
  8
LAYER_1
 62
     7
100
AcDbSpline
210
0.0
220
0.0
230
1.0
 70
    11
 71
     3
 72
    11
 73
     7
 74
     0
 42
0.0000000001
 43
0.0000000001
 40
0.0
 40
0.0
 40
0.0
 40
0.0
 40
1.0
 40
1.0
 40
1.0
 40
2.0
 40
2.0
 40
2.0
 40
2.0
 10
89.76334092881943
 20
110.1090413411458
 30
0.0
 10
89.80054796006944
 20
110.6988416883681
 30
0.0
 10
90.33522677951387
 20
110.798060438368
 30
0.0
 10
90.30215386284722
 20
110.2695827907986
 30
0.0
 10
90.26908094618055
 20
109.7445502387153
 30
0.0
 10
89.74060329861111
 20
109.7486843532986
 30
0.0
 10
89.76334092881943
 20
110.1090413411458
 30
0.0
  0
SPLINE
  5
55
330
A
100
AcDbEntity
  8
LAYER_1
 62
     7
100
AcDbSpline
210
0.0
220
0.0
230
1.0
 70
    11
 71
     3
 72
    11
 73
     7
 74
     0
 42
0.0000000001
 43
0.0000000001
 40
0.0
 40
0.0
 40
0.0
 40
0.0
 40
1.0
 40
1.0
 40
1.0
 40
2.0
 40
2.0
 40
2.0
 40
2.0
 10
83.34168294270833
 20
106.8189751519097
 30
0.0
 10
83.3782009548611
 20
107.4080864800347
 30
0.0
 10
83.91356879340277
 20
107.5073052300347
 30
0.0
 10
83.88049587673611
 20
106.9829616970486
 30
0.0
 10
83.84742296006944
 20
106.4593071831597
 30
0.0
 10
83.31894531249999
 20
106.4606852213542
 30
0.0
 10
83.34168294270833
 20
106.8189751519097
 30
0.0
  0
SPLINE
  5
54
330
A
100
AcDbEntity
  8
LAYER_1
 62
     7
100
AcDbSpline
210
0.0
220
0.0
230
1.0
 70
    11
 71
     3
 72
    11
 73
     7
 74
     0
 42
0.0000000001
 43
0.0000000001
 40
0.0
 40
0.0
 40
0.0
 40
0.0
 40
1.0
 40
1.0
 40
1.0
 40
2.0
 40
2.0
 40
2.0
 40
2.0
 10
81.25946723090277
 20
106.116175672743
 30
0.0
 10
81.29598524305555
 20
106.7045979817708
 30
0.0
 10
81.83135308159721
 20
106.8038167317708
 30
0.0
 10
81.79896918402777
 20
106.2808512369792
 30
0.0
 10
81.76520724826388
 20
105.7530626085069
 30
0.0
 10
81.23672960069443
 20
105.7571967230903
 30
0.0
 10
81.25946723090277
 20
106.116175672743
 30
0.0
  0
SPLINE
  5
53
330
A
100
AcDbEntity
  8
LAYER_1
 62
     7
100
AcDbSpline
210
0.0
220
0.0
230
1.0
 70
    11
 71
     3
 72
    11
 73
     7
 74
     0
 42
0.0000000001
 43
0.0000000001
 40
0.0
 40
0.0
 40
0.0
 40
0.0
 40
1.0
 40
1.0
 40
1.0
 40
2.0
 40
2.0
 40
2.0
 40
2.0
 10
87.96224500868055
 20
105.6455756293403
 30
0.0
 10
87.99876302083332
 20
106.2360649956597
 30
0.0
 10
88.53550889756944
 20
106.3359727647569
 30
0.0
 10
88.50243598090277
 20
105.8109402126736
 30
0.0
 10
88.47005208333333
 20
105.2865966796875
 30
0.0
 10
87.93950737847221
 20
105.2859076605903
 30
0.0
 10
87.96224500868055
 20
105.6455756293403
 30
0.0
  0
SPLINE
  5
52
330
A
100
AcDbEntity
  8
LAYER_1
 62
     7
100
AcDbSpline
210
0.0
220
0.0
230
1.0
 70
    11
 71
     3
 72
    11
 73
     7
 74
     0
 42
0.0000000001
 43
0.0000000001
 40
0.0
 40
0.0
 40
0.0
 40
0.0
 40
1.0
 40
1.0
 40
1.0
 40
2.0
 40
2.0
 40
2.0
 40
2.0
 10
116.1934244791667
 20
84.42981635199652
 30
0.0
 10
116.2306315104167
 20
85.0182386610243
 30
0.0
 10
116.7639322916667
 20
85.11607937282986
 30
0.0
 10
116.730859375
 20
84.59242485894096
 30
0.0
 10
116.6984754774306
 20
84.06808132595485
 30
0.0
 10
116.1706868489583
 20
84.0694593641493
 30
0.0
 10
116.1934244791667
 20
84.42981635199652
 30
0.0
  0
SPLINE
  5
51
330
A
100
AcDbEntity
  8
LAYER_1
 62
     7
100
AcDbSpline
210
0.0
220
0.0
230
1.0
 70
    11
 71
     3
 72
    11
 73
     7
 74
     0
 42
0.0000000001
 43
0.0000000001
 40
0.0
 40
0.0
 40
0.0
 40
0.0
 40
1.0
 40
1.0
 40
1.0
 40
2.0
 40
2.0
 40
2.0
 40
2.0
 10
130.8657416449653
 20
97.7153103298611
 30
0.0
 10
130.9029486762153
 20
98.30511067708332
 30
0.0
 10
131.435560438368
 20
98.40570746527777
 30
0.0
 10
131.4024875217014
 20
97.88205295138889
 30
0.0
 10
131.3694146050347
 20
97.35633138020833
 30
0.0
 10
130.8436930338542
 20
97.35908745659721
 30
0.0
 10
130.8657416449653
 20
97.7153103298611
 30
0.0
  0
SPLINE
  5
50
330
A
100
AcDbEntity
  8
LAYER_1
 62
     7
100
AcDbSpline
210
0.0
220
0.0
230
1.0
 70
    11
 71
     3
 72
    11
 73
     7
 74
     0
 42
0.0000000001
 43
0.0000000001
 40
0.0
 40
0.0
 40
0.0
 40
0.0
 40
1.0
 40
1.0
 40
1.0
 40
2.0
 40
2.0
 40
2.0
 40
2.0
 10
133.5122639973958
 20
95.38711480034722
 30
0.0
 10
133.5487820095486
 20
95.97760416666665
 30
0.0
 10
134.0869059244792
 20
96.07475585937499
 30
0.0
 10
134.0538330078125
 20
95.55041232638888
 30
0.0
 10
134.0214491102431
 20
95.02537977430555
 30
0.0
 10
133.4895263671875
 20
95.02537977430555
 30
0.0
 10
133.5122639973958
 20
95.38711480034722
 30
0.0
  0
SPLINE
  5
4F
330
A
100
AcDbEntity
  8
LAYER_1
 62
     7
100
AcDbSpline
210
0.0
220
0.0
230
1.0
 70
    11
 71
     3
 72
    11
 73
     7
 74
     0
 42
0.0000000001
 43
0.0000000001
 40
0.0
 40
0.0
 40
0.0
 40
0.0
 40
1.0
 40
1.0
 40
1.0
 40
2.0
 40
2.0
 40
2.0
 40
2.0
 10
135.3147379557292
 20
98.2486111111111
 30
0.0
 10
135.3519449869792
 20
98.83841145833333
 30
0.0
 10
135.8886908637153
 20
98.94038628472221
 30
0.0
 10
135.8556179470486
 20
98.41466471354165
 30
0.0
 10
135.822545030382
 20
97.88963216145832
 30
0.0
 10
135.2926893446181
 20
97.89101019965277
 30
0.0
 10
135.3147379557292
 20
98.2486111111111
 30
0.0
  0
SPLINE
  5
4E
330
A
100
AcDbEntity
  8
LAYER_1
 62
     7
100
AcDbSpline
210
0.0
220
0.0
230
1.0
 70
    11
 71
     3
 72
    11
 73
     7
 74
     0
 42
0.0000000001
 43
0.0000000001
 40
0.0
 40
0.0
 40
0.0
 40
0.0
 40
1.0
 40
1.0
 40
1.0
 40
2.0
 40
2.0
 40
2.0
 40
2.0
 10
135.9210747612847
 20
94.96612413194444
 30
0.0
 10
135.9582817925347
 20
95.55592447916666
 30
0.0
 10
136.4943386501736
 20
95.65514322916665
 30
0.0
 10
136.4619547526042
 20
95.13079969618055
 30
0.0
 10
136.4288818359375
 20
94.60370008680555
 30
0.0
 10
135.8990261501736
 20
94.60990125868055
 30
0.0
 10
135.9210747612847
 20
94.96612413194444
 30
0.0
  0
SPLINE
  5
4D
330
A
100
AcDbEntity
  8
LAYER_1
 62
     7
100
AcDbSpline
210
0.0
220
0.0
230
1.0
 70
    11
 71
     3
 72
    11
 73
     7
 74
     0
 42
0.0000000001
 43
0.0000000001
 40
0.0
 40
0.0
 40
0.0
 40
0.0
 40
1.0
 40
1.0
 40
1.0
 40
2.0
 40
2.0
 40
2.0
 40
2.0
 10
123.3647352430556
 20
88.12571478949651
 30
0.0
 10
123.4012532552083
 20
88.71551513671874
 30
0.0
 10
123.9379991319444
 20
88.81748996310763
 30
0.0
 10
123.9049262152778
 20
88.29176839192708
 30
0.0
 10
123.8725423177083
 20
87.76673583984375
 30
0.0
 10
123.3419976128472
 20
87.76949191623262
 30
0.0
 10
123.3647352430556
 20
88.12571478949651
 30
0.0
  0
SPLINE
  5
4C
330
A
100
AcDbEntity
  8
LAYER_1
 62
     7
100
AcDbSpline
210
0.0
220
0.0
230
1.0
 70
    11
 71
     3
 72
    11
 73
     7
 74
     0
 42
0.0000000001
 43
0.0000000001
 40
0.0
 40
0.0
 40
0.0
 40
0.0
 40
1.0
 40
1.0
 40
1.0
 40
2.0
 40
2.0
 40
2.0
 40
2.0
 10
121.6931749131944
 20
88.77339274088541
 30
0.0
 10
121.7296929253472
 20
89.36181504991319
 30
0.0
 10
122.2678168402778
 20
89.4617228190104
 30
0.0
 10
122.2347439236111
 20
88.93531222873263
 30
0.0
 10
122.2023600260417
 20
88.41165771484374
 30
0.0
 10
121.6704372829861
 20
88.41303575303819
 30
0.0
 10
121.6931749131944
 20
88.77339274088541
 30
0.0
  0
SPLINE
  5
4B
330
A
100
AcDbEntity
  8
LAYER_1
 62
     7
100
AcDbSpline
210
0.0
220
0.0
230
1.0
 70
    11
 71
     3
 72
    11
 73
     7
 74
     0
 42
0.0000000001
 43
0.0000000001
 40
0.0
 40
0.0
 40
0.0
 40
0.0
 40
1.0
 40
1.0
 40
1.0
 40
2.0
 40
2.0
 40
2.0
 40
2.0
 10
121.0310275607639
 20
89.71597086588541
 30
0.0
 10
121.0682345920139
 20
90.30646023220486
 30
0.0
 10
121.6029134114583
 20
90.40498996310762
 30
0.0
 10
121.5705295138889
 20
89.87995741102429
 30
0.0
 10
121.5374565972222
 20
89.35423583984374
 30
0.0
 10
121.0089789496528
 20
89.35699191623263
 30
0.0
 10
121.0310275607639
 20
89.71597086588541
 30
0.0
  0
SPLINE
  5
4A
330
A
100
AcDbEntity
  8
LAYER_1
 62
     7
100
AcDbSpline
210
0.0
220
0.0
230
1.0
 70
    11
 71
     3
 72
    11
 73
     7
 74
     0
 42
0.0000000001
 43
0.0000000001
 40
0.0
 40
0.0
 40
0.0
 40
0.0
 40
1.0
 40
1.0
 40
1.0
 40
2.0
 40
2.0
 40
2.0
 40
2.0
 10
117.3220377604167
 20
90.93966878255208
 30
0.0
 10
117.3592447916667
 20
91.53015814887152
 30
0.0
 10
117.8925455729167
 20
91.63006591796874
 30
0.0
 10
117.85947265625
 20
91.10365532769096
 30
0.0
 10
117.8270887586806
 20
90.58137885199652
 30
0.0
 10
117.2993001302083
 20
90.5806898328993
 30
0.0
 10
117.3220377604167
 20
90.93966878255208
 30
0.0
  0
SPLINE
  5
49
330
A
100
AcDbEntity
  8
LAYER_1
 62
     7
100
AcDbSpline
210
0.0
220
0.0
230
1.0
 70
    11
 71
     3
 72
    11
 73
     7
 74
     0
 42
0.0000000001
 43
0.0000000001
 40
0.0
 40
0.0
 40
0.0
 40
0.0
 40
1.0
 40
1.0
 40
1.0
 40
2.0
 40
2.0
 40
2.0
 40
2.0
 10
123.8828776041667
 20
90.6213419596354
 30
0.0
 10
123.9193956163194
 20
91.2104532877604
 30
0.0
 10
124.45751953125
 20
91.30898301866318
 30
0.0
 10
124.4244466145833
 20
90.78326144748263
 30
0.0
 10
124.3913736979167
 20
90.2582288953993
 30
0.0
 10
123.8601399739583
 20
90.25960693359374
 30
0.0
 10
123.8828776041667
 20
90.6213419596354
 30
0.0
  0
SPLINE
  5
48
330
A
100
AcDbEntity
  8
LAYER_1
 62
     7
100
AcDbSpline
210
0.0
220
0.0
230
1.0
 70
    11
 71
     3
 72
    11
 73
     7
 74
     0
 42
0.0000000001
 43
0.0000000001
 40
0.0
 40
0.0
 40
0.0
 40
0.0
 40
1.0
 40
1.0
 40
1.0
 40
2.0
 40
2.0
 40
2.0
 40
2.0
 10
102.8974229600694
 20
84.9004163953993
 30
0.0
 10
102.9346299913194
 20
85.49021674262151
 30
0.0
 10
103.4693088107639
 20
85.58943549262152
 30
0.0
 10
103.4362358940972
 20
85.06371392144096
 30
0.0
 10
103.4038519965278
 20
84.53868136935763
 30
0.0
 10
102.8753743489583
 20
84.54143744574652
 30
0.0
 10
102.8974229600694
 20
84.9004163953993
 30
0.0
  0
SPLINE
  5
47
330
A
100
AcDbEntity
  8
LAYER_1
 62
     7
100
AcDbSpline
210
0.0
220
0.0
230
1.0
 70
    11
 71
     3
 72
    11
 73
     7
 74
     0
 42
0.0000000001
 43
0.0000000001
 40
0.0
 40
0.0
 40
0.0
 40
0.0
 40
1.0
 40
1.0
 40
1.0
 40
2.0
 40
2.0
 40
2.0
 40
2.0
 10
82.31780056423611
 20
108.0564534505208
 30
0.0
 10
82.35431857638888
 20
108.6448757595486
 30
0.0
 10
82.88968641493055
 20
108.7440945095486
 30
0.0
 10
82.85661349826388
 20
108.2190619574653
 30
0.0
 10
82.82354058159721
 20
107.6933403862847
 30
0.0
 10
82.29506293402777
 20
107.6960964626736
 30
0.0
 10
82.31780056423611
 20
108.0564534505208
 30
0.0
  0
SPLINE
  5
46
330
A
100
AcDbEntity
  8
LAYER_1
 62
     7
100
AcDbSpline
210
0.0
220
0.0
230
1.0
 70
    11
 71
     3
 72
    11
 73
     7
 74
     0
 42
0.0000000001
 43
0.0000000001
 40
0.0
 40
0.0
 40
0.0
 40
0.0
 40
1.0
 40
1.0
 40
1.0
 40
2.0
 40
2.0
 40
2.0
 40
2.0
 10
69.80521375868055
 20
115.1590345594618
 30
0.0
 10
69.84242078993054
 20
115.748834906684
 30
0.0
 10
70.37709960937499
 20
115.8466756184896
 30
0.0
 10
70.34402669270833
 20
115.3202650282118
 30
0.0
 10
70.31164279513888
 20
114.7945434570312
 30
0.0
 10
69.78247612847221
 20
114.7972995334201
 30
0.0
 10
69.80521375868055
 20
115.1590345594618
 30
0.0
  0
SPLINE
  5
45
330
A
100
AcDbEntity
  8
LAYER_1
 62
     7
100
AcDbSpline
210
0.0
220
0.0
230
1.0
 70
    11
 71
     3
 72
    11
 73
     7
 74
     0
 42
0.0000000001
 43
0.0000000001
 40
0.0
 40
0.0
 40
0.0
 40
0.0
 40
1.0
 40
1.0
 40
1.0
 40
2.0
 40
2.0
 40
2.0
 40
2.0
 10
80.56217990451388
 20
111.7806016710069
 30
0.0
 10
80.59938693576389
 20
112.3690239800347
 30
0.0
 10
81.13268771701388
 20
112.4696207682292
 30
0.0
 10
81.10030381944443
 20
111.9438991970486
 30
0.0
 10
81.06723090277777
 20
111.4174886067708
 30
0.0
 10
80.54013129340277
 20
111.4216227213542
 30
0.0
 10
80.56217990451388
 20
111.7806016710069
 30
0.0
  0
SPLINE
  5
44
330
A
100
AcDbEntity
  8
LAYER_1
 62
     7
100
AcDbSpline
210
0.0
220
0.0
230
1.0
 70
    11
 71
     3
 72
    11
 73
     7
 74
     0
 42
0.0000000001
 43
0.0000000001
 40
0.0
 40
0.0
 40
0.0
 40
0.0
 40
1.0
 40
1.0
 40
1.0
 40
2.0
 40
2.0
 40
2.0
 40
2.0
 10
112.1874674479167
 20
84.15214165581597
 30
0.0
 10
112.2246744791667
 20
84.74263102213541
 30
0.0
 10
112.7593532986111
 20
84.84047173394096
 30
0.0
 10
112.7269694010417
 20
84.31612820095485
 30
0.0
 10
112.693896484375
 20
83.7904066297743
 30
0.0
 10
112.1654188368055
 20
83.79178466796874
 30
0.0
 10
112.1874674479167
 20
84.15214165581597
 30
0.0
  0
SPLINE
  5
43
330
A
100
AcDbEntity
  8
LAYER_1
 62
     7
100
AcDbSpline
210
0.0
220
0.0
230
1.0
 70
    11
 71
     3
 72
    11
 73
     7
 74
     0
 42
0.0000000001
 43
0.0000000001
 40
0.0
 40
0.0
 40
0.0
 40
0.0
 40
1.0
 40
1.0
 40
1.0
 40
2.0
 40
2.0
 40
2.0
 40
2.0
 10
68.46799994574653
 20
107.9593017578125
 30
0.0
 10
68.50520697699652
 20
108.5491021050347
 30
0.0
 10
69.03988579644097
 20
108.6469428168403
 30
0.0
 10
69.0068128797743
 20
108.1198432074653
 30
0.0
 10
68.97373996310763
 20
107.5948106553819
 30
0.0
 10
68.44526231553819
 20
107.5975667317708
 30
0.0
 10
68.46799994574653
 20
107.9593017578125
 30
0.0
  0
SPLINE
  5
42
330
A
100
AcDbEntity
  8
LAYER_1
 62
     7
100
AcDbSpline
210
0.0
220
0.0
230
1.0
 70
    11
 71
     3
 72
    11
 73
     7
 74
     0
 42
0.0000000001
 43
0.0000000001
 40
0.0
 40
0.0
 40
0.0
 40
0.0
 40
1.0
 40
1.0
 40
1.0
 40
2.0
 40
2.0
 40
2.0
 40
2.0
 10
75.97882486979167
 20
110.0091335720486
 30
0.0
 10
76.01534288194443
 20
110.5982449001736
 30
0.0
 10
76.55208875868055
 20
110.6981526692708
 30
0.0
 10
76.51901584201389
 20
110.1717420789931
 30
0.0
 10
76.48594292534722
 20
109.6460205078125
 30
0.0
 10
75.95608723958333
 20
109.6501546223958
 30
0.0
 10
75.97882486979167
 20
110.0091335720486
 30
0.0
  0
SPLINE
  5
41
330
A
100
AcDbEntity
  8
LAYER_1
 62
     7
100
AcDbSpline
210
0.0
220
0.0
230
1.0
 70
    11
 71
     3
 72
    11
 73
     7
 74
     0
 42
0.0000000001
 43
0.0000000001
 40
0.0
 40
0.0
 40
0.0
 40
0.0
 40
1.0
 40
1.0
 40
1.0
 40
2.0
 40
2.0
 40
2.0
 40
2.0
 10
89.13822835286457
 20
116.4645534939236
 30
0.0
 10
89.17474636501736
 20
117.0529758029514
 30
0.0
 10
89.71287027994791
 20
117.1515055338542
 30
0.0
 10
89.67979736328124
 20
116.6264729817708
 30
0.0
 10
89.64672444661457
 20
116.1007514105903
 30
0.0
 10
89.11549072265625
 20
116.1055745442708
 30
0.0
 10
89.13822835286457
 20
116.4645534939236
 30
0.0
  0
SPLINE
  5
40
330
A
100
AcDbEntity
  8
LAYER_1
 62
     7
100
AcDbSpline
210
0.0
220
0.0
230
1.0
 70
    11
 71
     3
 72
    11
 73
     7
 74
     0
 42
0.0000000001
 43
0.0000000001
 40
0.0
 40
0.0
 40
0.0
 40
0.0
 40
1.0
 40
1.0
 40
1.0
 40
2.0
 40
2.0
 40
2.0
 40
2.0
 10
100.5161729600694
 20
93.86662190755207
 30
0.0
 10
100.5533799913194
 20
94.45435519748263
 30
0.0
 10
101.0880588107639
 20
94.55150689019096
 30
0.0
 10
101.0549858940972
 20
94.02785237630208
 30
0.0
 10
101.0226019965278
 20
93.50350884331597
 30
0.0
 10
100.4941243489583
 20
93.50626491970485
 30
0.0
 10
100.5161729600694
 20
93.86662190755207
 30
0.0
  0
SPLINE
  5
3F
330
A
100
AcDbEntity
  8
LAYER_1
 62
     7
100
AcDbSpline
210
0.0
220
0.0
230
1.0
 70
    11
 71
     3
 72
    11
 73
     7
 74
     0
 42
0.0000000001
 43
0.0000000001
 40
0.0
 40
0.0
 40
0.0
 40
0.0
 40
1.0
 40
1.0
 40
1.0
 40
2.0
 40
2.0
 40
2.0
 40
2.0
 10
101.0157118055555
 20
98.54092746310764
 30
0.0
 10
101.0529188368056
 20
99.13141682942707
 30
0.0
 10
101.5910427517361
 20
99.2285685221354
 30
0.0
 10
101.5579698350694
 20
98.70491400824652
 30
0.0
 10
101.5248969184028
 20
98.17919243706596
 30
0.0
 10
100.9936631944444
 20
98.18194851345486
 30
0.0
 10
101.0157118055555
 20
98.54092746310764
 30
0.0
  0
SPLINE
  5
3E
330
A
100
AcDbEntity
  8
LAYER_1
 62
     7
100
AcDbSpline
210
0.0
220
0.0
230
1.0
 70
    11
 71
     3
 72
    11
 73
     7
 74
     0
 42
0.0000000001
 43
0.0000000001
 40
0.0
 40
0.0
 40
0.0
 40
0.0
 40
1.0
 40
1.0
 40
1.0
 40
2.0
 40
2.0
 40
2.0
 40
2.0
 10
101.9252170138889
 20
95.1881605360243
 30
0.0
 10
101.9624240451389
 20
95.77933892144097
 30
0.0
 10
102.4964138454861
 20
95.87855767144096
 30
0.0
 10
102.4633409288194
 20
95.35352511935763
 30
0.0
 10
102.4302680121528
 20
94.82642550998263
 30
0.0
 10
101.9031684027778
 20
94.82780354817707
 30
0.0
 10
101.9252170138889
 20
95.1881605360243
 30
0.0
  0
SPLINE
  5
3D
330
A
100
AcDbEntity
  8
LAYER_1
 62
     7
100
AcDbSpline
210
0.0
220
0.0
230
1.0
 70
    11
 71
     3
 72
    11
 73
     7
 74
     0
 42
0.0000000001
 43
0.0000000001
 40
0.0
 40
0.0
 40
0.0
 40
0.0
 40
1.0
 40
1.0
 40
1.0
 40
2.0
 40
2.0
 40
2.0
 40
2.0
 10
68.53121744791666
 20
121.9510403103298
 30
0.0
 10
68.56773546006944
 20
122.5394626193576
 30
0.0
 10
69.1031032986111
 20
122.6373033311632
 30
0.0
 10
69.07003038194443
 20
122.1129597981771
 30
0.0
 10
69.03695746527777
 20
121.5879272460937
 30
0.0
 10
68.50847981770832
 20
121.5920613606771
 30
0.0
 10
68.53121744791666
 20
121.9510403103298
 30
0.0
  0
SPLINE
  5
3C
330
A
100
AcDbEntity
  8
LAYER_1
 62
     7
100
AcDbSpline
210
0.0
220
0.0
230
1.0
 70
    11
 71
     3
 72
    11
 73
     7
 74
     0
 42
0.0000000001
 43
0.0000000001
 40
0.0
 40
0.0
 40
0.0
 40
0.0
 40
1.0
 40
1.0
 40
1.0
 40
2.0
 40
2.0
 40
2.0
 40
2.0
 10
66.28363715277777
 20
120.3325344509549
 30
0.0
 10
66.32084418402778
 20
120.9237128363715
 30
0.0
 10
66.85552300347221
 20
121.024309624566
 30
0.0
 10
66.82313910590277
 20
120.4985880533854
 30
0.0
 10
66.7900661892361
 20
119.9735555013021
 30
0.0
 10
66.26089952256943
 20
119.9749335394965
 30
0.0
 10
66.28363715277777
 20
120.3325344509549
 30
0.0
  0
SPLINE
  5
3B
330
A
100
AcDbEntity
  8
LAYER_1
 62
     7
100
AcDbSpline
210
0.0
220
0.0
230
1.0
 70
    11
 71
     3
 72
    11
 73
     7
 74
     0
 42
0.0000000001
 43
0.0000000001
 40
0.0
 40
0.0
 40
0.0
 40
0.0
 40
1.0
 40
1.0
 40
1.0
 40
2.0
 40
2.0
 40
2.0
 40
2.0
 10
99.72793511284722
 20
101.2618638780382
 30
0.0
 10
99.99114040798611
 20
101.1757364908854
 30
0.0
 10
100.3831922743055
 20
101.5615871853299
 30
0.0
 10
100.0097439236111
 20
101.6532267252604
 30
0.0
 10
99.634228515625
 20
101.7469333224826
 30
0.0
 10
99.33657226562499
 20
101.3955335828993
 30
0.0
 10
99.72793511284722
 20
101.2618638780382
 30
0.0
  0
SPLINE
  5
3A
330
A
100
AcDbEntity
  8
LAYER_1
 62
     7
100
AcDbSpline
210
0.0
220
0.0
230
1.0
 70
    11
 71
     3
 72
    26
 73
    22
 74
     0
 42
0.0000000001
 43
0.0000000001
 40
0.0
 40
0.0
 40
0.0
 40
0.0
 40
1.0
 40
1.0
 40
1.0
 40
2.0
 40
2.0
 40
2.0
 40
3.0
 40
3.0
 40
3.0
 40
4.0
 40
4.0
 40
4.0
 40
5.0
 40
5.0
 40
5.0
 40
6.0
 40
6.0
 40
6.0
 40
7.0
 40
7.0
 40
7.0
 40
7.0
 10
101.2541124131944
 20
101.9240112304687
 30
0.0
 10
101.4456597222222
 20
101.5822577582465
 30
0.0
 10
102.10849609375
 20
101.9412367078993
 30
0.0
 10
102.4268229166667
 20
101.8110120985243
 30
0.0
 10
102.7451497395833
 20
101.6814765082465
 30
0.0
 10
102.8223198784722
 20
101.4575453016493
 30
0.0
 10
103.5099609375
 20
101.6628729926215
 30
0.0
 10
104.1989800347222
 20
101.8675116644965
 30
0.0
 10
104.6454644097222
 20
102.1327840169271
 30
0.0
 10
104.8149631076389
 20
102.2423380533854
 30
0.0
 10
104.9830837673611
 20
102.3505140516493
 30
0.0
 10
105.0933268229167
 20
102.7253404405382
 30
0.0
 10
104.8149631076389
 20
102.7811509874132
 30
0.0
 10
104.5365993923611
 20
102.8383395724826
 30
0.0
 10
103.8834092881944
 20
102.8348944769965
 30
0.0
 10
103.5292534722222
 20
103.003704155816
 30
0.0
 10
103.17509765625
 20
103.1725138346354
 30
0.0
 10
102.5219075520833
 20
103.2489949544271
 30
0.0
 10
102.2242513020833
 20
103.1359958224826
 30
0.0
 10
101.9265950520833
 20
103.0236857096354
 30
0.0
 10
101.1052842881944
 20
102.185149468316
 30
0.0
 10
101.2541124131944
 20
101.9240112304687
 30
0.0
  0
SPLINE
  5
39
330
A
100
AcDbEntity
  8
LAYER_1
 62
     7
100
AcDbSpline
210
0.0
220
0.0
230
1.0
 70
    11
 71
     3
 72
    20
 73
    16
 74
     0
 42
0.0000000001
 43
0.0000000001
 40
0.0
 40
0.0
 40
0.0
 40
0.0
 40
1.0
 40
1.0
 40
1.0
 40
2.0
 40
2.0
 40
2.0
 40
3.0
 40
3.0
 40
3.0
 40
4.0
 40
4.0
 40
4.0
 40
5.0
 40
5.0
 40
5.0
 40
5.0
 10
102.9787272135417
 20
88.06163601345486
 30
0.0
 10
103.3700900607639
 20
88.23182373046875
 30
0.0
 10
103.9846950954861
 20
88.56668701171874
 30
0.0
 10
104.1900227864583
 20
88.0072035047743
 30
0.0
 10
104.3953504774305
 20
87.44565294053818
 30
0.0
 10
104.5813856336805
 20
86.81037733289929
 30
0.0
 10
104.0976942274306
 20
86.77385932074652
 30
0.0
 10
103.6140028211806
 20
86.73803032769096
 30
0.0
 10
102.325537109375
 20
86.18061387803819
 30
0.0
 10
102.1215874565972
 20
86.6091837565104
 30
0.0
 10
101.9148817274305
 20
87.03637559678819
 30
0.0
 10
101.8811197916667
 20
87.52282307942707
 30
0.0
 10
102.1960015190972
 20
87.65235866970485
 30
0.0
 10
102.5101942274306
 20
87.78051622178819
 30
0.0
 10
102.5873643663194
 20
87.89351535373262
 30
0.0
 10
102.9787272135417
 20
88.06163601345486
 30
0.0
  0
SPLINE
  5
38
330
A
100
AcDbEntity
  8
LAYER_1
 62
     7
100
AcDbSpline
210
0.0
220
0.0
230
1.0
 70
    11
 71
     3
 72
    11
 73
     7
 74
     0
 42
0.0000000001
 43
0.0000000001
 40
0.0
 40
0.0
 40
0.0
 40
0.0
 40
1.0
 40
1.0
 40
1.0
 40
2.0
 40
2.0
 40
2.0
 40
2.0
 10
67.74573567708333
 20
119.2659328884549
 30
0.0
 10
68.01031901041667
 20
119.1784274631076
 30
0.0
 10
68.40168185763888
 20
119.5635891384548
 30
0.0
 10
68.02685546875
 20
119.6566067165798
 30
0.0
 10
67.65340711805555
 20
119.7489352756076
 30
0.0
 10
67.35575086805555
 20
119.3982245551215
 30
0.0
 10
67.74573567708333
 20
119.2659328884549
 30
0.0
  0
SPLINE
  5
37
330
A
100
AcDbEntity
  8
LAYER_1
 62
     7
100
AcDbSpline
210
0.0
220
0.0
230
1.0
 70
    11
 71
     3
 72
    11
 73
     7
 74
     0
 42
0.0000000001
 43
0.0000000001
 40
0.0
 40
0.0
 40
0.0
 40
0.0
 40
1.0
 40
1.0
 40
1.0
 40
2.0
 40
2.0
 40
2.0
 40
2.0
 10
109.1764539930556
 20
97.84364013671875
 30
0.0
 10
109.4396592881944
 20
97.75613471137152
 30
0.0
 10
109.8310221354167
 20
98.14129638671874
 30
0.0
 10
109.4575737847222
 20
98.23431396484374
 30
0.0
 10
109.0813693576389
 20
98.32664252387151
 30
0.0
 10
108.7837131076389
 20
97.97455376519096
 30
0.0
 10
109.1764539930556
 20
97.84364013671875
 30
0.0
  0
SPLINE
  5
36
330
A
100
AcDbEntity
  8
LAYER_1
 62
     7
100
AcDbSpline
210
0.0
220
0.0
230
1.0
 70
    11
 71
     3
 72
    11
 73
     7
 74
     0
 42
0.0000000001
 43
0.0000000001
 40
0.0
 40
0.0
 40
0.0
 40
0.0
 40
1.0
 40
1.0
 40
1.0
 40
2.0
 40
2.0
 40
2.0
 40
2.0
 10
109.7180230034722
 20
95.95366075303818
 30
0.0
 10
109.9798502604167
 20
95.86546630859374
 30
0.0
 10
110.3712131076389
 20
96.2520060221354
 30
0.0
 10
109.99638671875
 20
96.34364556206596
 30
0.0
 10
109.6229383680555
 20
96.43735215928818
 30
0.0
 10
109.32666015625
 20
96.08595241970485
 30
0.0
 10
109.7180230034722
 20
95.95366075303818
 30
0.0
  0
SPLINE
  5
35
330
A
100
AcDbEntity
  8
LAYER_1
 62
     7
100
AcDbSpline
210
0.0
220
0.0
230
1.0
 70
    11
 71
     3
 72
    11
 73
     7
 74
     0
 42
0.0000000001
 43
0.0000000001
 40
0.0
 40
0.0
 40
0.0
 40
0.0
 40
1.0
 40
1.0
 40
1.0
 40
2.0
 40
2.0
 40
2.0
 40
2.0
 10
148.5588907877604
 20
119.9155056423611
 30
0.0
 10
148.8220960828993
 20
119.8286892361111
 30
0.0
 10
149.2134589301215
 20
120.2131618923611
 30
0.0
 10
148.8400105794271
 20
120.3068684895833
 30
0.0
 10
148.4665622287326
 20
120.3991970486111
 30
0.0
 10
148.1661499023437
 20
120.048486328125
 30
0.0
 10
148.5588907877604
 20
119.9155056423611
 30
0.0
  0
SPLINE
  5
34
330
A
100
AcDbEntity
  8
LAYER_1
 62
     7
100
AcDbSpline
210
0.0
220
0.0
230
1.0
 70
    11
 71
     3
 72
    11
 73
     7
 74
     0
 42
0.0000000001
 43
0.0000000001
 40
0.0
 40
0.0
 40
0.0
 40
0.0
 40
1.0
 40
1.0
 40
1.0
 40
2.0
 40
2.0
 40
2.0
 40
2.0
 10
116.4910807291667
 20
102.3615383572049
 30
0.0
 10
116.3236490885417
 20
102.1389851888021
 30
0.0
 10
116.563427734375
 20
101.6463365342882
 30
0.0
 10
116.7715115017361
 20
101.9701755099826
 30
0.0
 10
116.9782172309028
 20
102.2953925238715
 30
0.0
 10
116.7411946614583
 20
102.6902004665799
 30
0.0
 10
116.4910807291667
 20
102.3615383572049
 30
0.0
  0
SPLINE
  5
33
330
A
100
AcDbEntity
  8
LAYER_1
 62
     7
100
AcDbSpline
210
0.0
220
0.0
230
1.0
 70
    11
 71
     3
 72
    11
 73
     7
 74
     0
 42
0.0000000001
 43
0.0000000001
 40
0.0
 40
0.0
 40
0.0
 40
0.0
 40
1.0
 40
1.0
 40
1.0
 40
2.0
 40
2.0
 40
2.0
 40
2.0
 10
115.2901204427083
 20
100.200774468316
 30
0.0
 10
115.1226888020833
 20
99.97959933810763
 30
0.0
 10
115.3645345052083
 20
99.48626166449652
 30
0.0
 10
115.571240234375
 20
99.81010064019097
 30
0.0
 10
115.7786349826389
 20
100.1360066731771
 30
0.0
 10
115.5395453559028
 20
100.529436577691
 30
0.0
 10
115.2901204427083
 20
100.200774468316
 30
0.0
  0
SPLINE
  5
32
330
A
100
AcDbEntity
  8
LAYER_1
 62
     7
100
AcDbSpline
210
0.0
220
0.0
230
1.0
 70
    11
 71
     3
 72
    11
 73
     7
 74
     0
 42
0.0000000001
 43
0.0000000001
 40
0.0
 40
0.0
 40
0.0
 40
0.0
 40
1.0
 40
1.0
 40
1.0
 40
2.0
 40
2.0
 40
2.0
 40
2.0
 10
115.025537109375
 20
96.3043714735243
 30
0.0
 10
114.8567274305556
 20
96.07975124782985
 30
0.0
 10
115.0978841145833
 20
95.58848063151041
 30
0.0
 10
115.3052788628472
 20
95.91300862630207
 30
0.0
 10
115.5126736111111
 20
96.23684760199652
 30
0.0
 10
115.2749620225694
 20
96.6330335828993
 30
0.0
 10
115.025537109375
 20
96.3043714735243
 30
0.0
  0
SPLINE
  5
31
330
A
100
AcDbEntity
  8
LAYER_1
 62
     7
100
AcDbSpline
210
0.0
220
0.0
230
1.0
 70
    11
 71
     3
 72
    11
 73
     7
 74
     0
 42
0.0000000001
 43
0.0000000001
 40
0.0
 40
0.0
 40
0.0
 40
0.0
 40
1.0
 40
1.0
 40
1.0
 40
2.0
 40
2.0
 40
2.0
 40
2.0
 10
150.8607313368055
 20
123.1955810546875
 30
0.0
 10
150.6953667534722
 20
122.9737169053819
 30
0.0
 10
150.9358344184028
 20
122.4790011935764
 30
0.0
 10
151.1418511284722
 20
122.8042182074653
 30
0.0
 10
151.3506239149305
 20
123.1301242404514
 30
0.0
 10
151.1122233072917
 20
123.5242431640625
 30
0.0
 10
150.8607313368055
 20
123.1955810546875
 30
0.0
  0
SPLINE
  5
30
330
A
100
AcDbEntity
  8
LAYER_1
 62
     7
100
AcDbSpline
210
0.0
220
0.0
230
1.0
 70
    11
 71
     3
 72
    11
 73
     7
 74
     0
 42
0.0000000001
 43
0.0000000001
 40
0.0
 40
0.0
 40
0.0
 40
0.0
 40
1.0
 40
1.0
 40
1.0
 40
2.0
 40
2.0
 40
2.0
 40
2.0
 10
116.7115668402778
 20
88.04578857421875
 30
0.0
 10
116.5455132378472
 20
87.82461344401041
 30
0.0
 10
116.786669921875
 20
87.3312757703993
 30
0.0
 10
116.9926866319444
 20
87.65511474609374
 30
0.0
 10
117.2000813802083
 20
87.98102077907986
 30
0.0
 10
116.9616807725694
 20
88.37513970269096
 30
0.0
 10
116.7115668402778
 20
88.04578857421875
 30
0.0
  0
SPLINE
  5
2F
330
A
100
AcDbEntity
  8
LAYER_1
 62
     7
100
AcDbSpline
210
0.0
220
0.0
230
1.0
 70
    11
 71
     3
 72
    26
 73
    22
 74
     0
 42
0.0000000001
 43
0.0000000001
 40
0.0
 40
0.0
 40
0.0
 40
0.0
 40
1.0
 40
1.0
 40
1.0
 40
2.0
 40
2.0
 40
2.0
 40
3.0
 40
3.0
 40
3.0
 40
4.0
 40
4.0
 40
4.0
 40
5.0
 40
5.0
 40
5.0
 40
6.0
 40
6.0
 40
6.0
 40
7.0
 40
7.0
 40
7.0
 40
7.0
 10
115.0186469184028
 20
93.08114013671874
 30
0.0
 10
114.6341742621528
 20
93.00810411241319
 30
0.0
 10
114.7630208333333
 20
92.26534152560762
 30
0.0
 10
114.5384006076389
 20
92.00489230685763
 30
0.0
 10
114.3137803819444
 20
91.74513210720485
 30
0.0
 10
114.0774468315972
 20
91.74306504991318
 30
0.0
 10
114.0526421440972
 20
91.02579616970485
 30
0.0
 10
114.0271484375
 20
90.30714925130208
 30
0.0
 10
114.1367024739583
 20
89.7993421766493
 30
0.0
 10
114.1863118489583
 20
89.60366075303818
 30
0.0
 10
114.2352322048611
 20
89.41004638671875
 30
0.0
 10
114.5556260850694
 20
89.18611518012152
 30
0.0
 10
114.696875
 20
89.43278401692707
 30
0.0
 10
114.8401909722222
 20
89.67807481553818
 30
0.0
 10
115.0448296440972
 20
90.29819200303818
 30
0.0
 10
115.3176812065972
 20
90.58000081380207
 30
0.0
 10
115.5905327690972
 20
90.86180962456596
 30
0.0
 10
115.8709635416667
 20
91.45712212456597
 30
0.0
 10
115.8585611979167
 20
91.77544894748263
 30
0.0
 10
115.8468478732639
 20
92.09308675130208
 30
0.0
 10
115.3135470920139
 20
93.13901774088541
 30
0.0
 10
115.0186469184028
 20
93.08114013671874
 30
0.0
  0
SPLINE
  5
2E
330
A
100
AcDbEntity
  8
LAYER_1
 62
     7
100
AcDbSpline
210
0.0
220
0.0
230
1.0
 70
    11
 71
     3
 72
    20
 73
    16
 74
     0
 42
0.0000000001
 43
0.0000000001
 40
0.0
 40
0.0
 40
0.0
 40
0.0
 40
1.0
 40
1.0
 40
1.0
 40
2.0
 40
2.0
 40
2.0
 40
3.0
 40
3.0
 40
3.0
 40
4.0
 40
4.0
 40
4.0
 40
5.0
 40
5.0
 40
5.0
 40
5.0
 10
112.8806206597222
 20
93.97686496310763
 30
0.0
 10
112.9164496527778
 20
93.55174018012151
 30
0.0
 10
113.0384060329861
 20
92.8627210828993
 30
0.0
 10
112.4424045138889
 20
92.84618462456596
 30
0.0
 10
111.8450249565972
 20
92.83033718532985
 30
0.0
 10
111.1835666232639
 20
92.85583089192707
 30
0.0
 10
111.3034559461806
 20
93.32643093532985
 30
0.0
 10
111.42265625
 20
93.79634195963541
 30
0.0
 10
111.3055230034722
 20
95.19505072699651
 30
0.0
 10
111.776123046875
 20
95.25223931206597
 30
0.0
 10
112.2467230902778
 20
95.3121839735243
 30
0.0
 10
112.718701171875
 20
95.18884955512152
 30
0.0
 10
112.7414388020833
 20
94.84916314019097
 30
0.0
 10
112.7634874131944
 20
94.51016574435764
 30
0.0
 10
112.8447916666667
 20
94.40130072699652
 30
0.0
 10
112.8806206597222
 20
93.97686496310763
 30
0.0
  0
SPLINE
  5
2D
330
A
100
AcDbEntity
  8
LAYER_1
 62
     7
100
AcDbSpline
210
0.0
220
0.0
230
1.0
 70
    11
 71
     3
 72
    20
 73
    16
 74
     0
 42
0.0000000001
 43
0.0000000001
 40
0.0
 40
0.0
 40
0.0
 40
0.0
 40
1.0
 40
1.0
 40
1.0
 40
2.0
 40
2.0
 40
2.0
 40
3.0
 40
3.0
 40
3.0
 40
4.0
 40
4.0
 40
4.0
 40
5.0
 40
5.0
 40
5.0
 40
5.0
 10
126.9705444335937
 20
87.96207275390624
 30
0.0
 10
127.0070624457465
 20
87.53694797092012
 30
0.0
 10
127.1283298068576
 20
86.84792887369791
 30
0.0
 10
126.5323282877604
 20
86.83139241536458
 30
0.0
 10
125.935637749566
 20
86.81485595703124
 30
0.0
 10
125.2741794162326
 20
86.84103868272568
 30
0.0
 10
125.3933797200521
 20
87.31163872612846
 30
0.0
 10
125.5132690429687
 20
87.78154975043402
 30
0.0
 10
125.3954467773437
 20
89.18025851779512
 30
0.0
 10
125.8660468207465
 20
89.23744710286458
 30
0.0
 10
126.3373358832465
 20
89.29739176432291
 30
0.0
 10
126.8086249457465
 20
89.17405734592013
 30
0.0
 10
126.8313625759549
 20
88.83437093098958
 30
0.0
 10
126.853411187066
 20
88.49537353515625
 30
0.0
 10
126.9354044596354
 20
88.38650851779514
 30
0.0
 10
126.9705444335937
 20
87.96207275390624
 30
0.0
  0
SPLINE
  5
2C
330
A
100
AcDbEntity
  8
LAYER_1
 62
     7
100
AcDbSpline
210
0.0
220
0.0
230
1.0
 70
    11
 71
     3
 72
    20
 73
    16
 74
     0
 42
0.0000000001
 43
0.0000000001
 40
0.0
 40
0.0
 40
0.0
 40
0.0
 40
1.0
 40
1.0
 40
1.0
 40
2.0
 40
2.0
 40
2.0
 40
3.0
 40
3.0
 40
3.0
 40
4.0
 40
4.0
 40
4.0
 40
5.0
 40
5.0
 40
5.0
 40
5.0
 10
91.4796875
 20
106.5902208116319
 30
0.0
 10
91.51551649305554
 20
106.1650960286458
 30
0.0
 10
91.63747287326387
 20
105.4760769314236
 30
0.0
 10
91.04147135416666
 20
105.4595404730903
 30
0.0
 10
90.44478081597221
 20
105.4436930338542
 30
0.0
 10
89.78332248263888
 20
105.4698757595486
 30
0.0
 10
89.90252278645832
 20
105.9397867838542
 30
0.0
 10
90.02172309027777
 20
106.4096978081597
 30
0.0
 10
89.90458984374999
 20
107.8084065755208
 30
0.0
 10
90.37518988715277
 20
107.8655951605903
 30
0.0
 10
90.84578993055555
 20
107.9255398220486
 30
0.0
 10
91.31776801215277
 20
107.8028944227431
 30
0.0
 10
91.34050564236111
 20
107.4625189887153
 30
0.0
 10
91.36255425347221
 20
107.1242106119792
 30
0.0
 10
91.44454752604166
 20
107.015345594618
 30
0.0
 10
91.4796875
 20
106.5902208116319
 30
0.0
  0
SPLINE
  5
2B
330
A
100
AcDbEntity
  8
LAYER_1
 62
     7
100
AcDbSpline
210
0.0
220
0.0
230
1.0
 70
    11
 71
     3
 72
    11
 73
     7
 74
     0
 42
0.0000000001
 43
0.0000000001
 40
0.0
 40
0.0
 40
0.0
 40
0.0
 40
1.0
 40
1.0
 40
1.0
 40
2.0
 40
2.0
 40
2.0
 40
2.0
 10
109.2618923611111
 20
90.1714124891493
 30
0.0
 10
109.0944607204861
 20
89.9481703016493
 30
0.0
 10
109.3349283854167
 20
89.45483262803819
 30
0.0
 10
109.5423231336805
 20
89.78004964192708
 30
0.0
 10
109.7490288628472
 20
90.10526665581597
 30
0.0
 10
109.5113172743055
 20
90.49869656032985
 30
0.0
 10
109.2618923611111
 20
90.1714124891493
 30
0.0
  0
SPLINE
  5
2A
330
A
100
AcDbEntity
  8
LAYER_1
 62
     7
100
AcDbSpline
210
0.0
220
0.0
230
1.0
 70
    11
 71
     3
 72
    11
 73
     7
 74
     0
 42
0.0000000001
 43
0.0000000001
 40
0.0
 40
0.0
 40
0.0
 40
0.0
 40
1.0
 40
1.0
 40
1.0
 40
2.0
 40
2.0
 40
2.0
 40
2.0
 10
151.9014946831597
 20
116.0339165581597
 30
0.0
 10
151.7347520616319
 20
115.8120524088542
 30
0.0
 10
151.9752197265625
 20
115.3187147352431
 30
0.0
 10
152.1826144748264
 20
115.6425537109375
 30
0.0
 10
152.3900092230903
 20
115.9698377821181
 30
0.0
 10
152.1509195963542
 20
116.3639567057292
 30
0.0
 10
151.9014946831597
 20
116.0339165581597
 30
0.0
  0
SPLINE
  5
29
330
A
100
AcDbEntity
  8
LAYER_1
 62
     7
100
AcDbSpline
210
0.0
220
0.0
230
1.0
 70
    11
 71
     3
 72
    11
 73
     7
 74
     0
 42
0.0000000001
 43
0.0000000001
 40
0.0
 40
0.0
 40
0.0
 40
0.0
 40
1.0
 40
1.0
 40
1.0
 40
2.0
 40
2.0
 40
2.0
 40
2.0
 10
106.6642903645833
 20
86.9592054578993
 30
0.0
 10
106.4968587239583
 20
86.73871934678819
 30
0.0
 10
106.7380154079861
 20
86.24538167317708
 30
0.0
 10
106.9447211371528
 20
86.57128770616319
 30
0.0
 10
107.1521158854167
 20
86.89512668185763
 30
0.0
 10
106.9137152777778
 20
87.28855658637151
 30
0.0
 10
106.6642903645833
 20
86.9592054578993
 30
0.0
  0
SPLINE
  5
28
330
A
100
AcDbEntity
  8
LAYER_1
 62
     7
100
AcDbSpline
210
0.0
220
0.0
230
1.0
 70
    11
 71
     3
 72
    11
 73
     7
 74
     0
 42
0.0000000001
 43
0.0000000001
 40
0.0
 40
0.0
 40
0.0
 40
0.0
 40
1.0
 40
1.0
 40
1.0
 40
2.0
 40
2.0
 40
2.0
 40
2.0
 10
68.33277994791666
 20
116.685211859809
 30
0.0
 10
68.16672634548611
 20
116.4633477105035
 30
0.0
 10
68.40650499131944
 20
115.9700100368924
 30
0.0
 10
68.61389973958333
 20
116.2938490125868
 30
0.0
 10
68.82060546874999
 20
116.6190660264757
 30
0.0
 10
68.58358289930555
 20
117.0152520073785
 30
0.0
 10
68.33277994791666
 20
116.685211859809
 30
0.0
  0
SPLINE
  5
27
330
A
100
AcDbEntity
  8
LAYER_1
 62
     7
100
AcDbSpline
210
0.0
220
0.0
230
1.0
 70
    11
 71
     3
 72
    20
 73
    16
 74
     0
 42
0.0000000001
 43
0.0000000001
 40
0.0
 40
0.0
 40
0.0
 40
0.0
 40
1.0
 40
1.0
 40
1.0
 40
2.0
 40
2.0
 40
2.0
 40
3.0
 40
3.0
 40
3.0
 40
4.0
 40
4.0
 40
4.0
 40
5.0
 40
5.0
 40
5.0
 40
5.0
 10
112.1971137152778
 20
100.5528632269965
 30
0.0
 10
112.8668402777778
 20
100.4405531141493
 30
0.0
 10
113.3436414930555
 20
100.6141859266493
 30
0.0
 10
113.7157118055555
 20
100.8925496419271
 30
0.0
 10
114.0877821180555
 20
101.1709133572049
 30
0.0
 10
114.79609375
 20
101.6353122287326
 30
0.0
 10
114.1456597222222
 20
101.8523532443576
 30
0.0
 10
113.4979817708333
 20
102.0680162217882
 30
0.0
 10
112.7841579861111
 20
102.2540513780382
 30
0.0
 10
112.4451605902778
 20
102.098333062066
 30
0.0
 10
112.10478515625
 20
101.9439927842882
 30
0.0
 10
111.1442925347222
 20
101.6959459092882
 30
0.0
 10
111.1759874131944
 20
101.3879543728299
 30
0.0
 10
111.2049262152778
 20
101.0772067599826
 30
0.0
 10
111.2655598958333
 20
100.7072035047743
 30
0.0
 10
112.1971137152778
 20
100.5528632269965
 30
0.0
  0
SPLINE
  5
26
330
A
100
AcDbEntity
  8
LAYER_1
 62
     7
100
AcDbSpline
210
0.0
220
0.0
230
1.0
 70
    11
 71
     3
 72
    11
 73
     7
 74
     0
 42
0.0000000001
 43
0.0000000001
 40
0.0
 40
0.0
 40
0.0
 40
0.0
 40
1.0
 40
1.0
 40
1.0
 40
2.0
 40
2.0
 40
2.0
 40
2.0
 10
100.5285753038194
 20
88.18290337456597
 30
0.0
 10
100.7917805989583
 20
88.27454291449652
 30
0.0
 10
100.86826171875
 20
88.81817898220486
 30
0.0
 10
100.5141059027778
 20
88.66383870442708
 30
0.0
 10
100.161328125
 20
88.51018744574652
 30
0.0
 10
100.1385904947917
 20
88.05061170789929
 30
0.0
 10
100.5285753038194
 20
88.18290337456597
 30
0.0
  0
SPLINE
  5
25
330
A
100
AcDbEntity
  8
LAYER_1
 62
     7
100
AcDbSpline
210
0.0
220
0.0
230
1.0
 70
    11
 71
     3
 72
    11
 73
     7
 74
     0
 42
0.0000000001
 43
0.0000000001
 40
0.0
 40
0.0
 40
0.0
 40
0.0
 40
1.0
 40
1.0
 40
1.0
 40
2.0
 40
2.0
 40
2.0
 40
2.0
 10
102.8974229600694
 20
90.56690945095485
 30
0.0
 10
103.1599392361111
 20
90.65785997178818
 30
0.0
 10
103.2357313368055
 20
91.20218505859374
 30
0.0
 10
102.8829535590278
 20
91.04853379991319
 30
0.0
 10
102.5281087239583
 20
90.89281548394096
 30
0.0
 10
102.5060601128472
 20
90.4318617078993
 30
0.0
 10
102.8974229600694
 20
90.56690945095485
 30
0.0
  0
SPLINE
  5
24
330
A
100
AcDbEntity
  8
LAYER_1
 62
     7
100
AcDbSpline
210
0.0
220
0.0
230
1.0
 70
    11
 71
     3
 72
    11
 73
     7
 74
     0
 42
0.0000000001
 43
0.0000000001
 40
0.0
 40
0.0
 40
0.0
 40
0.0
 40
1.0
 40
1.0
 40
1.0
 40
2.0
 40
2.0
 40
2.0
 40
2.0
 10
69.90512152777777
 20
107.0365329318576
 30
0.0
 10
70.166259765625
 20
107.1261054144965
 30
0.0
 10
70.24205186631944
 20
107.6704305013021
 30
0.0
 10
69.88927408854165
 20
107.5147121853299
 30
0.0
 10
69.53580729166666
 20
107.3624389648438
 30
0.0
 10
69.51444769965278
 20
106.9028632269965
 30
0.0
 10
69.90512152777777
 20
107.0365329318576
 30
0.0
  0
SPLINE
  5
23
330
A
100
AcDbEntity
  8
LAYER_1
 62
     7
100
AcDbSpline
210
0.0
220
0.0
230
1.0
 70
    11
 71
     3
 72
    17
 73
    13
 74
     0
 42
0.0000000001
 43
0.0000000001
 40
0.0
 40
0.0
 40
0.0
 40
0.0
 40
1.0
 40
1.0
 40
1.0
 40
2.0
 40
2.0
 40
2.0
 40
3.0
 40
3.0
 40
3.0
 40
4.0
 40
4.0
 40
4.0
 40
4.0
 10
85.62233615451387
 20
110.8201090494792
 30
0.0
 10
85.98751627604166
 20
110.6354519314236
 30
0.0
 10
87.0803005642361
 20
110.6960856119792
 30
0.0
 10
87.25668945312499
 20
110.8201090494792
 30
0.0
 10
87.43032226562499
 20
110.9441324869792
 30
0.0
 10
87.48268771701387
 20
111.4953477647569
 30
0.0
 10
87.28149414062499
 20
111.5959445529514
 30
0.0
 10
87.07754448784722
 20
111.6965413411458
 30
0.0
 10
86.57318250868055
 20
112.0989284939236
 30
0.0
 10
86.14874674479167
 20
111.8467475043403
 30
0.0
 10
85.72431098090277
 20
111.5959445529514
 30
0.0
 10
84.84512261284722
 20
111.2211181640625
 30
0.0
 10
85.62233615451387
 20
110.8201090494792
 30
0.0
  0
SPLINE
  5
22
330
A
100
AcDbEntity
  8
LAYER_1
 62
     7
100
AcDbSpline
210
0.0
220
0.0
230
1.0
 70
    11
 71
     3
 72
    20
 73
    16
 74
     0
 42
0.0000000001
 43
0.0000000001
 40
0.0
 40
0.0
 40
0.0
 40
0.0
 40
1.0
 40
1.0
 40
1.0
 40
2.0
 40
2.0
 40
2.0
 40
3.0
 40
3.0
 40
3.0
 40
4.0
 40
4.0
 40
4.0
 40
5.0
 40
5.0
 40
5.0
 40
5.0
 10
70.4673611111111
 20
117.3694078233507
 30
0.0
 10
70.63203667534722
 20
116.9463500976562
 30
0.0
 10
70.724365234375
 20
116.4137383355035
 30
0.0
 10
71.2638671875
 20
115.9941257052951
 30
0.0
 10
71.79992404513888
 20
115.5745130750868
 30
0.0
 10
72.28430447048611
 20
115.3133748372396
 30
0.0
 10
72.56335720486111
 20
115.6365247938368
 30
0.0
 10
72.84447699652777
 20
115.9610527886285
 30
0.0
 10
72.89270833333333
 20
116.1567342122396
 30
0.0
 10
72.74663628472221
 20
116.7210408528646
 30
0.0
 10
72.59574110243055
 20
117.286725531684
 30
0.0
 10
72.26914605034722
 20
118.0287990993923
 30
0.0
 10
71.73446723090277
 20
118.2348158094618
 30
0.0
 10
71.20047743055555
 20
118.4442776150174
 30
0.0
 10
70.13525390625
 20
118.216901312934
 30
0.0
 10
70.4673611111111
 20
117.3694078233507
 30
0.0
  0
ENDSEC
  0
SECTION
  2
OBJECTS
  0
DICTIONARY
  5
19
330
0
100
AcDbDictionary
281
     1
  3
ACAD_COLOR
350
138
  3
ACAD_GROUP
350
1A
  3
ACAD_LAYOUT
350
105
  3
ACAD_MATERIAL
350
13A
  3
ACAD_MLINESTYLE
350
1B
  3
ACAD_PLOTSETTINGS
350
106
  3
ACAD_PLOTSTYLENAME
350
103
  3
ACDBHEADERROUNDTRIPXREC
350
137
  0
DICTIONARY
  5
138
102
{ACAD_REACTORS
330
19
102
}
330
19
100
AcDbDictionary
281
     1
  0
DICTIONARY
  5
1A
102
{ACAD_REACTORS
330
19
102
}
330
19
100
AcDbDictionary
281
     1
  0
DICTIONARY
  5
105
102
{ACAD_REACTORS
330
19
102
}
330
19
100
AcDbDictionary
281
     1
  3
Layout1
350
108
  3
Model
350
107
  0
DICTIONARY
  5
13A
102
{ACAD_REACTORS
330
19
102
}
330
19
100
AcDbDictionary
281
     1
  0
DICTIONARY
  5
1B
102
{ACAD_REACTORS
330
19
102
}
330
19
100
AcDbDictionary
281
     1
  3
STANDARD
350
1C
  0
DICTIONARY
  5
106
102
{ACAD_REACTORS
330
19
102
}
330
19
100
AcDbDictionary
281
     1
  0
ACDBDICTIONARYWDFLT
  5
103
102
{ACAD_REACTORS
330
19
102
}
330
19
100
AcDbDictionary
281
     1
  3
Normal
350
104
100
AcDbDictionaryWithDefault
340
104
  0
DICTIONARY
  5
137
102
{ACAD_REACTORS
330
19
102
}
330
19
100
AcDbDictionary
281
     1
  3
COLORDICT
350
139
  3
MATERIALDICT
350
13B
  0
LAYOUT
  5
108
102
{ACAD_REACTORS
330
105
102
}
102
{ACAD_XDICTIONARY
360
13C
102
}
330
105
100
AcDbPlotSettings
  1

  2
Support Center HP LaserJet 4
  4

  6

 40
0.0
 41
0.0
 42
0.0
 43
0.0
 44
0.0
 45
0.0
 46
0.0
 47
0.0
 48
0.0
 49
0.0
140
0.0
141
0.0
142
1.0
143
1.0
 70
   688
 72
     0
 73
     0
 74
     5
  7

 75
    16
147
1.0
148
0.0
149
0.0
100
AcDbLayout
  1
Layout1
 70
     0
 71
     1
 10
0.0
 20
0.0
 11
12.0
 21
9.0
 12
0.0
 22
0.0
 32
0.0
 14
1.000000000000000E+20
 24
1.000000000000000E+20
 34
1.000000000000000E+20
 15
-1.000000000000000E+20
 25
-1.000000000000000E+20
 35
-1.000000000000000E+20
146
0.0
 13
0.0
 23
0.0
 33
0.0
 16
1.0
 26
0.0
 36
0.0
 17
0.0
 27
1.0
 37
0.0
 76
     0
330
B
  0
LAYOUT
  5
107
102
{ACAD_REACTORS
330
105
102
}
102
{ACAD_XDICTIONARY
360
13E
102
}
330
105
100
AcDbPlotSettings
  1

  2
Support Center HP LaserJet 4
  4

  6

 40
0.0
 41
0.0
 42
0.0
 43
0.0
 44
0.0
 45
0.0
 46
0.0
 47
0.0
 48
0.0
 49
0.0
140
0.0
141
0.0
142
1.0
143
1.0
 70
  1712
 72
     0
 73
     0
 74
     0
  7

 75
     0
147
1.0
148
0.0
149
0.0
100
AcDbLayout
  1
Model
 70
     1
 71
     0
 10
0.0
 20
0.0
 11
12.0
 21
9.0
 12
0.0
 22
0.0
 32
0.0
 14
0.0
 24
0.0
 34
0.0
 15
0.0
 25
0.0
 35
0.0
146
0.0
 13
0.0
 23
0.0
 33
0.0
 16
1.0
 26
0.0
 36
0.0
 17
0.0
 27
1.0
 37
0.0
 76
     0
330
A
  0
MLINESTYLE
  5
1C
102
{ACAD_REACTORS
330
1B
102
}
330
1B
100
AcDbMlineStyle
  2
STANDARD
 70
     0
  3

 62
     0
 51
90.0000000000002
 52
90.0000000000002
 71
     2
 49
0.5
 62
   256
  6
BYLAYER
 49
-0.5
 62
   256
  6
BYLAYER
  0
ACDBPLACEHOLDER
  5
104
102
{ACAD_REACTORS
330
103
102
}
330
103
  0
XRECORD
  5
139
102
{ACAD_REACTORS
330
137
102
}
330
137
100
AcDbXrecord
340
138
  0
XRECORD
  5
13B
102
{ACAD_REACTORS
330
137
102
}
330
137
100
AcDbXrecord
340
13A
  0
DICTIONARY
  5
13C
330
108
100
AcDbDictionary
280
     1
281
     1
  3
ACAD_XREC_ROUNDTRIP
360
13D
  0
DICTIONARY
  5
13E
330
107
100
AcDbDictionary
280
     1
281
     1
  3
ACAD_XREC_ROUNDTRIP
360
13F
  0
XRECORD
  5
13D
102
{ACAD_REACTORS
330
13C
102
}
330
13C
100
AcDbXrecord
102
SHADEPLOT
 70
     0
102
SHADEPLOTRESLEVEL
 70
     0
102
SHADEPLOTCUSTOMDPI
 70
     0
  0
XRECORD
  5
13F
102
{ACAD_REACTORS
330
13E
102
}
330
13E
100
AcDbXrecord
102
SHADEPLOT
 70
-25416
102
SHADEPLOTRESLEVEL
 70
 -2880
102
SHADEPLOTCUSTOMDPI
 70
 20968
  0
ENDSEC
  0
EOF
