  0
SECTION
  2
HEADER
  9
$ACADVER
  1
AC1015
  9
$ACADMAINTVER
 70
     6
  9
$DWGCODEPAGE
  3
ANSI_1252
  9
$INSBASE
 10
0.0
 20
0.0
 30
0.0
  9
$EXTMIN
 10
0.496
 20
0.2293333333333333
 30
0.0
  9
$EXTMAX
 10
3.805
 20
5.781000000000001
 30
0.0
  9
$LIMMIN
 10
0.0
 20
0.0
  9
$LIMMAX
 10
9.0
 20
12.0
  9
$ORTHOMODE
 70
     0
  9
$REGENMODE
 70
     0
  9
$FILLMODE
 70
     1
  9
$QTEXTMODE
 70
     0
  9
$MIRRTEXT
 70
     1
  9
$LTSCALE
 40
0.25
  9
$ATTMODE
 70
     1
  9
$TEXTSIZE
 40
0.125
  9
$TRACEWID
 40
0.05
  9
$TEXTSTYLE
  7
STANDARD
  9
$CLAYER
  8
0
  9
$CELTYPE
  6
ByLayer
  9
$CECOLOR
 62
   256
  9
$CELTSCALE
 40
1.0
  9
$DISPSILH
 70
     0
  9
$DIMSCALE
 40
1.0
  9
$DIMASZ
 40
0.1
  9
$DIMEXO
 40
0.063
  9
$DIMDLI
 40
0.38
  9
$DIMRND
 40
0.0
  9
$DIMDLE
 40
0.0
  9
$DIMEXE
 40
0.18
  9
$DIMTP
 40
0.0
  9
$DIMTM
 40
0.0
  9
$DIMTXT
 40
0.1
  9
$DIMCEN
 40
0.09
  9
$DIMTSZ
 40
0.0
  9
$DIMTOL
 70
     0
  9
$DIMLIM
 70
     0
  9
$DIMTIH
 70
     1
  9
$DIMTOH
 70
     1
  9
$DIMSE1
 70
     0
  9
$DIMSE2
 70
     0
  9
$DIMTAD
 70
     0
  9
$DIMZIN
 70
     0
  9
$DIMBLK
  1

  9
$DIMASO
 70
     0
  9
$DIMSHO
 70
     0
  9
$DIMPOST
  1

  9
$DIMAPOST
  1

  9
$DIMALT
 70
     0
  9
$DIMALTD
 70
     2
  9
$DIMALTF
 40
25.4
  9
$DIMLFAC
 40
1.0
  9
$DIMTOFL
 70
     0
  9
$DIMTVP
 40
0.0
  9
$DIMTIX
 70
     0
  9
$DIMSOXD
 70
     0
  9
$DIMSAH
 70
     0
  9
$DIMBLK1
  1

  9
$DIMBLK2
  1

  9
$DIMSTYLE
  2
Standard
  9
$DIMCLRD
 70
     0
  9
$DIMCLRE
 70
     0
  9
$DIMCLRT
 70
     0
  9
$DIMTFAC
 40
1.0
  9
$DIMGAP
 40
0.09
  9
$DIMJUST
 70
     0
  9
$DIMSD1
 70
     0
  9
$DIMSD2
 70
     0
  9
$DIMTOLJ
 70
     1
  9
$DIMTZIN
 70
     0
  9
$DIMALTZ
 70
     0
  9
$DIMALTTZ
 70
     0
  9
$DIMUPT
 70
     0
  9
$DIMDEC
 70
     4
  9
$DIMTDEC
 70
     4
  9
$DIMALTU
 70
     2
  9
$DIMALTTD
 70
     2
  9
$DIMTXSTY
  7
STANDARD
  9
$DIMAUNIT
 70
     0
  9
$DIMADEC
 70
     0
  9
$DIMALTRND
 40
0.0
  9
$DIMAZIN
 70
     0
  9
$DIMDSEP
 70
    46
  9
$DIMATFIT
 70
     3
  9
$DIMFRAC
 70
     0
  9
$DIMLDRBLK
  1

  9
$DIMLUNIT
 70
     2
  9
$DIMLWD
 70
    -2
  9
$DIMLWE
 70
    -2
  9
$DIMTMOVE
 70
     0
  9
$LUNITS
 70
     2
  9
$LUPREC
 70
     4
  9
$SKETCHINC
 40
0.1
  9
$FILLETRAD
 40
0.025
  9
$AUNITS
 70
     0
  9
$AUPREC
 70
     0
  9
$MENU
  1
acad
  9
$ELEVATION
 40
0.0
  9
$PELEVATION
 40
0.0
  9
$THICKNESS
 40
0.0
  9
$LIMCHECK
 70
     0
  9
$CHAMFERA
 40
0.0
  9
$CHAMFERB
 40
0.0
  9
$CHAMFERC
 40
1.0
  9
$CHAMFERD
 40
0.0
  9
$SKPOLY
 70
     0
  9
$TDCREATE
 40
2453955.562606643
  9
$TDUCREATE
 40
2453955.895939977
  9
$TDUPDATE
 40
2453955.604273322
  9
$TDUUPDATE
 40
2453955.895939989
  9
$TDINDWG
 40
0.0000000116
  9
$TDUSRTIMER
 40
0.0000000116
  9
$USRTIMER
 70
     1
  9
$ANGBASE
 50
0.0
  9
$ANGDIR
 70
     0
  9
$PDMODE
 70
     0
  9
$PDSIZE
 40
0.0
  9
$PLINEWID
 40
0.0
  9
$SPLFRAME
 70
     0
  9
$SPLINETYPE
 70
     6
  9
$SPLINESEGS
 70
     8
  9
$HANDSEED
  5
36E
  9
$SURFTAB1
 70
     6
  9
$SURFTAB2
 70
     6
  9
$SURFTYPE
 70
     6
  9
$SURFU
 70
     6
  9
$SURFV
 70
     6
  9
$UCSBASE
  2

  9
$UCSNAME
  2

  9
$UCSORG
 10
0.0
 20
0.0
 30
0.0
  9
$UCSXDIR
 10
1.0
 20
0.0
 30
0.0
  9
$UCSYDIR
 10
0.0
 20
1.0
 30
0.0
  9
$UCSORTHOREF
  2

  9
$UCSORTHOVIEW
 70
     0
  9
$UCSORGTOP
 10
0.0
 20
0.0
 30
0.0
  9
$UCSORGBOTTOM
 10
0.0
 20
0.0
 30
0.0
  9
$UCSORGLEFT
 10
0.0
 20
0.0
 30
0.0
  9
$UCSORGRIGHT
 10
0.0
 20
0.0
 30
0.0
  9
$UCSORGFRONT
 10
0.0
 20
0.0
 30
0.0
  9
$UCSORGBACK
 10
0.0
 20
0.0
 30
0.0
  9
$PUCSBASE
  2

  9
$PUCSNAME
  2

  9
$PUCSORG
 10
0.0
 20
0.0
 30
0.0
  9
$PUCSXDIR
 10
1.0
 20
0.0
 30
0.0
  9
$PUCSYDIR
 10
0.0
 20
1.0
 30
0.0
  9
$PUCSORTHOREF
  2

  9
$PUCSORTHOVIEW
 70
     0
  9
$PUCSORGTOP
 10
0.0
 20
0.0
 30
0.0
  9
$PUCSORGBOTTOM
 10
0.0
 20
0.0
 30
0.0
  9
$PUCSORGLEFT
 10
0.0
 20
0.0
 30
0.0
  9
$PUCSORGRIGHT
 10
0.0
 20
0.0
 30
0.0
  9
$PUCSORGFRONT
 10
0.0
 20
0.0
 30
0.0
  9
$PUCSORGBACK
 10
0.0
 20
0.0
 30
0.0
  9
$USERI1
 70
     0
  9
$USERI2
 70
     0
  9
$USERI3
 70
     0
  9
$USERI4
 70
     0
  9
$USERI5
 70
     0
  9
$USERR1
 40
0.0
  9
$USERR2
 40
0.0
  9
$USERR3
 40
0.0
  9
$USERR4
 40
0.0
  9
$USERR5
 40
0.0
  9
$WORLDVIEW
 70
     1
  9
$SHADEDGE
 70
     3
  9
$SHADEDIF
 70
    70
  9
$TILEMODE
 70
     1
  9
$MAXACTVP
 70
    16
  9
$PINSBASE
 10
0.0
 20
0.0
 30
0.0
  9
$PLIMCHECK
 70
     0
  9
$PEXTMIN
 10
1.000000000000000E+20
 20
1.000000000000000E+20
 30
1.000000000000000E+20
  9
$PEXTMAX
 10
-1.000000000000000E+20
 20
-1.000000000000000E+20
 30
-1.000000000000000E+20
  9
$PLIMMIN
 10
0.0
 20
0.0
  9
$PLIMMAX
 10
12.0
 20
9.0
  9
$UNITMODE
 70
     0
  9
$VISRETAIN
 70
     0
  9
$PLINEGEN
 70
     0
  9
$PSLTSCALE
 70
     0
  9
$TREEDEPTH
 70
  3020
  9
$CMLSTYLE
  2
Standard
  9
$CMLJUST
 70
     0
  9
$CMLSCALE
 40
1.0
  9
$PROXYGRAPHICS
 70
     1
  9
$MEASUREMENT
 70
     0
  9
$CELWEIGHT
370
    -1
  9
$ENDCAPS
280
     0
  9
$JOINSTYLE
280
     0
  9
$LWDISPLAY
290
     0
  9
$INSUNITS
 70
     1
  9
$HYPERLINKBASE
  1

  9
$STYLESHEET
  1

  9
$XEDIT
290
     1
  9
$CEPSNTYPE
380
     0
  9
$PSTYLEMODE
290
     0
  9
$FINGERPRINTGUID
  2
{FAEB1C30-E019-11D5-929B-00C0DF256EC4}
  9
$VERSIONGUID
  2
{FAEB1C32-E019-11D5-929B-00C0DF256EC4}
  9
$EXTNAMES
290
     1
  9
$PSVPSCALE
 40
0.0
  9
$OLESTARTUP
290
     0
  0
ENDSEC
  0
SECTION
  2
CLASSES
  0
CLASS
  1
ACDBDICTIONARYWDFLT
  2
AcDbDictionaryWithDefault
  3
AutoCAD 2000
 90
        0
280
     0
281
     0
  0
CLASS
  1
ACDBPLACEHOLDER
  2
AcDbPlaceHolder
  3
ObjectDBX Classes
 90
        0
280
     0
281
     0
  0
CLASS
  1
LAYOUT
  2
AcDbLayout
  3
ObjectDBX Classes
 90
        0
280
     0
281
     0
  0
ENDSEC
  0
SECTION
  2
TABLES
  0
TABLE
  2
VPORT
  5
8
330
0
100
AcDbSymbolTable
 70
     2
  0
VPORT
  5
1F
330
8
100
AcDbSymbolTableRecord
100
AcDbViewportTableRecord
  2
*ACTIVE
 70
     0
 10
0.0
 20
0.0
 11
1.0
 21
1.0
 12
8.324455205811137
 22
6.0
 13
0.0
 23
0.0
 14
0.025
 24
0.025
 15
0.0
 25
0.0
 16
0.0
 26
0.0
 36
1.0
 17
0.0
 27
0.0
 37
0.0
 40
12.0
 41
0.7207678883071553
 42
50.0
 43
0.0
 44
0.0
 50
0.0
 51
0.0
 71
     0
 72
  2000
 73
     1
 74
     0
 75
     0
 76
     0
 77
     0
 78
     0
281
     0
 65
     1
110
0.0
120
0.0
130
0.0
111
1.0
121
0.0
131
0.0
112
0.0
122
1.0
132
0.0
 79
     0
146
0.0
  0
ENDTAB
  0
TABLE
  2
LTYPE
  5
5
330
0
100
AcDbSymbolTable
 70
     2
  0
LTYPE
  5
10
330
5
100
AcDbSymbolTableRecord
100
AcDbLinetypeTableRecord
  2
ByBlock
 70
     0
  3

 72
    65
 73
     0
 40
0.0
  0
LTYPE
  5
11
330
5
100
AcDbSymbolTableRecord
100
AcDbLinetypeTableRecord
  2
ByLayer
 70
     0
  3

 72
    65
 73
     0
 40
0.0
  0
LTYPE
  5
1B
330
5
100
AcDbSymbolTableRecord
100
AcDbLinetypeTableRecord
  2
CONTINUOUS
 70
     0
  3
Solid line
 72
    65
 73
     0
 40
0.0
  0
LTYPE
  5
1C
330
5
100
AcDbSymbolTableRecord
100
AcDbLinetypeTableRecord
  2
HIDDEN
 70
     0
  3
__ __ __ __ __ __ __ __ __ __ __ __ __ __ __ __
 72
    65
 73
     2
 40
0.375
 49
0.25
 74
     0
 49
-0.125
 74
     0
  0
ENDTAB
  0
TABLE
  2
LAYER
  5
2
330
0
100
AcDbSymbolTable
 70
     1
  0
LAYER
  5
1D
330
2
100
AcDbSymbolTableRecord
100
AcDbLayerTableRecord
  2
0
 70
     0
 62
     7
  6
CONTINUOUS
370
    -3
390
F
  0
ENDTAB
  0
TABLE
  2
STYLE
  5
3
330
0
100
AcDbSymbolTable
 70
     1
  0
STYLE
  5
21
330
3
100
AcDbSymbolTableRecord
100
AcDbTextStyleTableRecord
  2
STANDARD
 70
     0
 40
0.0
 41
1.0
 50
0.0
 71
     0
 42
0.125
  3
romans
  4

  0
ENDTAB
  0
TABLE
  2
VIEW
  5
6
330
0
100
AcDbSymbolTable
 70
     0
  0
ENDTAB
  0
TABLE
  2
UCS
  5
7
330
0
100
AcDbSymbolTable
 70
     0
  0
ENDTAB
  0
TABLE
  2
APPID
  5
9
330
0
100
AcDbSymbolTable
 70
     1
  0
APPID
  5
20
330
9
100
AcDbSymbolTableRecord
100
AcDbRegAppTableRecord
  2
ACAD
 70
     0
  0
ENDTAB
  0
TABLE
  2
DIMSTYLE
  5
A
330
0
100
AcDbSymbolTable
 70
     1
100
AcDbDimStyleTable
  0
DIMSTYLE
105
22
330
A
100
AcDbSymbolTableRecord
100
AcDbDimStyleTableRecord
  2
Standard
 70
     0
  3

  4

340
21
  0
ENDTAB
  0
TABLE
  2
BLOCK_RECORD
  5
1
330
0
100
AcDbSymbolTable
 70
     0
  0
BLOCK_RECORD
  5
18
330
1
100
AcDbSymbolTableRecord
100
AcDbBlockTableRecord
  2
*Model_Space
340
19
  0
BLOCK_RECORD
  5
16
330
1
100
AcDbSymbolTableRecord
100
AcDbBlockTableRecord
  2
*Paper_Space
340
17
  0
ENDTAB
  0
ENDSEC
  0
SECTION
  2
BLOCKS
  0
BLOCK
  5
363
330
18
100
AcDbEntity
  8
0
100
AcDbBlockBegin
  2
*Model_Space
 70
     0
 10
0.0
 20
0.0
 30
0.0
  3
*Model_Space
  1

  4

  0
ENDBLK
  5
364
330
18
100
AcDbEntity
  8
0
100
AcDbBlockEnd
  0
BLOCK
  5
361
330
16
100
AcDbEntity
 67
     1
  8
0
100
AcDbBlockBegin
  2
*Paper_Space
 70
     0
 10
0.0
 20
0.0
 30
0.0
  3
*Paper_Space
  1

  4

  0
ENDBLK
  5
362
330
16
100
AcDbEntity
 67
     1
  8
0
100
AcDbBlockEnd
  0
ENDSEC
  0
SECTION
  2
ENTITIES
  0
LWPOLYLINE
  5
23
330
18
100
AcDbEntity
  8
0
100
AcDbPolyline
 90
        7
 70
     0
 43
0.0
 10
2.953
 20
1.37
 42
0.047
 10
2.942
 20
1.379
 42
0.066
 10
2.911
 20
1.394
 42
0.052
 10
2.868
 20
1.403
 42
0.052
 10
2.824
 20
1.403
 42
0.066
 10
2.79
 20
1.395
 42
0.077
 10
2.77
 20
1.383
 42
0.171
  0
LWPOLYLINE
  5
2D
330
18
100
AcDbEntity
  8
0
100
AcDbPolyline
 90
       16
 70
     1
 43
0.0
 10
2.754
 20
1.416
 42
0.171
 10
2.759
 20
1.397
 42
0.105
 10
2.781
 20
1.374
 42
0.066
 10
2.812
 20
1.359
 42
0.052
 10
2.855
 20
1.35
 42
0.052
 10
2.899
 20
1.35
 42
0.066
 10
2.933
 20
1.358
 42
0.105
 10
2.96
 20
1.376
 42
0.171
 10
2.968
 20
1.394
 42
0.171
 10
2.964
 20
1.413
 42
0.105
 10
2.941
 20
1.436
 42
0.066
 10
2.91
 20
1.451
 42
0.052
 10
2.867
 20
1.46
 42
0.052
 10
2.823
 20
1.46
 42
0.066
 10
2.789
 20
1.452
 42
0.105
 10
2.763
 20
1.435
 42
0.171
  0
LINE
  5
40
330
18
100
AcDbEntity
  8
0
100
AcDbLine
 10
2.433
 20
1.605
 30
0.0
 11
2.573
 21
1.668
 31
0.0
  0
LINE
  5
41
330
18
100
AcDbEntity
  8
0
100
AcDbLine
 10
2.427
 20
1.578
 30
0.0
 11
2.619
 21
1.663
 31
0.0
  0
LINE
  5
42
330
18
100
AcDbEntity
  8
0
100
AcDbLine
 10
1.154
 20
5.571000000000001
 30
0.0
 11
1.194
 21
2.658
 31
0.0
  0
LINE
  5
43
330
18
100
AcDbEntity
  8
0
100
AcDbLine
 10
1.194
 20
2.658
 30
0.0
 11
1.922
 21
2.347
 31
0.0
  0
LINE
  5
44
330
18
100
AcDbEntity
  8
0
100
AcDbLine
 10
1.881
 20
5.26
 30
0.0
 11
1.922
 21
2.347
 31
0.0
  0
LINE
  5
45
330
18
100
AcDbEntity
  8
0
100
AcDbLine
 10
1.881
 20
5.26
 30
0.0
 11
1.612
 21
5.375
 31
0.0
  0
LINE
  5
46
330
18
100
AcDbEntity
  8
0
100
AcDbLine
 10
2.76
 20
5.454
 30
0.0
 11
2.8
 21
2.644
 31
0.0
  0
LINE
  5
47
330
18
100
AcDbEntity
  8
0
100
AcDbLine
 10
1.922
 20
2.347
 30
0.0
 11
2.118
 21
2.413
 31
0.0
  0
LINE
  5
48
330
18
100
AcDbEntity
  8
0
100
AcDbLine
 10
1.881
 20
5.26
 30
0.0
 11
2.76
 21
5.454
 31
0.0
  0
LINE
  5
49
330
18
100
AcDbEntity
  8
0
100
AcDbLine
 10
2.76
 20
5.454
 30
0.0
 11
2.49
 21
5.569
 31
0.0
  0
LINE
  5
4A
330
18
100
AcDbEntity
  8
0
100
AcDbLine
 10
2.032
 20
5.765
 30
0.0
 11
1.154
 21
5.571000000000001
 31
0.0
  0
LINE
  5
4B
330
18
100
AcDbEntity
  8
0
100
AcDbLine
 10
1.434
 20
5.451000000000001
 30
0.0
 11
1.486
 21
5.587000000000001
 31
0.0
  0
LINE
  5
4C
330
18
100
AcDbEntity
  8
0
100
AcDbLine
 10
1.486
 20
5.587000000000001
 30
0.0
 11
1.567
 21
5.278
 31
0.0
  0
LINE
  5
4D
330
18
100
AcDbEntity
  8
0
100
AcDbLine
 10
1.567
 20
5.278
 30
0.0
 11
1.612
 21
5.375
 31
0.0
  0
LINE
  5
4E
330
18
100
AcDbEntity
  8
0
100
AcDbLine
 10
1.434
 20
5.451000000000001
 30
0.0
 11
1.154
 21
5.571000000000001
 31
0.0
  0
LINE
  5
4F
330
18
100
AcDbEntity
  8
0
100
AcDbLine
 10
1.612
 20
5.375
 30
0.0
 11
2.49
 21
5.569
 31
0.0
  0
LINE
  5
50
330
18
100
AcDbEntity
  8
0
100
AcDbLine
 10
1.486
 20
5.587000000000001
 30
0.0
 11
2.365
 21
5.781000000000001
 31
0.0
  0
LINE
  5
51
330
18
100
AcDbEntity
  8
0
100
AcDbLine
 10
2.365
 20
5.781000000000001
 30
0.0
 11
2.424
 21
5.553999999999999
 31
0.0
  0
LINE
  5
52
330
18
100
AcDbEntity
  8
0
100
AcDbLine
 10
2.121
 20
5.727
 30
0.0
 11
2.032
 21
5.765
 31
0.0
  0
LINE
  5
53
330
18
100
AcDbEntity
  8
0
100
AcDbLine
 10
0.595
 20
2.892
 30
0.0
 11
1.188
 21
3.093
 31
0.0
  0
LINE
  5
54
330
18
100
AcDbEntity
  8
0
100
AcDbLine
 10
2.793
 20
3.112
 30
0.0
 11
3.781
 21
2.69
 31
0.0
  0
POINT
  5
55
330
18
100
AcDbEntity
  8
0
100
AcDbPoint
 10
1.604
 20
1.096
 30
0.0
  0
POINT
  5
56
330
18
100
AcDbEntity
  8
0
100
AcDbPoint
 10
1.72
 20
0.978
 30
0.0
  0
POINT
  5
57
330
18
100
AcDbEntity
  8
0
100
AcDbPoint
 10
1.681
 20
1.079
 30
0.0
  0
POINT
  5
58
330
18
100
AcDbEntity
  8
0
100
AcDbPoint
 10
1.592
 20
1.256
 30
0.0
  0
POINT
  5
59
330
18
100
AcDbEntity
  8
0
100
AcDbPoint
 10
1.707
 20
1.261
 30
0.0
  0
POINT
  5
5A
330
18
100
AcDbEntity
  8
0
100
AcDbPoint
 10
1.821
 20
1.227
 30
0.0
  0
POINT
  5
5B
330
18
100
AcDbEntity
  8
0
100
AcDbPoint
 10
1.829
 20
1.199
 30
0.0
  0
POINT
  5
5C
330
18
100
AcDbEntity
  8
0
100
AcDbPoint
 10
1.66
 20
1.329
 30
0.0
  0
POINT
  5
5D
330
18
100
AcDbEntity
  8
0
100
AcDbPoint
 10
1.478
 20
1.355
 30
0.0
  0
POINT
  5
5E
330
18
100
AcDbEntity
  8
0
100
AcDbPoint
 10
1.382
 20
1.344
 30
0.0
  0
POINT
  5
5F
330
18
100
AcDbEntity
  8
0
100
AcDbPoint
 10
1.452
 20
1.266
 30
0.0
  0
POINT
  5
60
330
18
100
AcDbEntity
  8
0
100
AcDbPoint
 10
1.483
 20
1.128
 30
0.0
  0
POINT
  5
61
330
18
100
AcDbEntity
  8
0
100
AcDbPoint
 10
1.53
 20
1.027
 30
0.0
  0
POINT
  5
62
330
18
100
AcDbEntity
  8
0
100
AcDbPoint
 10
1.564
 20
0.9279999999999999
 30
0.0
  0
POINT
  5
63
330
18
100
AcDbEntity
  8
0
100
AcDbPoint
 10
1.694
 20
0.915
 30
0.0
  0
POINT
  5
64
330
18
100
AcDbEntity
  8
0
100
AcDbPoint
 10
1.829
 20
0.871
 30
0.0
  0
POINT
  5
65
330
18
100
AcDbEntity
  8
0
100
AcDbPoint
 10
1.904
 20
1.019
 30
0.0
  0
POINT
  5
66
330
18
100
AcDbEntity
  8
0
100
AcDbPoint
 10
1.855
 20
1.087
 30
0.0
  0
POINT
  5
67
330
18
100
AcDbEntity
  8
0
100
AcDbPoint
 10
1.673
 20
0.972
 30
0.0
  0
POINT
  5
68
330
18
100
AcDbEntity
  8
0
100
AcDbPoint
 10
1.582
 20
0.9420000000000001
 30
0.0
  0
POINT
  5
69
330
18
100
AcDbEntity
  8
0
100
AcDbPoint
 10
1.564
 20
1.009
 30
0.0
  0
POINT
  5
6A
330
18
100
AcDbEntity
  8
0
100
AcDbPoint
 10
1.576
 20
1.058
 30
0.0
  0
POINT
  5
6B
330
18
100
AcDbEntity
  8
0
100
AcDbPoint
 10
1.521
 20
1.119
 30
0.0
  0
POINT
  5
6C
330
18
100
AcDbEntity
  8
0
100
AcDbPoint
 10
1.576
 20
1.143
 30
0.0
  0
POINT
  5
6D
330
18
100
AcDbEntity
  8
0
100
AcDbPoint
 10
1.649
 20
1.21
 30
0.0
  0
POINT
  5
6E
330
18
100
AcDbEntity
  8
0
100
AcDbPoint
 10
1.588
 20
1.283
 30
0.0
  0
POINT
  5
6F
330
18
100
AcDbEntity
  8
0
100
AcDbPoint
 10
1.503
 20
1.289
 30
0.0
  0
POINT
  5
70
330
18
100
AcDbEntity
  8
0
100
AcDbPoint
 10
1.448
 20
1.228
 30
0.0
  0
POINT
  5
71
330
18
100
AcDbEntity
  8
0
100
AcDbPoint
 10
1.837
 20
0.9359999999999999
 30
0.0
  0
POINT
  5
72
330
18
100
AcDbEntity
  8
0
100
AcDbPoint
 10
1.88
 20
0.985
 30
0.0
  0
POINT
  5
73
330
18
100
AcDbEntity
  8
0
100
AcDbPoint
 10
1.868
 20
1.07
 30
0.0
  0
POINT
  5
74
330
18
100
AcDbEntity
  8
0
100
AcDbPoint
 10
1.807
 20
0.899
 30
0.0
  0
POINT
  5
75
330
18
100
AcDbEntity
  8
0
100
AcDbPoint
 10
1.716
 20
0.899
 30
0.0
  0
POINT
  5
76
330
18
100
AcDbEntity
  8
0
100
AcDbPoint
 10
1.606
 20
0.887
 30
0.0
  0
POINT
  5
77
330
18
100
AcDbEntity
  8
0
100
AcDbPoint
 10
1.618
 20
0.899
 30
0.0
  0
POINT
  5
78
330
18
100
AcDbEntity
  8
0
100
AcDbPoint
 10
1.703
 20
0.845
 30
0.0
  0
POINT
  5
79
330
18
100
AcDbEntity
  8
0
100
AcDbPoint
 10
1.862
 20
0.845
 30
0.0
  0
POINT
  5
7A
330
18
100
AcDbEntity
  8
0
100
AcDbPoint
 10
3.51
 20
1.51
 30
0.0
  0
POINT
  5
7B
330
18
100
AcDbEntity
  8
0
100
AcDbPoint
 10
3.352
 20
1.51
 30
0.0
  0
POINT
  5
7C
330
18
100
AcDbEntity
  8
0
100
AcDbPoint
 10
3.364
 20
1.564
 30
0.0
  0
POINT
  5
7D
330
18
100
AcDbEntity
  8
0
100
AcDbPoint
 10
3.456
 20
1.564
 30
0.0
  0
POINT
  5
7E
330
18
100
AcDbEntity
  8
0
100
AcDbPoint
 10
3.516
 20
1.735
 30
0.0
  0
POINT
  5
7F
330
18
100
AcDbEntity
  8
0
100
AcDbPoint
 10
3.529
 20
1.65
 30
0.0
  0
POINT
  5
80
330
18
100
AcDbEntity
  8
0
100
AcDbPoint
 10
3.486
 20
1.601
 30
0.0
  0
POINT
  5
81
330
18
100
AcDbEntity
  8
0
100
AcDbPoint
 10
3.097
 20
1.893
 30
0.0
  0
POINT
  5
82
330
18
100
AcDbEntity
  8
0
100
AcDbPoint
 10
3.151
 20
1.954
 30
0.0
  0
POINT
  5
83
330
18
100
AcDbEntity
  8
0
100
AcDbPoint
 10
3.237
 20
1.948
 30
0.0
  0
POINT
  5
84
330
18
100
AcDbEntity
  8
0
100
AcDbPoint
 10
3.297
 20
1.875
 30
0.0
  0
POINT
  5
85
330
18
100
AcDbEntity
  8
0
100
AcDbPoint
 10
3.224
 20
1.808
 30
0.0
  0
POINT
  5
86
330
18
100
AcDbEntity
  8
0
100
AcDbPoint
 10
3.17
 20
1.783
 30
0.0
  0
POINT
  5
87
330
18
100
AcDbEntity
  8
0
100
AcDbPoint
 10
3.224
 20
1.723
 30
0.0
  0
POINT
  5
88
330
18
100
AcDbEntity
  8
0
100
AcDbPoint
 10
3.212
 20
1.674
 30
0.0
  0
POINT
  5
89
330
18
100
AcDbEntity
  8
0
100
AcDbPoint
 10
3.322
 20
1.637
 30
0.0
  0
POINT
  5
8A
330
18
100
AcDbEntity
  8
0
100
AcDbPoint
 10
3.503
 20
1.752
 30
0.0
  0
POINT
  5
8B
330
18
100
AcDbEntity
  8
0
100
AcDbPoint
 10
3.553
 20
1.684
 30
0.0
  0
POINT
  5
8C
330
18
100
AcDbEntity
  8
0
100
AcDbPoint
 10
3.477
 20
1.536
 30
0.0
  0
POINT
  5
8D
330
18
100
AcDbEntity
  8
0
100
AcDbPoint
 10
3.342
 20
1.58
 30
0.0
  0
POINT
  5
8E
330
18
100
AcDbEntity
  8
0
100
AcDbPoint
 10
3.179
 20
1.692
 30
0.0
  0
POINT
  5
8F
330
18
100
AcDbEntity
  8
0
100
AcDbPoint
 10
3.132
 20
1.793
 30
0.0
  0
POINT
  5
90
330
18
100
AcDbEntity
  8
0
100
AcDbPoint
 10
3.101
 20
1.931
 30
0.0
  0
POINT
  5
91
330
18
100
AcDbEntity
  8
0
100
AcDbPoint
 10
3.127
 20
2.019
 30
0.0
  0
POINT
  5
92
330
18
100
AcDbEntity
  8
0
100
AcDbPoint
 10
3.309
 20
1.993
 30
0.0
  0
POINT
  5
93
330
18
100
AcDbEntity
  8
0
100
AcDbPoint
 10
3.477
 20
1.863
 30
0.0
  0
POINT
  5
94
330
18
100
AcDbEntity
  8
0
100
AcDbPoint
 10
3.47
 20
1.892
 30
0.0
  0
POINT
  5
95
330
18
100
AcDbEntity
  8
0
100
AcDbPoint
 10
3.355
 20
1.926
 30
0.0
  0
POINT
  5
96
330
18
100
AcDbEntity
  8
0
100
AcDbPoint
 10
3.241
 20
1.921
 30
0.0
  0
POINT
  5
97
330
18
100
AcDbEntity
  8
0
100
AcDbPoint
 10
3.329
 20
1.744
 30
0.0
  0
POINT
  5
98
330
18
100
AcDbEntity
  8
0
100
AcDbPoint
 10
3.368
 20
1.642
 30
0.0
  0
POINT
  5
99
330
18
100
AcDbEntity
  8
0
100
AcDbPoint
 10
3.253
 20
1.761
 30
0.0
  0
LINE
  5
9A
330
18
100
AcDbEntity
  8
0
100
AcDbLine
 10
3.803
 20
2.41
 30
0.0
 11
3.793
 21
2.505
 31
0.0
  0
LINE
  5
9B
330
18
100
AcDbEntity
  8
0
100
AcDbLine
 10
2.087
 20
4.588
 30
0.0
 11
2.118
 21
2.398
 31
0.0
  0
LINE
  5
9C
330
18
100
AcDbEntity
  8
0
100
AcDbLine
 10
2.138
 20
4.567
 30
0.0
 11
2.087
 21
4.588
 31
0.0
  0
LINE
  5
9D
330
18
100
AcDbEntity
  8
0
100
AcDbLine
 10
2.138
 20
4.567
 30
0.0
 11
2.168
 21
2.377
 31
0.0
  0
LINE
  5
9E
330
18
100
AcDbEntity
  8
0
100
AcDbLine
 10
2.138
 20
4.567
 30
0.0
 11
2.604
 21
4.67
 31
0.0
  0
LINE
  5
9F
330
18
100
AcDbEntity
  8
0
100
AcDbLine
 10
2.087
 20
4.588
 30
0.0
 11
2.554
 21
4.691
 31
0.0
  0
LINE
  5
A0
330
18
100
AcDbEntity
  8
0
100
AcDbLine
 10
2.604
 20
4.67
 30
0.0
 11
2.634
 21
2.534
 31
0.0
  0
LINE
  5
A1
330
18
100
AcDbEntity
  8
0
100
AcDbLine
 10
2.604
 20
4.67
 30
0.0
 11
2.554
 21
4.691
 31
0.0
  0
LINE
  5
A2
330
18
100
AcDbEntity
  8
0
100
AcDbLine
 10
2.168
 20
2.377
 30
0.0
 11
2.634
 21
2.534
 31
0.0
  0
LINE
  5
A3
330
18
100
AcDbEntity
  8
0
100
AcDbLine
 10
2.118
 20
2.398
 30
0.0
 11
2.168
 21
2.377
 31
0.0
  0
LINE
  5
A4
330
18
100
AcDbEntity
  8
0
100
AcDbLine
 10
2.634
 20
2.588
 30
0.0
 11
2.8
 21
2.644
 31
0.0
  0
LINE
  5
A5
330
18
100
AcDbEntity
  8
0
100
AcDbLine
 10
2.397
 20
4.286000000000001
 30
0.0
 11
2.346
 21
4.294
 31
0.0
  0
LINE
  5
A6
330
18
100
AcDbEntity
  8
0
100
AcDbLine
 10
2.397
 20
4.163
 30
0.0
 11
2.346
 21
4.171
 31
0.0
  0
LINE
  5
A7
330
18
100
AcDbEntity
  8
0
100
AcDbLine
 10
2.426
 20
4.143
 30
0.0
 11
2.476
 21
4.135
 31
0.0
  0
LINE
  5
A8
330
18
100
AcDbEntity
  8
0
100
AcDbLine
 10
2.411
 20
4.359
 30
0.0
 11
2.462
 21
4.351
 31
0.0
  0
LINE
  5
A9
330
18
100
AcDbEntity
  8
0
100
AcDbLine
 10
2.924
 20
1.093
 30
0.0
 11
2.403
 21
1.369
 31
0.0
  0
LINE
  5
AA
330
18
100
AcDbEntity
  8
0
100
AcDbLine
 10
2.924
 20
1.15
 30
0.0
 11
2.419
 21
1.417
 31
0.0
  0
LINE
  5
AB
330
18
100
AcDbEntity
  8
0
100
AcDbLine
 10
2.924
 20
1.15
 30
0.0
 11
2.924
 21
1.093
 31
0.0
  0
LINE
  5
AC
330
18
100
AcDbEntity
  8
0
100
AcDbLine
 10
2.924
 20
1.093
 30
0.0
 11
3.366
 21
1.29
 31
0.0
  0
LINE
  5
AD
330
18
100
AcDbEntity
  8
0
100
AcDbLine
 10
2.924
 20
1.15
 30
0.0
 11
3.365
 21
1.347
 31
0.0
  0
LINE
  5
AE
330
18
100
AcDbEntity
  8
0
100
AcDbLine
 10
3.365
 20
1.347
 30
0.0
 11
3.366
 21
1.29
 31
0.0
  0
LINE
  5
AF
330
18
100
AcDbEntity
  8
0
100
AcDbLine
 10
3.365
 20
1.347
 30
0.0
 11
2.675
 21
1.667
 31
0.0
  0
LINE
  5
B0
330
18
100
AcDbEntity
  8
0
  6
HIDDEN
100
AcDbLine
 10
2.168
 20
2.377
 30
0.0
 11
2.18
 21
1.559
 31
0.0
  0
LINE
  5
B1
330
18
100
AcDbEntity
  8
0
  6
HIDDEN
100
AcDbLine
 10
2.118
 20
2.398
 30
0.0
 11
2.13
 21
1.543
 31
0.0
  0
LINE
  5
B2
330
18
100
AcDbEntity
  8
0
  6
HIDDEN
100
AcDbLine
 10
2.403
 20
1.369
 30
0.0
 11
2.156
 21
1.5
 31
0.0
  0
LINE
  5
B3
330
18
100
AcDbEntity
  8
0
  6
HIDDEN
100
AcDbLine
 10
2.419
 20
1.417
 30
0.0
 11
2.193
 21
1.537
 31
0.0
  0
LINE
  5
B4
330
18
100
AcDbEntity
  8
0
  6
HIDDEN
100
AcDbLine
 10
2.634
 20
2.534
 30
0.0
 11
2.643
 21
1.905
 31
0.0
  0
LINE
  5
B5
330
18
100
AcDbEntity
  8
0
  6
Continuous
100
AcDbLine
 10
2.643
 20
1.905
 30
0.0
 11
2.646
 21
1.712
 31
0.0
  0
ARC
  5
B6
330
18
100
AcDbEntity
  8
0
  6
HIDDEN
100
AcDbCircle
 10
2.18
 20
1.544
 30
0.0
 40
0.05
100
AcDbArc
 50
180.8
 51
242.107
  0
ARC
  5
B7
330
18
100
AcDbEntity
  8
0
100
AcDbCircle
 10
2.696
 20
1.713
 30
0.0
 40
0.05
100
AcDbArc
 50
180.8
 51
245.108
  0
ARC
  5
B8
330
18
100
AcDbEntity
  8
0
  6
HIDDEN
100
AcDbCircle
 10
2.205
 20
1.559
 30
0.0
 40
0.025
100
AcDbArc
 50
180.8
 51
242.107
  0
POINT
  5
B9
330
18
100
AcDbEntity
  8
0
100
AcDbPoint
 10
2.466
 20
0.8690000000000001
 30
0.0
  0
POINT
  5
BA
330
18
100
AcDbEntity
  8
0
100
AcDbPoint
 10
2.38
 20
0.924
 30
0.0
  0
POINT
  5
BB
330
18
100
AcDbEntity
  8
0
100
AcDbPoint
 10
2.368
 20
0.912
 30
0.0
  0
POINT
  5
BC
330
18
100
AcDbEntity
  8
0
100
AcDbPoint
 10
2.478
 20
0.924
 30
0.0
  0
POINT
  5
BD
330
18
100
AcDbEntity
  8
0
100
AcDbPoint
 10
2.569
 20
0.924
 30
0.0
  0
POINT
  5
BE
330
18
100
AcDbEntity
  8
0
100
AcDbPoint
 10
2.599
 20
0.96
 30
0.0
  0
POINT
  5
BF
330
18
100
AcDbEntity
  8
0
100
AcDbPoint
 10
2.411
 20
1.234
 30
0.0
  0
POINT
  5
C0
330
18
100
AcDbEntity
  8
0
100
AcDbPoint
 10
2.338
 20
1.167
 30
0.0
  0
POINT
  5
C1
330
18
100
AcDbEntity
  8
0
100
AcDbPoint
 10
2.338
 20
1.082
 30
0.0
  0
POINT
  5
C2
330
18
100
AcDbEntity
  8
0
100
AcDbPoint
 10
2.326
 20
1.033
 30
0.0
  0
POINT
  5
C3
330
18
100
AcDbEntity
  8
0
100
AcDbPoint
 10
2.344
 20
0.966
 30
0.0
  0
POINT
  5
C4
330
18
100
AcDbEntity
  8
0
100
AcDbPoint
 10
2.435
 20
0.997
 30
0.0
  0
POINT
  5
C5
330
18
100
AcDbEntity
  8
0
100
AcDbPoint
 10
2.617
 20
1.111
 30
0.0
  0
POINT
  5
C6
330
18
100
AcDbEntity
  8
0
100
AcDbPoint
 10
2.591
 20
0.895
 30
0.0
  0
POINT
  5
C7
330
18
100
AcDbEntity
  8
0
100
AcDbPoint
 10
2.456
 20
0.94
 30
0.0
  0
POINT
  5
C8
330
18
100
AcDbEntity
  8
0
100
AcDbPoint
 10
2.326
 20
0.953
 30
0.0
  0
POINT
  5
C9
330
18
100
AcDbEntity
  8
0
100
AcDbPoint
 10
2.292
 20
1.051
 30
0.0
  0
POINT
  5
CA
330
18
100
AcDbEntity
  8
0
100
AcDbPoint
 10
2.591
 20
1.223
 30
0.0
  0
POINT
  5
CB
330
18
100
AcDbEntity
  8
0
100
AcDbPoint
 10
2.583
 20
1.252
 30
0.0
  0
POINT
  5
CC
330
18
100
AcDbEntity
  8
0
100
AcDbPoint
 10
2.443
 20
1.103
 30
0.0
  0
POINT
  5
CD
330
18
100
AcDbEntity
  8
0
100
AcDbPoint
 10
2.482
 20
1.002
 30
0.0
  0
POINT
  5
CE
330
18
100
AcDbEntity
  8
0
100
AcDbPoint
 10
2.366
 20
1.121
 30
0.0
  0
POINT
  5
CF
330
18
100
AcDbEntity
  8
0
100
AcDbPoint
 10
2.046
 20
1.029
 30
0.0
  0
POINT
  5
D0
330
18
100
AcDbEntity
  8
0
100
AcDbPoint
 10
2.012
 20
0.9059999999999999
 30
0.0
  0
POINT
  5
D1
330
18
100
AcDbEntity
  8
0
100
AcDbPoint
 10
2.134
 20
1.068
 30
0.0
  0
POINT
  5
D2
330
18
100
AcDbEntity
  8
0
100
AcDbPoint
 10
2.109
 20
1.125
 30
0.0
  0
POINT
  5
D3
330
18
100
AcDbEntity
  8
0
100
AcDbPoint
 10
1.988
 20
1.174
 30
0.0
  0
POINT
  5
D4
330
18
100
AcDbEntity
  8
0
100
AcDbPoint
 10
1.899
 20
1.093
 30
0.0
  0
POINT
  5
D5
330
18
100
AcDbEntity
  8
0
100
AcDbPoint
 10
1.923
 20
0.9790000000000001
 30
0.0
  0
POINT
  5
D6
330
18
100
AcDbEntity
  8
0
100
AcDbPoint
 10
2.004
 20
0.971
 30
0.0
  0
POINT
  5
D7
330
18
100
AcDbEntity
  8
0
100
AcDbPoint
 10
2.101
 20
0.955
 30
0.0
  0
POINT
  5
D8
330
18
100
AcDbEntity
  8
0
100
AcDbPoint
 10
2.19
 20
0.922
 30
0.0
  0
POINT
  5
D9
330
18
100
AcDbEntity
  8
0
100
AcDbPoint
 10
2.28
 20
0.922
 30
0.0
  0
POINT
  5
DA
330
18
100
AcDbEntity
  8
0
100
AcDbPoint
 10
2.271
 20
1.004
 30
0.0
  0
POINT
  5
DB
330
18
100
AcDbEntity
  8
0
100
AcDbPoint
 10
2.126
 20
1.004
 30
0.0
  0
POINT
  5
DC
330
18
100
AcDbEntity
  8
0
100
AcDbPoint
 10
3.27
 20
1.078
 30
0.0
  0
POINT
  5
DD
330
18
100
AcDbEntity
  8
0
100
AcDbPoint
 10
3.179
 20
1.048
 30
0.0
  0
POINT
  5
DE
330
18
100
AcDbEntity
  8
0
100
AcDbPoint
 10
3.215
 20
1.005
 30
0.0
  0
POINT
  5
DF
330
18
100
AcDbEntity
  8
0
100
AcDbPoint
 10
3.434
 20
1.041
 30
0.0
  0
POINT
  5
E0
330
18
100
AcDbEntity
  8
0
100
AcDbPoint
 10
2.042
 20
1.68
 30
0.0
  0
POINT
  5
E1
330
18
100
AcDbEntity
  8
0
100
AcDbPoint
 10
1.822
 20
1.956
 30
0.0
  0
POINT
  5
E2
330
18
100
AcDbEntity
  8
0
100
AcDbPoint
 10
2.026
 20
1.932
 30
0.0
  0
POINT
  5
E3
330
18
100
AcDbEntity
  8
0
100
AcDbPoint
 10
2.001
 20
2.083
 30
0.0
  0
POINT
  5
E4
330
18
100
AcDbEntity
  8
0
100
AcDbPoint
 10
1.901
 20
2.115
 30
0.0
  0
POINT
  5
E5
330
18
100
AcDbEntity
  8
0
100
AcDbPoint
 10
1.866
 20
2.29
 30
0.0
  0
POINT
  5
E6
330
18
100
AcDbEntity
  8
0
100
AcDbPoint
 10
1.769
 20
2.166
 30
0.0
  0
POINT
  5
E7
330
18
100
AcDbEntity
  8
0
100
AcDbPoint
 10
1.479
 20
2.062
 30
0.0
  0
POINT
  5
E8
330
18
100
AcDbEntity
  8
0
100
AcDbPoint
 10
1.549
 20
1.733
 30
0.0
  0
POINT
  5
E9
330
18
100
AcDbEntity
  8
0
100
AcDbPoint
 10
1.768
 20
1.568
 30
0.0
  0
POINT
  5
EA
330
18
100
AcDbEntity
  8
0
100
AcDbPoint
 10
1.449
 20
2.206
 30
0.0
  0
POINT
  5
EB
330
18
100
AcDbEntity
  8
0
100
AcDbPoint
 10
1.546
 20
2.392
 30
0.0
  0
POINT
  5
EC
330
18
100
AcDbEntity
  8
0
100
AcDbPoint
 10
1.326
 20
2.466
 30
0.0
  0
POINT
  5
ED
330
18
100
AcDbEntity
  8
0
100
AcDbPoint
 10
1.087
 20
2.48
 30
0.0
  0
POINT
  5
EE
330
18
100
AcDbEntity
  8
0
100
AcDbPoint
 10
0.8290000000000001
 20
2.39
 30
0.0
  0
POINT
  5
EF
330
18
100
AcDbEntity
  8
0
100
AcDbPoint
 10
1.24
 20
2.144
 30
0.0
  0
POINT
  5
F0
330
18
100
AcDbEntity
  8
0
100
AcDbPoint
 10
0.63
 20
2.663
 30
0.0
  0
POINT
  5
F1
330
18
100
AcDbEntity
  8
0
100
AcDbPoint
 10
0.63
 20
2.746
 30
0.0
  0
POINT
  5
F2
330
18
100
AcDbEntity
  8
0
100
AcDbPoint
 10
0.665
 20
2.754
 30
0.0
  0
POINT
  5
F3
330
18
100
AcDbEntity
  8
0
100
AcDbPoint
 10
0.5329999999999999
 20
2.362
 30
0.0
  0
POINT
  5
F4
330
18
100
AcDbEntity
  8
0
100
AcDbPoint
 10
0.616
 20
2.299
 30
0.0
  0
POINT
  5
F5
330
18
100
AcDbEntity
  8
0
100
AcDbPoint
 10
0.5560000000000001
 20
2.288
 30
0.0
  0
POINT
  5
F6
330
18
100
AcDbEntity
  8
0
100
AcDbPoint
 10
0.581
 20
2.211
 30
0.0
  0
POINT
  5
F7
330
18
100
AcDbEntity
  8
0
100
AcDbPoint
 10
0.8040000000000001
 20
1.798
 30
0.0
  0
POINT
  5
F8
330
18
100
AcDbEntity
  8
0
100
AcDbPoint
 10
0.888
 20
1.854
 30
0.0
  0
POINT
  5
F9
330
18
100
AcDbEntity
  8
0
100
AcDbPoint
 10
0.894
 20
1.701
 30
0.0
  0
POINT
  5
FA
330
18
100
AcDbEntity
  8
0
100
AcDbPoint
 10
0.973
 20
1.745
 30
0.0
  0
POINT
  5
FB
330
18
100
AcDbEntity
  8
0
100
AcDbPoint
 10
0.95
 20
1.668
 30
0.0
  0
POINT
  5
FC
330
18
100
AcDbEntity
  8
0
100
AcDbPoint
 10
1.006
 20
1.877
 30
0.0
  0
POINT
  5
FD
330
18
100
AcDbEntity
  8
0
100
AcDbPoint
 10
1.091
 20
1.758
 30
0.0
  0
POINT
  5
FE
330
18
100
AcDbEntity
  8
0
100
AcDbPoint
 10
1.094
 20
1.708
 30
0.0
  0
POINT
  5
FF
330
18
100
AcDbEntity
  8
0
100
AcDbPoint
 10
1.152
 20
1.696
 30
0.0
  0
POINT
  5
100
330
18
100
AcDbEntity
  8
0
100
AcDbPoint
 10
1.163
 20
1.557
 30
0.0
  0
POINT
  5
101
330
18
100
AcDbEntity
  8
0
100
AcDbPoint
 10
1.275
 20
1.388
 30
0.0
  0
POINT
  5
102
330
18
100
AcDbEntity
  8
0
100
AcDbPoint
 10
1.233
 20
1.286
 30
0.0
  0
POINT
  5
103
330
18
100
AcDbEntity
  8
0
100
AcDbPoint
 10
1.154
 20
1.311
 30
0.0
  0
POINT
  5
104
330
18
100
AcDbEntity
  8
0
100
AcDbPoint
 10
1.115
 20
1.441
 30
0.0
  0
POINT
  5
105
330
18
100
AcDbEntity
  8
0
100
AcDbPoint
 10
0.976
 20
1.362
 30
0.0
  0
POINT
  5
106
330
18
100
AcDbEntity
  8
0
100
AcDbPoint
 10
1.179
 20
1.492
 30
0.0
  0
POINT
  5
107
330
18
100
AcDbEntity
  8
0
100
AcDbPoint
 10
0.945
 20
1.631
 30
0.0
  0
POINT
  5
108
330
18
100
AcDbEntity
  8
0
100
AcDbPoint
 10
2.787
 20
2.139
 30
0.0
  0
POINT
  5
109
330
18
100
AcDbEntity
  8
0
100
AcDbPoint
 10
2.785
 20
2.401
 30
0.0
  0
POINT
  5
10A
330
18
100
AcDbEntity
  8
0
100
AcDbPoint
 10
2.84
 20
2.507
 30
0.0
  0
POINT
  5
10B
330
18
100
AcDbEntity
  8
0
100
AcDbPoint
 10
2.886
 20
2.348
 30
0.0
  0
POINT
  5
10C
330
18
100
AcDbEntity
  8
0
100
AcDbPoint
 10
3.033
 20
2.345
 30
0.0
  0
POINT
  5
10D
330
18
100
AcDbEntity
  8
0
100
AcDbPoint
 10
3.028
 20
2.232
 30
0.0
  0
POINT
  5
10E
330
18
100
AcDbEntity
  8
0
100
AcDbPoint
 10
3.018
 20
2.558
 30
0.0
  0
POINT
  5
10F
330
18
100
AcDbEntity
  8
0
100
AcDbPoint
 10
2.975
 20
2.681
 30
0.0
  0
POINT
  5
110
330
18
100
AcDbEntity
  8
0
100
AcDbPoint
 10
2.989
 20
2.788
 30
0.0
  0
POINT
  5
111
330
18
100
AcDbEntity
  8
0
100
AcDbPoint
 10
3.26
 20
2.468
 30
0.0
  0
POINT
  5
112
330
18
100
AcDbEntity
  8
0
100
AcDbPoint
 10
3.476
 20
2.621
 30
0.0
  0
POINT
  5
113
330
18
100
AcDbEntity
  8
0
100
AcDbPoint
 10
2.856
 20
1.697
 30
0.0
  0
POINT
  5
114
330
18
100
AcDbEntity
  8
0
100
AcDbPoint
 10
2.933
 20
1.679
 30
0.0
  0
POINT
  5
115
330
18
100
AcDbEntity
  8
0
100
AcDbPoint
 10
2.844
 20
1.856
 30
0.0
  0
POINT
  5
116
330
18
100
AcDbEntity
  8
0
100
AcDbPoint
 10
2.959
 20
1.861
 30
0.0
  0
POINT
  5
117
330
18
100
AcDbEntity
  8
0
100
AcDbPoint
 10
2.735
 20
1.729
 30
0.0
  0
POINT
  5
118
330
18
100
AcDbEntity
  8
0
100
AcDbPoint
 10
2.773
 20
1.719
 30
0.0
  0
POINT
  5
119
330
18
100
AcDbEntity
  8
0
100
AcDbPoint
 10
2.828
 20
1.743
 30
0.0
  0
POINT
  5
11A
330
18
100
AcDbEntity
  8
0
100
AcDbPoint
 10
2.901
 20
1.81
 30
0.0
  0
POINT
  5
11B
330
18
100
AcDbEntity
  8
0
100
AcDbPoint
 10
2.761
 20
1.848
 30
0.0
  0
POINT
  5
11C
330
18
100
AcDbEntity
  8
0
100
AcDbPoint
 10
2.676
 20
1.854
 30
0.0
  0
POINT
  5
11D
330
18
100
AcDbEntity
  8
0
100
AcDbPoint
 10
3.136
 20
1.577
 30
0.0
  0
POINT
  5
11E
330
18
100
AcDbEntity
  8
0
100
AcDbPoint
 10
3.008
 20
1.594
 30
0.0
  0
POINT
  5
11F
330
18
100
AcDbEntity
  8
0
100
AcDbPoint
 10
2.829
 20
1.652
 30
0.0
  0
POINT
  5
120
330
18
100
AcDbEntity
  8
0
100
AcDbPoint
 10
3.022
 20
1.916
 30
0.0
  0
POINT
  5
121
330
18
100
AcDbEntity
  8
0
100
AcDbPoint
 10
3.068
 20
1.784
 30
0.0
  0
POINT
  5
122
330
18
100
AcDbEntity
  8
0
100
AcDbPoint
 10
3.115
 20
1.677
 30
0.0
  0
POINT
  5
123
330
18
100
AcDbEntity
  8
0
100
AcDbPoint
 10
3.018
 20
0.8809999999999999
 30
0.0
  0
POINT
  5
124
330
18
100
AcDbEntity
  8
0
100
AcDbPoint
 10
2.981
 20
0.924
 30
0.0
  0
POINT
  5
125
330
18
100
AcDbEntity
  8
0
100
AcDbPoint
 10
3.073
 20
0.955
 30
0.0
  0
POINT
  5
126
330
18
100
AcDbEntity
  8
0
100
AcDbPoint
 10
3.262
 20
0.9359999999999999
 30
0.0
  0
POINT
  5
127
330
18
100
AcDbEntity
  8
0
100
AcDbPoint
 10
3.125
 20
0.9390000000000001
 30
0.0
  0
POINT
  5
128
330
18
100
AcDbEntity
  8
0
100
AcDbPoint
 10
3.044
 20
0.858
 30
0.0
  0
POINT
  5
129
330
18
100
AcDbEntity
  8
0
100
AcDbPoint
 10
2.927
 20
0.9290000000000001
 30
0.0
  0
POINT
  5
12A
330
18
100
AcDbEntity
  8
0
100
AcDbPoint
 10
2.938
 20
1.01
 30
0.0
  0
POINT
  5
12B
330
18
100
AcDbEntity
  8
0
100
AcDbPoint
 10
2.998
 20
1.084
 30
0.0
  0
POINT
  5
12C
330
18
100
AcDbEntity
  8
0
100
AcDbPoint
 10
3.142
 20
1.172
 30
0.0
  0
POINT
  5
12D
330
18
100
AcDbEntity
  8
0
100
AcDbPoint
 10
3.326
 20
1.19
 30
0.0
  0
POINT
  5
12E
330
18
100
AcDbEntity
  8
0
100
AcDbPoint
 10
3.435
 20
1.119
 30
0.0
  0
POINT
  5
12F
330
18
100
AcDbEntity
  8
0
100
AcDbPoint
 10
3.417
 20
1.003
 30
0.0
  0
TEXT
  5
130
330
18
100
AcDbEntity
  8
0
100
AcDbText
 10
1.834
 20
0.271
 30
0.0
 40
0.125
  1
A311 Angle
100
AcDbText
  0
LINE
  5
131
330
18
100
AcDbEntity
  8
0
100
AcDbLine
 10
1.8
 20
5.417000000000001
 30
0.0
 11
1.797
 21
5.415
 31
0.0
  0
LINE
  5
132
330
18
100
AcDbEntity
  8
0
100
AcDbLine
 10
1.797
 20
5.415
 30
0.0
 11
1.721
 21
5.364
 31
0.0
  0
LINE
  5
133
330
18
100
AcDbEntity
  8
0
100
AcDbLine
 10
1.721
 20
5.364
 30
0.0
 11
1.696
 21
5.339
 31
0.0
  0
LINE
  5
134
330
18
100
AcDbEntity
  8
0
100
AcDbLine
 10
1.955
 20
5.451000000000001
 30
0.0
 11
1.947
 21
5.446000000000001
 31
0.0
  0
LINE
  5
135
330
18
100
AcDbEntity
  8
0
100
AcDbLine
 10
1.947
 20
5.446000000000001
 30
0.0
 11
1.862
 21
5.394
 31
0.0
  0
LINE
  5
136
330
18
100
AcDbEntity
  8
0
100
AcDbLine
 10
1.862
 20
5.394
 30
0.0
 11
1.797
 21
5.351
 31
0.0
  0
LINE
  5
137
330
18
100
AcDbEntity
  8
0
100
AcDbLine
 10
1.797
 20
5.351
 30
0.0
 11
1.751
 21
5.316
 31
0.0
  0
LINE
  5
138
330
18
100
AcDbEntity
  8
0
100
AcDbLine
 10
2.117
 20
5.487
 30
0.0
 11
2.005
 21
5.415
 31
0.0
  0
LINE
  5
139
330
18
100
AcDbEntity
  8
0
100
AcDbLine
 10
2.005
 20
5.415
 30
0.0
 11
1.903
 21
5.348
 31
0.0
  0
LINE
  5
13A
330
18
100
AcDbEntity
  8
0
100
AcDbLine
 10
1.903
 20
5.348
 30
0.0
 11
1.819
 21
5.287000000000001
 31
0.0
  0
LINE
  5
13B
330
18
100
AcDbEntity
  8
0
100
AcDbLine
 10
2.343
 20
5.537000000000001
 30
0.0
 11
2.291
 21
5.496
 31
0.0
  0
LINE
  5
13C
330
18
100
AcDbEntity
  8
0
100
AcDbLine
 10
2.291
 20
5.496
 30
0.0
 11
2.159
 21
5.412999999999999
 31
0.0
  0
LINE
  5
13D
330
18
100
AcDbEntity
  8
0
100
AcDbLine
 10
2.159
 20
5.412999999999999
 30
0.0
 11
2.047
 21
5.353
 31
0.0
  0
LINE
  5
13E
330
18
100
AcDbEntity
  8
0
100
AcDbLine
 10
2.047
 20
5.353
 30
0.0
 11
1.943
 21
5.3
 31
0.0
  0
LINE
  5
13F
330
18
100
AcDbEntity
  8
0
100
AcDbLine
 10
1.943
 20
5.3
 30
0.0
 11
1.902
 21
5.263999999999999
 31
0.0
  0
LINE
  5
140
330
18
100
AcDbEntity
  8
0
100
AcDbLine
 10
2.5
 20
5.565
 30
0.0
 11
2.423
 21
5.511
 31
0.0
  0
LINE
  5
141
330
18
100
AcDbEntity
  8
0
100
AcDbLine
 10
2.423
 20
5.511
 30
0.0
 11
2.282
 21
5.425
 31
0.0
  0
LINE
  5
142
330
18
100
AcDbEntity
  8
0
100
AcDbLine
 10
2.282
 20
5.425
 30
0.0
 11
2.166
 21
5.357
 31
0.0
  0
LINE
  5
143
330
18
100
AcDbEntity
  8
0
100
AcDbLine
 10
2.166
 20
5.357
 30
0.0
 11
2.11
 21
5.31
 31
0.0
  0
LINE
  5
144
330
18
100
AcDbEntity
  8
0
100
AcDbLine
 10
2.55
 20
5.542999999999999
 30
0.0
 11
2.469
 21
5.476
 31
0.0
  0
LINE
  5
145
330
18
100
AcDbEntity
  8
0
100
AcDbLine
 10
2.469
 20
5.476
 30
0.0
 11
2.351
 21
5.394
 31
0.0
  0
LINE
  5
146
330
18
100
AcDbEntity
  8
0
100
AcDbLine
 10
2.351
 20
5.394
 30
0.0
 11
2.299
 21
5.352
 31
0.0
  0
LINE
  5
147
330
18
100
AcDbEntity
  8
0
100
AcDbLine
 10
2.611
 20
5.517
 30
0.0
 11
2.574
 21
5.489
 31
0.0
  0
LINE
  5
148
330
18
100
AcDbEntity
  8
0
100
AcDbLine
 10
2.574
 20
5.489
 30
0.0
 11
2.478
 21
5.417000000000001
 31
0.0
  0
LINE
  5
149
330
18
100
AcDbEntity
  8
0
100
AcDbLine
 10
2.478
 20
5.417000000000001
 30
0.0
 11
2.441
 21
5.382999999999999
 31
0.0
  0
LINE
  5
14A
330
18
100
AcDbEntity
  8
0
100
AcDbLine
 10
2.666
 20
5.494
 30
0.0
 11
2.648
 21
5.476
 31
0.0
  0
LINE
  5
14B
330
18
100
AcDbEntity
  8
0
100
AcDbLine
 10
2.648
 20
5.476
 30
0.0
 11
2.592
 21
5.416
 31
0.0
  0
LINE
  5
14C
330
18
100
AcDbEntity
  8
0
100
AcDbLine
 10
2.314
 20
5.511
 30
0.0
 11
2.365
 21
5.777
 31
0.0
  0
LINE
  5
14D
330
18
100
AcDbEntity
  8
0
100
AcDbLine
 10
2.161
 20
5.496
 30
0.0
 11
2.24
 21
5.689
 31
0.0
  0
LINE
  5
14E
330
18
100
AcDbEntity
  8
0
100
AcDbLine
 10
2.24
 20
5.689
 30
0.0
 11
2.261
 21
5.757999999999999
 31
0.0
  0
LINE
  5
14F
330
18
100
AcDbEntity
  8
0
100
AcDbLine
 10
2.245
 20
5.515
 30
0.0
 11
2.291
 21
5.672999999999999
 31
0.0
  0
LINE
  5
150
330
18
100
AcDbEntity
  8
0
100
AcDbLine
 10
2.291
 20
5.672999999999999
 30
0.0
 11
2.326
 21
5.772
 31
0.0
  0
LINE
  5
151
330
18
100
AcDbEntity
  8
0
100
AcDbLine
 10
2.119
 20
5.487
 30
0.0
 11
2.145
 21
5.642
 31
0.0
  0
LINE
  5
152
330
18
100
AcDbEntity
  8
0
100
AcDbLine
 10
2.145
 20
5.642
 30
0.0
 11
2.166
 21
5.737
 31
0.0
  0
LINE
  5
153
330
18
100
AcDbEntity
  8
0
100
AcDbLine
 10
2.062
 20
5.474
 30
0.0
 11
2.117
 21
5.632999999999999
 31
0.0
  0
LINE
  5
154
330
18
100
AcDbEntity
  8
0
100
AcDbLine
 10
2.117
 20
5.632999999999999
 30
0.0
 11
2.124
 21
5.694
 31
0.0
  0
LINE
  5
155
330
18
100
AcDbEntity
  8
0
100
AcDbLine
 10
2.124
 20
5.694
 30
0.0
 11
2.132
 21
5.729
 31
0.0
  0
LINE
  5
156
330
18
100
AcDbEntity
  8
0
100
AcDbLine
 10
1.999
 20
5.461
 30
0.0
 11
2.047
 21
5.624
 31
0.0
  0
LINE
  5
157
330
18
100
AcDbEntity
  8
0
100
AcDbLine
 10
2.047
 20
5.624
 30
0.0
 11
2.061
 21
5.691
 31
0.0
  0
LINE
  5
158
330
18
100
AcDbEntity
  8
0
100
AcDbLine
 10
2.061
 20
5.691
 30
0.0
 11
2.067
 21
5.715
 31
0.0
  0
LINE
  5
159
330
18
100
AcDbEntity
  8
0
100
AcDbLine
 10
1.934
 20
5.446000000000001
 30
0.0
 11
1.969
 21
5.589
 31
0.0
  0
LINE
  5
15A
330
18
100
AcDbEntity
  8
0
100
AcDbLine
 10
1.969
 20
5.589
 30
0.0
 11
1.978
 21
5.634
 31
0.0
  0
LINE
  5
15B
330
18
100
AcDbEntity
  8
0
100
AcDbLine
 10
1.978
 20
5.634
 30
0.0
 11
1.997
 21
5.699
 31
0.0
  0
LINE
  5
15C
330
18
100
AcDbEntity
  8
0
100
AcDbLine
 10
1.787
 20
5.414
 30
0.0
 11
1.811
 21
5.547000000000001
 31
0.0
  0
LINE
  5
15D
330
18
100
AcDbEntity
  8
0
100
AcDbLine
 10
1.811
 20
5.547000000000001
 30
0.0
 11
1.827
 21
5.615
 31
0.0
  0
LINE
  5
15E
330
18
100
AcDbEntity
  8
0
100
AcDbLine
 10
1.827
 20
5.615
 30
0.0
 11
1.841
 21
5.665
 31
0.0
  0
LINE
  5
15F
330
18
100
AcDbEntity
  8
0
100
AcDbLine
 10
1.722
 20
5.4
 30
0.0
 11
1.76
 21
5.562
 31
0.0
  0
LINE
  5
160
330
18
100
AcDbEntity
  8
0
100
AcDbLine
 10
1.76
 20
5.562
 30
0.0
 11
1.769
 21
5.593999999999999
 31
0.0
  0
LINE
  5
161
330
18
100
AcDbEntity
  8
0
100
AcDbLine
 10
1.769
 20
5.593999999999999
 30
0.0
 11
1.787
 21
5.653
 31
0.0
  0
LINE
  5
162
330
18
100
AcDbEntity
  8
0
100
AcDbLine
 10
1.554
 20
5.327999999999999
 30
0.0
 11
1.591
 21
5.492000000000001
 31
0.0
  0
LINE
  5
163
330
18
100
AcDbEntity
  8
0
100
AcDbLine
 10
1.591
 20
5.492000000000001
 30
0.0
 11
1.609
 21
5.557
 31
0.0
  0
LINE
  5
164
330
18
100
AcDbEntity
  8
0
100
AcDbLine
 10
1.609
 20
5.557
 30
0.0
 11
1.627
 21
5.617999999999999
 31
0.0
  0
LINE
  5
165
330
18
100
AcDbEntity
  8
0
100
AcDbLine
 10
1.637
 20
5.381
 30
0.0
 11
1.672
 21
5.577999999999999
 31
0.0
  0
LINE
  5
166
330
18
100
AcDbEntity
  8
0
100
AcDbLine
 10
1.672
 20
5.577999999999999
 30
0.0
 11
1.688
 21
5.632000000000001
 31
0.0
  0
LINE
  5
167
330
18
100
AcDbEntity
  8
0
100
AcDbLine
 10
1.526
 20
5.433
 30
0.0
 11
1.547
 21
5.534
 31
0.0
  0
LINE
  5
168
330
18
100
AcDbEntity
  8
0
100
AcDbLine
 10
1.547
 20
5.534
 30
0.0
 11
1.564
 21
5.604
 31
0.0
  0
LINE
  5
169
330
18
100
AcDbEntity
  8
0
100
AcDbLine
 10
1.728
 20
5.638
 30
0.0
 11
1.811
 21
5.685
 31
0.0
  0
LINE
  5
16A
330
18
100
AcDbEntity
  8
0
100
AcDbLine
 10
1.811
 20
5.685
 30
0.0
 11
1.869
 21
5.729
 31
0.0
  0
LINE
  5
16B
330
18
100
AcDbEntity
  8
0
100
AcDbLine
 10
1.931
 20
5.685
 30
0.0
 11
1.947
 21
5.7
 31
0.0
  0
LINE
  5
16C
330
18
100
AcDbEntity
  8
0
100
AcDbLine
 10
1.947
 20
5.7
 30
0.0
 11
2.019
 21
5.742000000000001
 31
0.0
  0
LINE
  5
16D
330
18
100
AcDbEntity
  8
0
100
AcDbLine
 10
2.019
 20
5.742000000000001
 30
0.0
 11
2.05
 21
5.757000000000001
 31
0.0
  0
LINE
  5
16E
330
18
100
AcDbEntity
  8
0
100
AcDbLine
 10
1.232
 20
5.537999999999999
 30
0.0
 11
1.304
 21
5.604
 31
0.0
  0
LINE
  5
16F
330
18
100
AcDbEntity
  8
0
100
AcDbLine
 10
1.28
 20
5.517
 30
0.0
 11
1.363
 21
5.569
 31
0.0
  0
LINE
  5
170
330
18
100
AcDbEntity
  8
0
100
AcDbLine
 10
1.363
 20
5.569
 30
0.0
 11
1.43
 21
5.606
 31
0.0
  0
LINE
  5
171
330
18
100
AcDbEntity
  8
0
100
AcDbLine
 10
1.43
 20
5.606
 30
0.0
 11
1.487
 21
5.645
 31
0.0
  0
LINE
  5
172
330
18
100
AcDbEntity
  8
0
100
AcDbLine
 10
1.358
 20
5.484
 30
0.0
 11
1.414
 21
5.511
 31
0.0
  0
LINE
  5
173
330
18
100
AcDbEntity
  8
0
100
AcDbLine
 10
1.414
 20
5.511
 30
0.0
 11
1.473
 21
5.552000000000001
 31
0.0
  0
LINE
  5
174
330
18
100
AcDbEntity
  8
0
100
AcDbLine
 10
1.539
 20
5.599
 30
0.0
 11
1.565
 21
5.617000000000001
 31
0.0
  0
LINE
  5
175
330
18
100
AcDbEntity
  8
0
100
AcDbLine
 10
1.565
 20
5.617000000000001
 30
0.0
 11
1.641
 21
5.666
 31
0.0
  0
LINE
  5
176
330
18
100
AcDbEntity
  8
0
100
AcDbLine
 10
1.641
 20
5.666
 30
0.0
 11
1.662
 21
5.683
 31
0.0
  0
LINE
  5
177
330
18
100
AcDbEntity
  8
0
100
AcDbLine
 10
1.856
 20
5.428999999999999
 30
0.0
 11
1.897
 21
5.617999999999999
 31
0.0
  0
LINE
  5
178
330
18
100
AcDbEntity
  8
0
100
AcDbLine
 10
1.897
 20
5.617999999999999
 30
0.0
 11
1.914
 21
5.671
 31
0.0
  0
LINE
  5
179
330
18
100
AcDbEntity
  8
0
100
AcDbLine
 10
1.914
 20
5.671
 30
0.0
 11
1.918
 21
5.682
 31
0.0
  0
LINE
  5
17A
330
18
100
AcDbEntity
  8
0
100
AcDbLine
 10
0.595
 20
2.892
 30
0.0
 11
0.618
 21
2.841
 31
0.0
  0
LINE
  5
17B
330
18
100
AcDbEntity
  8
0
100
AcDbLine
 10
0.618
 20
2.841
 30
0.0
 11
0.6859999999999999
 21
2.774
 31
0.0
  0
LINE
  5
17C
330
18
100
AcDbEntity
  8
0
100
AcDbLine
 10
0.6859999999999999
 20
2.774
 30
0.0
 11
0.69
 21
2.681
 31
0.0
  0
LINE
  5
17D
330
18
100
AcDbEntity
  8
0
100
AcDbLine
 10
0.69
 20
2.681
 30
0.0
 11
0.607
 21
2.596
 31
0.0
  0
LINE
  5
17E
330
18
100
AcDbEntity
  8
0
100
AcDbLine
 10
0.607
 20
2.596
 30
0.0
 11
0.542
 21
2.545
 31
0.0
  0
LINE
  5
17F
330
18
100
AcDbEntity
  8
0
100
AcDbLine
 10
0.542
 20
2.545
 30
0.0
 11
0.5
 21
2.471
 31
0.0
  0
LINE
  5
180
330
18
100
AcDbEntity
  8
0
100
AcDbLine
 10
0.5
 20
2.471
 30
0.0
 11
0.5560000000000001
 21
2.419
 31
0.0
  0
LINE
  5
181
330
18
100
AcDbEntity
  8
0
100
AcDbLine
 10
0.5560000000000001
 20
2.419
 30
0.0
 11
0.614
 21
2.399
 31
0.0
  0
LINE
  5
182
330
18
100
AcDbEntity
  8
0
100
AcDbLine
 10
0.614
 20
2.399
 30
0.0
 11
0.63
 21
2.339
 31
0.0
  0
LINE
  5
183
330
18
100
AcDbEntity
  8
0
100
AcDbLine
 10
0.63
 20
2.339
 30
0.0
 11
0.618
 21
2.271
 31
0.0
  0
LINE
  5
184
330
18
100
AcDbEntity
  8
0
100
AcDbLine
 10
0.618
 20
2.271
 30
0.0
 11
0.647
 21
2.12
 31
0.0
  0
LINE
  5
185
330
18
100
AcDbEntity
  8
0
100
AcDbLine
 10
0.647
 20
2.12
 30
0.0
 11
0.83
 21
1.958
 31
0.0
  0
LINE
  5
186
330
18
100
AcDbEntity
  8
0
100
AcDbLine
 10
0.83
 20
1.958
 30
0.0
 11
1.038
 21
1.891
 31
0.0
  0
LINE
  5
187
330
18
100
AcDbEntity
  8
0
100
AcDbLine
 10
1.038
 20
1.891
 30
0.0
 11
1.175
 21
1.805
 31
0.0
  0
LINE
  5
188
330
18
100
AcDbEntity
  8
0
100
AcDbLine
 10
1.175
 20
1.805
 30
0.0
 11
1.235
 21
1.631
 31
0.0
  0
LINE
  5
189
330
18
100
AcDbEntity
  8
0
100
AcDbLine
 10
1.235
 20
1.631
 30
0.0
 11
1.303
 21
1.545
 31
0.0
  0
LINE
  5
18A
330
18
100
AcDbEntity
  8
0
100
AcDbLine
 10
1.303
 20
1.545
 30
0.0
 11
1.555
 21
1.513
 31
0.0
  0
LINE
  5
18B
330
18
100
AcDbEntity
  8
0
100
AcDbLine
 10
1.555
 20
1.513
 30
0.0
 11
1.694
 21
1.441
 31
0.0
  0
LINE
  5
18C
330
18
100
AcDbEntity
  8
0
100
AcDbLine
 10
1.694
 20
1.441
 30
0.0
 11
1.729
 21
1.383
 31
0.0
  0
LINE
  5
18D
330
18
100
AcDbEntity
  8
0
100
AcDbLine
 10
1.729
 20
1.383
 30
0.0
 11
1.813
 21
1.3
 31
0.0
  0
LINE
  5
18E
330
18
100
AcDbEntity
  8
0
100
AcDbLine
 10
1.813
 20
1.3
 30
0.0
 11
1.942
 21
1.249
 31
0.0
  0
LINE
  5
18F
330
18
100
AcDbEntity
  8
0
100
AcDbLine
 10
1.942
 20
1.249
 30
0.0
 11
2.021
 21
1.214
 31
0.0
  0
LINE
  5
190
330
18
100
AcDbEntity
  8
0
100
AcDbLine
 10
2.021
 20
1.214
 30
0.0
 11
2.202
 21
1.253
 31
0.0
  0
LINE
  5
191
330
18
100
AcDbEntity
  8
0
100
AcDbLine
 10
2.202
 20
1.253
 30
0.0
 11
2.327
 21
1.276
 31
0.0
  0
LINE
  5
192
330
18
100
AcDbEntity
  8
0
100
AcDbLine
 10
2.327
 20
1.276
 30
0.0
 11
2.418
 21
1.388
 31
0.0
  0
LINE
  5
193
330
18
100
AcDbEntity
  8
0
100
AcDbLine
 10
2.418
 20
1.388
 30
0.0
 11
2.422
 21
1.554
 31
0.0
  0
LINE
  5
194
330
18
100
AcDbEntity
  8
0
100
AcDbLine
 10
2.422
 20
1.554
 30
0.0
 11
2.441
 21
1.643
 31
0.0
  0
LINE
  5
195
330
18
100
AcDbEntity
  8
0
100
AcDbLine
 10
2.441
 20
1.643
 30
0.0
 11
2.488
 21
1.779
 31
0.0
  0
LINE
  5
196
330
18
100
AcDbEntity
  8
0
100
AcDbLine
 10
2.488
 20
1.779
 30
0.0
 11
2.508
 21
1.854
 31
0.0
  0
LINE
  5
197
330
18
100
AcDbEntity
  8
0
100
AcDbLine
 10
2.508
 20
1.854
 30
0.0
 11
2.633
 21
1.905
 31
0.0
  0
LINE
  5
198
330
18
100
AcDbEntity
  8
0
100
AcDbLine
 10
2.633
 20
1.905
 30
0.0
 11
2.749
 21
1.905
 31
0.0
  0
LINE
  5
199
330
18
100
AcDbEntity
  8
0
100
AcDbLine
 10
2.749
 20
1.905
 30
0.0
 11
2.858
 21
1.888
 31
0.0
  0
LINE
  5
19A
330
18
100
AcDbEntity
  8
0
100
AcDbLine
 10
2.858
 20
1.888
 30
0.0
 11
2.938
 21
1.897
 31
0.0
  0
LINE
  5
19B
330
18
100
AcDbEntity
  8
0
100
AcDbLine
 10
2.938
 20
1.897
 30
0.0
 11
2.97
 21
1.958
 31
0.0
  0
LINE
  5
19C
330
18
100
AcDbEntity
  8
0
100
AcDbLine
 10
2.97
 20
1.958
 30
0.0
 11
3.012
 21
2.023
 31
0.0
  0
LINE
  5
19D
330
18
100
AcDbEntity
  8
0
100
AcDbLine
 10
3.012
 20
2.023
 30
0.0
 11
3.113
 21
2.094
 31
0.0
  0
LINE
  5
19E
330
18
100
AcDbEntity
  8
0
100
AcDbLine
 10
3.113
 20
2.094
 30
0.0
 11
3.239
 21
2.136
 31
0.0
  0
LINE
  5
19F
330
18
100
AcDbEntity
  8
0
100
AcDbLine
 10
3.239
 20
2.136
 30
0.0
 11
3.332
 21
2.123
 31
0.0
  0
LINE
  5
1A0
330
18
100
AcDbEntity
  8
0
100
AcDbLine
 10
3.332
 20
2.123
 30
0.0
 11
3.44
 21
2.108
 31
0.0
  0
LINE
  5
1A1
330
18
100
AcDbEntity
  8
0
100
AcDbLine
 10
3.44
 20
2.108
 30
0.0
 11
3.533
 21
2.141
 31
0.0
  0
LINE
  5
1A2
330
18
100
AcDbEntity
  8
0
100
AcDbLine
 10
3.533
 20
2.141
 30
0.0
 11
3.608
 21
2.218
 31
0.0
  0
LINE
  5
1A3
330
18
100
AcDbEntity
  8
0
100
AcDbLine
 10
3.608
 20
2.218
 30
0.0
 11
3.666
 21
2.338
 31
0.0
  0
LINE
  5
1A4
330
18
100
AcDbEntity
  8
0
100
AcDbLine
 10
3.666
 20
2.338
 30
0.0
 11
3.701
 21
2.396
 31
0.0
  0
LINE
  5
1A5
330
18
100
AcDbEntity
  8
0
100
AcDbLine
 10
3.701
 20
2.396
 30
0.0
 11
3.754
 21
2.456
 31
0.0
  0
LINE
  5
1A6
330
18
100
AcDbEntity
  8
0
100
AcDbLine
 10
3.754
 20
2.456
 30
0.0
 11
3.793
 21
2.505
 31
0.0
  0
LINE
  5
1A7
330
18
100
AcDbEntity
  8
0
100
AcDbLine
 10
3.793
 20
2.505
 30
0.0
 11
3.789
 21
2.582
 31
0.0
  0
LINE
  5
1A8
330
18
100
AcDbEntity
  8
0
100
AcDbLine
 10
3.789
 20
2.582
 30
0.0
 11
3.788
 21
2.616
 31
0.0
  0
LINE
  5
1A9
330
18
100
AcDbEntity
  8
0
100
AcDbLine
 10
3.788
 20
2.616
 30
0.0
 11
3.781
 21
2.69
 31
0.0
  0
LINE
  5
1AA
330
18
100
AcDbEntity
  8
0
100
AcDbLine
 10
3.803
 20
2.41
 30
0.0
 11
3.805
 21
2.268
 31
0.0
  0
LINE
  5
1AB
330
18
100
AcDbEntity
  8
0
100
AcDbLine
 10
3.805
 20
2.268
 30
0.0
 11
3.731
 21
2.085
 31
0.0
  0
LINE
  5
1AC
330
18
100
AcDbEntity
  8
0
100
AcDbLine
 10
3.731
 20
2.085
 30
0.0
 11
3.712
 21
1.971
 31
0.0
  0
LINE
  5
1AD
330
18
100
AcDbEntity
  8
0
100
AcDbLine
 10
3.712
 20
1.971
 30
0.0
 11
3.696
 21
1.812
 31
0.0
  0
LINE
  5
1AE
330
18
100
AcDbEntity
  8
0
100
AcDbLine
 10
3.696
 20
1.812
 30
0.0
 11
3.675
 21
1.677
 31
0.0
  0
LINE
  5
1AF
330
18
100
AcDbEntity
  8
0
100
AcDbLine
 10
3.675
 20
1.677
 30
0.0
 11
3.651
 21
1.494
 31
0.0
  0
LINE
  5
1B0
330
18
100
AcDbEntity
  8
0
100
AcDbLine
 10
3.651
 20
1.494
 30
0.0
 11
3.633
 21
1.404
 31
0.0
  0
LINE
  5
1B1
330
18
100
AcDbEntity
  8
0
100
AcDbLine
 10
3.633
 20
1.404
 30
0.0
 11
3.594
 21
1.322
 31
0.0
  0
LINE
  5
1B2
330
18
100
AcDbEntity
  8
0
100
AcDbLine
 10
3.594
 20
1.322
 30
0.0
 11
3.543
 21
1.227
 31
0.0
  0
LINE
  5
1B3
330
18
100
AcDbEntity
  8
0
100
AcDbLine
 10
3.543
 20
1.227
 30
0.0
 11
3.536
 21
1.169
 31
0.0
  0
LINE
  5
1B4
330
18
100
AcDbEntity
  8
0
100
AcDbLine
 10
3.536
 20
1.169
 30
0.0
 11
3.528
 21
1.053
 31
0.0
  0
LINE
  5
1B5
330
18
100
AcDbEntity
  8
0
100
AcDbLine
 10
3.528
 20
1.053
 30
0.0
 11
3.468
 21
0.963
 31
0.0
  0
LINE
  5
1B6
330
18
100
AcDbEntity
  8
0
100
AcDbLine
 10
3.468
 20
0.963
 30
0.0
 11
3.371
 21
0.9009999999999999
 31
0.0
  0
LINE
  5
1B7
330
18
100
AcDbEntity
  8
0
100
AcDbLine
 10
3.371
 20
0.9009999999999999
 30
0.0
 11
3.25
 21
0.821
 31
0.0
  0
LINE
  5
1B8
330
18
100
AcDbEntity
  8
0
100
AcDbLine
 10
3.25
 20
0.821
 30
0.0
 11
3.135
 21
0.757
 31
0.0
  0
LINE
  5
1B9
330
18
100
AcDbEntity
  8
0
100
AcDbLine
 10
3.135
 20
0.757
 30
0.0
 11
3.088
 21
0.7609999999999999
 31
0.0
  0
LINE
  5
1BA
330
18
100
AcDbEntity
  8
0
100
AcDbLine
 10
3.088
 20
0.7609999999999999
 30
0.0
 11
2.986
 21
0.736
 31
0.0
  0
LINE
  5
1BB
330
18
100
AcDbEntity
  8
0
100
AcDbLine
 10
2.986
 20
0.736
 30
0.0
 11
2.868
 21
0.6609999999999999
 31
0.0
  0
LINE
  5
1BC
330
18
100
AcDbEntity
  8
0
100
AcDbLine
 10
2.868
 20
0.6609999999999999
 30
0.0
 11
2.749
 21
0.636
 31
0.0
  0
LINE
  5
1BD
330
18
100
AcDbEntity
  8
0
100
AcDbLine
 10
2.749
 20
0.636
 30
0.0
 11
2.696
 21
0.652
 31
0.0
  0
LINE
  5
1BE
330
18
100
AcDbEntity
  8
0
100
AcDbLine
 10
2.696
 20
0.652
 30
0.0
 11
2.696
 21
0.701
 31
0.0
  0
LINE
  5
1BF
330
18
100
AcDbEntity
  8
0
100
AcDbLine
 10
2.696
 20
0.701
 30
0.0
 11
2.624
 21
0.748
 31
0.0
  0
LINE
  5
1C0
330
18
100
AcDbEntity
  8
0
100
AcDbLine
 10
2.624
 20
0.748
 30
0.0
 11
2.536
 21
0.7659999999999999
 31
0.0
  0
LINE
  5
1C1
330
18
100
AcDbEntity
  8
0
100
AcDbLine
 10
2.536
 20
0.7659999999999999
 30
0.0
 11
2.394
 21
0.752
 31
0.0
  0
LINE
  5
1C2
330
18
100
AcDbEntity
  8
0
100
AcDbLine
 10
2.394
 20
0.752
 30
0.0
 11
2.285
 21
0.7040000000000001
 31
0.0
  0
LINE
  5
1C3
330
18
100
AcDbEntity
  8
0
100
AcDbLine
 10
2.285
 20
0.7040000000000001
 30
0.0
 11
2.174
 21
0.703
 31
0.0
  0
LINE
  5
1C4
330
18
100
AcDbEntity
  8
0
100
AcDbLine
 10
2.174
 20
0.703
 30
0.0
 11
2.128
 21
0.7170000000000001
 31
0.0
  0
LINE
  5
1C5
330
18
100
AcDbEntity
  8
0
100
AcDbLine
 10
2.128
 20
0.7170000000000001
 30
0.0
 11
1.996
 21
0.727
 31
0.0
  0
LINE
  5
1C6
330
18
100
AcDbEntity
  8
0
100
AcDbLine
 10
1.996
 20
0.727
 30
0.0
 11
1.799
 21
0.733
 31
0.0
  0
LINE
  5
1C7
330
18
100
AcDbEntity
  8
0
100
AcDbLine
 10
1.799
 20
0.733
 30
0.0
 11
1.637
 21
0.7759999999999999
 31
0.0
  0
LINE
  5
1C8
330
18
100
AcDbEntity
  8
0
100
AcDbLine
 10
1.637
 20
0.7759999999999999
 30
0.0
 11
1.546
 21
0.799
 31
0.0
  0
LINE
  5
1C9
330
18
100
AcDbEntity
  8
0
100
AcDbLine
 10
1.546
 20
0.799
 30
0.0
 11
1.499
 21
0.8240000000000001
 31
0.0
  0
LINE
  5
1CA
330
18
100
AcDbEntity
  8
0
100
AcDbLine
 10
1.499
 20
0.8240000000000001
 30
0.0
 11
1.488
 21
0.887
 31
0.0
  0
LINE
  5
1CB
330
18
100
AcDbEntity
  8
0
100
AcDbLine
 10
1.488
 20
0.887
 30
0.0
 11
1.511
 21
0.98
 31
0.0
  0
LINE
  5
1CC
330
18
100
AcDbEntity
  8
0
100
AcDbLine
 10
1.511
 20
0.98
 30
0.0
 11
1.458
 21
1.125
 31
0.0
  0
LINE
  5
1CD
330
18
100
AcDbEntity
  8
0
100
AcDbLine
 10
1.458
 20
1.125
 30
0.0
 11
1.386
 21
1.227
 31
0.0
  0
LINE
  5
1CE
330
18
100
AcDbEntity
  8
0
100
AcDbLine
 10
1.386
 20
1.227
 30
0.0
 11
1.361
 21
1.339
 31
0.0
  0
LINE
  5
1CF
330
18
100
AcDbEntity
  8
0
100
AcDbLine
 10
1.361
 20
1.339
 30
0.0
 11
1.307
 21
1.469
 31
0.0
  0
LINE
  5
1D0
330
18
100
AcDbEntity
  8
0
100
AcDbLine
 10
1.307
 20
1.469
 30
0.0
 11
1.27
 21
1.587
 31
0.0
  0
LINE
  5
1D1
330
18
100
AcDbEntity
  8
0
100
AcDbLine
 10
0.5
 20
2.471
 30
0.0
 11
0.496
 21
2.322
 31
0.0
  0
LINE
  5
1D2
330
18
100
AcDbEntity
  8
0
100
AcDbLine
 10
0.496
 20
2.322
 30
0.0
 11
0.528
 21
2.204
 31
0.0
  0
LINE
  5
1D3
330
18
100
AcDbEntity
  8
0
100
AcDbLine
 10
0.528
 20
2.204
 30
0.0
 11
0.5770000000000001
 21
2.102
 31
0.0
  0
LINE
  5
1D4
330
18
100
AcDbEntity
  8
0
100
AcDbLine
 10
0.5770000000000001
 20
2.102
 30
0.0
 11
0.6759999999999999
 21
1.99
 31
0.0
  0
LINE
  5
1D5
330
18
100
AcDbEntity
  8
0
100
AcDbLine
 10
0.6759999999999999
 20
1.99
 30
0.0
 11
0.73
 21
1.863
 31
0.0
  0
LINE
  5
1D6
330
18
100
AcDbEntity
  8
0
100
AcDbLine
 10
0.73
 20
1.863
 30
0.0
 11
0.746
 21
1.738
 31
0.0
  0
LINE
  5
1D7
330
18
100
AcDbEntity
  8
0
100
AcDbLine
 10
0.746
 20
1.738
 30
0.0
 11
0.769
 21
1.638
 31
0.0
  0
LINE
  5
1D8
330
18
100
AcDbEntity
  8
0
100
AcDbLine
 10
0.769
 20
1.638
 30
0.0
 11
0.8440000000000001
 21
1.555
 31
0.0
  0
LINE
  5
1D9
330
18
100
AcDbEntity
  8
0
100
AcDbLine
 10
0.8440000000000001
 20
1.555
 30
0.0
 11
0.9320000000000001
 21
1.395
 31
0.0
  0
LINE
  5
1DA
330
18
100
AcDbEntity
  8
0
100
AcDbLine
 10
0.9320000000000001
 20
1.395
 30
0.0
 11
0.973
 21
1.3
 31
0.0
  0
LINE
  5
1DB
330
18
100
AcDbEntity
  8
0
100
AcDbLine
 10
0.973
 20
1.3
 30
0.0
 11
1.085
 21
1.212
 31
0.0
  0
LINE
  5
1DC
330
18
100
AcDbEntity
  8
0
100
AcDbLine
 10
1.085
 20
1.212
 30
0.0
 11
1.286
 21
1.1
 31
0.0
  0
LINE
  5
1DD
330
18
100
AcDbEntity
  8
0
100
AcDbLine
 10
1.286
 20
1.1
 30
0.0
 11
1.368
 21
1.021
 31
0.0
  0
LINE
  5
1DE
330
18
100
AcDbEntity
  8
0
100
AcDbLine
 10
1.368
 20
1.021
 30
0.0
 11
1.5
 21
0.9350000000000001
 31
0.0
  0
LINE
  5
1DF
330
18
100
AcDbEntity
  8
0
100
AcDbLine
 10
0.595
 20
2.892
 30
0.0
 11
0.581
 21
2.814
 31
0.0
  0
LINE
  5
1E0
330
18
100
AcDbEntity
  8
0
100
AcDbLine
 10
0.581
 20
2.814
 30
0.0
 11
0.579
 21
2.681
 31
0.0
  0
LINE
  5
1E1
330
18
100
AcDbEntity
  8
0
100
AcDbLine
 10
0.579
 20
2.681
 30
0.0
 11
0.581
 21
2.607
 31
0.0
  0
LINE
  5
1E2
330
18
100
AcDbEntity
  8
0
100
AcDbLine
 10
0.581
 20
2.607
 30
0.0
 11
0.581
 21
2.576
 31
0.0
  0
LINE
  5
1E3
330
18
100
AcDbEntity
  8
0
100
AcDbLine
 10
1.804
 20
1.054
 30
0.0
 11
1.801
 21
1.112
 31
0.0
  0
LINE
  5
1E4
330
18
100
AcDbEntity
  8
0
100
AcDbLine
 10
1.801
 20
1.112
 30
0.0
 11
1.79
 21
1.133
 31
0.0
  0
LINE
  5
1E5
330
18
100
AcDbEntity
  8
0
100
AcDbLine
 10
1.79
 20
1.133
 30
0.0
 11
1.748
 21
1.123
 31
0.0
  0
LINE
  5
1E6
330
18
100
AcDbEntity
  8
0
100
AcDbLine
 10
1.748
 20
1.123
 30
0.0
 11
1.717
 21
1.093
 31
0.0
  0
LINE
  5
1E7
330
18
100
AcDbEntity
  8
0
100
AcDbLine
 10
1.717
 20
1.093
 30
0.0
 11
1.736
 21
1.06
 31
0.0
  0
LINE
  5
1E8
330
18
100
AcDbEntity
  8
0
100
AcDbLine
 10
1.736
 20
1.06
 30
0.0
 11
1.761
 21
1.028
 31
0.0
  0
LINE
  5
1E9
330
18
100
AcDbEntity
  8
0
100
AcDbLine
 10
1.761
 20
1.028
 30
0.0
 11
1.796
 21
1.028
 31
0.0
  0
LINE
  5
1EA
330
18
100
AcDbEntity
  8
0
100
AcDbLine
 10
1.796
 20
1.028
 30
0.0
 11
1.804
 21
1.054
 31
0.0
  0
LINE
  5
1EB
330
18
100
AcDbEntity
  8
0
100
AcDbLine
 10
1.722
 20
1.156
 30
0.0
 11
1.729
 21
1.211
 31
0.0
  0
LINE
  5
1EC
330
18
100
AcDbEntity
  8
0
100
AcDbLine
 10
1.729
 20
1.211
 30
0.0
 11
1.702
 21
1.221
 31
0.0
  0
LINE
  5
1ED
330
18
100
AcDbEntity
  8
0
100
AcDbLine
 10
1.702
 20
1.221
 30
0.0
 11
1.671
 21
1.202
 31
0.0
  0
LINE
  5
1EE
330
18
100
AcDbEntity
  8
0
100
AcDbLine
 10
1.671
 20
1.202
 30
0.0
 11
1.657
 21
1.172
 31
0.0
  0
LINE
  5
1EF
330
18
100
AcDbEntity
  8
0
100
AcDbLine
 10
1.657
 20
1.172
 30
0.0
 11
1.678
 21
1.133
 31
0.0
  0
LINE
  5
1F0
330
18
100
AcDbEntity
  8
0
100
AcDbLine
 10
1.678
 20
1.133
 30
0.0
 11
1.706
 21
1.133
 31
0.0
  0
LINE
  5
1F1
330
18
100
AcDbEntity
  8
0
100
AcDbLine
 10
1.706
 20
1.133
 30
0.0
 11
1.722
 21
1.156
 31
0.0
  0
LINE
  5
1F2
330
18
100
AcDbEntity
  8
0
100
AcDbLine
 10
1.574
 20
1.181
 30
0.0
 11
1.569
 21
1.221
 31
0.0
  0
LINE
  5
1F3
330
18
100
AcDbEntity
  8
0
100
AcDbLine
 10
1.569
 20
1.221
 30
0.0
 11
1.542
 21
1.237
 31
0.0
  0
LINE
  5
1F4
330
18
100
AcDbEntity
  8
0
100
AcDbLine
 10
1.542
 20
1.237
 30
0.0
 11
1.518
 21
1.214
 31
0.0
  0
LINE
  5
1F5
330
18
100
AcDbEntity
  8
0
100
AcDbLine
 10
1.518
 20
1.214
 30
0.0
 11
1.502
 21
1.181
 31
0.0
  0
LINE
  5
1F6
330
18
100
AcDbEntity
  8
0
100
AcDbLine
 10
1.502
 20
1.181
 30
0.0
 11
1.53
 21
1.169
 31
0.0
  0
LINE
  5
1F7
330
18
100
AcDbEntity
  8
0
100
AcDbLine
 10
1.53
 20
1.169
 30
0.0
 11
1.565
 21
1.17
 31
0.0
  0
LINE
  5
1F8
330
18
100
AcDbEntity
  8
0
100
AcDbLine
 10
1.565
 20
1.17
 30
0.0
 11
1.574
 21
1.181
 31
0.0
  0
LINE
  5
1F9
330
18
100
AcDbEntity
  8
0
100
AcDbLine
 10
1.822
 20
0.94
 30
0.0
 11
1.831
 21
0.9790000000000001
 31
0.0
  0
LINE
  5
1FA
330
18
100
AcDbEntity
  8
0
100
AcDbLine
 10
1.831
 20
0.9790000000000001
 30
0.0
 11
1.82
 21
1.003
 31
0.0
  0
LINE
  5
1FB
330
18
100
AcDbEntity
  8
0
100
AcDbLine
 10
1.82
 20
1.003
 30
0.0
 11
1.787
 21
0.991
 31
0.0
  0
LINE
  5
1FC
330
18
100
AcDbEntity
  8
0
100
AcDbLine
 10
1.787
 20
0.991
 30
0.0
 11
1.785
 21
0.951
 31
0.0
  0
LINE
  5
1FD
330
18
100
AcDbEntity
  8
0
100
AcDbLine
 10
1.785
 20
0.951
 30
0.0
 11
1.806
 21
0.9309999999999999
 31
0.0
  0
LINE
  5
1FE
330
18
100
AcDbEntity
  8
0
100
AcDbLine
 10
1.806
 20
0.9309999999999999
 30
0.0
 11
1.822
 21
0.94
 31
0.0
  0
LINE
  5
1FF
330
18
100
AcDbEntity
  8
0
100
AcDbLine
 10
1.649
 20
0.993
 30
0.0
 11
1.655
 21
1.022
 31
0.0
  0
LINE
  5
200
330
18
100
AcDbEntity
  8
0
100
AcDbLine
 10
1.655
 20
1.022
 30
0.0
 11
1.648
 21
1.041
 31
0.0
  0
LINE
  5
201
330
18
100
AcDbEntity
  8
0
100
AcDbLine
 10
1.648
 20
1.041
 30
0.0
 11
1.623
 21
1.031
 31
0.0
  0
LINE
  5
202
330
18
100
AcDbEntity
  8
0
100
AcDbLine
 10
1.623
 20
1.031
 30
0.0
 11
1.621
 21
1.001
 31
0.0
  0
LINE
  5
203
330
18
100
AcDbEntity
  8
0
100
AcDbLine
 10
1.621
 20
1.001
 30
0.0
 11
1.637
 21
0.987
 31
0.0
  0
LINE
  5
204
330
18
100
AcDbEntity
  8
0
100
AcDbLine
 10
1.637
 20
0.987
 30
0.0
 11
1.649
 21
0.993
 31
0.0
  0
LINE
  5
205
330
18
100
AcDbEntity
  8
0
100
AcDbLine
 10
1.858
 20
1.133
 30
0.0
 11
1.862
 21
1.152
 31
0.0
  0
LINE
  5
206
330
18
100
AcDbEntity
  8
0
100
AcDbLine
 10
1.862
 20
1.152
 30
0.0
 11
1.857
 21
1.164
 31
0.0
  0
LINE
  5
207
330
18
100
AcDbEntity
  8
0
100
AcDbLine
 10
1.857
 20
1.164
 30
0.0
 11
1.841
 21
1.158
 31
0.0
  0
LINE
  5
208
330
18
100
AcDbEntity
  8
0
100
AcDbLine
 10
1.841
 20
1.158
 30
0.0
 11
1.84
 21
1.138
 31
0.0
  0
LINE
  5
209
330
18
100
AcDbEntity
  8
0
100
AcDbLine
 10
1.84
 20
1.138
 30
0.0
 11
1.85
 21
1.128
 31
0.0
  0
LINE
  5
20A
330
18
100
AcDbEntity
  8
0
100
AcDbLine
 10
1.85
 20
1.128
 30
0.0
 11
1.858
 21
1.133
 31
0.0
  0
LINE
  5
20B
330
18
100
AcDbEntity
  8
0
100
AcDbLine
 10
3.507
 20
1.797
 30
0.0
 11
3.511
 21
1.817
 31
0.0
  0
LINE
  5
20C
330
18
100
AcDbEntity
  8
0
100
AcDbLine
 10
3.511
 20
1.817
 30
0.0
 11
3.506
 21
1.829
 31
0.0
  0
LINE
  5
20D
330
18
100
AcDbEntity
  8
0
100
AcDbLine
 10
3.506
 20
1.829
 30
0.0
 11
3.489
 21
1.823
 31
0.0
  0
LINE
  5
20E
330
18
100
AcDbEntity
  8
0
100
AcDbLine
 10
3.489
 20
1.823
 30
0.0
 11
3.488
 21
1.803
 31
0.0
  0
LINE
  5
20F
330
18
100
AcDbEntity
  8
0
100
AcDbLine
 10
3.488
 20
1.803
 30
0.0
 11
3.499
 21
1.793
 31
0.0
  0
LINE
  5
210
330
18
100
AcDbEntity
  8
0
100
AcDbLine
 10
3.499
 20
1.793
 30
0.0
 11
3.507
 21
1.797
 31
0.0
  0
LINE
  5
211
330
18
100
AcDbEntity
  8
0
100
AcDbLine
 10
3.298
 20
1.658
 30
0.0
 11
3.304
 21
1.687
 31
0.0
  0
LINE
  5
212
330
18
100
AcDbEntity
  8
0
100
AcDbLine
 10
3.304
 20
1.687
 30
0.0
 11
3.296
 21
1.706
 31
0.0
  0
LINE
  5
213
330
18
100
AcDbEntity
  8
0
100
AcDbLine
 10
3.296
 20
1.706
 30
0.0
 11
3.271
 21
1.696
 31
0.0
  0
LINE
  5
214
330
18
100
AcDbEntity
  8
0
100
AcDbLine
 10
3.271
 20
1.696
 30
0.0
 11
3.27
 21
1.666
 31
0.0
  0
LINE
  5
215
330
18
100
AcDbEntity
  8
0
100
AcDbLine
 10
3.27
 20
1.666
 30
0.0
 11
3.286
 21
1.651
 31
0.0
  0
LINE
  5
216
330
18
100
AcDbEntity
  8
0
100
AcDbLine
 10
3.286
 20
1.651
 30
0.0
 11
3.298
 21
1.658
 31
0.0
  0
LINE
  5
217
330
18
100
AcDbEntity
  8
0
100
AcDbLine
 10
3.471
 20
1.605
 30
0.0
 11
3.48
 21
1.644
 31
0.0
  0
LINE
  5
218
330
18
100
AcDbEntity
  8
0
100
AcDbLine
 10
3.48
 20
1.644
 30
0.0
 11
3.469
 21
1.668
 31
0.0
  0
LINE
  5
219
330
18
100
AcDbEntity
  8
0
100
AcDbLine
 10
3.469
 20
1.668
 30
0.0
 11
3.436
 21
1.656
 31
0.0
  0
LINE
  5
21A
330
18
100
AcDbEntity
  8
0
100
AcDbLine
 10
3.436
 20
1.656
 30
0.0
 11
3.434
 21
1.615
 31
0.0
  0
LINE
  5
21B
330
18
100
AcDbEntity
  8
0
100
AcDbLine
 10
3.434
 20
1.615
 30
0.0
 11
3.455
 21
1.596
 31
0.0
  0
LINE
  5
21C
330
18
100
AcDbEntity
  8
0
100
AcDbLine
 10
3.455
 20
1.596
 30
0.0
 11
3.471
 21
1.605
 31
0.0
  0
LINE
  5
21D
330
18
100
AcDbEntity
  8
0
100
AcDbLine
 10
3.223
 20
1.846
 30
0.0
 11
3.218
 21
1.886
 31
0.0
  0
LINE
  5
21E
330
18
100
AcDbEntity
  8
0
100
AcDbLine
 10
3.218
 20
1.886
 30
0.0
 11
3.191
 21
1.902
 31
0.0
  0
LINE
  5
21F
330
18
100
AcDbEntity
  8
0
100
AcDbLine
 10
3.191
 20
1.902
 30
0.0
 11
3.167
 21
1.879
 31
0.0
  0
LINE
  5
220
330
18
100
AcDbEntity
  8
0
100
AcDbLine
 10
3.167
 20
1.879
 30
0.0
 11
3.151
 21
1.846
 31
0.0
  0
LINE
  5
221
330
18
100
AcDbEntity
  8
0
100
AcDbLine
 10
3.151
 20
1.846
 30
0.0
 11
3.179
 21
1.833
 31
0.0
  0
LINE
  5
222
330
18
100
AcDbEntity
  8
0
100
AcDbLine
 10
3.179
 20
1.833
 30
0.0
 11
3.214
 21
1.835
 31
0.0
  0
LINE
  5
223
330
18
100
AcDbEntity
  8
0
100
AcDbLine
 10
3.214
 20
1.835
 30
0.0
 11
3.223
 21
1.846
 31
0.0
  0
LINE
  5
224
330
18
100
AcDbEntity
  8
0
100
AcDbLine
 10
3.371
 20
1.821
 30
0.0
 11
3.378
 21
1.876
 31
0.0
  0
LINE
  5
225
330
18
100
AcDbEntity
  8
0
100
AcDbLine
 10
3.378
 20
1.876
 30
0.0
 11
3.351
 21
1.886
 31
0.0
  0
LINE
  5
226
330
18
100
AcDbEntity
  8
0
100
AcDbLine
 10
3.351
 20
1.886
 30
0.0
 11
3.32
 21
1.867
 31
0.0
  0
LINE
  5
227
330
18
100
AcDbEntity
  8
0
100
AcDbLine
 10
3.32
 20
1.867
 30
0.0
 11
3.305
 21
1.837
 31
0.0
  0
LINE
  5
228
330
18
100
AcDbEntity
  8
0
100
AcDbLine
 10
3.305
 20
1.837
 30
0.0
 11
3.327
 21
1.798
 31
0.0
  0
LINE
  5
229
330
18
100
AcDbEntity
  8
0
100
AcDbLine
 10
3.327
 20
1.798
 30
0.0
 11
3.355
 21
1.798
 31
0.0
  0
LINE
  5
22A
330
18
100
AcDbEntity
  8
0
100
AcDbLine
 10
3.355
 20
1.798
 30
0.0
 11
3.371
 21
1.821
 31
0.0
  0
LINE
  5
22B
330
18
100
AcDbEntity
  8
0
100
AcDbLine
 10
3.453
 20
1.719
 30
0.0
 11
3.45
 21
1.777
 31
0.0
  0
LINE
  5
22C
330
18
100
AcDbEntity
  8
0
100
AcDbLine
 10
3.45
 20
1.777
 30
0.0
 11
3.439
 21
1.798
 31
0.0
  0
LINE
  5
22D
330
18
100
AcDbEntity
  8
0
100
AcDbLine
 10
3.439
 20
1.798
 30
0.0
 11
3.397
 21
1.788
 31
0.0
  0
LINE
  5
22E
330
18
100
AcDbEntity
  8
0
100
AcDbLine
 10
3.397
 20
1.788
 30
0.0
 11
3.365
 21
1.758
 31
0.0
  0
LINE
  5
22F
330
18
100
AcDbEntity
  8
0
100
AcDbLine
 10
3.365
 20
1.758
 30
0.0
 11
3.385
 21
1.724
 31
0.0
  0
LINE
  5
230
330
18
100
AcDbEntity
  8
0
100
AcDbLine
 10
3.385
 20
1.724
 30
0.0
 11
3.409
 21
1.693
 31
0.0
  0
LINE
  5
231
330
18
100
AcDbEntity
  8
0
100
AcDbLine
 10
3.409
 20
1.693
 30
0.0
 11
3.444
 21
1.693
 31
0.0
  0
LINE
  5
232
330
18
100
AcDbEntity
  8
0
100
AcDbLine
 10
3.444
 20
1.693
 30
0.0
 11
3.453
 21
1.719
 31
0.0
  0
LINE
  5
233
330
18
100
AcDbEntity
  8
0
100
AcDbLine
 10
3.515
 20
1.974
 30
0.0
 11
3.509
 21
2.015
 31
0.0
  0
LINE
  5
234
330
18
100
AcDbEntity
  8
0
100
AcDbLine
 10
3.509
 20
2.015
 30
0.0
 11
3.483
 21
2.03
 31
0.0
  0
LINE
  5
235
330
18
100
AcDbEntity
  8
0
100
AcDbLine
 10
3.483
 20
2.03
 30
0.0
 11
3.458
 21
2.008
 31
0.0
  0
LINE
  5
236
330
18
100
AcDbEntity
  8
0
100
AcDbLine
 10
3.458
 20
2.008
 30
0.0
 11
3.443
 21
1.974
 31
0.0
  0
LINE
  5
237
330
18
100
AcDbEntity
  8
0
100
AcDbLine
 10
3.443
 20
1.974
 30
0.0
 11
3.471
 21
1.962
 31
0.0
  0
LINE
  5
238
330
18
100
AcDbEntity
  8
0
100
AcDbLine
 10
3.471
 20
1.962
 30
0.0
 11
3.506
 21
1.964
 31
0.0
  0
LINE
  5
239
330
18
100
AcDbEntity
  8
0
100
AcDbLine
 10
3.506
 20
1.964
 30
0.0
 11
3.515
 21
1.974
 31
0.0
  0
LINE
  5
23A
330
18
100
AcDbEntity
  8
0
100
AcDbLine
 10
2.539
 20
4.2
 30
0.0
 11
2.539
 21
4.312
 31
0.0
  0
LINE
  5
23B
330
18
100
AcDbEntity
  8
0
100
AcDbLine
 10
2.539
 20
4.312
 30
0.0
 11
2.462
 21
4.351
 31
0.0
  0
LINE
  5
23C
330
18
100
AcDbEntity
  8
0
100
AcDbLine
 10
2.462
 20
4.351
 30
0.0
 11
2.397
 21
4.286000000000001
 31
0.0
  0
LINE
  5
23D
330
18
100
AcDbEntity
  8
0
100
AcDbLine
 10
2.397
 20
4.286000000000001
 30
0.0
 11
2.397
 21
4.163
 31
0.0
  0
LINE
  5
23E
330
18
100
AcDbEntity
  8
0
100
AcDbLine
 10
2.397
 20
4.163
 30
0.0
 11
2.476
 21
4.135
 31
0.0
  0
LINE
  5
23F
330
18
100
AcDbEntity
  8
0
100
AcDbLine
 10
2.476
 20
4.135
 30
0.0
 11
2.539
 21
4.2
 31
0.0
  0
LINE
  5
240
330
18
100
AcDbEntity
  8
0
100
AcDbLine
 10
2.411
 20
4.359
 30
0.0
 11
2.346
 21
4.294
 31
0.0
  0
LINE
  5
241
330
18
100
AcDbEntity
  8
0
100
AcDbLine
 10
2.346
 20
4.294
 30
0.0
 11
2.346
 21
4.171
 31
0.0
  0
LINE
  5
242
330
18
100
AcDbEntity
  8
0
100
AcDbLine
 10
2.346
 20
4.171
 30
0.0
 11
2.426
 21
4.143
 31
0.0
  0
LINE
  5
243
330
18
100
AcDbEntity
  8
0
100
AcDbLine
 10
2.62
 20
1.157
 30
0.0
 11
2.625
 21
1.176
 31
0.0
  0
LINE
  5
244
330
18
100
AcDbEntity
  8
0
100
AcDbLine
 10
2.625
 20
1.176
 30
0.0
 11
2.619
 21
1.189
 31
0.0
  0
LINE
  5
245
330
18
100
AcDbEntity
  8
0
100
AcDbLine
 10
2.619
 20
1.189
 30
0.0
 11
2.603
 21
1.182
 31
0.0
  0
LINE
  5
246
330
18
100
AcDbEntity
  8
0
100
AcDbLine
 10
2.603
 20
1.182
 30
0.0
 11
2.602
 21
1.162
 31
0.0
  0
LINE
  5
247
330
18
100
AcDbEntity
  8
0
100
AcDbLine
 10
2.602
 20
1.162
 30
0.0
 11
2.612
 21
1.153
 31
0.0
  0
LINE
  5
248
330
18
100
AcDbEntity
  8
0
100
AcDbLine
 10
2.612
 20
1.153
 30
0.0
 11
2.62
 21
1.157
 31
0.0
  0
LINE
  5
249
330
18
100
AcDbEntity
  8
0
100
AcDbLine
 10
2.411
 20
1.018
 30
0.0
 11
2.418
 21
1.047
 31
0.0
  0
LINE
  5
24A
330
18
100
AcDbEntity
  8
0
100
AcDbLine
 10
2.418
 20
1.047
 30
0.0
 11
2.41
 21
1.065
 31
0.0
  0
LINE
  5
24B
330
18
100
AcDbEntity
  8
0
100
AcDbLine
 10
2.41
 20
1.065
 30
0.0
 11
2.385
 21
1.056
 31
0.0
  0
LINE
  5
24C
330
18
100
AcDbEntity
  8
0
100
AcDbLine
 10
2.385
 20
1.056
 30
0.0
 11
2.383
 21
1.025
 31
0.0
  0
LINE
  5
24D
330
18
100
AcDbEntity
  8
0
100
AcDbLine
 10
2.383
 20
1.025
 30
0.0
 11
2.399
 21
1.011
 31
0.0
  0
LINE
  5
24E
330
18
100
AcDbEntity
  8
0
100
AcDbLine
 10
2.399
 20
1.011
 30
0.0
 11
2.411
 21
1.018
 31
0.0
  0
LINE
  5
24F
330
18
100
AcDbEntity
  8
0
100
AcDbLine
 10
2.584
 20
0.9640000000000001
 30
0.0
 11
2.593
 21
1.003
 31
0.0
  0
LINE
  5
250
330
18
100
AcDbEntity
  8
0
100
AcDbLine
 10
2.593
 20
1.003
 30
0.0
 11
2.582
 21
1.028
 31
0.0
  0
LINE
  5
251
330
18
100
AcDbEntity
  8
0
100
AcDbLine
 10
2.582
 20
1.028
 30
0.0
 11
2.549
 21
1.015
 31
0.0
  0
LINE
  5
252
330
18
100
AcDbEntity
  8
0
100
AcDbLine
 10
2.549
 20
1.015
 30
0.0
 11
2.547
 21
0.975
 31
0.0
  0
LINE
  5
253
330
18
100
AcDbEntity
  8
0
100
AcDbLine
 10
2.547
 20
0.975
 30
0.0
 11
2.568
 21
0.956
 31
0.0
  0
LINE
  5
254
330
18
100
AcDbEntity
  8
0
100
AcDbLine
 10
2.568
 20
0.956
 30
0.0
 11
2.584
 21
0.9640000000000001
 31
0.0
  0
LINE
  5
255
330
18
100
AcDbEntity
  8
0
100
AcDbLine
 10
2.336
 20
1.205
 30
0.0
 11
2.331
 21
1.246
 31
0.0
  0
LINE
  5
256
330
18
100
AcDbEntity
  8
0
100
AcDbLine
 10
2.331
 20
1.246
 30
0.0
 11
2.305
 21
1.261
 31
0.0
  0
LINE
  5
257
330
18
100
AcDbEntity
  8
0
100
AcDbLine
 10
2.305
 20
1.261
 30
0.0
 11
2.28
 21
1.239
 31
0.0
  0
LINE
  5
258
330
18
100
AcDbEntity
  8
0
100
AcDbLine
 10
2.28
 20
1.239
 30
0.0
 11
2.264
 21
1.205
 31
0.0
  0
LINE
  5
259
330
18
100
AcDbEntity
  8
0
100
AcDbLine
 10
2.264
 20
1.205
 30
0.0
 11
2.292
 21
1.193
 31
0.0
  0
LINE
  5
25A
330
18
100
AcDbEntity
  8
0
100
AcDbLine
 10
2.292
 20
1.193
 30
0.0
 11
2.327
 21
1.195
 31
0.0
  0
LINE
  5
25B
330
18
100
AcDbEntity
  8
0
100
AcDbLine
 10
2.327
 20
1.195
 30
0.0
 11
2.336
 21
1.205
 31
0.0
  0
LINE
  5
25C
330
18
100
AcDbEntity
  8
0
100
AcDbLine
 10
2.484
 20
1.181
 30
0.0
 11
2.491
 21
1.235
 31
0.0
  0
LINE
  5
25D
330
18
100
AcDbEntity
  8
0
100
AcDbLine
 10
2.491
 20
1.235
 30
0.0
 11
2.465
 21
1.246
 31
0.0
  0
LINE
  5
25E
330
18
100
AcDbEntity
  8
0
100
AcDbLine
 10
2.465
 20
1.246
 30
0.0
 11
2.433
 21
1.226
 31
0.0
  0
LINE
  5
25F
330
18
100
AcDbEntity
  8
0
100
AcDbLine
 10
2.433
 20
1.226
 30
0.0
 11
2.419
 21
1.196
 31
0.0
  0
LINE
  5
260
330
18
100
AcDbEntity
  8
0
100
AcDbLine
 10
2.419
 20
1.196
 30
0.0
 11
2.44
 21
1.158
 31
0.0
  0
LINE
  5
261
330
18
100
AcDbEntity
  8
0
100
AcDbLine
 10
2.44
 20
1.158
 30
0.0
 11
2.468
 21
1.158
 31
0.0
  0
LINE
  5
262
330
18
100
AcDbEntity
  8
0
100
AcDbLine
 10
2.468
 20
1.158
 30
0.0
 11
2.484
 21
1.181
 31
0.0
  0
LINE
  5
263
330
18
100
AcDbEntity
  8
0
100
AcDbLine
 10
2.567
 20
1.079
 30
0.0
 11
2.563
 21
1.137
 31
0.0
  0
LINE
  5
264
330
18
100
AcDbEntity
  8
0
100
AcDbLine
 10
2.563
 20
1.137
 30
0.0
 11
2.552
 21
1.158
 31
0.0
  0
LINE
  5
265
330
18
100
AcDbEntity
  8
0
100
AcDbLine
 10
2.552
 20
1.158
 30
0.0
 11
2.51
 21
1.147
 31
0.0
  0
LINE
  5
266
330
18
100
AcDbEntity
  8
0
100
AcDbLine
 10
2.51
 20
1.147
 30
0.0
 11
2.479
 21
1.117
 31
0.0
  0
LINE
  5
267
330
18
100
AcDbEntity
  8
0
100
AcDbLine
 10
2.479
 20
1.117
 30
0.0
 11
2.498
 21
1.084
 31
0.0
  0
LINE
  5
268
330
18
100
AcDbEntity
  8
0
100
AcDbLine
 10
2.498
 20
1.084
 30
0.0
 11
2.523
 21
1.052
 31
0.0
  0
LINE
  5
269
330
18
100
AcDbEntity
  8
0
100
AcDbLine
 10
2.523
 20
1.052
 30
0.0
 11
2.558
 21
1.052
 31
0.0
  0
LINE
  5
26A
330
18
100
AcDbEntity
  8
0
100
AcDbLine
 10
2.558
 20
1.052
 30
0.0
 11
2.567
 21
1.079
 31
0.0
  0
LINE
  5
26B
330
18
100
AcDbEntity
  8
0
100
AcDbLine
 10
2.119
 20
0.88
 30
0.0
 11
2.126
 21
0.909
 31
0.0
  0
LINE
  5
26C
330
18
100
AcDbEntity
  8
0
100
AcDbLine
 10
2.126
 20
0.909
 30
0.0
 11
2.118
 21
0.9270000000000001
 31
0.0
  0
LINE
  5
26D
330
18
100
AcDbEntity
  8
0
100
AcDbLine
 10
2.118
 20
0.9270000000000001
 30
0.0
 11
2.093
 21
0.9179999999999999
 31
0.0
  0
LINE
  5
26E
330
18
100
AcDbEntity
  8
0
100
AcDbLine
 10
2.093
 20
0.9179999999999999
 30
0.0
 11
2.091
 21
0.888
 31
0.0
  0
LINE
  5
26F
330
18
100
AcDbEntity
  8
0
100
AcDbLine
 10
2.091
 20
0.888
 30
0.0
 11
2.107
 21
0.873
 31
0.0
  0
LINE
  5
270
330
18
100
AcDbEntity
  8
0
100
AcDbLine
 10
2.107
 20
0.873
 30
0.0
 11
2.119
 21
0.88
 31
0.0
  0
LINE
  5
271
330
18
100
AcDbEntity
  8
0
100
AcDbLine
 10
2.044
 20
1.067
 30
0.0
 11
2.039
 21
1.108
 31
0.0
  0
LINE
  5
272
330
18
100
AcDbEntity
  8
0
100
AcDbLine
 10
2.039
 20
1.108
 30
0.0
 11
2.013
 21
1.124
 31
0.0
  0
LINE
  5
273
330
18
100
AcDbEntity
  8
0
100
AcDbLine
 10
2.013
 20
1.124
 30
0.0
 11
1.988
 21
1.101
 31
0.0
  0
LINE
  5
274
330
18
100
AcDbEntity
  8
0
100
AcDbLine
 10
1.988
 20
1.101
 30
0.0
 11
1.972
 21
1.067
 31
0.0
  0
LINE
  5
275
330
18
100
AcDbEntity
  8
0
100
AcDbLine
 10
1.972
 20
1.067
 30
0.0
 11
2.0
 21
1.055
 31
0.0
  0
LINE
  5
276
330
18
100
AcDbEntity
  8
0
100
AcDbLine
 10
2.0
 20
1.055
 30
0.0
 11
2.036
 21
1.057
 31
0.0
  0
LINE
  5
277
330
18
100
AcDbEntity
  8
0
100
AcDbLine
 10
2.036
 20
1.057
 30
0.0
 11
2.044
 21
1.067
 31
0.0
  0
LINE
  5
278
330
18
100
AcDbEntity
  8
0
100
AcDbLine
 10
2.233
 20
1.051
 30
0.0
 11
2.24
 21
1.105
 31
0.0
  0
LINE
  5
279
330
18
100
AcDbEntity
  8
0
100
AcDbLine
 10
2.24
 20
1.105
 30
0.0
 11
2.213
 21
1.116
 31
0.0
  0
LINE
  5
27A
330
18
100
AcDbEntity
  8
0
100
AcDbLine
 10
2.213
 20
1.116
 30
0.0
 11
2.182
 21
1.097
 31
0.0
  0
LINE
  5
27B
330
18
100
AcDbEntity
  8
0
100
AcDbLine
 10
2.182
 20
1.097
 30
0.0
 11
2.168
 21
1.067
 31
0.0
  0
LINE
  5
27C
330
18
100
AcDbEntity
  8
0
100
AcDbLine
 10
2.168
 20
1.067
 30
0.0
 11
2.189
 21
1.028
 31
0.0
  0
LINE
  5
27D
330
18
100
AcDbEntity
  8
0
100
AcDbLine
 10
2.189
 20
1.028
 30
0.0
 11
2.217
 21
1.028
 31
0.0
  0
LINE
  5
27E
330
18
100
AcDbEntity
  8
0
100
AcDbLine
 10
2.217
 20
1.028
 30
0.0
 11
2.233
 21
1.051
 31
0.0
  0
LINE
  5
27F
330
18
100
AcDbEntity
  8
0
100
AcDbLine
 10
2.168
 20
0.945
 30
0.0
 11
2.174
 21
0.9740000000000001
 31
0.0
  0
LINE
  5
280
330
18
100
AcDbEntity
  8
0
100
AcDbLine
 10
2.174
 20
0.9740000000000001
 30
0.0
 11
2.166
 21
0.992
 31
0.0
  0
LINE
  5
281
330
18
100
AcDbEntity
  8
0
100
AcDbLine
 10
2.166
 20
0.992
 30
0.0
 11
2.141
 21
0.983
 31
0.0
  0
LINE
  5
282
330
18
100
AcDbEntity
  8
0
100
AcDbLine
 10
2.141
 20
0.983
 30
0.0
 11
2.14
 21
0.9520000000000001
 31
0.0
  0
LINE
  5
283
330
18
100
AcDbEntity
  8
0
100
AcDbLine
 10
2.14
 20
0.9520000000000001
 30
0.0
 11
2.156
 21
0.9379999999999999
 31
0.0
  0
LINE
  5
284
330
18
100
AcDbEntity
  8
0
100
AcDbLine
 10
2.156
 20
0.9379999999999999
 30
0.0
 11
2.168
 21
0.945
 31
0.0
  0
LINE
  5
285
330
18
100
AcDbEntity
  8
0
100
AcDbLine
 10
3.246
 20
1.099
 30
0.0
 11
3.253
 21
1.128
 31
0.0
  0
LINE
  5
286
330
18
100
AcDbEntity
  8
0
100
AcDbLine
 10
3.253
 20
1.128
 30
0.0
 11
3.245
 21
1.146
 31
0.0
  0
LINE
  5
287
330
18
100
AcDbEntity
  8
0
100
AcDbLine
 10
3.245
 20
1.146
 30
0.0
 11
3.22
 21
1.137
 31
0.0
  0
LINE
  5
288
330
18
100
AcDbEntity
  8
0
100
AcDbLine
 10
3.22
 20
1.137
 30
0.0
 11
3.218
 21
1.107
 31
0.0
  0
LINE
  5
289
330
18
100
AcDbEntity
  8
0
100
AcDbLine
 10
3.218
 20
1.107
 30
0.0
 11
3.234
 21
1.092
 31
0.0
  0
LINE
  5
28A
330
18
100
AcDbEntity
  8
0
100
AcDbLine
 10
3.234
 20
1.092
 30
0.0
 11
3.246
 21
1.099
 31
0.0
  0
LINE
  5
28B
330
18
100
AcDbEntity
  8
0
100
AcDbLine
 10
3.419
 20
1.046
 30
0.0
 11
3.428
 21
1.084
 31
0.0
  0
LINE
  5
28C
330
18
100
AcDbEntity
  8
0
100
AcDbLine
 10
3.428
 20
1.084
 30
0.0
 11
3.417
 21
1.109
 31
0.0
  0
LINE
  5
28D
330
18
100
AcDbEntity
  8
0
100
AcDbLine
 10
3.417
 20
1.109
 30
0.0
 11
3.384
 21
1.096
 31
0.0
  0
LINE
  5
28E
330
18
100
AcDbEntity
  8
0
100
AcDbLine
 10
3.384
 20
1.096
 30
0.0
 11
3.382
 21
1.056
 31
0.0
  0
LINE
  5
28F
330
18
100
AcDbEntity
  8
0
100
AcDbLine
 10
3.382
 20
1.056
 30
0.0
 11
3.403
 21
1.037
 31
0.0
  0
LINE
  5
290
330
18
100
AcDbEntity
  8
0
100
AcDbLine
 10
3.403
 20
1.037
 30
0.0
 11
3.419
 21
1.046
 31
0.0
  0
LINE
  5
291
330
18
100
AcDbEntity
  8
0
100
AcDbLine
 10
3.358
 20
0.97
 30
0.0
 11
3.352
 21
1.01
 31
0.0
  0
LINE
  5
292
330
18
100
AcDbEntity
  8
0
100
AcDbLine
 10
3.352
 20
1.01
 30
0.0
 11
3.326
 21
1.026
 31
0.0
  0
LINE
  5
293
330
18
100
AcDbEntity
  8
0
100
AcDbLine
 10
3.326
 20
1.026
 30
0.0
 11
3.301
 21
1.003
 31
0.0
  0
LINE
  5
294
330
18
100
AcDbEntity
  8
0
100
AcDbLine
 10
3.301
 20
1.003
 30
0.0
 11
3.286
 21
0.97
 31
0.0
  0
LINE
  5
295
330
18
100
AcDbEntity
  8
0
100
AcDbLine
 10
3.286
 20
0.97
 30
0.0
 11
3.314
 21
0.958
 31
0.0
  0
LINE
  5
296
330
18
100
AcDbEntity
  8
0
100
AcDbLine
 10
3.314
 20
0.958
 30
0.0
 11
3.349
 21
0.9590000000000001
 31
0.0
  0
LINE
  5
297
330
18
100
AcDbEntity
  8
0
100
AcDbLine
 10
3.349
 20
0.9590000000000001
 30
0.0
 11
3.358
 21
0.97
 31
0.0
  0
LINE
  5
298
330
18
100
AcDbEntity
  8
0
100
AcDbLine
 10
0.9159999999999999
 20
1.756
 30
0.0
 11
0.9229999999999999
 21
1.785
 31
0.0
  0
LINE
  5
299
330
18
100
AcDbEntity
  8
0
100
AcDbLine
 10
0.9229999999999999
 20
1.785
 30
0.0
 11
0.915
 21
1.804
 31
0.0
  0
LINE
  5
29A
330
18
100
AcDbEntity
  8
0
100
AcDbLine
 10
0.915
 20
1.804
 30
0.0
 11
0.89
 21
1.794
 31
0.0
  0
LINE
  5
29B
330
18
100
AcDbEntity
  8
0
100
AcDbLine
 10
0.89
 20
1.794
 30
0.0
 11
0.888
 21
1.764
 31
0.0
  0
LINE
  5
29C
330
18
100
AcDbEntity
  8
0
100
AcDbLine
 10
0.888
 20
1.764
 30
0.0
 11
0.904
 21
1.75
 31
0.0
  0
LINE
  5
29D
330
18
100
AcDbEntity
  8
0
100
AcDbLine
 10
0.904
 20
1.75
 30
0.0
 11
0.9159999999999999
 21
1.756
 31
0.0
  0
LINE
  5
29E
330
18
100
AcDbEntity
  8
0
100
AcDbLine
 10
1.056
 20
1.725
 30
0.0
 11
1.065
 21
1.764
 31
0.0
  0
LINE
  5
29F
330
18
100
AcDbEntity
  8
0
100
AcDbLine
 10
1.065
 20
1.764
 30
0.0
 11
1.054
 21
1.789
 31
0.0
  0
LINE
  5
2A0
330
18
100
AcDbEntity
  8
0
100
AcDbLine
 10
1.054
 20
1.789
 30
0.0
 11
1.021
 21
1.776
 31
0.0
  0
LINE
  5
2A1
330
18
100
AcDbEntity
  8
0
100
AcDbLine
 10
1.021
 20
1.776
 30
0.0
 11
1.019
 21
1.736
 31
0.0
  0
LINE
  5
2A2
330
18
100
AcDbEntity
  8
0
100
AcDbLine
 10
1.019
 20
1.736
 30
0.0
 11
1.04
 21
1.716
 31
0.0
  0
LINE
  5
2A3
330
18
100
AcDbEntity
  8
0
100
AcDbLine
 10
1.04
 20
1.716
 30
0.0
 11
1.056
 21
1.725
 31
0.0
  0
LINE
  5
2A4
330
18
100
AcDbEntity
  8
0
100
AcDbLine
 10
0.986
 20
1.504
 30
0.0
 11
0.993
 21
1.533
 31
0.0
  0
LINE
  5
2A5
330
18
100
AcDbEntity
  8
0
100
AcDbLine
 10
0.993
 20
1.533
 30
0.0
 11
0.985
 21
1.552
 31
0.0
  0
LINE
  5
2A6
330
18
100
AcDbEntity
  8
0
100
AcDbLine
 10
0.985
 20
1.552
 30
0.0
 11
0.96
 21
1.543
 31
0.0
  0
LINE
  5
2A7
330
18
100
AcDbEntity
  8
0
100
AcDbLine
 10
0.96
 20
1.543
 30
0.0
 11
0.9590000000000001
 21
1.512
 31
0.0
  0
LINE
  5
2A8
330
18
100
AcDbEntity
  8
0
100
AcDbLine
 10
0.9590000000000001
 20
1.512
 30
0.0
 11
0.9740000000000001
 21
1.498
 31
0.0
  0
LINE
  5
2A9
330
18
100
AcDbEntity
  8
0
100
AcDbLine
 10
0.9740000000000001
 20
1.498
 30
0.0
 11
0.986
 21
1.504
 31
0.0
  0
LINE
  5
2AA
330
18
100
AcDbEntity
  8
0
100
AcDbLine
 10
0.919
 20
1.644
 30
0.0
 11
0.914
 21
1.684
 31
0.0
  0
LINE
  5
2AB
330
18
100
AcDbEntity
  8
0
100
AcDbLine
 10
0.914
 20
1.684
 30
0.0
 11
0.887
 21
1.7
 31
0.0
  0
LINE
  5
2AC
330
18
100
AcDbEntity
  8
0
100
AcDbLine
 10
0.887
 20
1.7
 30
0.0
 11
0.863
 21
1.677
 31
0.0
  0
LINE
  5
2AD
330
18
100
AcDbEntity
  8
0
100
AcDbLine
 10
0.863
 20
1.677
 30
0.0
 11
0.847
 21
1.644
 31
0.0
  0
LINE
  5
2AE
330
18
100
AcDbEntity
  8
0
100
AcDbLine
 10
0.847
 20
1.644
 30
0.0
 11
0.875
 21
1.632
 31
0.0
  0
LINE
  5
2AF
330
18
100
AcDbEntity
  8
0
100
AcDbLine
 10
0.875
 20
1.632
 30
0.0
 11
0.91
 21
1.633
 31
0.0
  0
LINE
  5
2B0
330
18
100
AcDbEntity
  8
0
100
AcDbLine
 10
0.91
 20
1.633
 30
0.0
 11
0.919
 21
1.644
 31
0.0
  0
LINE
  5
2B1
330
18
100
AcDbEntity
  8
0
100
AcDbLine
 10
1.067
 20
1.619
 30
0.0
 11
1.074
 21
1.674
 31
0.0
  0
LINE
  5
2B2
330
18
100
AcDbEntity
  8
0
100
AcDbLine
 10
1.074
 20
1.674
 30
0.0
 11
1.047
 21
1.684
 31
0.0
  0
LINE
  5
2B3
330
18
100
AcDbEntity
  8
0
100
AcDbLine
 10
1.047
 20
1.684
 30
0.0
 11
1.016
 21
1.665
 31
0.0
  0
LINE
  5
2B4
330
18
100
AcDbEntity
  8
0
100
AcDbLine
 10
1.016
 20
1.665
 30
0.0
 11
1.002
 21
1.635
 31
0.0
  0
LINE
  5
2B5
330
18
100
AcDbEntity
  8
0
100
AcDbLine
 10
1.002
 20
1.635
 30
0.0
 11
1.023
 21
1.596
 31
0.0
  0
LINE
  5
2B6
330
18
100
AcDbEntity
  8
0
100
AcDbLine
 10
1.023
 20
1.596
 30
0.0
 11
1.051
 21
1.596
 31
0.0
  0
LINE
  5
2B7
330
18
100
AcDbEntity
  8
0
100
AcDbLine
 10
1.051
 20
1.596
 30
0.0
 11
1.067
 21
1.619
 31
0.0
  0
LINE
  5
2B8
330
18
100
AcDbEntity
  8
0
100
AcDbLine
 10
1.093
 20
1.385
 30
0.0
 11
1.088
 21
1.425
 31
0.0
  0
LINE
  5
2B9
330
18
100
AcDbEntity
  8
0
100
AcDbLine
 10
1.088
 20
1.425
 30
0.0
 11
1.061
 21
1.441
 31
0.0
  0
LINE
  5
2BA
330
18
100
AcDbEntity
  8
0
100
AcDbLine
 10
1.061
 20
1.441
 30
0.0
 11
1.037
 21
1.418
 31
0.0
  0
LINE
  5
2BB
330
18
100
AcDbEntity
  8
0
100
AcDbLine
 10
1.037
 20
1.418
 30
0.0
 11
1.021
 21
1.385
 31
0.0
  0
LINE
  5
2BC
330
18
100
AcDbEntity
  8
0
100
AcDbLine
 10
1.021
 20
1.385
 30
0.0
 11
1.049
 21
1.372
 31
0.0
  0
LINE
  5
2BD
330
18
100
AcDbEntity
  8
0
100
AcDbLine
 10
1.049
 20
1.372
 30
0.0
 11
1.084
 21
1.374
 31
0.0
  0
LINE
  5
2BE
330
18
100
AcDbEntity
  8
0
100
AcDbLine
 10
1.084
 20
1.374
 30
0.0
 11
1.093
 21
1.385
 31
0.0
  0
LINE
  5
2BF
330
18
100
AcDbEntity
  8
0
100
AcDbLine
 10
1.09
 20
1.497
 30
0.0
 11
1.097
 21
1.526
 31
0.0
  0
LINE
  5
2C0
330
18
100
AcDbEntity
  8
0
100
AcDbLine
 10
1.097
 20
1.526
 30
0.0
 11
1.089
 21
1.544
 31
0.0
  0
LINE
  5
2C1
330
18
100
AcDbEntity
  8
0
100
AcDbLine
 10
1.089
 20
1.544
 30
0.0
 11
1.064
 21
1.535
 31
0.0
  0
LINE
  5
2C2
330
18
100
AcDbEntity
  8
0
100
AcDbLine
 10
1.064
 20
1.535
 30
0.0
 11
1.062
 21
1.505
 31
0.0
  0
LINE
  5
2C3
330
18
100
AcDbEntity
  8
0
100
AcDbLine
 10
1.062
 20
1.505
 30
0.0
 11
1.078
 21
1.49
 31
0.0
  0
LINE
  5
2C4
330
18
100
AcDbEntity
  8
0
100
AcDbLine
 10
1.078
 20
1.49
 30
0.0
 11
1.09
 21
1.497
 31
0.0
  0
LINE
  5
2C5
330
18
100
AcDbEntity
  8
0
100
AcDbLine
 10
2.826
 20
1.781
 30
0.0
 11
2.821
 21
1.822
 31
0.0
  0
LINE
  5
2C6
330
18
100
AcDbEntity
  8
0
100
AcDbLine
 10
2.821
 20
1.822
 30
0.0
 11
2.795
 21
1.838
 31
0.0
  0
LINE
  5
2C7
330
18
100
AcDbEntity
  8
0
100
AcDbLine
 10
2.795
 20
1.838
 30
0.0
 11
2.77
 21
1.815
 31
0.0
  0
LINE
  5
2C8
330
18
100
AcDbEntity
  8
0
100
AcDbLine
 10
2.77
 20
1.815
 30
0.0
 11
2.754
 21
1.781
 31
0.0
  0
LINE
  5
2C9
330
18
100
AcDbEntity
  8
0
100
AcDbLine
 10
2.754
 20
1.781
 30
0.0
 11
2.782
 21
1.769
 31
0.0
  0
LINE
  5
2CA
330
18
100
AcDbEntity
  8
0
100
AcDbLine
 10
2.782
 20
1.769
 30
0.0
 11
2.817
 21
1.771
 31
0.0
  0
LINE
  5
2CB
330
18
100
AcDbEntity
  8
0
100
AcDbLine
 10
2.817
 20
1.771
 30
0.0
 11
2.826
 21
1.781
 31
0.0
  0
LINE
  5
2CC
330
18
100
AcDbEntity
  8
0
100
AcDbLine
 10
2.974
 20
1.757
 30
0.0
 11
2.981
 21
1.811
 31
0.0
  0
LINE
  5
2CD
330
18
100
AcDbEntity
  8
0
100
AcDbLine
 10
2.981
 20
1.811
 30
0.0
 11
2.955
 21
1.822
 31
0.0
  0
LINE
  5
2CE
330
18
100
AcDbEntity
  8
0
100
AcDbLine
 10
2.955
 20
1.822
 30
0.0
 11
2.923
 21
1.802
 31
0.0
  0
LINE
  5
2CF
330
18
100
AcDbEntity
  8
0
100
AcDbLine
 10
2.923
 20
1.802
 30
0.0
 11
2.909
 21
1.773
 31
0.0
  0
LINE
  5
2D0
330
18
100
AcDbEntity
  8
0
100
AcDbLine
 10
2.909
 20
1.773
 30
0.0
 11
2.93
 21
1.734
 31
0.0
  0
LINE
  5
2D1
330
18
100
AcDbEntity
  8
0
100
AcDbLine
 10
2.93
 20
1.734
 30
0.0
 11
2.958
 21
1.734
 31
0.0
  0
LINE
  5
2D2
330
18
100
AcDbEntity
  8
0
100
AcDbLine
 10
2.958
 20
1.734
 30
0.0
 11
2.974
 21
1.757
 31
0.0
  0
LINE
  5
2D3
330
18
100
AcDbEntity
  8
0
100
AcDbLine
 10
3.056
 20
1.655
 30
0.0
 11
3.053
 21
1.713
 31
0.0
  0
LINE
  5
2D4
330
18
100
AcDbEntity
  8
0
100
AcDbLine
 10
3.053
 20
1.713
 30
0.0
 11
3.042
 21
1.734
 31
0.0
  0
LINE
  5
2D5
330
18
100
AcDbEntity
  8
0
100
AcDbLine
 10
3.042
 20
1.734
 30
0.0
 11
3.0
 21
1.723
 31
0.0
  0
LINE
  5
2D6
330
18
100
AcDbEntity
  8
0
100
AcDbLine
 10
3.0
 20
1.723
 30
0.0
 11
2.969
 21
1.693
 31
0.0
  0
LINE
  5
2D7
330
18
100
AcDbEntity
  8
0
100
AcDbLine
 10
2.969
 20
1.693
 30
0.0
 11
2.988
 21
1.66
 31
0.0
  0
LINE
  5
2D8
330
18
100
AcDbEntity
  8
0
100
AcDbLine
 10
2.988
 20
1.66
 30
0.0
 11
3.013
 21
1.628
 31
0.0
  0
LINE
  5
2D9
330
18
100
AcDbEntity
  8
0
100
AcDbLine
 10
3.013
 20
1.628
 30
0.0
 11
3.048
 21
1.628
 31
0.0
  0
LINE
  5
2DA
330
18
100
AcDbEntity
  8
0
100
AcDbLine
 10
3.048
 20
1.628
 30
0.0
 11
3.056
 21
1.655
 31
0.0
  0
LINE
  5
2DB
330
18
100
AcDbEntity
  8
0
100
AcDbLine
 10
2.901
 20
1.594
 30
0.0
 11
2.907
 21
1.623
 31
0.0
  0
LINE
  5
2DC
330
18
100
AcDbEntity
  8
0
100
AcDbLine
 10
2.907
 20
1.623
 30
0.0
 11
2.9
 21
1.641
 31
0.0
  0
LINE
  5
2DD
330
18
100
AcDbEntity
  8
0
100
AcDbLine
 10
2.9
 20
1.641
 30
0.0
 11
2.875
 21
1.632
 31
0.0
  0
LINE
  5
2DE
330
18
100
AcDbEntity
  8
0
100
AcDbLine
 10
2.875
 20
1.632
 30
0.0
 11
2.873
 21
1.602
 31
0.0
  0
LINE
  5
2DF
330
18
100
AcDbEntity
  8
0
100
AcDbLine
 10
2.873
 20
1.602
 30
0.0
 11
2.889
 21
1.587
 31
0.0
  0
LINE
  5
2E0
330
18
100
AcDbEntity
  8
0
100
AcDbLine
 10
2.889
 20
1.587
 30
0.0
 11
2.901
 21
1.594
 31
0.0
  0
LINE
  5
2E1
330
18
100
AcDbEntity
  8
0
100
AcDbLine
 10
3.16
 20
0.846
 30
0.0
 11
3.155
 21
0.887
 31
0.0
  0
LINE
  5
2E2
330
18
100
AcDbEntity
  8
0
100
AcDbLine
 10
3.155
 20
0.887
 30
0.0
 11
3.129
 21
0.903
 31
0.0
  0
LINE
  5
2E3
330
18
100
AcDbEntity
  8
0
100
AcDbLine
 10
3.129
 20
0.903
 30
0.0
 11
3.104
 21
0.88
 31
0.0
  0
LINE
  5
2E4
330
18
100
AcDbEntity
  8
0
100
AcDbLine
 10
3.104
 20
0.88
 30
0.0
 11
3.088
 21
0.846
 31
0.0
  0
LINE
  5
2E5
330
18
100
AcDbEntity
  8
0
100
AcDbLine
 10
3.088
 20
0.846
 30
0.0
 11
3.116
 21
0.8340000000000001
 31
0.0
  0
LINE
  5
2E6
330
18
100
AcDbEntity
  8
0
100
AcDbLine
 10
3.116
 20
0.8340000000000001
 30
0.0
 11
3.151
 21
0.836
 31
0.0
  0
LINE
  5
2E7
330
18
100
AcDbEntity
  8
0
100
AcDbLine
 10
3.151
 20
0.836
 30
0.0
 11
3.16
 21
0.846
 31
0.0
  0
LINE
  5
2E8
330
18
100
AcDbEntity
  8
0
100
AcDbLine
 10
3.13
 20
0.993
 30
0.0
 11
3.139
 21
1.031
 31
0.0
  0
LINE
  5
2E9
330
18
100
AcDbEntity
  8
0
100
AcDbLine
 10
3.139
 20
1.031
 30
0.0
 11
3.128
 21
1.056
 31
0.0
  0
LINE
  5
2EA
330
18
100
AcDbEntity
  8
0
100
AcDbLine
 10
3.128
 20
1.056
 30
0.0
 11
3.095
 21
1.044
 31
0.0
  0
LINE
  5
2EB
330
18
100
AcDbEntity
  8
0
100
AcDbLine
 10
3.095
 20
1.044
 30
0.0
 11
3.093
 21
1.003
 31
0.0
  0
LINE
  5
2EC
330
18
100
AcDbEntity
  8
0
100
AcDbLine
 10
3.093
 20
1.003
 30
0.0
 11
3.114
 21
0.9840000000000001
 31
0.0
  0
LINE
  5
2ED
330
18
100
AcDbEntity
  8
0
100
AcDbLine
 10
3.114
 20
0.9840000000000001
 30
0.0
 11
3.13
 21
0.993
 31
0.0
  0
LINE
  5
2EE
330
18
100
AcDbEntity
  8
0
100
AcDbLine
 10
3.034
 20
0.922
 30
0.0
 11
3.041
 21
0.951
 31
0.0
  0
LINE
  5
2EF
330
18
100
AcDbEntity
  8
0
100
AcDbLine
 10
3.041
 20
0.951
 30
0.0
 11
3.033
 21
0.97
 31
0.0
  0
LINE
  5
2F0
330
18
100
AcDbEntity
  8
0
100
AcDbLine
 10
3.033
 20
0.97
 30
0.0
 11
3.008
 21
0.961
 31
0.0
  0
LINE
  5
2F1
330
18
100
AcDbEntity
  8
0
100
AcDbLine
 10
3.008
 20
0.961
 30
0.0
 11
3.007
 21
0.9300000000000001
 31
0.0
  0
LINE
  5
2F2
330
18
100
AcDbEntity
  8
0
100
AcDbLine
 10
3.007
 20
0.9300000000000001
 30
0.0
 11
3.023
 21
0.9159999999999999
 31
0.0
  0
LINE
  5
2F3
330
18
100
AcDbEntity
  8
0
100
AcDbLine
 10
3.023
 20
0.9159999999999999
 30
0.0
 11
3.034
 21
0.922
 31
0.0
  0
ARC
  5
2F4
330
18
100
AcDbEntity
  8
0
100
AcDbCircle
 10
2.54
 20
4.059
 30
0.0
 40
0.041
100
AcDbArc
 50
2.867
 51
22.365
  0
ARC
  5
2F5
330
18
100
AcDbEntity
  8
0
100
AcDbCircle
 10
2.545
 20
4.061
 30
0.0
 40
0.035
100
AcDbArc
 50
22.365
 51
43.39100000000001
  0
ARC
  5
2F6
330
18
100
AcDbEntity
  8
0
100
AcDbCircle
 10
2.548
 20
4.064
 30
0.0
 40
0.031
100
AcDbArc
 50
43.39100000000001
 51
67.01300000000001
  0
ARC
  5
2F7
330
18
100
AcDbEntity
  8
0
100
AcDbCircle
 10
2.55
 20
4.069
 30
0.0
 40
0.026
100
AcDbArc
 50
67.01300000000001
 51
92.86700000000002
  0
ARC
  5
2F8
330
18
100
AcDbEntity
  8
0
100
AcDbCircle
 10
2.55
 20
4.069
 30
0.0
 40
0.026
100
AcDbArc
 50
92.86700000000002
 51
118.721
  0
ARC
  5
2F9
330
18
100
AcDbEntity
  8
0
100
AcDbCircle
 10
2.553
 20
4.065
 30
0.0
 40
0.031
100
AcDbArc
 50
118.721
 51
142.343
  0
ARC
  5
2FA
330
18
100
AcDbEntity
  8
0
100
AcDbCircle
 10
2.556
 20
4.062
 30
0.0
 40
0.035
100
AcDbArc
 50
142.343
 51
163.37
  0
ARC
  5
2FB
330
18
100
AcDbEntity
  8
0
100
AcDbCircle
 10
2.562
 20
4.06
 30
0.0
 40
0.041
100
AcDbArc
 50
163.37
 51
182.8670000000001
  0
ARC
  5
2FC
330
18
100
AcDbEntity
  8
0
100
AcDbCircle
 10
2.562
 20
4.06
 30
0.0
 40
0.041
100
AcDbArc
 50
182.8670000000001
 51
202.365
  0
ARC
  5
2FD
330
18
100
AcDbEntity
  8
0
100
AcDbCircle
 10
2.557
 20
4.058
 30
0.0
 40
0.035
100
AcDbArc
 50
202.365
 51
223.391
  0
ARC
  5
2FE
330
18
100
AcDbEntity
  8
0
100
AcDbCircle
 10
2.553
 20
4.055
 30
0.0
 40
0.031
100
AcDbArc
 50
223.391
 51
247.013
  0
ARC
  5
2FF
330
18
100
AcDbEntity
  8
0
100
AcDbCircle
 10
2.551
 20
4.05
 30
0.0
 40
0.026
100
AcDbArc
 50
247.013
 51
272.867
  0
ARC
  5
300
330
18
100
AcDbEntity
  8
0
100
AcDbCircle
 10
2.551
 20
4.05
 30
0.0
 40
0.026
100
AcDbArc
 50
272.867
 51
298.721
  0
ARC
  5
301
330
18
100
AcDbEntity
  8
0
100
AcDbCircle
 10
2.549
 20
4.055
 30
0.0
 40
0.031
100
AcDbArc
 50
298.721
 51
322.343
  0
ARC
  5
302
330
18
100
AcDbEntity
  8
0
100
AcDbCircle
 10
2.545
 20
4.057
 30
0.0
 40
0.035
100
AcDbArc
 50
322.343
 51
343.37
  0
ARC
  5
303
330
18
100
AcDbEntity
  8
0
100
AcDbCircle
 10
2.54
 20
4.059
 30
0.0
 40
0.041
100
AcDbArc
 50
343.37
 51
2.867
  0
ARC
  5
304
330
18
100
AcDbEntity
  8
0
100
AcDbCircle
 10
2.534
 20
4.067
 30
0.0
 40
0.031
100
AcDbArc
 50
62.619
 51
67.01300000000001
  0
ARC
  5
305
330
18
100
AcDbEntity
  8
0
100
AcDbCircle
 10
2.536
 20
4.072
 30
0.0
 40
0.026
100
AcDbArc
 50
67.01300000000001
 51
92.86700000000002
  0
ARC
  5
306
330
18
100
AcDbEntity
  8
0
100
AcDbCircle
 10
2.536
 20
4.072
 30
0.0
 40
0.026
100
AcDbArc
 50
92.86700000000002
 51
118.721
  0
ARC
  5
307
330
18
100
AcDbEntity
  8
0
100
AcDbCircle
 10
2.538
 20
4.068000000000001
 30
0.0
 40
0.031
100
AcDbArc
 50
118.721
 51
142.343
  0
ARC
  5
308
330
18
100
AcDbEntity
  8
0
100
AcDbCircle
 10
2.542
 20
4.065
 30
0.0
 40
0.035
100
AcDbArc
 50
142.343
 51
163.37
  0
ARC
  5
309
330
18
100
AcDbEntity
  8
0
100
AcDbCircle
 10
2.547
 20
4.063
 30
0.0
 40
0.041
100
AcDbArc
 50
163.37
 51
182.8670000000001
  0
ARC
  5
30A
330
18
100
AcDbEntity
  8
0
100
AcDbCircle
 10
2.547
 20
4.063
 30
0.0
 40
0.041
100
AcDbArc
 50
182.8670000000001
 51
202.365
  0
ARC
  5
30B
330
18
100
AcDbEntity
  8
0
100
AcDbCircle
 10
2.542
 20
4.061
 30
0.0
 40
0.035
100
AcDbArc
 50
202.365
 51
223.391
  0
ARC
  5
30C
330
18
100
AcDbEntity
  8
0
100
AcDbCircle
 10
2.539
 20
4.058
 30
0.0
 40
0.031
100
AcDbArc
 50
223.391
 51
247.013
  0
ARC
  5
30D
330
18
100
AcDbEntity
  8
0
100
AcDbCircle
 10
2.537
 20
4.053
 30
0.0
 40
0.026
100
AcDbArc
 50
247.013
 51
272.867
  0
ARC
  5
30E
330
18
100
AcDbEntity
  8
0
100
AcDbCircle
 10
2.537
 20
4.053
 30
0.0
 40
0.026
100
AcDbArc
 50
272.867
 51
275.476
  0
ARC
  5
30F
330
18
100
AcDbEntity
  8
0
100
AcDbCircle
 10
2.531
 20
4.542
 30
0.0
 40
0.041
100
AcDbArc
 50
2.867
 51
22.365
  0
ARC
  5
310
330
18
100
AcDbEntity
  8
0
100
AcDbCircle
 10
2.536
 20
4.544
 30
0.0
 40
0.035
100
AcDbArc
 50
22.365
 51
43.39100000000001
  0
ARC
  5
311
330
18
100
AcDbEntity
  8
0
100
AcDbCircle
 10
2.54
 20
4.547
 30
0.0
 40
0.031
100
AcDbArc
 50
43.39100000000001
 51
67.01300000000001
  0
ARC
  5
312
330
18
100
AcDbEntity
  8
0
100
AcDbCircle
 10
2.542
 20
4.552
 30
0.0
 40
0.026
100
AcDbArc
 50
67.01300000000001
 51
92.86700000000002
  0
ARC
  5
313
330
18
100
AcDbEntity
  8
0
100
AcDbCircle
 10
2.542
 20
4.552
 30
0.0
 40
0.026
100
AcDbArc
 50
92.86700000000002
 51
118.721
  0
ARC
  5
314
330
18
100
AcDbEntity
  8
0
100
AcDbCircle
 10
2.544
 20
4.547
 30
0.0
 40
0.031
100
AcDbArc
 50
118.721
 51
142.343
  0
ARC
  5
315
330
18
100
AcDbEntity
  8
0
100
AcDbCircle
 10
2.548
 20
4.544
 30
0.0
 40
0.035
100
AcDbArc
 50
142.343
 51
163.37
  0
ARC
  5
316
330
18
100
AcDbEntity
  8
0
100
AcDbCircle
 10
2.553
 20
4.543
 30
0.0
 40
0.041
100
AcDbArc
 50
163.37
 51
182.8670000000001
  0
ARC
  5
317
330
18
100
AcDbEntity
  8
0
100
AcDbCircle
 10
2.553
 20
4.543
 30
0.0
 40
0.041
100
AcDbArc
 50
182.8670000000001
 51
202.365
  0
ARC
  5
318
330
18
100
AcDbEntity
  8
0
100
AcDbCircle
 10
2.548
 20
4.541
 30
0.0
 40
0.035
100
AcDbArc
 50
202.365
 51
223.391
  0
ARC
  5
319
330
18
100
AcDbEntity
  8
0
100
AcDbCircle
 10
2.544
 20
4.538
 30
0.0
 40
0.031
100
AcDbArc
 50
223.391
 51
247.013
  0
ARC
  5
31A
330
18
100
AcDbEntity
  8
0
100
AcDbCircle
 10
2.543
 20
4.533
 30
0.0
 40
0.026
100
AcDbArc
 50
247.013
 51
272.867
  0
ARC
  5
31B
330
18
100
AcDbEntity
  8
0
100
AcDbCircle
 10
2.543
 20
4.533
 30
0.0
 40
0.026
100
AcDbArc
 50
272.867
 51
298.721
  0
ARC
  5
31C
330
18
100
AcDbEntity
  8
0
100
AcDbCircle
 10
2.54
 20
4.537
 30
0.0
 40
0.031
100
AcDbArc
 50
298.721
 51
322.343
  0
ARC
  5
31D
330
18
100
AcDbEntity
  8
0
100
AcDbCircle
 10
2.537
 20
4.54
 30
0.0
 40
0.035
100
AcDbArc
 50
322.343
 51
343.37
  0
ARC
  5
31E
330
18
100
AcDbEntity
  8
0
100
AcDbCircle
 10
2.531
 20
4.542
 30
0.0
 40
0.041
100
AcDbArc
 50
343.37
 51
2.867
  0
ARC
  5
31F
330
18
100
AcDbEntity
  8
0
100
AcDbCircle
 10
2.525
 20
4.55
 30
0.0
 40
0.031
100
AcDbArc
 50
62.619
 51
67.01300000000001
  0
ARC
  5
320
330
18
100
AcDbEntity
  8
0
100
AcDbCircle
 10
2.527
 20
4.555
 30
0.0
 40
0.026
100
AcDbArc
 50
67.01300000000001
 51
92.86700000000002
  0
ARC
  5
321
330
18
100
AcDbEntity
  8
0
100
AcDbCircle
 10
2.527
 20
4.555
 30
0.0
 40
0.026
100
AcDbArc
 50
92.86700000000002
 51
118.721
  0
ARC
  5
322
330
18
100
AcDbEntity
  8
0
100
AcDbCircle
 10
2.529
 20
4.55
 30
0.0
 40
0.031
100
AcDbArc
 50
118.721
 51
142.343
  0
ARC
  5
323
330
18
100
AcDbEntity
  8
0
100
AcDbCircle
 10
2.533
 20
4.547
 30
0.0
 40
0.035
100
AcDbArc
 50
142.343
 51
163.37
  0
ARC
  5
324
330
18
100
AcDbEntity
  8
0
100
AcDbCircle
 10
2.538
 20
4.546
 30
0.0
 40
0.041
100
AcDbArc
 50
163.37
 51
182.8670000000001
  0
ARC
  5
325
330
18
100
AcDbEntity
  8
0
100
AcDbCircle
 10
2.538
 20
4.546
 30
0.0
 40
0.041
100
AcDbArc
 50
182.8670000000001
 51
202.365
  0
ARC
  5
326
330
18
100
AcDbEntity
  8
0
100
AcDbCircle
 10
2.533
 20
4.544
 30
0.0
 40
0.035
100
AcDbArc
 50
202.365
 51
223.391
  0
ARC
  5
327
330
18
100
AcDbEntity
  8
0
100
AcDbCircle
 10
2.53
 20
4.54
 30
0.0
 40
0.031
100
AcDbArc
 50
223.391
 51
247.013
  0
ARC
  5
328
330
18
100
AcDbEntity
  8
0
100
AcDbCircle
 10
2.528
 20
4.536000000000001
 30
0.0
 40
0.026
100
AcDbArc
 50
247.013
 51
272.867
  0
ARC
  5
329
330
18
100
AcDbEntity
  8
0
100
AcDbCircle
 10
2.528
 20
4.536000000000001
 30
0.0
 40
0.026
100
AcDbArc
 50
272.867
 51
275.476
  0
ARC
  5
32A
330
18
100
AcDbEntity
  8
0
100
AcDbCircle
 10
2.205
 20
4.371
 30
0.0
 40
0.041
100
AcDbArc
 50
2.867
 51
22.365
  0
ARC
  5
32B
330
18
100
AcDbEntity
  8
0
100
AcDbCircle
 10
2.21
 20
4.373
 30
0.0
 40
0.035
100
AcDbArc
 50
22.365
 51
43.39100000000001
  0
ARC
  5
32C
330
18
100
AcDbEntity
  8
0
100
AcDbCircle
 10
2.213
 20
4.376
 30
0.0
 40
0.031
100
AcDbArc
 50
43.39100000000001
 51
67.01300000000001
  0
ARC
  5
32D
330
18
100
AcDbEntity
  8
0
100
AcDbCircle
 10
2.215
 20
4.381
 30
0.0
 40
0.026
100
AcDbArc
 50
67.01300000000001
 51
92.86700000000002
  0
ARC
  5
32E
330
18
100
AcDbEntity
  8
0
100
AcDbCircle
 10
2.215
 20
4.381
 30
0.0
 40
0.026
100
AcDbArc
 50
92.86700000000002
 51
118.721
  0
ARC
  5
32F
330
18
100
AcDbEntity
  8
0
100
AcDbCircle
 10
2.218
 20
4.377
 30
0.0
 40
0.031
100
AcDbArc
 50
118.721
 51
142.343
  0
ARC
  5
330
330
18
100
AcDbEntity
  8
0
100
AcDbCircle
 10
2.221
 20
4.374
 30
0.0
 40
0.035
100
AcDbArc
 50
142.343
 51
163.37
  0
ARC
  5
331
330
18
100
AcDbEntity
  8
0
100
AcDbCircle
 10
2.227
 20
4.372
 30
0.0
 40
0.041
100
AcDbArc
 50
163.37
 51
182.8670000000001
  0
ARC
  5
332
330
18
100
AcDbEntity
  8
0
100
AcDbCircle
 10
2.227
 20
4.372
 30
0.0
 40
0.041
100
AcDbArc
 50
182.8670000000001
 51
202.365
  0
ARC
  5
333
330
18
100
AcDbEntity
  8
0
100
AcDbCircle
 10
2.221
 20
4.37
 30
0.0
 40
0.035
100
AcDbArc
 50
202.365
 51
223.391
  0
ARC
  5
334
330
18
100
AcDbEntity
  8
0
100
AcDbCircle
 10
2.218
 20
4.367
 30
0.0
 40
0.031
100
AcDbArc
 50
223.391
 51
247.013
  0
ARC
  5
335
330
18
100
AcDbEntity
  8
0
100
AcDbCircle
 10
2.216
 20
4.362
 30
0.0
 40
0.026
100
AcDbArc
 50
247.013
 51
272.867
  0
ARC
  5
336
330
18
100
AcDbEntity
  8
0
100
AcDbCircle
 10
2.216
 20
4.362
 30
0.0
 40
0.026
100
AcDbArc
 50
272.867
 51
298.721
  0
ARC
  5
337
330
18
100
AcDbEntity
  8
0
100
AcDbCircle
 10
2.214
 20
4.367
 30
0.0
 40
0.031
100
AcDbArc
 50
298.721
 51
322.343
  0
ARC
  5
338
330
18
100
AcDbEntity
  8
0
100
AcDbCircle
 10
2.21
 20
4.369
 30
0.0
 40
0.035
100
AcDbArc
 50
322.343
 51
343.37
  0
ARC
  5
339
330
18
100
AcDbEntity
  8
0
100
AcDbCircle
 10
2.205
 20
4.371
 30
0.0
 40
0.041
100
AcDbArc
 50
343.37
 51
2.867
  0
ARC
  5
33A
330
18
100
AcDbEntity
  8
0
100
AcDbCircle
 10
2.198
 20
4.379
 30
0.0
 40
0.031
100
AcDbArc
 50
62.619
 51
67.01300000000001
  0
ARC
  5
33B
330
18
100
AcDbEntity
  8
0
100
AcDbCircle
 10
2.2
 20
4.384
 30
0.0
 40
0.026
100
AcDbArc
 50
67.01300000000001
 51
92.86700000000002
  0
ARC
  5
33C
330
18
100
AcDbEntity
  8
0
100
AcDbCircle
 10
2.2
 20
4.384
 30
0.0
 40
0.026
100
AcDbArc
 50
92.86700000000002
 51
118.721
  0
ARC
  5
33D
330
18
100
AcDbEntity
  8
0
100
AcDbCircle
 10
2.203
 20
4.379
 30
0.0
 40
0.031
100
AcDbArc
 50
118.721
 51
142.343
  0
ARC
  5
33E
330
18
100
AcDbEntity
  8
0
100
AcDbCircle
 10
2.206
 20
4.377
 30
0.0
 40
0.035
100
AcDbArc
 50
142.343
 51
163.37
  0
ARC
  5
33F
330
18
100
AcDbEntity
  8
0
100
AcDbCircle
 10
2.212
 20
4.375
 30
0.0
 40
0.041
100
AcDbArc
 50
163.37
 51
182.8670000000001
  0
ARC
  5
340
330
18
100
AcDbEntity
  8
0
100
AcDbCircle
 10
2.212
 20
4.375
 30
0.0
 40
0.041
100
AcDbArc
 50
182.8670000000001
 51
202.365
  0
ARC
  5
341
330
18
100
AcDbEntity
  8
0
100
AcDbCircle
 10
2.207
 20
4.373
 30
0.0
 40
0.035
100
AcDbArc
 50
202.365
 51
223.391
  0
ARC
  5
342
330
18
100
AcDbEntity
  8
0
100
AcDbCircle
 10
2.203
 20
4.37
 30
0.0
 40
0.031
100
AcDbArc
 50
223.391
 51
247.013
  0
ARC
  5
343
330
18
100
AcDbEntity
  8
0
100
AcDbCircle
 10
2.201
 20
4.365
 30
0.0
 40
0.026
100
AcDbArc
 50
247.013
 51
272.867
  0
ARC
  5
344
330
18
100
AcDbEntity
  8
0
100
AcDbCircle
 10
2.201
 20
4.365
 30
0.0
 40
0.026
100
AcDbArc
 50
272.867
 51
275.476
  0
ARC
  5
345
330
18
100
AcDbEntity
  8
0
100
AcDbCircle
 10
2.24
 20
3.941
 30
0.0
 40
0.031
100
AcDbArc
 50
62.619
 51
67.01300000000001
  0
ARC
  5
346
330
18
100
AcDbEntity
  8
0
100
AcDbCircle
 10
2.242
 20
3.945
 30
0.0
 40
0.026
100
AcDbArc
 50
67.01300000000001
 51
92.86700000000002
  0
ARC
  5
347
330
18
100
AcDbEntity
  8
0
100
AcDbCircle
 10
2.242
 20
3.945
 30
0.0
 40
0.026
100
AcDbArc
 50
92.86700000000002
 51
118.721
  0
ARC
  5
348
330
18
100
AcDbEntity
  8
0
100
AcDbCircle
 10
2.244
 20
3.941
 30
0.0
 40
0.031
100
AcDbArc
 50
118.721
 51
142.343
  0
ARC
  5
349
330
18
100
AcDbEntity
  8
0
100
AcDbCircle
 10
2.248
 20
3.938
 30
0.0
 40
0.035
100
AcDbArc
 50
142.343
 51
163.37
  0
ARC
  5
34A
330
18
100
AcDbEntity
  8
0
100
AcDbCircle
 10
2.253
 20
3.937
 30
0.0
 40
0.041
100
AcDbArc
 50
163.37
 51
182.8670000000001
  0
ARC
  5
34B
330
18
100
AcDbEntity
  8
0
100
AcDbCircle
 10
2.253
 20
3.937
 30
0.0
 40
0.041
100
AcDbArc
 50
182.8670000000001
 51
202.365
  0
ARC
  5
34C
330
18
100
AcDbEntity
  8
0
100
AcDbCircle
 10
2.248
 20
3.934
 30
0.0
 40
0.035
100
AcDbArc
 50
202.365
 51
223.391
  0
ARC
  5
34D
330
18
100
AcDbEntity
  8
0
100
AcDbCircle
 10
2.244
 20
3.931
 30
0.0
 40
0.031
100
AcDbArc
 50
223.391
 51
247.013
  0
ARC
  5
34E
330
18
100
AcDbEntity
  8
0
100
AcDbCircle
 10
2.243
 20
3.927
 30
0.0
 40
0.026
100
AcDbArc
 50
247.013
 51
272.867
  0
ARC
  5
34F
330
18
100
AcDbEntity
  8
0
100
AcDbCircle
 10
2.243
 20
3.927
 30
0.0
 40
0.026
100
AcDbArc
 50
272.867
 51
275.476
  0
ARC
  5
350
330
18
100
AcDbEntity
  8
0
100
AcDbCircle
 10
2.246
 20
3.933
 30
0.0
 40
0.041
100
AcDbArc
 50
2.867
 51
22.365
  0
ARC
  5
351
330
18
100
AcDbEntity
  8
0
100
AcDbCircle
 10
2.251
 20
3.935
 30
0.0
 40
0.035
100
AcDbArc
 50
22.365
 51
43.39100000000001
  0
ARC
  5
352
330
18
100
AcDbEntity
  8
0
100
AcDbCircle
 10
2.254
 20
3.938
 30
0.0
 40
0.031
100
AcDbArc
 50
43.39100000000001
 51
67.01300000000001
  0
ARC
  5
353
330
18
100
AcDbEntity
  8
0
100
AcDbCircle
 10
2.256
 20
3.942
 30
0.0
 40
0.026
100
AcDbArc
 50
67.01300000000001
 51
92.86700000000002
  0
ARC
  5
354
330
18
100
AcDbEntity
  8
0
100
AcDbCircle
 10
2.256
 20
3.942
 30
0.0
 40
0.026
100
AcDbArc
 50
92.86700000000002
 51
118.721
  0
ARC
  5
355
330
18
100
AcDbEntity
  8
0
100
AcDbCircle
 10
2.259
 20
3.938
 30
0.0
 40
0.031
100
AcDbArc
 50
118.721
 51
142.343
  0
ARC
  5
356
330
18
100
AcDbEntity
  8
0
100
AcDbCircle
 10
2.262
 20
3.935
 30
0.0
 40
0.035
100
AcDbArc
 50
142.343
 51
163.37
  0
ARC
  5
357
330
18
100
AcDbEntity
  8
0
100
AcDbCircle
 10
2.268
 20
3.934
 30
0.0
 40
0.041
100
AcDbArc
 50
163.37
 51
182.8670000000001
  0
ARC
  5
358
330
18
100
AcDbEntity
  8
0
100
AcDbCircle
 10
2.268
 20
3.934
 30
0.0
 40
0.041
100
AcDbArc
 50
182.8670000000001
 51
202.365
  0
ARC
  5
359
330
18
100
AcDbEntity
  8
0
100
AcDbCircle
 10
2.262
 20
3.932
 30
0.0
 40
0.035
100
AcDbArc
 50
202.365
 51
223.391
  0
ARC
  5
35A
330
18
100
AcDbEntity
  8
0
100
AcDbCircle
 10
2.259
 20
3.928
 30
0.0
 40
0.031
100
AcDbArc
 50
223.391
 51
247.013
  0
ARC
  5
35B
330
18
100
AcDbEntity
  8
0
100
AcDbCircle
 10
2.257
 20
3.924
 30
0.0
 40
0.026
100
AcDbArc
 50
247.013
 51
272.867
  0
ARC
  5
35C
330
18
100
AcDbEntity
  8
0
100
AcDbCircle
 10
2.257
 20
3.924
 30
0.0
 40
0.026
100
AcDbArc
 50
272.867
 51
298.721
  0
ARC
  5
35D
330
18
100
AcDbEntity
  8
0
100
AcDbCircle
 10
2.255
 20
3.928
 30
0.0
 40
0.031
100
AcDbArc
 50
298.721
 51
322.343
  0
ARC
  5
35E
330
18
100
AcDbEntity
  8
0
100
AcDbCircle
 10
2.251
 20
3.931
 30
0.0
 40
0.035
100
AcDbArc
 50
322.343
 51
343.37
  0
ARC
  5
35F
330
18
100
AcDbEntity
  8
0
100
AcDbCircle
 10
2.246
 20
3.933
 30
0.0
 40
0.041
100
AcDbArc
 50
343.37
 51
2.867
  0
TEXT
  5
360
330
18
100
AcDbEntity
  8
0
100
AcDbText
 10
1.839
 20
0.461
 30
0.0
 40
0.125
  1
Simpson Strong-Tie
100
AcDbText
  0
ENDSEC
  0
SECTION
  2
OBJECTS
  0
DICTIONARY
  5
C
330
0
100
AcDbDictionary
281
     1
  3
ACAD_COLOR
350
366
  3
ACAD_GROUP
350
D
  3
ACAD_LAYOUT
350
15
  3
ACAD_MATERIAL
350
368
  3
ACAD_MLINESTYLE
350
12
  3
ACAD_PLOTSETTINGS
350
14
  3
ACAD_PLOTSTYLENAME
350
E
  3
ACDBHEADERROUNDTRIPXREC
350
365
  0
DICTIONARY
  5
366
102
{ACAD_REACTORS
330
C
102
}
330
C
100
AcDbDictionary
281
     1
  0
DICTIONARY
  5
D
102
{ACAD_REACTORS
330
C
102
}
330
C
100
AcDbDictionary
281
     1
  0
DICTIONARY
  5
15
102
{ACAD_REACTORS
330
C
102
}
330
C
100
AcDbDictionary
281
     1
  3
Layout1
350
17
  3
Model
350
19
  0
DICTIONARY
  5
368
102
{ACAD_REACTORS
330
C
102
}
330
C
100
AcDbDictionary
281
     1
  0
DICTIONARY
  5
12
102
{ACAD_REACTORS
330
C
102
}
330
C
100
AcDbDictionary
281
     1
  3
Standard
350
13
  0
DICTIONARY
  5
14
102
{ACAD_REACTORS
330
C
102
}
330
C
100
AcDbDictionary
281
     1
  0
ACDBDICTIONARYWDFLT
  5
E
102
{ACAD_REACTORS
330
C
102
}
330
C
100
AcDbDictionary
281
     1
  3
Normal
350
F
100
AcDbDictionaryWithDefault
340
F
  0
DICTIONARY
  5
365
102
{ACAD_REACTORS
330
C
102
}
330
C
100
AcDbDictionary
281
     1
  3
COLORDICT
350
367
  3
MATERIALDICT
350
369
  0
LAYOUT
  5
17
102
{ACAD_REACTORS
330
15
102
}
102
{ACAD_XDICTIONARY
360
36A
102
}
330
15
100
AcDbPlotSettings
  1

  2

  4

  6

 40
0.0
 41
0.0
 42
0.0
 43
0.0
 44
0.0
 45
0.0
 46
0.0
 47
0.0
 48
0.0
 49
0.0
140
0.0
141
0.0
142
1.0
143
1.0
 70
   688
 72
     0
 73
     0
 74
     5
  7

 75
    16
147
1.0
148
0.0
149
0.0
100
AcDbLayout
  1
Layout1
 70
     1
 71
     1
 10
0.0
 20
0.0
 11
12.0
 21
9.0
 12
0.0
 22
0.0
 32
0.0
 14
1.000000000000000E+20
 24
1.000000000000000E+20
 34
1.000000000000000E+20
 15
-1.000000000000000E+20
 25
-1.000000000000000E+20
 35
-1.000000000000000E+20
146
0.0
 13
0.0
 23
0.0
 33
0.0
 16
1.0
 26
0.0
 36
0.0
 17
0.0
 27
1.0
 37
0.0
 76
     0
330
16
  0
LAYOUT
  5
19
102
{ACAD_REACTORS
330
15
102
}
102
{ACAD_XDICTIONARY
360
36C
102
}
330
15
100
AcDbPlotSettings
  1

  2

  4

  6

 40
0.0
 41
0.0
 42
0.0
 43
0.0
 44
0.0
 45
0.0
 46
0.0
 47
0.0
 48
0.0
 49
0.0
140
0.0
141
0.0
142
1.0
143
1.0
 70
  1712
 72
     0
 73
     0
 74
     0
  7

 75
     0
147
1.0
148
0.0
149
0.0
100
AcDbLayout
  1
Model
 70
     1
 71
     0
 10
0.0
 20
0.0
 11
0.0
 21
0.0
 12
0.0
 22
0.0
 32
0.0
 14
0.0
 24
0.0
 34
0.0
 15
0.0
 25
0.0
 35
0.0
146
0.0
 13
0.0
 23
0.0
 33
0.0
 16
1.0
 26
0.0
 36
0.0
 17
0.0
 27
1.0
 37
0.0
 76
     0
330
18
  0
MLINESTYLE
  5
13
102
{ACAD_REACTORS
330
12
102
}
330
12
100
AcDbMlineStyle
  2
Standard
 70
     0
  3

 62
   256
 51
90.0
 52
90.0
 71
     2
 49
0.5
 62
   256
  6
BYLAYER
 49
-0.5
 62
   256
  6
BYLAYER
  0
ACDBPLACEHOLDER
  5
F
102
{ACAD_REACTORS
330
E
102
}
330
E
  0
XRECORD
  5
367
102
{ACAD_REACTORS
330
365
102
}
330
365
100
AcDbXrecord
340
366
  0
XRECORD
  5
369
102
{ACAD_REACTORS
330
365
102
}
330
365
100
AcDbXrecord
340
368
  0
DICTIONARY
  5
36A
330
17
100
AcDbDictionary
280
     1
281
     1
  3
ACAD_XREC_ROUNDTRIP
360
36B
  0
DICTIONARY
  5
36C
330
19
100
AcDbDictionary
280
     1
281
     1
  3
ACAD_XREC_ROUNDTRIP
360
36D
  0
XRECORD
  5
36B
102
{ACAD_REACTORS
330
36A
102
}
330
36A
100
AcDbXrecord
102
SHADEPLOT
 70
     0
102
SHADEPLOTRESLEVEL
 70
     0
102
SHADEPLOTCUSTOMDPI
 70
     0
  0
XRECORD
  5
36D
102
{ACAD_REACTORS
330
36C
102
}
330
36C
100
AcDbXrecord
102
SHADEPLOT
 70
-25416
102
SHADEPLOTRESLEVEL
 70
 -2880
102
SHADEPLOTCUSTOMDPI
 70
 20968
  0
ENDSEC
  0
EOF
