  0
SECTION
  2
HEADER
  9
$ACADVER
  1
AC1015
  9
$ACADMAINTVER
 70
     6
  9
$DWGCODEPAGE
  3
ANSI_1252
  9
$INSBASE
 10
0.0
 20
0.0
 30
0.0
  9
$EXTMIN
 10
7.829492783010143
 20
-3.460641040307834
 30
-0.0015258207003612
  9
$EXTMAX
 10
137.0914555562212
 20
96.3884277579583
 30
0.0000000349246008
  9
$LIMMIN
 10
15.51636555989583
 20
11.85819091796875
  9
$LIMMAX
 10
119.2361328125
 20
96.38584798177082
  9
$ORTHOMODE
 70
     0
  9
$REGENMODE
 70
     1
  9
$FILLMODE
 70
     1
  9
$QTEXTMODE
 70
     0
  9
$MIRRTEXT
 70
     1
  9
$LTSCALE
 40
1.0
  9
$ATTMODE
 70
     1
  9
$TEXTSIZE
 40
0.2
  9
$TRACEWID
 40
0.05
  9
$TEXTSTYLE
  7
STANDARD
  9
$CLAYER
  8
0
  9
$CELTYPE
  6
CONTINUOUS
  9
$CECOLOR
 62
   256
  9
$CELTSCALE
 40
1.0
  9
$DISPSILH
 70
     0
  9
$DIMSCALE
 40
1.0
  9
$DIMASZ
 40
0.18
  9
$DIMEXO
 40
0.0625
  9
$DIMDLI
 40
0.38
  9
$DIMRND
 40
0.0
  9
$DIMDLE
 40
0.0
  9
$DIMEXE
 40
0.18
  9
$DIMTP
 40
0.0
  9
$DIMTM
 40
0.0
  9
$DIMTXT
 40
0.18
  9
$DIMCEN
 40
0.09
  9
$DIMTSZ
 40
0.0
  9
$DIMTOL
 70
     0
  9
$DIMLIM
 70
     0
  9
$DIMTIH
 70
     1
  9
$DIMTOH
 70
     1
  9
$DIMSE1
 70
     0
  9
$DIMSE2
 70
     0
  9
$DIMTAD
 70
     0
  9
$DIMZIN
 70
     0
  9
$DIMBLK
  1

  9
$DIMASO
 70
     1
  9
$DIMSHO
 70
     1
  9
$DIMPOST
  1

  9
$DIMAPOST
  1

  9
$DIMALT
 70
     0
  9
$DIMALTD
 70
     2
  9
$DIMALTF
 40
25.4
  9
$DIMLFAC
 40
1.0
  9
$DIMTOFL
 70
     0
  9
$DIMTVP
 40
0.0
  9
$DIMTIX
 70
     0
  9
$DIMSOXD
 70
     0
  9
$DIMSAH
 70
     0
  9
$DIMBLK1
  1

  9
$DIMBLK2
  1

  9
$DIMSTYLE
  2
STANDARD
  9
$DIMCLRD
 70
     0
  9
$DIMCLRE
 70
     0
  9
$DIMCLRT
 70
     0
  9
$DIMTFAC
 40
1.0
  9
$DIMGAP
 40
0.09
  9
$DIMJUST
 70
     0
  9
$DIMSD1
 70
     0
  9
$DIMSD2
 70
     0
  9
$DIMTOLJ
 70
     1
  9
$DIMTZIN
 70
     0
  9
$DIMALTZ
 70
     0
  9
$DIMALTTZ
 70
     0
  9
$DIMUPT
 70
     0
  9
$DIMDEC
 70
     4
  9
$DIMTDEC
 70
     4
  9
$DIMALTU
 70
     2
  9
$DIMALTTD
 70
     2
  9
$DIMTXSTY
  7
STANDARD
  9
$DIMAUNIT
 70
     0
  9
$DIMADEC
 70
     0
  9
$DIMALTRND
 40
0.0
  9
$DIMAZIN
 70
     0
  9
$DIMDSEP
 70
    46
  9
$DIMATFIT
 70
     3
  9
$DIMFRAC
 70
     0
  9
$DIMLDRBLK
  1

  9
$DIMLUNIT
 70
     2
  9
$DIMLWD
 70
    -2
  9
$DIMLWE
 70
    -2
  9
$DIMTMOVE
 70
     0
  9
$LUNITS
 70
     2
  9
$LUPREC
 70
     4
  9
$SKETCHINC
 40
0.1
  9
$FILLETRAD
 40
0.0
  9
$AUNITS
 70
     0
  9
$AUPREC
 70
     0
  9
$MENU
  1
acad
  9
$ELEVATION
 40
0.0
  9
$PELEVATION
 40
0.0
  9
$THICKNESS
 40
0.0
  9
$LIMCHECK
 70
     0
  9
$CHAMFERA
 40
0.0
  9
$CHAMFERB
 40
0.0
  9
$CHAMFERC
 40
0.0
  9
$CHAMFERD
 40
0.0
  9
$SKPOLY
 70
     0
  9
$TDCREATE
 40
2444971.666666667
  9
$TDUCREATE
 40
2444972.0
  9
$TDUPDATE
 40
2452215.422486343
  9
$TDUUPDATE
 40
2452215.755819676
  9
$TDINDWG
 40
0.0008677083
  9
$TDUSRTIMER
 40
0.0008677083
  9
$USRTIMER
 70
     1
  9
$ANGBASE
 50
0.0
  9
$ANGDIR
 70
     0
  9
$PDMODE
 70
     0
  9
$PDSIZE
 40
0.0
  9
$PLINEWID
 40
0.0
  9
$SPLFRAME
 70
     0
  9
$SPLINETYPE
 70
     6
  9
$SPLINESEGS
 70
     8
  9
$HANDSEED
  5
EB
  9
$SURFTAB1
 70
     6
  9
$SURFTAB2
 70
     6
  9
$SURFTYPE
 70
     6
  9
$SURFU
 70
     6
  9
$SURFV
 70
     6
  9
$UCSBASE
  2

  9
$UCSNAME
  2

  9
$UCSORG
 10
0.0
 20
0.0
 30
0.0
  9
$UCSXDIR
 10
1.0
 20
0.0
 30
0.0
  9
$UCSYDIR
 10
0.0
 20
1.0
 30
0.0
  9
$UCSORTHOREF
  2

  9
$UCSORTHOVIEW
 70
     0
  9
$UCSORGTOP
 10
0.0
 20
0.0
 30
0.0
  9
$UCSORGBOTTOM
 10
0.0
 20
0.0
 30
0.0
  9
$UCSORGLEFT
 10
0.0
 20
0.0
 30
0.0
  9
$UCSORGRIGHT
 10
0.0
 20
0.0
 30
0.0
  9
$UCSORGFRONT
 10
0.0
 20
0.0
 30
0.0
  9
$UCSORGBACK
 10
0.0
 20
0.0
 30
0.0
  9
$PUCSBASE
  2

  9
$PUCSNAME
  2

  9
$PUCSORG
 10
0.0
 20
0.0
 30
0.0
  9
$PUCSXDIR
 10
1.0
 20
0.0
 30
0.0
  9
$PUCSYDIR
 10
0.0
 20
1.0
 30
0.0
  9
$PUCSORTHOREF
  2

  9
$PUCSORTHOVIEW
 70
     0
  9
$PUCSORGTOP
 10
0.0
 20
0.0
 30
0.0
  9
$PUCSORGBOTTOM
 10
0.0
 20
0.0
 30
0.0
  9
$PUCSORGLEFT
 10
0.0
 20
0.0
 30
0.0
  9
$PUCSORGRIGHT
 10
0.0
 20
0.0
 30
0.0
  9
$PUCSORGFRONT
 10
0.0
 20
0.0
 30
0.0
  9
$PUCSORGBACK
 10
0.0
 20
0.0
 30
0.0
  9
$USERI1
 70
     0
  9
$USERI2
 70
     0
  9
$USERI3
 70
     0
  9
$USERI4
 70
     0
  9
$USERI5
 70
     0
  9
$USERR1
 40
0.0
  9
$USERR2
 40
0.0
  9
$USERR3
 40
0.0
  9
$USERR4
 40
0.0
  9
$USERR5
 40
0.0
  9
$WORLDVIEW
 70
     1
  9
$SHADEDGE
 70
     3
  9
$SHADEDIF
 70
    70
  9
$TILEMODE
 70
     1
  9
$MAXACTVP
 70
    16
  9
$PINSBASE
 10
0.0
 20
0.0
 30
0.0
  9
$PLIMCHECK
 70
     0
  9
$PEXTMIN
 10
1.000000000000000E+20
 20
1.000000000000000E+20
 30
1.000000000000000E+20
  9
$PEXTMAX
 10
-1.000000000000000E+20
 20
-1.000000000000000E+20
 30
-1.000000000000000E+20
  9
$PLIMMIN
 10
0.0
 20
0.0
  9
$PLIMMAX
 10
12.0
 20
9.0
  9
$UNITMODE
 70
     0
  9
$VISRETAIN
 70
     0
  9
$PLINEGEN
 70
     1
  9
$PSLTSCALE
 70
     0
  9
$TREEDEPTH
 70
  3020
  9
$CMLSTYLE
  2
STANDARD
  9
$CMLJUST
 70
     0
  9
$CMLSCALE
 40
1.0
  9
$PROXYGRAPHICS
 70
     0
  9
$MEASUREMENT
 70
     0
  9
$CELWEIGHT
370
    -1
  9
$ENDCAPS
280
     0
  9
$JOINSTYLE
280
     0
  9
$LWDISPLAY
290
     0
  9
$INSUNITS
 70
     0
  9
$HYPERLINKBASE
  1

  9
$STYLESHEET
  1

  9
$XEDIT
290
     1
  9
$CEPSNTYPE
380
     0
  9
$PSTYLEMODE
290
     1
  9
$FINGERPRINTGUID
  2
{87DE94E5-CEA3-11D5-923F-00805F198AD5}
  9
$VERSIONGUID
  2
{87DE94E7-CEA3-11D5-923F-00805F198AD5}
  9
$EXTNAMES
290
     1
  9
$PSVPSCALE
 40
0.0
  9
$OLESTARTUP
290
     0
  0
ENDSEC
  0
SECTION
  2
CLASSES
  0
CLASS
  1
LWPOLYLINE
  2
AcDbPolyline
  3
AutoCAD 2000
 90
        0
280
     0
281
     1
  0
CLASS
  1
IMAGE
  2
AcDbRasterImage
  3
ISM
 90
      127
280
     0
281
     1
  0
CLASS
  1
OLE2FRAME
  2
AcDbOle2Frame
  3
AutoCAD 2000
 90
        0
280
     0
281
     1
  0
CLASS
  1
HATCH
  2
AcDbHatch
  3
AutoCAD 2000
 90
        0
280
     0
281
     1
  0
CLASS
  1
DICTIONARYVAR
  2
AcDbDictionaryVar
  3
AutoCAD 2000
 90
        0
280
     0
281
     0
  0
CLASS
  1
RASTERVARIABLES
  2
AcDbRasterVariables
  3
ISM
 90
        0
280
     0
281
     0
  0
CLASS
  1
IMAGEDEF
  2
AcDbRasterImageDef
  3
ISM
 90
        0
280
     0
281
     0
  0
CLASS
  1
IMAGEDEF_REACTOR
  2
AcDbRasterImageDefReactor
  3
ISM
 90
        1
280
     0
281
     0
  0
CLASS
  1
IDBUFFER
  2
AcDbIdBuffer
  3
AutoCAD 2000
 90
        0
280
     0
281
     0
  0
CLASS
  1
SPATIAL_FILTER
  2
AcDbSpatialFilter
  3
AutoCAD 2000
 90
        0
280
     0
281
     0
  0
CLASS
  1
XRECORD
  2
AcDbXrecord
  3
AutoCAD 2000
 90
        0
280
     0
281
     0
  0
CLASS
  1
SORTENTSTABLE
  2
AcDbSortentsTable
  3
AutoCAD 2000
 90
        0
280
     0
281
     0
  0
CLASS
  1
LAYER_INDEX
  2
AcDbLayerIndex
  3
AutoCAD 2000
 90
        0
280
     0
281
     0
  0
CLASS
  1
SPATIAL_INDEX
  2
AcDbSpatialIndex
  3
AutoCAD 2000
 90
        0
280
     0
281
     0
  0
CLASS
  1
OBJECT_PTR
  2
CAseDLPNTableRecord
  3
ASE-LPNTableRecord
 90
        1
280
     1
281
     0
  0
CLASS
  1
LAYOUT
  2
AcDbLayout
  3
ObjectDBX Classes
 90
        0
280
     0
281
     0
  0
CLASS
  1
PLOTSETTINGS
  2
AcDbPlotSettings
  3
AutoCAD 2000
 90
        0
280
     0
281
     0
  0
CLASS
  1
ACDBDICTIONARYWDFLT
  2
AcDbDictionaryWithDefault
  3
AutoCAD 2000
 90
        0
280
     0
281
     0
  0
CLASS
  1
ACDBPLACEHOLDER
  2
AcDbPlaceHolder
  3
ObjectDBX Classes
 90
        0
280
     0
281
     0
  0
CLASS
  1
VBAPROJECT
  2
AcDbVbaProject
  3
ObjectDBX Classes
 90
        0
280
     0
281
     0
  0
CLASS
  1
WIPEOUT
  2
AcDbWipeout
  3
WipeOut|AutoCAD Express Tool|expresstools@autodesk.com
 90
      127
280
     0
281
     1
  0
CLASS
  1
WIPEOUTVARIABLES
  2
AcDbWipeoutVariables
  3
WipeOut|AutoCAD Express Tool|expresstools@autodesk.com
 90
        0
280
     0
281
     0
  0
CLASS
  1
RTEXT
  2
RText
  3
RText|AutoCAD Express Tool|expresstools@autodesk.com
 90
        0
280
     0
281
     1
  0
CLASS
  1
ARCALIGNEDTEXT
  2
AcDbArcAlignedText
  3
ATEXT|AutoCAD Express Tool|expresstools@autodesk.com
 90
        0
280
     0
281
     1
  0
CLASS
  1
LONG_TRANSACTION
  2
AcDbLongTransaction
  3
AutoCAD 2000
 90
        0
280
     1
281
     0
  0
CLASS
  1
LWPOLYLINE
  2
AcDbPolyline
  3
AutoCAD 2000
 90
        0
280
     0
281
     1
  0
CLASS
  1
HATCH
  2
AcDbHatch
  3
AutoCAD 2000
 90
        0
280
     0
281
     1
  0
CLASS
  1
XRECORD
  2
AcDbXrecord
  3
AutoCAD 2000
 90
        0
280
     0
281
     0
  0
ENDSEC
  0
SECTION
  2
TABLES
  0
TABLE
  2
VPORT
  5
7
330
0
100
AcDbSymbolTable
 70
     2
  0
VPORT
  5
B7
330
7
100
AcDbSymbolTableRecord
100
AcDbViewportTableRecord
  2
*Active
 70
     0
 10
0.0
 20
0.0
 11
1.0
 21
1.0
 12
72.46047416961567
 22
46.46389335882523
 13
0.0
 23
0.0
 14
1.0
 24
1.0
 15
0.0
 25
0.0
 16
0.0
 26
0.0
 36
1.0
 17
0.0
 27
0.0
 37
0.0
 40
101.4214950785538
 41
1.836842105263158
 42
50.0
 43
0.0
 44
0.0
 50
0.0
 51
0.0
 71
     0
 72
   100
 73
     1
 74
     1
 75
     0
 76
     0
 77
     0
 78
     0
281
     0
 65
     1
110
0.0
120
0.0
130
0.0
111
1.0
121
0.0
131
0.0
112
0.0
122
1.0
132
0.0
 79
     0
146
0.0
  0
ENDTAB
  0
TABLE
  2
LTYPE
  5
4
330
0
100
AcDbSymbolTable
 70
     1
  0
LTYPE
  5
11
330
4
100
AcDbSymbolTableRecord
100
AcDbLinetypeTableRecord
  2
BYBLOCK
 70
     0
  3

 72
    65
 73
     0
 40
0.0
  0
LTYPE
  5
12
330
4
100
AcDbSymbolTableRecord
100
AcDbLinetypeTableRecord
  2
BYLAYER
 70
     0
  3

 72
    65
 73
     0
 40
0.0
  0
LTYPE
  5
13
330
4
100
AcDbSymbolTableRecord
100
AcDbLinetypeTableRecord
  2
CONTINUOUS
 70
     0
  3
Solid line
 72
    65
 73
     0
 40
0.0
  0
ENDTAB
  0
TABLE
  2
LAYER
  5
2
330
0
100
AcDbSymbolTable
 70
     2
  0
LAYER
  5
14
330
2
100
AcDbSymbolTableRecord
100
AcDbLayerTableRecord
  2
0
 70
     0
 62
     7
  6
CONTINUOUS
370
    -3
390
0
  0
LAYER
  5
21
330
2
100
AcDbSymbolTableRecord
100
AcDbLayerTableRecord
  2
LAYER_1
 70
     0
 62
     5
  6
CONTINUOUS
370
    -3
390
0
  0
ENDTAB
  0
TABLE
  2
STYLE
  5
3
330
0
100
AcDbSymbolTable
 70
     5
  0
STYLE
  5
17
330
3
100
AcDbSymbolTableRecord
100
AcDbTextStyleTableRecord
  2
STANDARD
 70
     0
 40
0.0
 41
1.0
 50
0.0
 71
     0
 42
0.2
  3
txt
  4

  0
STYLE
  5
1D
330
3
100
AcDbSymbolTableRecord
100
AcDbTextStyleTableRecord
  2
STD
 70
     0
 40
0.0
 41
1.0
 50
0.0
 71
     0
 42
0.2
  3
txt
  4

  0
STYLE
  5
1E
330
3
100
AcDbSymbolTableRecord
100
AcDbTextStyleTableRecord
  2
TATESTD
 70
     4
 40
0.0
 41
1.0
 50
0.0
 71
     0
 42
0.2
  3
txt
  4

  0
STYLE
  5
1F
330
3
100
AcDbSymbolTableRecord
100
AcDbTextStyleTableRecord
  2
KANJISTD
 70
     0
 40
0.0
 41
1.0
 50
0.0
 71
     0
 42
0.2
  3
txt
  4
extfont
  0
STYLE
  5
20
330
3
100
AcDbSymbolTableRecord
100
AcDbTextStyleTableRecord
  2
KANJITATE
 70
     4
 40
0.0
 41
1.0
 50
0.0
 71
     0
 42
0.2
  3
txt
  4
extfont
  0
ENDTAB
  0
TABLE
  2
VIEW
  5
5
330
0
100
AcDbSymbolTable
 70
     0
  0
ENDTAB
  0
TABLE
  2
UCS
  5
6
330
0
100
AcDbSymbolTable
 70
     0
  0
ENDTAB
  0
TABLE
  2
APPID
  5
8
330
0
100
AcDbSymbolTable
 70
     1
  0
APPID
  5
16
330
8
100
AcDbSymbolTableRecord
100
AcDbRegAppTableRecord
  2
ACAD
 70
     0
  0
ENDTAB
  0
TABLE
  2
DIMSTYLE
  5
9
330
0
100
AcDbSymbolTable
 70
     1
100
AcDbDimStyleTable
  0
DIMSTYLE
105
18
330
9
100
AcDbSymbolTableRecord
100
AcDbDimStyleTableRecord
  2
STANDARD
 70
     0
  3

  4

289
     0
340
17
  0
ENDTAB
  0
TABLE
  2
BLOCK_RECORD
  5
1
330
0
100
AcDbSymbolTable
 70
     0
  0
BLOCK_RECORD
  5
A
330
1
100
AcDbSymbolTableRecord
100
AcDbBlockTableRecord
  2
*MODEL_SPACE
340
B2
  0
BLOCK_RECORD
  5
B
330
1
100
AcDbSymbolTableRecord
100
AcDbBlockTableRecord
  2
*PAPER_SPACE
340
B3
  0
ENDTAB
  0
ENDSEC
  0
SECTION
  2
BLOCKS
  0
BLOCK
  5
D
330
A
100
AcDbEntity
  8
0
100
AcDbBlockBegin
  2
*MODEL_SPACE
 70
     0
 10
0.0
 20
0.0
 30
0.0
  3
*MODEL_SPACE
  1

  4

  0
ENDBLK
  5
E
330
A
100
AcDbEntity
  8
0
100
AcDbBlockEnd
  0
BLOCK
  5
F
330
B
100
AcDbEntity
 67
     1
  8
0
100
AcDbBlockBegin
  2
*PAPER_SPACE
 70
     0
 10
0.0
 20
0.0
 30
0.0
  3
*PAPER_SPACE
  1

  4

  0
ENDBLK
  5
10
330
B
100
AcDbEntity
 67
     1
  8
0
100
AcDbBlockEnd
  0
ENDSEC
  0
SECTION
  2
ENTITIES
  0
SPLINE
  5
AC
330
A
100
AcDbEntity
  8
LAYER_1
 62
     7
100
AcDbSpline
210
0.0
220
0.0
230
1.0
 70
     8
 71
     3
 72
    41
 73
    37
 74
     0
 42
0.0000000001
 43
0.0000000001
 40
0.0
 40
0.0
 40
0.0
 40
0.0
 40
1.0
 40
1.0
 40
1.0
 40
2.0
 40
2.0
 40
2.0
 40
3.0
 40
3.0
 40
3.0
 40
4.0
 40
4.0
 40
4.0
 40
5.0
 40
5.0
 40
5.0
 40
6.0
 40
6.0
 40
6.0
 40
7.0
 40
7.0
 40
7.0
 40
8.0
 40
8.0
 40
8.0
 40
9.0
 40
9.0
 40
9.0
 40
10.0
 40
10.0
 40
10.0
 40
11.0
 40
11.0
 40
11.0
 40
12.0
 40
12.0
 40
12.0
 40
12.0
 10
72.95523681640624
 20
60.98645833333332
 30
0.0
 10
72.95523681640624
 20
60.98645833333332
 30
0.0
 10
73.24996473524305
 20
61.01918674045138
 30
0.0
 10
73.24996473524305
 20
61.01918674045138
 30
0.0
 10
73.24996473524305
 20
61.01918674045138
 30
0.0
 10
107.3474527994792
 20
76.12041829427082
 30
0.0
 10
107.3474527994792
 20
76.12041829427082
 30
0.0
 10
107.3474527994792
 20
76.12041829427082
 30
0.0
 10
117.5022162543403
 20
70.8239284939236
 30
0.0
 10
117.5022162543403
 20
70.8239284939236
 30
0.0
 10
117.5022162543403
 20
70.8239284939236
 30
0.0
 10
117.7206353081597
 20
59.31248643663194
 30
0.0
 10
117.7206353081597
 20
59.31248643663194
 30
0.0
 10
117.7206353081597
 20
59.31248643663194
 30
0.0
 10
119.0780029296875
 20
55.46086968315971
 30
0.0
 10
119.0780029296875
 20
55.46086968315971
 30
0.0
 10
119.0780029296875
 20
55.46086968315971
 30
0.0
 10
116.7580756293403
 20
53.84098578559027
 30
0.0
 10
116.7580756293403
 20
53.84098578559027
 30
0.0
 10
116.7580756293403
 20
53.84098578559027
 30
0.0
 10
117.7206353081597
 20
51.25854220920139
 30
0.0
 10
117.7206353081597
 20
51.25854220920139
 30
0.0
 10
117.7206353081597
 20
51.25854220920139
 30
0.0
 10
117.5456244574653
 20
39.04705674913194
 30
0.0
 10
117.5456244574653
 20
39.04705674913194
 30
0.0
 10
117.5456244574653
 20
39.04705674913194
 30
0.0
 10
40.81645779079861
 20
11.99685601128472
 30
0.0
 10
40.81645779079861
 20
11.99685601128472
 30
0.0
 10
40.81645779079861
 20
11.99685601128472
 30
0.0
 10
31.79995388454861
 20
14.49179416232639
 30
0.0
 10
31.05581325954861
 20
14.75431043836806
 30
0.0
 10
30.31167263454861
 20
15.01682671440972
 30
0.0
 10
29.65503743489583
 20
15.27934299045139
 30
0.0
 10
29.65503743489583
 20
15.89256998697917
 30
0.0
 10
29.65503743489583
 20
16.17368977864583
 30
0.0
 10
29.65503743489583
 20
18.42471516927083
 30
0.0
 10
29.65503743489583
 20
20.78047146267361
 30
0.0
  0
SPLINE
  5
AB
330
A
100
AcDbEntity
  8
LAYER_1
 62
     7
100
AcDbSpline
210
0.0
220
0.0
230
1.0
 70
     8
 71
     3
 72
    20
 73
    16
 74
     0
 42
0.0000000001
 43
0.0000000001
 40
0.0
 40
0.0
 40
0.0
 40
0.0
 40
1.0
 40
1.0
 40
1.0
 40
2.0
 40
2.0
 40
2.0
 40
3.0
 40
3.0
 40
3.0
 40
4.0
 40
4.0
 40
4.0
 40
5.0
 40
5.0
 40
5.0
 40
5.0
 10
29.65503743489583
 20
22.26186252170139
 30
0.0
 10
29.65503743489583
 20
24.50944281684028
 30
0.0
 10
29.65503743489583
 20
26.48486056857639
 30
0.0
 10
29.65503743489583
 20
26.48486056857639
 30
0.0
 10
29.65503743489583
 20
26.48486056857639
 30
0.0
 10
31.14331868489583
 20
28.54227159288194
 30
0.0
 10
31.14331868489583
 20
28.54227159288194
 30
0.0
 10
31.14331868489583
 20
28.54227159288194
 30
0.0
 10
28.56087510850694
 20
30.29306911892361
 30
0.0
 10
28.56087510850694
 20
30.29306911892361
 30
0.0
 10
28.56087510850694
 20
30.29306911892361
 30
0.0
 10
29.74254286024305
 20
31.99976942274305
 30
0.0
 10
29.74254286024305
 20
31.99976942274305
 30
0.0
 10
29.74254286024305
 20
31.99976942274305
 30
0.0
 10
29.63522813585069
 20
38.74698893229166
 30
0.0
 10
29.63522813585069
 20
38.74698893229166
 30
0.0
  0
HATCH
  5
AA
330
A
100
AcDbEntity
  8
LAYER_1
 62
     7
100
AcDbHatch
 10
0.0
 20
0.0
 30
0.0
210
0.0
220
0.0
230
1.0
  2
SOLID
 70
     1
 71
     0
 91
        1
 92
        3
 72
     0
 73
     1
 93
       10
 10
70.44910210503471
 20
69.20473361545139
 10
73.07495388454861
 20
64.03984646267361
 10
75.39488118489582
 20
71.13054199218749
 10
73.61583387586805
 20
70.45668131510416
 10
73.61583387586805
 20
90.78618977864582
 10
75.19782172309027
 20
91.40148383246527
 10
72.68083496093749
 20
96.38584798177082
 10
70.44910210503471
 20
89.51357150607637
 10
72.20265570746527
 20
90.23635253906249
 10
72.22539333767361
 20
69.90477701822915
 97
        0
 75
     0
 76
     1
 98
        1
 10
0.0
 20
0.0
  0
LWPOLYLINE
  5
9C
330
A
100
AcDbEntity
  8
LAYER_1
 62
     7
100
AcDbPolyline
 90
       12
 70
     0
 43
0.0
 10
72.90976155598958
 20
35.45795627170138
 10
72.89994303385416
 20
30.92765570746527
 10
62.70177137586805
 20
27.20695258246527
 10
16.93987901475694
 20
43.11778157552083
 10
16.8082763671875
 20
55.8108913845486
 10
18.3399658203125
 20
59.11542697482638
 10
15.6486572265625
 20
61.23829481336805
 10
16.8082763671875
 20
64.84944390190972
 10
16.78622775607639
 20
75.57333713107639
 10
26.48141547309028
 20
80.73753526475694
 10
72.96539984809027
 20
60.88827311197916
 10
72.95868191189236
 20
57.82420518663194
  0
LWPOLYLINE
  5
93
330
A
100
AcDbEntity
  8
LAYER_1
 62
     7
100
AcDbPolyline
 90
        7
 70
     0
 43
0.0
 10
26.48141547309028
 20
80.67207845052083
 10
26.41595865885417
 20
69.66430935329861
 10
25.01518283420139
 20
66.20612250434027
 10
27.90423990885417
 20
63.84278700086805
 10
26.39391004774305
 20
60.05662706163194
 10
26.37186143663194
 20
47.69149034288194
 10
16.98328721788194
 20
43.16118977864583
  0
LINE
  5
92
330
A
100
AcDbEntity
  8
LAYER_1
 62
     7
100
AcDbLine
 10
16.91783040364583
 20
64.91490071614582
 30
0.0
 11
26.28504503038194
 21
69.64226074218749
 31
0.0
  0
LINE
  5
91
330
A
100
AcDbEntity
  8
LAYER_1
 62
     7
100
AcDbLine
 10
15.82366807725694
 20
61.58831651475694
 30
0.0
 11
24.94972601996528
 21
66.18407389322915
 31
0.0
  0
LINE
  5
90
330
A
100
AcDbEntity
  8
LAYER_1
 62
     7
100
AcDbLine
 10
18.38406304253472
 20
59.13747558593749
 30
0.0
 11
27.81673448350694
 21
63.79868977864583
 31
0.0
  0
LINE
  5
8F
330
A
100
AcDbEntity
  8
LAYER_1
 62
     7
100
AcDbLine
 10
16.87373318142361
 20
55.85429958767361
 30
0.0
 11
26.32845323350694
 21
60.12208387586805
 31
0.0
  0
SPLINE
  5
8E
330
A
100
AcDbEntity
  8
LAYER_1
 62
     7
100
AcDbSpline
210
0.0
220
0.0
230
1.0
 70
     8
 71
     3
 72
    14
 73
    10
 74
     0
 42
0.0000000001
 43
0.0000000001
 40
0.0
 40
0.0
 40
0.0
 40
0.0
 40
1.0
 40
1.0
 40
1.0
 40
2.0
 40
2.0
 40
2.0
 40
3.0
 40
3.0
 40
3.0
 40
3.0
 10
18.01199273003472
 20
43.73031955295139
 30
0.0
 10
17.96858452690972
 20
44.29944932725694
 30
0.0
 10
17.98994411892361
 20
44.32149793836805
 30
0.0
 10
17.79288465711806
 20
44.58401421440972
 30
0.0
 10
17.59651421440972
 20
44.84653049045139
 30
0.0
 10
17.53036838107639
 20
45.04358995225694
 30
0.0
 10
17.48696017795139
 20
45.37156304253472
 30
0.0
 10
17.44286295572917
 20
45.6995361328125
 30
0.0
 10
17.26785210503472
 20
46.31276312934028
 30
0.0
 10
16.93987901475694
 20
46.48777398003472
 30
0.0
  0
SPLINE
  5
8D
330
A
100
AcDbEntity
  8
LAYER_1
 62
     7
100
AcDbSpline
210
0.0
220
0.0
230
1.0
 70
     8
 71
     3
 72
    17
 73
    13
 74
     0
 42
0.0000000001
 43
0.0000000001
 40
0.0
 40
0.0
 40
0.0
 40
0.0
 40
1.0
 40
1.0
 40
1.0
 40
2.0
 40
2.0
 40
2.0
 40
3.0
 40
3.0
 40
3.0
 40
4.0
 40
4.0
 40
4.0
 40
4.0
 10
19.17230088975694
 20
44.27740071614583
 30
0.0
 10
19.10615505642361
 20
44.93403591579861
 30
0.0
 10
18.93114420572917
 20
45.67817654079861
 30
0.0
 10
18.64657931857639
 20
46.37821994357638
 30
0.0
 10
18.36201443142361
 20
47.07895236545139
 30
0.0
 10
18.51566569010416
 20
47.14440917968749
 30
0.0
 10
18.25246039496528
 20
47.91059841579861
 30
0.0
 10
17.98994411892361
 20
48.6760986328125
 30
0.0
 10
17.5524169921875
 20
49.28863661024305
 30
0.0
 10
17.5524169921875
 20
49.77094997829861
 30
0.0
 10
17.5524169921875
 20
50.25188530815971
 30
0.0
 10
17.1803466796875
 20
51.6526611328125
 30
0.0
 10
16.87373318142361
 20
51.76221516927083
 30
0.0
  0
SPLINE
  5
8C
330
A
100
AcDbEntity
  8
LAYER_1
 62
     7
100
AcDbSpline
210
0.0
220
0.0
230
1.0
 70
     8
 71
     3
 72
    38
 73
    34
 74
     0
 42
0.0000000001
 43
0.0000000001
 40
0.0
 40
0.0
 40
0.0
 40
0.0
 40
1.0
 40
1.0
 40
1.0
 40
2.0
 40
2.0
 40
2.0
 40
3.0
 40
3.0
 40
3.0
 40
4.0
 40
4.0
 40
4.0
 40
5.0
 40
5.0
 40
5.0
 40
6.0
 40
6.0
 40
6.0
 40
7.0
 40
7.0
 40
7.0
 40
8.0
 40
8.0
 40
8.0
 40
9.0
 40
9.0
 40
9.0
 40
10.0
 40
10.0
 40
10.0
 40
11.0
 40
11.0
 40
11.0
 40
11.0
 10
20.92309841579861
 20
45.13109537760416
 30
0.0
 10
20.81354437934028
 20
45.59067111545139
 30
0.0
 10
20.48488226996528
 20
46.18116048177083
 30
0.0
 10
20.5289794921875
 20
46.53187120225694
 30
0.0
 10
20.5723876953125
 20
46.88189290364583
 30
0.0
 10
20.35396864149305
 20
47.1878173828125
 30
0.0
 10
20.26646321614583
 20
47.69149034288194
 30
0.0
 10
20.17895779079861
 20
48.19447428385416
 30
0.0
 10
19.87234429253472
 20
48.98271213107638
 30
0.0
 10
19.74074164496528
 20
49.39819064670139
 30
0.0
 10
19.60982801649305
 20
49.81435818142361
 30
0.0
 10
18.79954155815972
 20
52.94388292100694
 30
0.0
 10
18.62453070746528
 20
53.44755588107638
 30
0.0
 10
18.44951985677083
 20
53.9505398220486
 30
0.0
 10
17.85903049045139
 20
55.96385362413194
 30
0.0
 10
17.81493326822917
 20
56.20501030815971
 30
0.0
 10
17.81493326822917
 20
56.20501030815971
 30
0.0
 10
17.83698187934028
 20
56.53298339843749
 30
0.0
 10
17.90243869357639
 20
56.68594563802083
 30
0.0
 10
17.96858452690972
 20
56.83959689670139
 30
0.0
 10
18.40611165364583
 20
57.58373752170139
 30
0.0
 10
18.53702528211806
 20
57.82420518663194
 30
0.0
 10
18.6686279296875
 20
58.06467285156249
 30
0.0
 10
19.45755479600694
 20
59.22360297309027
 30
0.0
 10
19.52232259114583
 20
59.57500271267361
 30
0.0
 10
19.52783474392361
 20
59.60531955295139
 30
0.0
 10
19.4127685546875
 20
59.70591634114583
 30
0.0
 10
19.17230088975694
 20
59.85956759982638
 30
0.0
 10
18.93114420572917
 20
60.01252983940972
 30
0.0
 10
18.6686279296875
 20
60.20958930121527
 30
0.0
 10
18.23110080295139
 20
60.34119194878472
 30
0.0
 10
17.79288465711806
 20
60.47210557725694
 30
0.0
 10
16.56780870225694
 20
60.66916503906249
 30
0.0
 10
16.37074924045139
 20
60.71326226128472
 30
0.0
  0
SPLINE
  5
8B
330
A
100
AcDbEntity
  8
LAYER_1
 62
     7
100
AcDbSpline
210
0.0
220
0.0
230
1.0
 70
     8
 71
     3
 72
    38
 73
    34
 74
     0
 42
0.0000000001
 43
0.0000000001
 40
0.0
 40
0.0
 40
0.0
 40
0.0
 40
1.0
 40
1.0
 40
1.0
 40
2.0
 40
2.0
 40
2.0
 40
3.0
 40
3.0
 40
3.0
 40
4.0
 40
4.0
 40
4.0
 40
5.0
 40
5.0
 40
5.0
 40
6.0
 40
6.0
 40
6.0
 40
7.0
 40
7.0
 40
7.0
 40
8.0
 40
8.0
 40
8.0
 40
9.0
 40
9.0
 40
9.0
 40
10.0
 40
10.0
 40
10.0
 40
11.0
 40
11.0
 40
11.0
 40
11.0
 10
22.56434190538194
 20
45.91864420572917
 30
0.0
 10
22.41069064670139
 20
46.61937662760416
 30
0.0
 10
22.0606689453125
 20
47.69149034288194
 30
0.0
 10
21.86360948350694
 20
48.39153374565971
 30
0.0
 10
21.66655002170139
 20
49.09226616753472
 30
0.0
 10
21.22902289496528
 20
50.71146104600694
 30
0.0
 10
21.11946885850694
 20
51.17103678385416
 30
0.0
 10
21.00991482204861
 20
51.63061252170139
 30
0.0
 10
20.44147406684028
 20
53.97258843315971
 30
0.0
 10
20.33192003038194
 20
54.27851291232638
 30
0.0
 10
20.22236599392361
 20
54.58512641059027
 30
0.0
 10
20.01703830295139
 20
56.27046712239583
 30
0.0
 10
19.67528483072917
 20
56.90505371093749
 30
0.0
 10
19.66426052517361
 20
56.92434624565972
 30
0.0
 10
19.76279025607639
 20
57.25507541232638
 30
0.0
 10
19.91575249565972
 20
57.47418348524305
 30
0.0
 10
20.06940375434028
 20
57.69260253906249
 30
0.0
 10
20.22236599392361
 20
58.34923773871527
 30
0.0
 10
20.5289794921875
 20
58.65585123697916
 30
0.0
 10
20.83559299045139
 20
58.96246473524305
 30
0.0
 10
21.40403374565972
 20
60.31914333767361
 30
0.0
 10
21.40403374565972
 20
60.47210557725694
 30
0.0
 10
21.40403374565972
 20
60.62575683593749
 30
0.0
 10
21.2731201171875
 20
60.69121365017361
 30
0.0
 10
20.9010498046875
 20
60.84417588975694
 30
0.0
 10
20.5289794921875
 20
60.99782714843749
 30
0.0
 10
20.1569091796875
 20
61.21624620225694
 30
0.0
 10
19.87234429253472
 20
61.21624620225694
 30
0.0
 10
19.58777940538194
 20
61.21624620225694
 30
0.0
 10
17.98994411892361
 20
61.80742458767361
 30
0.0
 10
17.70537923177083
 20
61.89493001302083
 30
0.0
 10
17.42081434461806
 20
61.98243543836805
 30
0.0
 10
16.72077094184028
 20
62.22290310329861
 30
0.0
 10
16.72077094184028
 20
62.22290310329861
 30
0.0
  0
SPLINE
  5
8A
330
A
100
AcDbEntity
  8
LAYER_1
 62
     7
100
AcDbSpline
210
0.0
220
0.0
230
1.0
 70
     8
 71
     3
 72
    65
 73
    61
 74
     0
 42
0.0000000001
 43
0.0000000001
 40
0.0
 40
0.0
 40
0.0
 40
0.0
 40
1.0
 40
1.0
 40
1.0
 40
2.0
 40
2.0
 40
2.0
 40
3.0
 40
3.0
 40
3.0
 40
4.0
 40
4.0
 40
4.0
 40
5.0
 40
5.0
 40
5.0
 40
6.0
 40
6.0
 40
6.0
 40
7.0
 40
7.0
 40
7.0
 40
8.0
 40
8.0
 40
8.0
 40
9.0
 40
9.0
 40
9.0
 40
10.0
 40
10.0
 40
10.0
 40
11.0
 40
11.0
 40
11.0
 40
12.0
 40
12.0
 40
12.0
 40
13.0
 40
13.0
 40
13.0
 40
14.0
 40
14.0
 40
14.0
 40
15.0
 40
15.0
 40
15.0
 40
16.0
 40
16.0
 40
16.0
 40
17.0
 40
17.0
 40
17.0
 40
18.0
 40
18.0
 40
18.0
 40
19.0
 40
19.0
 40
19.0
 40
20.0
 40
20.0
 40
20.0
 40
20.0
 10
24.49015028211806
 20
46.85984429253472
 30
0.0
 10
24.35854763454861
 20
47.53852810329861
 30
0.0
 10
24.14012858072917
 20
48.21652289496527
 30
0.0
 10
24.07398274739583
 20
48.7415554470486
 30
0.0
 10
24.00852593315972
 20
49.26727701822917
 30
0.0
 10
23.78941786024305
 20
50.47099338107638
 30
0.0
 10
23.57099880642361
 20
50.9739773220486
 30
0.0
 10
23.35189073350694
 20
51.47765028211805
 30
0.0
 10
23.08937445746528
 20
52.70341525607638
 30
0.0
 10
22.95846082899305
 20
52.96593153211805
 30
0.0
 10
22.82685818142361
 20
53.22844780815971
 30
0.0
 10
22.49819607204861
 20
54.71672905815971
 30
0.0
 10
22.36728244357639
 20
55.04470214843749
 30
0.0
 10
22.23567979600694
 20
55.3733642578125
 30
0.0
 10
21.47017957899305
 20
57.91171061197916
 30
0.0
 10
21.47017957899305
 20
57.91171061197916
 30
0.0
 10
21.47017957899305
 20
57.91171061197916
 30
0.0
 10
21.90770670572917
 20
58.39333496093749
 30
0.0
 10
22.08271755642361
 20
58.69925944010416
 30
0.0
 10
22.25772840711806
 20
59.00587293836805
 30
0.0
 10
22.71730414496528
 20
59.85956759982638
 30
0.0
 10
23.00186903211806
 20
60.25368652343749
 30
0.0
 10
23.28643391927083
 20
60.64711642795138
 30
0.0
 10
23.48349338107639
 20
61.34784884982638
 30
0.0
 10
23.57099880642361
 20
61.50081108940972
 30
0.0
 10
23.41803656684028
 20
61.54490831163194
 30
0.0
 10
23.1768798828125
 20
61.63241373697916
 30
0.0
 10
22.84890679253472
 20
61.80742458767361
 30
0.0
 10
22.52024468315972
 20
61.98243543836805
 30
0.0
 10
21.57904459635417
 20
62.24495171440972
 30
0.0
 10
21.38267415364583
 20
62.31040852864583
 30
0.0
 10
21.18561469184028
 20
62.37655436197916
 30
0.0
 10
18.99660101996528
 20
63.16410319010416
 30
0.0
 10
18.71272515190972
 20
63.16410319010416
 30
0.0
 10
18.60317111545139
 20
63.16410319010416
 30
0.0
 10
18.20905219184028
 20
63.29570583767361
 30
0.0
 10
18.20905219184028
 20
63.29570583767361
 30
0.0
 10
18.20905219184028
 20
63.29570583767361
 30
0.0
 10
18.42816026475694
 20
64.08325466579861
 30
0.0
 10
18.51566569010416
 20
64.34577094184027
 30
0.0
 10
18.60317111545139
 20
64.60828721788194
 30
0.0
 10
19.07652723524305
 20
65.7479248046875
 30
0.0
 10
19.36867133246528
 20
66.09656846788194
 30
0.0
 10
19.4251708984375
 20
66.16684841579861
 30
0.0
 10
19.30321451822917
 20
66.64364963107639
 30
0.0
 10
19.30321451822917
 20
66.64364963107639
 30
0.0
 10
19.30321451822917
 20
66.64364963107639
 30
0.0
 10
18.95319281684028
 20
67.86941460503472
 30
0.0
 10
18.95319281684028
 20
68.19807671440972
 30
0.0
 10
18.95319281684028
 20
68.52604980468749
 30
0.0
 10
18.73408474392361
 20
69.29223904079861
 30
0.0
 10
18.6686279296875
 20
69.66430935329861
 30
0.0
 10
18.60317111545139
 20
70.03637966579861
 30
0.0
 10
18.42816026475694
 20
70.64891764322915
 30
0.0
 10
18.2965576171875
 20
71.08644476996527
 30
0.0
 10
18.16495496961806
 20
71.52397189670138
 30
0.0
 10
17.74947645399305
 20
72.81519368489583
 30
0.0
 10
17.74947645399305
 20
73.20931260850693
 30
0.0
 10
17.74947645399305
 20
73.60343153211805
 30
0.0
 10
16.87373318142361
 20
75.55128851996527
 30
0.0
 10
16.87373318142361
 20
75.55128851996527
 30
0.0
  0
SPLINE
  5
89
330
A
100
AcDbEntity
  8
LAYER_1
 62
     7
100
AcDbSpline
210
0.0
220
0.0
230
1.0
 70
     8
 71
     3
 72
    14
 73
    10
 74
     0
 42
0.0000000001
 43
0.0000000001
 40
0.0
 40
0.0
 40
0.0
 40
0.0
 40
1.0
 40
1.0
 40
1.0
 40
2.0
 40
2.0
 40
2.0
 40
3.0
 40
3.0
 40
3.0
 40
3.0
 10
16.83032497829861
 20
68.67901204427082
 30
0.0
 10
17.00533582899305
 20
67.95692003038194
 30
0.0
 10
16.98328721788194
 20
67.80395779079861
 30
0.0
 10
17.24580349392361
 20
67.34438205295139
 30
0.0
 10
17.5090087890625
 20
66.88480631510416
 30
0.0
 10
17.5524169921875
 20
66.20612250434027
 30
0.0
 10
17.59651421440972
 20
65.98770345052083
 30
0.0
 10
17.63992241753472
 20
65.76859537760416
 30
0.0
 10
17.68401963975694
 20
65.26492241753472
 30
0.0
 10
17.68401963975694
 20
65.26492241753472
 30
0.0
  0
SPLINE
  5
88
330
A
100
AcDbEntity
  8
LAYER_1
 62
     7
100
AcDbSpline
210
0.0
220
0.0
230
1.0
 70
     8
 71
     3
 72
    83
 73
    79
 74
     0
 42
0.0000000001
 43
0.0000000001
 40
0.0
 40
0.0
 40
0.0
 40
0.0
 40
1.0
 40
1.0
 40
1.0
 40
2.0
 40
2.0
 40
2.0
 40
3.0
 40
3.0
 40
3.0
 40
4.0
 40
4.0
 40
4.0
 40
5.0
 40
5.0
 40
5.0
 40
6.0
 40
6.0
 40
6.0
 40
7.0
 40
7.0
 40
7.0
 40
8.0
 40
8.0
 40
8.0
 40
9.0
 40
9.0
 40
9.0
 40
10.0
 40
10.0
 40
10.0
 40
11.0
 40
11.0
 40
11.0
 40
12.0
 40
12.0
 40
12.0
 40
13.0
 40
13.0
 40
13.0
 40
14.0
 40
14.0
 40
14.0
 40
15.0
 40
15.0
 40
15.0
 40
16.0
 40
16.0
 40
16.0
 40
17.0
 40
17.0
 40
17.0
 40
18.0
 40
18.0
 40
18.0
 40
19.0
 40
19.0
 40
19.0
 40
20.0
 40
20.0
 40
20.0
 40
21.0
 40
21.0
 40
21.0
 40
22.0
 40
22.0
 40
22.0
 40
23.0
 40
23.0
 40
23.0
 40
24.0
 40
24.0
 40
24.0
 40
25.0
 40
25.0
 40
25.0
 40
26.0
 40
26.0
 40
26.0
 40
26.0
 10
19.17230088975694
 20
76.7550048828125
 30
0.0
 10
19.39071994357639
 20
76.14177788628471
 30
0.0
 10
19.89439290364583
 20
75.46378309461805
 30
0.0
 10
19.80688747829861
 20
74.39098036024305
 30
0.0
 10
19.71938205295139
 20
73.31886664496527
 30
0.0
 10
19.71938205295139
 20
73.49387749565972
 30
0.0
 10
20.02530653211806
 20
72.53062879774305
 30
0.0
 10
20.33192003038194
 20
71.5680691189236
 30
0.0
 10
20.22236599392361
 20
71.32760145399305
 30
0.0
 10
20.39737684461806
 20
70.62686903211805
 30
0.0
 10
20.5723876953125
 20
69.92682562934027
 30
0.0
 10
20.79149576822917
 20
69.7077175564236
 30
0.0
 10
20.83559299045139
 20
69.24814181857639
 30
0.0
 10
20.87900119357639
 20
68.78856608072915
 30
0.0
 10
21.45364312065972
 20
67.50974663628472
 30
0.0
 10
21.29516872829861
 20
67.19073079427083
 30
0.0
 10
21.2731201171875
 20
67.14732259114582
 30
0.0
 10
21.05401204427083
 20
66.97231174045139
 30
0.0
 10
20.9444580078125
 20
66.81866048177083
 30
0.0
 10
20.83559299045139
 20
66.66569824218749
 30
0.0
 10
20.65989312065972
 20
66.18407389322915
 30
0.0
 10
20.61648491753472
 20
65.98770345052083
 30
0.0
 10
20.5723876953125
 20
65.79064398871527
 30
0.0
 10
20.33192003038194
 20
65.26492241753472
 30
0.0
 10
20.22236599392361
 20
64.95899793836804
 30
0.0
 10
20.11281195746528
 20
64.65238444010416
 30
0.0
 10
20.06940375434028
 20
64.17076009114582
 30
0.0
 10
20.06940375434028
 20
64.17076009114582
 30
0.0
 10
20.06940375434028
 20
64.17076009114582
 30
0.0
 10
20.44147406684028
 20
63.97370062934027
 30
0.0
 10
20.83559299045139
 20
63.86414659288194
 30
0.0
 10
21.22902289496528
 20
63.75528157552083
 30
0.0
 10
21.99521213107639
 20
63.38321126302083
 30
0.0
 10
22.27977701822917
 20
63.38321126302083
 30
0.0
 10
22.56434190538194
 20
63.38321126302083
 30
0.0
 10
23.65850423177083
 20
63.22956000434027
 30
0.0
 10
24.05262315538194
 20
63.01114095052083
 30
0.0
 10
24.44605305989583
 20
62.79203287760416
 30
0.0
 10
25.15367567274305
 20
62.74104546440972
 30
0.0
 10
25.4527099609375
 20
62.44201117621527
 30
0.0
 10
25.49680718315972
 20
62.39791395399305
 30
0.0
 10
25.56226399739583
 20
62.15744628906249
 30
0.0
 10
25.4527099609375
 20
62.00448404947916
 30
0.0
 10
25.34384494357639
 20
61.85083279079861
 30
0.0
 10
24.84017198350694
 20
61.32580023871527
 30
0.0
 10
24.73061794704861
 20
61.17283799913194
 30
0.0
 10
24.62106391059028
 20
61.01918674045138
 30
0.0
 10
24.18353678385417
 20
60.18754069010416
 30
0.0
 10
24.16148817274305
 20
60.03457845052083
 30
0.0
 10
24.14012858072917
 20
59.88161621093749
 30
0.0
 10
23.76805826822917
 20
59.11542697482638
 30
0.0
 10
23.61440700954861
 20
58.98382432725694
 30
0.0
 10
23.61440700954861
 20
58.80881347656249
 30
0.0
 10
23.46144476996528
 20
58.72130805121527
 30
0.0
 10
23.5489501953125
 20
58.34923773871527
 30
0.0
 10
23.63645562065972
 20
57.97716742621527
 30
0.0
 10
23.81146647135417
 20
57.43008626302083
 30
0.0
 10
23.89897189670139
 20
56.94846191406249
 30
0.0
 10
23.98647732204861
 20
56.46752658420139
 30
0.0
 10
24.00852593315972
 20
55.94180501302083
 30
0.0
 10
24.16148817274305
 20
55.76679416232638
 30
0.0
 10
24.31513943142361
 20
55.59178331163194
 30
0.0
 10
24.27104220920139
 20
55.26381022135416
 30
0.0
 10
24.38059624565972
 20
54.71672905815971
 30
0.0
 10
24.49015028211806
 20
54.16964789496527
 30
0.0
 10
24.7085693359375
 20
53.22844780815971
 30
0.0
 10
24.86222059461806
 20
52.96593153211805
 30
0.0
 10
25.01518283420139
 20
52.70341525607638
 30
0.0
 10
25.10268825954861
 20
52.0901882595486
 30
0.0
 10
25.23429090711806
 20
51.6526611328125
 30
0.0
 10
25.36520453559028
 20
51.21513400607638
 30
0.0
 10
25.34384494357639
 20
50.62395562065971
 30
0.0
 10
25.49680718315972
 20
50.09892306857638
 30
0.0
 10
25.64976942274305
 20
49.57320149739583
 30
0.0
 10
26.33534342447916
 20
47.70527072482638
 30
0.0
 10
26.33534342447916
 20
47.70527072482638
 30
0.0
 10
26.33534342447916
 20
47.70527072482638
 30
0.0
 10
72.76902940538194
 20
31.12471516927083
 30
0.0
 10
72.76902940538194
 20
31.12471516927083
 30
0.0
  0
LINE
  5
87
330
A
100
AcDbEntity
  8
LAYER_1
 62
     7
100
AcDbLine
 10
26.33534342447916
 20
47.70527072482638
 30
0.0
 11
72.76902940538194
 21
31.12471516927083
 31
0.0
  0
SPLINE
  5
86
330
A
100
AcDbEntity
  8
LAYER_1
 62
     7
100
AcDbSpline
210
0.0
220
0.0
230
1.0
 70
     8
 71
     3
 72
    47
 73
    43
 74
     0
 42
0.0000000001
 43
0.0000000001
 40
0.0
 40
0.0
 40
0.0
 40
0.0
 40
1.0
 40
1.0
 40
1.0
 40
2.0
 40
2.0
 40
2.0
 40
3.0
 40
3.0
 40
3.0
 40
4.0
 40
4.0
 40
4.0
 40
5.0
 40
5.0
 40
5.0
 40
6.0
 40
6.0
 40
6.0
 40
7.0
 40
7.0
 40
7.0
 40
8.0
 40
8.0
 40
8.0
 40
9.0
 40
9.0
 40
9.0
 40
10.0
 40
10.0
 40
10.0
 40
11.0
 40
11.0
 40
11.0
 40
12.0
 40
12.0
 40
12.0
 40
13.0
 40
13.0
 40
13.0
 40
14.0
 40
14.0
 40
14.0
 40
14.0
 10
27.05054524739583
 20
63.58027072482638
 30
0.0
 10
26.72257215711805
 20
63.73323296440972
 30
0.0
 10
26.30640462239583
 20
63.86414659288194
 30
0.0
 10
25.80342068142361
 20
64.03984646267361
 30
0.0
 10
25.29974772135417
 20
64.21485731336804
 30
0.0
 10
24.53355848524305
 20
64.49942220052083
 30
0.0
 10
24.09603135850694
 20
64.56487901475694
 30
0.0
 10
23.65850423177083
 20
64.63033582899305
 30
0.0
 10
22.7614013671875
 20
65.04650336371527
 30
0.0
 10
22.7614013671875
 20
65.04650336371527
 30
0.0
 10
22.7614013671875
 20
65.04650336371527
 30
0.0
 10
22.60775010850694
 20
65.11196017795139
 30
0.0
 10
22.65184733072917
 20
65.30901963975694
 30
0.0
 10
22.69525553385417
 20
65.50607910156249
 30
0.0
 10
22.82685818142361
 20
66.18407389322915
 30
0.0
 10
23.02391764322917
 20
66.66569824218749
 30
0.0
 10
23.22097710503472
 20
67.14732259114582
 30
0.0
 10
23.59304741753472
 20
68.15397949218749
 30
0.0
 10
23.59304741753472
 20
68.15397949218749
 30
0.0
 10
23.59304741753472
 20
68.15397949218749
 30
0.0
 10
23.52690158420139
 20
68.41649576822915
 30
0.0
 10
23.52690158420139
 20
68.78856608072915
 30
0.0
 10
23.52690158420139
 20
69.16063639322915
 30
0.0
 10
23.35189073350694
 20
69.86136881510416
 30
0.0
 10
23.28643391927083
 20
70.34230414496527
 30
0.0
 10
23.22097710503472
 20
70.8239284939236
 30
0.0
 10
23.1334716796875
 20
71.28350423177082
 30
0.0
 10
23.00186903211806
 20
71.6114773220486
 30
0.0
 10
22.87026638454861
 20
71.9401394314236
 30
0.0
 10
22.54229329427083
 20
72.59677463107639
 30
0.0
 10
22.56434190538194
 20
72.74973687065972
 30
0.0
 10
22.58639051649305
 20
72.90338812934027
 30
0.0
 10
22.36728244357639
 20
74.36962076822915
 30
0.0
 10
22.36728244357639
 20
74.36962076822915
 30
0.0
 10
22.36728244357639
 20
74.36962076822915
 30
0.0
 10
22.30182562934028
 20
74.82850748697916
 30
0.0
 10
22.27977701822917
 20
75.37627766927082
 30
0.0
 10
22.25772840711806
 20
75.92335883246527
 30
0.0
 10
21.86360948350694
 20
77.21458062065972
 30
0.0
 10
21.82020128038194
 20
77.38959147135417
 30
0.0
 10
21.77610405815972
 20
77.5646023220486
 30
0.0
 10
21.71064724392361
 20
78.17714029947916
 30
0.0
 10
21.71064724392361
 20
78.17714029947916
 30
0.0
  0
SPLINE
  5
85
330
A
100
AcDbEntity
  8
LAYER_1
 62
     7
100
AcDbSpline
210
0.0
220
0.0
230
1.0
 70
     8
 71
     3
 72
    44
 73
    40
 74
     0
 42
0.0000000001
 43
0.0000000001
 40
0.0
 40
0.0
 40
0.0
 40
0.0
 40
1.0
 40
1.0
 40
1.0
 40
2.0
 40
2.0
 40
2.0
 40
3.0
 40
3.0
 40
3.0
 40
4.0
 40
4.0
 40
4.0
 40
5.0
 40
5.0
 40
5.0
 40
6.0
 40
6.0
 40
6.0
 40
7.0
 40
7.0
 40
7.0
 40
8.0
 40
8.0
 40
8.0
 40
9.0
 40
9.0
 40
9.0
 40
10.0
 40
10.0
 40
10.0
 40
11.0
 40
11.0
 40
11.0
 40
12.0
 40
12.0
 40
12.0
 40
13.0
 40
13.0
 40
13.0
 40
13.0
 10
23.5055419921875
 20
79.0308349609375
 30
0.0
 10
23.46144476996528
 20
78.37419976128471
 30
0.0
 10
23.5489501953125
 20
78.33079155815972
 30
0.0
 10
23.72396104600694
 20
77.73961317274305
 30
0.0
 10
23.89897189670139
 20
77.14843478732638
 30
0.0
 10
23.96511773003472
 20
76.57999403211805
 30
0.0
 10
24.14012858072917
 20
75.79175618489583
 30
0.0
 10
24.31513943142361
 20
75.00420735677082
 30
0.0
 10
24.49015028211806
 20
74.71964246961805
 30
0.0
 10
24.57765570746528
 20
73.7784423828125
 30
0.0
 10
24.6651611328125
 20
72.83724229600693
 30
0.0
 10
24.81812337239583
 20
71.87468261718749
 30
0.0
 10
25.01518283420139
 20
71.04303656684027
 30
0.0
 10
25.21224229600694
 20
70.21139051649305
 30
0.0
 10
25.23429090711806
 20
69.81727159288194
 30
0.0
 10
25.27769911024305
 20
69.51065809461805
 30
0.0
 10
25.32179633246528
 20
69.20473361545139
 30
0.0
 10
25.21224229600694
 20
68.9635769314236
 30
0.0
 10
25.21224229600694
 20
68.9635769314236
 30
0.0
 10
25.21224229600694
 20
68.9635769314236
 30
0.0
 10
25.10268825954861
 20
68.70106065538194
 30
0.0
 10
25.0372314453125
 20
68.28489312065972
 30
0.0
 10
24.97177463107639
 20
67.86941460503472
 30
0.0
 10
24.84017198350694
 20
67.49734429253472
 30
0.0
 10
24.75266655815972
 20
67.25687662760416
 30
0.0
 10
24.6651611328125
 20
67.01571994357639
 30
0.0
 10
24.62106391059028
 20
66.84070909288194
 30
0.0
 10
24.46810167100694
 20
66.51273600260416
 30
0.0
 10
24.31513943142361
 20
66.18407389322915
 30
0.0
 10
24.2930908203125
 20
65.85610080295139
 30
0.0
 10
24.2930908203125
 20
65.85610080295139
 30
0.0
 10
24.2930908203125
 20
65.85610080295139
 30
0.0
 10
24.31513943142361
 20
65.70244954427083
 30
0.0
 10
24.62106391059028
 20
65.54948730468749
 30
0.0
 10
24.92767740885417
 20
65.39652506510416
 30
0.0
 10
25.56226399739583
 20
65.06786295572915
 30
0.0
 10
25.93433430989583
 20
64.93694932725694
 30
0.0
 10
26.30640462239583
 20
64.80534667968749
 30
0.0
 10
26.9409912109375
 20
64.47737358940972
 30
0.0
 10
27.18214789496528
 20
64.36781955295139
 30
0.0
  0
SPLINE
  5
84
330
A
100
AcDbEntity
  8
LAYER_1
 62
     7
100
AcDbSpline
210
0.0
220
0.0
230
1.0
 70
     8
 71
     3
 72
    17
 73
    13
 74
     0
 42
0.0000000001
 43
0.0000000001
 40
0.0
 40
0.0
 40
0.0
 40
0.0
 40
1.0
 40
1.0
 40
1.0
 40
2.0
 40
2.0
 40
2.0
 40
3.0
 40
3.0
 40
3.0
 40
4.0
 40
4.0
 40
4.0
 40
4.0
 10
24.86222059461806
 20
79.8404324001736
 30
0.0
 10
24.94972601996528
 20
79.38085666232638
 30
0.0
 10
25.05928005642361
 20
79.53450792100693
 30
0.0
 10
25.21224229600694
 20
78.85582411024305
 30
0.0
 10
25.36520453559028
 20
78.17714029947916
 30
0.0
 10
25.36520453559028
 20
77.49845648871528
 30
0.0
 10
25.4527099609375
 20
77.10502658420138
 30
0.0
 10
25.54021538628472
 20
76.71090766059027
 30
0.0
 10
25.64976942274305
 20
75.90131022135417
 30
0.0
 10
25.86887749565972
 20
75.57333713107639
 30
0.0
 10
26.08798556857639
 20
75.24467502170138
 30
0.0
 10
26.26299641927083
 20
74.08505588107639
 30
0.0
 10
26.37186143663194
 20
73.58138292100693
 30
0.0
  0
SPLINE
  5
83
330
A
100
AcDbEntity
  8
LAYER_1
 62
     7
100
AcDbSpline
210
0.0
220
0.0
230
1.0
 70
     8
 71
     3
 72
    26
 73
    22
 74
     0
 42
0.0000000001
 43
0.0000000001
 40
0.0
 40
0.0
 40
0.0
 40
0.0
 40
1.0
 40
1.0
 40
1.0
 40
2.0
 40
2.0
 40
2.0
 40
3.0
 40
3.0
 40
3.0
 40
4.0
 40
4.0
 40
4.0
 40
5.0
 40
5.0
 40
5.0
 40
6.0
 40
6.0
 40
6.0
 40
7.0
 40
7.0
 40
7.0
 40
7.0
 10
26.30640462239583
 20
53.5130126953125
 30
0.0
 10
26.26299641927083
 20
54.14759928385416
 30
0.0
 10
26.04388834635417
 20
55.19766438802083
 30
0.0
 10
25.91228569878472
 20
55.61383192274305
 30
0.0
 10
25.7813720703125
 20
56.02931043836805
 30
0.0
 10
25.58431260850694
 20
57.10211317274305
 30
0.0
 10
25.56226399739583
 20
57.23302680121527
 30
0.0
 10
25.54021538628472
 20
57.36462944878472
 30
0.0
 10
25.19019368489583
 20
58.98382432725694
 30
0.0
 10
25.19019368489583
 20
59.11542697482638
 30
0.0
 10
25.19019368489583
 20
59.24634060329861
 30
0.0
 10
25.29974772135417
 20
59.70591634114583
 30
0.0
 10
25.29974772135417
 20
59.70591634114583
 30
0.0
 10
25.29974772135417
 20
59.70591634114583
 30
0.0
 10
25.8247802734375
 20
60.49415418836805
 30
0.0
 10
25.89092610677083
 20
60.60370822482638
 30
0.0
 10
25.95638292100694
 20
60.71326226128472
 30
0.0
 10
26.59096950954861
 20
61.76332736545138
 30
0.0
 10
26.72257215711805
 20
61.93833821614583
 30
0.0
 10
26.85348578559028
 20
62.11403808593749
 30
0.0
 10
27.3130615234375
 20
62.61702202690972
 30
0.0
 10
27.3130615234375
 20
62.61702202690972
 30
0.0
  0
LWPOLYLINE
  5
7A
330
A
100
AcDbEntity
  8
LAYER_1
 62
     7
100
AcDbPolyline
 90
        7
 70
     0
 43
0.0
 10
30.26757541232639
 20
15.19183756510417
 10
107.3033555772569
 20
43.73031955295139
 10
107.3908610026042
 20
55.98590223524305
 10
106.2966986762153
 20
58.91836751302083
 10
108.4850233289931
 20
61.15078938802083
 10
107.4783664279514
 20
64.12735188802083
 10
107.3474527994792
 20
76.03222384982638
  0
LINE
  5
79
330
A
100
AcDbEntity
  8
LAYER_1
 62
     7
100
AcDbLine
 10
107.3033555772569
 20
43.68622233072917
 30
0.0
 11
117.4147108289931
 21
39.13456217447916
 31
0.0
  0
LINE
  5
78
330
A
100
AcDbEntity
  8
LAYER_1
 62
     7
100
AcDbLine
 10
107.4783664279514
 20
55.98590223524305
 30
0.0
 11
117.5897216796875
 21
51.12762858072916
 31
0.0
  0
LINE
  5
77
330
A
100
AcDbEntity
  8
LAYER_1
 62
     7
100
AcDbLine
 10
106.3842041015625
 20
58.96246473524305
 30
0.0
 11
116.6705702039931
 21
53.8850830078125
 31
0.0
  0
LINE
  5
76
330
A
100
AcDbEntity
  8
LAYER_1
 62
     7
100
AcDbLine
 10
108.4850233289931
 20
61.15078938802083
 30
0.0
 11
118.9464002821181
 21
55.67928873697916
 31
0.0
  0
LINE
  5
75
330
A
100
AcDbEntity
  8
LAYER_1
 62
     7
100
AcDbLine
 10
107.5224636501736
 20
64.25826551649305
 30
0.0
 11
117.7206353081597
 21
59.04997016059027
 31
0.0
  0
SPLINE
  5
74
330
A
100
AcDbEntity
  8
LAYER_1
 62
     7
100
AcDbSpline
210
0.0
220
0.0
230
1.0
 70
     8
 71
     3
 72
    17
 73
    13
 74
     0
 42
0.0000000001
 43
0.0000000001
 40
0.0
 40
0.0
 40
0.0
 40
0.0
 40
1.0
 40
1.0
 40
1.0
 40
2.0
 40
2.0
 40
2.0
 40
3.0
 40
3.0
 40
3.0
 40
4.0
 40
4.0
 40
4.0
 40
4.0
 10
107.4563178168403
 20
66.38113335503472
 30
0.0
 10
107.6099690755208
 20
67.12527398003472
 30
0.0
 10
107.9158935546875
 20
68.35103895399305
 30
0.0
 10
107.8945339626736
 20
69.11722819010416
 30
0.0
 10
107.8724853515625
 20
69.88272840711805
 30
0.0
 10
108.0033989800347
 20
70.0577392578125
 30
0.0
 10
108.0915934244792
 20
70.97689073350693
 30
0.0
 10
108.1790988498264
 20
71.89604220920138
 30
0.0
 10
108.3320610894097
 20
72.74973687065972
 30
0.0
 10
108.4195665147569
 20
73.4063720703125
 30
0.0
 10
108.5070719401042
 20
74.06300726996527
 30
0.0
 10
108.5070719401042
 20
75.2667236328125
 30
0.0
 10
108.7261800130208
 20
75.37627766927082
 30
0.0
  0
SPLINE
  5
73
330
A
100
AcDbEntity
  8
LAYER_1
 62
     7
100
AcDbSpline
210
0.0
220
0.0
230
1.0
 70
     8
 71
     3
 72
    38
 73
    34
 74
     0
 42
0.0000000001
 43
0.0000000001
 40
0.0
 40
0.0
 40
0.0
 40
0.0
 40
1.0
 40
1.0
 40
1.0
 40
2.0
 40
2.0
 40
2.0
 40
3.0
 40
3.0
 40
3.0
 40
4.0
 40
4.0
 40
4.0
 40
5.0
 40
5.0
 40
5.0
 40
6.0
 40
6.0
 40
6.0
 40
7.0
 40
7.0
 40
7.0
 40
8.0
 40
8.0
 40
8.0
 40
9.0
 40
9.0
 40
9.0
 40
10.0
 40
10.0
 40
10.0
 40
11.0
 40
11.0
 40
11.0
 40
11.0
 10
110.3674235026042
 20
74.5225830078125
 30
0.0
 10
110.3233262803819
 20
73.88799641927082
 30
0.0
 10
110.3674235026042
 20
73.45046929253472
 30
0.0
 10
110.2358208550347
 20
72.85929090711805
 30
0.0
 10
110.1049072265625
 20
72.26811252170138
 30
0.0
 10
110.1703640407986
 20
71.5460205078125
 30
0.0
 10
110.0174018012153
 20
70.99893934461805
 30
0.0
 10
109.8637505425347
 20
70.4518581814236
 30
0.0
 10
109.7548855251736
 20
69.59816351996527
 30
0.0
 10
109.6453314887153
 20
69.09517957899305
 30
0.0
 10
109.5357774522569
 20
68.5915066189236
 30
0.0
 10
109.4916802300347
 20
67.34438205295139
 30
0.0
 10
109.3607666015625
 20
66.64364963107639
 30
0.0
 10
109.2291639539931
 20
65.94360622829861
 30
0.0
 10
109.0321044921875
 20
64.08325466579861
 30
0.0
 10
108.7482286241319
 20
63.64572753906249
 30
0.0
 10
109.0107449001736
 20
63.3170654296875
 30
0.0
 10
109.185755750868
 20
63.51412489149305
 30
0.0
 10
109.3166693793403
 20
62.83613009982638
 30
0.0
 10
109.4482720269097
 20
62.15744628906249
 30
0.0
 10
109.6666910807292
 20
61.54490831163194
 30
0.0
 10
109.6453314887153
 20
61.19488661024305
 30
0.0
 10
109.6232828776042
 20
60.84417588975694
 30
0.0
 10
109.4703206380208
 20
60.62575683593749
 30
0.0
 10
109.4703206380208
 20
60.62575683593749
 30
0.0
 10
109.4703206380208
 20
60.62575683593749
 30
0.0
 10
109.557826063368
 20
60.49415418836805
 30
0.0
 10
109.2512125651042
 20
60.40664876302083
 30
0.0
 10
108.9445990668403
 20
60.31914333767361
 30
0.0
 10
108.9232394748264
 20
60.18754069010416
 30
0.0
 10
108.441615125868
 20
60.03457845052083
 30
0.0
 10
107.9599907769097
 20
59.88161621093749
 30
0.0
 10
106.8878770616319
 20
59.33453504774305
 30
0.0
 10
106.6253607855903
 20
59.18088378906249
 30
0.0
  0
SPLINE
  5
72
330
A
100
AcDbEntity
  8
LAYER_1
 62
     7
100
AcDbSpline
210
0.0
220
0.0
230
1.0
 70
     8
 71
     3
 72
    71
 73
    67
 74
     0
 42
0.0000000001
 43
0.0000000001
 40
0.0
 40
0.0
 40
0.0
 40
0.0
 40
1.0
 40
1.0
 40
1.0
 40
2.0
 40
2.0
 40
2.0
 40
3.0
 40
3.0
 40
3.0
 40
4.0
 40
4.0
 40
4.0
 40
5.0
 40
5.0
 40
5.0
 40
6.0
 40
6.0
 40
6.0
 40
7.0
 40
7.0
 40
7.0
 40
8.0
 40
8.0
 40
8.0
 40
9.0
 40
9.0
 40
9.0
 40
10.0
 40
10.0
 40
10.0
 40
11.0
 40
11.0
 40
11.0
 40
12.0
 40
12.0
 40
12.0
 40
13.0
 40
13.0
 40
13.0
 40
14.0
 40
14.0
 40
14.0
 40
15.0
 40
15.0
 40
15.0
 40
16.0
 40
16.0
 40
16.0
 40
17.0
 40
17.0
 40
17.0
 40
18.0
 40
18.0
 40
18.0
 40
19.0
 40
19.0
 40
19.0
 40
20.0
 40
20.0
 40
20.0
 40
21.0
 40
21.0
 40
21.0
 40
22.0
 40
22.0
 40
22.0
 40
22.0
 10
107.325404188368
 20
45.67817654079861
 30
0.0
 10
107.5224636501736
 20
46.77233886718749
 30
0.0
 10
107.7408827039931
 20
48.04151204427083
 30
0.0
 10
107.7849799262153
 20
48.26062011718749
 30
0.0
 10
107.8283881293403
 20
48.47903917100694
 30
0.0
 10
108.1350016276042
 20
49.96732042100694
 30
0.0
 10
108.1790988498264
 20
50.51440158420139
 30
0.0
 10
108.2225070529514
 20
51.06148274739583
 30
0.0
 10
108.4850233289931
 20
51.89312879774305
 30
0.0
 10
108.5070719401042
 20
52.17769368489583
 30
0.0
 10
108.5291205512153
 20
52.4622585720486
 30
0.0
 10
108.8791422526042
 20
55.17630479600694
 30
0.0
 10
108.9666476779514
 20
55.26381022135416
 30
0.0
 10
108.813685438368
 20
55.48222927517361
 30
0.0
 10
108.8357340494792
 20
55.30721842447916
 30
0.0
 10
108.6166259765625
 20
55.8108913845486
 30
0.0
 10
108.3975179036458
 20
56.31387532552083
 30
0.0
 10
108.0254475911458
 20
56.9271023220486
 30
0.0
 10
107.8724853515625
 20
57.05801595052083
 30
0.0
 10
107.7195231119792
 20
57.18961859809027
 30
0.0
 10
107.2378987630208
 20
58.10877007378472
 30
0.0
 10
107.2599473741319
 20
58.50288899739583
 30
0.0
 10
107.4783664279514
 20
58.69925944010416
 30
0.0
 10
107.697474500868
 20
58.80881347656249
 30
0.0
 10
108.0915934244792
 20
58.94041612413194
 30
0.0
 10
108.4850233289931
 20
59.07132975260416
 30
0.0
 10
109.2732611762153
 20
59.35589463975694
 30
0.0
 10
109.4482720269097
 20
59.39999186197916
 30
0.0
 10
109.6232828776042
 20
59.44340006510416
 30
0.0
 10
109.8203423394097
 20
59.5315945095486
 30
0.0
 10
110.0387613932292
 20
59.55295410156249
 30
0.0
 10
110.2578694661458
 20
59.57500271267361
 30
0.0
 10
110.6299397786458
 20
59.81547037760416
 30
0.0
 10
110.9365532769097
 20
59.85956759982638
 30
0.0
 10
111.1990695529514
 20
60.10003526475694
 30
0.0
 10
111.2424777560764
 20
59.92502441406249
 30
0.0
 10
111.1990695529514
 20
60.29709472656249
 30
0.0
 10
111.1549723307292
 20
60.66916503906249
 30
0.0
 10
111.0674669053819
 20
61.15078938802083
 30
0.0
 10
110.9365532769097
 20
61.36920844184027
 30
0.0
 10
110.8049506293403
 20
61.58831651475694
 30
0.0
 10
110.5858425564236
 20
62.28904893663194
 30
0.0
 10
110.6078911675347
 20
62.46405978732638
 30
0.0
 10
110.6299397786458
 20
62.63907063802083
 30
0.0
 10
110.5203857421875
 20
62.74862467447916
 30
0.0
 10
110.5203857421875
 20
62.74862467447916
 30
0.0
 10
110.5203857421875
 20
62.74862467447916
 30
0.0
 10
110.5424343532986
 20
63.18615180121527
 30
0.0
 10
110.6078911675347
 20
63.42661946614583
 30
0.0
 10
110.6733479817708
 20
63.66777615017361
 30
0.0
 10
110.8710964626736
 20
64.84944390190972
 30
0.0
 10
110.9365532769097
 20
65.02445475260416
 30
0.0
 10
111.0020100911458
 20
65.19946560329861
 30
0.0
 10
111.1990695529514
 20
65.83405219184027
 30
0.0
 10
111.1770209418403
 20
66.53478461371527
 30
0.0
 10
111.1549723307292
 20
67.23482801649305
 30
0.0
 10
111.3520317925347
 20
67.75986056857639
 30
0.0
 10
111.4395372178819
 20
68.24148491753472
 30
0.0
 10
111.5270426432292
 20
68.72310926649305
 30
0.0
 10
111.7681993272569
 20
69.86136881510416
 30
0.0
 10
111.8116075303819
 20
70.53936360677082
 30
0.0
 10
111.8557047526042
 20
71.21804741753472
 30
0.0
 10
112.0527642144097
 20
72.24675292968749
 30
0.0
 10
112.0748128255208
 20
72.50926920572915
 30
0.0
 10
112.0961724175347
 20
72.77178548177082
 30
0.0
 10
112.2057264539931
 20
73.55933430989583
 30
0.0
 10
112.2057264539931
 20
73.55933430989583
 30
0.0
  0
SPLINE
  5
71
330
A
100
AcDbEntity
  8
LAYER_1
 62
     7
100
AcDbSpline
210
0.0
220
0.0
230
1.0
 70
     8
 71
     3
 72
    83
 73
    79
 74
     0
 42
0.0000000001
 43
0.0000000001
 40
0.0
 40
0.0
 40
0.0
 40
0.0
 40
1.0
 40
1.0
 40
1.0
 40
2.0
 40
2.0
 40
2.0
 40
3.0
 40
3.0
 40
3.0
 40
4.0
 40
4.0
 40
4.0
 40
5.0
 40
5.0
 40
5.0
 40
6.0
 40
6.0
 40
6.0
 40
7.0
 40
7.0
 40
7.0
 40
8.0
 40
8.0
 40
8.0
 40
9.0
 40
9.0
 40
9.0
 40
10.0
 40
10.0
 40
10.0
 40
11.0
 40
11.0
 40
11.0
 40
12.0
 40
12.0
 40
12.0
 40
13.0
 40
13.0
 40
13.0
 40
14.0
 40
14.0
 40
14.0
 40
15.0
 40
15.0
 40
15.0
 40
16.0
 40
16.0
 40
16.0
 40
17.0
 40
17.0
 40
17.0
 40
18.0
 40
18.0
 40
18.0
 40
19.0
 40
19.0
 40
19.0
 40
20.0
 40
20.0
 40
20.0
 40
21.0
 40
21.0
 40
21.0
 40
22.0
 40
22.0
 40
22.0
 40
23.0
 40
23.0
 40
23.0
 40
24.0
 40
24.0
 40
24.0
 40
25.0
 40
25.0
 40
25.0
 40
26.0
 40
26.0
 40
26.0
 40
26.0
 10
113.9344753689236
 20
72.64018283420138
 30
0.0
 10
113.7815131293403
 20
72.11515028211805
 30
0.0
 10
113.5844536675347
 20
71.32760145399305
 30
0.0
 10
113.5410454644097
 20
70.88938530815972
 30
0.0
 10
113.4969482421875
 20
70.4518581814236
 30
0.0
 10
113.4969482421875
 20
69.88272840711805
 30
0.0
 10
113.3873942057292
 20
69.64226074218749
 30
0.0
 10
113.2778401692708
 20
69.40110405815972
 30
0.0
 10
113.2123833550347
 20
69.02903374565972
 30
0.0
 10
113.1028293185764
 20
68.54809841579861
 30
0.0
 10
112.9939643012153
 20
68.06647406684027
 30
0.0
 10
112.8844102647569
 20
67.56349012586804
 30
0.0
 10
112.8403130425347
 20
67.03776855468749
 30
0.0
 10
112.7969048394097
 20
66.51273600260416
 30
0.0
 10
112.7087103949653
 20
65.81200358072915
 30
0.0
 10
112.5998453776042
 20
65.46198187934027
 30
0.0
 10
112.4902913411458
 20
65.11196017795139
 30
0.0
 10
112.4682427300347
 20
63.90824381510416
 30
0.0
 10
112.3586886935764
 20
63.49207628038194
 30
0.0
 10
112.2491346571181
 20
63.07659776475694
 30
0.0
 10
112.1182210286458
 20
62.28904893663194
 30
0.0
 10
112.0527642144097
 20
61.96038682725694
 30
0.0
 10
112.3152804904514
 20
61.80742458767361
 30
0.0
 10
112.3366400824653
 20
61.76332736545138
 30
0.0
 10
112.3366400824653
 20
61.76332736545138
 30
0.0
 10
112.3366400824653
 20
61.76332736545138
 30
0.0
 10
112.1616292317708
 20
61.58831651475694
 30
0.0
 10
112.2277750651042
 20
61.26034342447916
 30
0.0
 10
112.2932318793403
 20
60.93168131510416
 30
0.0
 10
112.5123399522569
 20
59.96912163628472
 30
0.0
 10
112.5557481553819
 20
59.85956759982638
 30
0.0
 10
112.5998453776042
 20
59.75001356336805
 30
0.0
 10
112.9278184678819
 20
59.20293240017361
 30
0.0
 10
112.7307590060764
 20
58.98382432725694
 30
0.0
 10
112.4682427300347
 20
59.04997016059027
 30
0.0
 10
112.3152804904514
 20
59.13747558593749
 30
0.0
 10
112.3152804904514
 20
59.13747558593749
 30
0.0
 10
112.3152804904514
 20
59.13747558593749
 30
0.0
 10
112.4902913411458
 20
58.94041612413194
 30
0.0
 10
112.1402696397569
 20
58.83086208767361
 30
0.0
 10
111.7895589192708
 20
58.72130805121527
 30
0.0
 10
110.8924560546875
 20
58.43743218315971
 30
0.0
 10
110.8924560546875
 20
58.43743218315971
 30
0.0
 10
110.8924560546875
 20
58.43743218315971
 30
0.0
 10
109.8203423394097
 20
58.0433132595486
 30
0.0
 10
109.6012342664931
 20
58.02126464843749
 30
0.0
 10
109.3828152126736
 20
57.99921603732638
 30
0.0
 10
109.0762017144097
 20
57.93375922309027
 30
0.0
 10
108.9232394748264
 20
57.73669976128472
 30
0.0
 10
109.0107449001736
 20
57.53964029947916
 30
0.0
 10
109.1416585286458
 20
57.40803765190972
 30
0.0
 10
109.2078043619792
 20
57.16756998697916
 30
0.0
 10
109.2732611762153
 20
56.9271023220486
 30
0.0
 10
109.3607666015625
 20
56.51093478732638
 30
0.0
 10
109.6232828776042
 20
56.13886447482638
 30
0.0
 10
109.8857991536458
 20
55.76679416232638
 30
0.0
 10
110.4983371310764
 20
55.08879937065971
 30
0.0
 10
110.3894721137153
 20
54.60717502170139
 30
0.0
 10
110.5424343532986
 20
54.14759928385416
 30
0.0
 10
110.5424343532986
 20
53.97258843315971
 30
0.0
 10
110.4549289279514
 20
53.71007215711805
 30
0.0
 10
110.3674235026042
 20
53.44755588107638
 30
0.0
 10
110.2799180772569
 20
52.63726942274305
 30
0.0
 10
110.2799180772569
 20
52.30929633246527
 30
0.0
 10
110.2799180772569
 20
51.98063422309027
 30
0.0
 10
110.1924126519097
 20
51.30263943142361
 30
0.0
 10
110.1262668185764
 20
51.04012315538194
 30
0.0
 10
110.0608100043403
 20
50.77691786024305
 30
0.0
 10
109.9078477647569
 20
50.20847710503472
 30
0.0
 10
109.8423909505208
 20
49.59525010850694
 30
0.0
 10
109.7762451171875
 20
48.98271213107638
 30
0.0
 10
109.8637505425347
 20
48.72019585503472
 30
0.0
 10
109.6887396918403
 20
48.19447428385416
 30
0.0
 10
109.5137288411458
 20
47.66944173177083
 30
0.0
 10
109.4041748046875
 20
46.72824164496527
 30
0.0
 10
109.2291639539931
 20
46.24730631510416
 30
0.0
 10
109.0541531032986
 20
45.76568196614583
 30
0.0
 10
108.6600341796875
 20
43.53326009114583
 30
0.0
 10
108.6600341796875
 20
43.09573296440972
 30
0.0
  0
SPLINE
  5
70
330
A
100
AcDbEntity
  8
LAYER_1
 62
     7
100
AcDbSpline
210
0.0
220
0.0
230
1.0
 70
     8
 71
     3
 72
    80
 73
    76
 74
     0
 42
0.0000000001
 43
0.0000000001
 40
0.0
 40
0.0
 40
0.0
 40
0.0
 40
1.0
 40
1.0
 40
1.0
 40
2.0
 40
2.0
 40
2.0
 40
3.0
 40
3.0
 40
3.0
 40
4.0
 40
4.0
 40
4.0
 40
5.0
 40
5.0
 40
5.0
 40
6.0
 40
6.0
 40
6.0
 40
7.0
 40
7.0
 40
7.0
 40
8.0
 40
8.0
 40
8.0
 40
9.0
 40
9.0
 40
9.0
 40
10.0
 40
10.0
 40
10.0
 40
11.0
 40
11.0
 40
11.0
 40
12.0
 40
12.0
 40
12.0
 40
13.0
 40
13.0
 40
13.0
 40
14.0
 40
14.0
 40
14.0
 40
15.0
 40
15.0
 40
15.0
 40
16.0
 40
16.0
 40
16.0
 40
17.0
 40
17.0
 40
17.0
 40
18.0
 40
18.0
 40
18.0
 40
19.0
 40
19.0
 40
19.0
 40
20.0
 40
20.0
 40
20.0
 40
21.0
 40
21.0
 40
21.0
 40
22.0
 40
22.0
 40
22.0
 40
23.0
 40
23.0
 40
23.0
 40
24.0
 40
24.0
 40
24.0
 40
25.0
 40
25.0
 40
25.0
 40
25.0
 10
110.0608100043403
 20
42.46114637586805
 30
0.0
 10
110.2358208550347
 20
42.85457628038194
 30
0.0
 10
110.3674235026042
 20
43.35824924045139
 30
0.0
 10
110.4549289279514
 20
43.88328179253472
 30
0.0
 10
110.5424343532986
 20
44.40900336371527
 30
0.0
 10
110.7394938151042
 20
45.21860080295139
 30
0.0
 10
110.7829020182292
 20
45.54657389322917
 30
0.0
 10
110.8269992404514
 20
45.87523600260416
 30
0.0
 10
111.0895155164931
 20
46.20320909288194
 30
0.0
 10
111.1115641276042
 20
46.59732801649305
 30
0.0
 10
111.1336127387153
 20
46.99144694010416
 30
0.0
 10
111.1336127387153
 20
47.9319580078125
 30
0.0
 10
111.2211181640625
 20
48.19447428385416
 30
0.0
 10
111.3086235894097
 20
48.45767957899305
 30
0.0
 10
111.5056830512153
 20
49.20182020399305
 30
0.0
 10
111.5490912543403
 20
49.52979329427083
 30
0.0
 10
111.5931884765625
 20
49.8577663845486
 30
0.0
 10
112.0086669921875
 20
52.11223687065971
 30
0.0
 10
112.1402696397569
 20
52.57181260850694
 30
0.0
 10
112.2711832682292
 20
53.03138834635416
 30
0.0
 10
112.2277750651042
 20
53.40345865885416
 30
0.0
 10
112.3152804904514
 20
53.66597493489583
 30
0.0
 10
112.1182210286458
 20
53.90713161892361
 30
0.0
 10
111.8991129557292
 20
54.10350206163194
 30
0.0
 10
111.7681993272569
 20
54.51966959635416
 30
0.0
 10
111.6365966796875
 20
54.93514811197916
 30
0.0
 10
111.3520317925347
 20
55.4388210720486
 30
0.0
 10
111.2865749782986
 20
55.56973470052083
 30
0.0
 10
111.2211181640625
 20
55.70133734809027
 30
0.0
 10
110.7829020182292
 20
56.27046712239583
 30
0.0
 10
110.9365532769097
 20
56.70799424913194
 30
0.0
 10
111.0660888671875
 20
56.82168240017361
 30
0.0
 10
111.3086235894097
 20
56.99255913628472
 30
0.0
 10
111.5056830512153
 20
57.05801595052083
 30
0.0
 10
111.7020534939236
 20
57.12416178385416
 30
0.0
 10
111.9866183810764
 20
57.18961859809027
 30
0.0
 10
112.2932318793403
 20
57.34258083767361
 30
0.0
 10
112.5998453776042
 20
57.49623209635416
 30
0.0
 10
113.1028293185764
 20
57.75874837239583
 30
0.0
 10
113.3439860026042
 20
57.86830240885416
 30
0.0
 10
113.5844536675347
 20
57.97716742621527
 30
0.0
 10
113.8035617404514
 20
58.21832411024305
 30
0.0
 10
114.1094862196181
 20
58.24037272135416
 30
0.0
 10
114.1094862196181
 20
58.43743218315971
 30
0.0
 10
114.2631374782986
 20
58.50288899739583
 30
0.0
 10
114.1535834418403
 20
58.87495930989583
 30
0.0
 10
114.0440294053819
 20
59.24634060329861
 30
0.0
 10
113.8910671657986
 20
59.83751898871527
 30
0.0
 10
113.8249213324653
 20
60.05662706163194
 30
0.0
 10
113.7594645182292
 20
60.27504611545138
 30
0.0
 10
113.6940077039931
 20
60.82212727864583
 30
0.0
 10
113.6940077039931
 20
60.82212727864583
 30
0.0
 10
113.6940077039931
 20
60.82212727864583
 30
0.0
 10
113.6719590928819
 20
60.91032172309027
 30
0.0
 10
113.7160563151042
 20
61.12874077690972
 30
0.0
 10
113.7594645182292
 20
61.34784884982638
 30
0.0
 10
113.8249213324653
 20
61.36920844184027
 30
0.0
 10
113.8469699435764
 20
61.71991916232638
 30
0.0
 10
113.8690185546875
 20
62.06994086371527
 30
0.0
 10
114.0440294053819
 20
62.55156521267361
 30
0.0
 10
114.0440294053819
 20
62.74862467447916
 30
0.0
 10
114.0440294053819
 20
62.9449951171875
 30
0.0
 10
114.2631374782986
 20
63.84278700086805
 30
0.0
 10
114.2851860894097
 20
64.01779785156249
 30
0.0
 10
114.3065456814236
 20
64.19280870225694
 30
0.0
 10
114.4381483289931
 20
65.68108995225694
 30
0.0
 10
114.5477023654514
 20
66.00906304253472
 30
0.0
 10
114.6565673828125
 20
66.33772515190972
 30
0.0
 10
114.7661214192708
 20
67.40983886718749
 30
0.0
 10
114.8536268446181
 20
67.56349012586804
 30
0.0
 10
114.9411322699653
 20
67.71645236545139
 30
0.0
 10
115.1381917317708
 20
68.83197428385417
 30
0.0
 10
115.2043375651042
 20
69.16063639322915
 30
0.0
 10
115.2697943793403
 20
69.48860948350693
 30
0.0
 10
115.7073215060764
 20
71.41510687934027
 30
0.0
 10
115.7948269314236
 20
71.69898274739583
 30
0.0
  0
SPLINE
  5
6F
330
A
100
AcDbEntity
  8
LAYER_1
 62
     7
100
AcDbSpline
210
0.0
220
0.0
230
1.0
 70
     8
 71
     3
 72
    80
 73
    76
 74
     0
 42
0.0000000001
 43
0.0000000001
 40
0.0
 40
0.0
 40
0.0
 40
0.0
 40
1.0
 40
1.0
 40
1.0
 40
2.0
 40
2.0
 40
2.0
 40
3.0
 40
3.0
 40
3.0
 40
4.0
 40
4.0
 40
4.0
 40
5.0
 40
5.0
 40
5.0
 40
6.0
 40
6.0
 40
6.0
 40
7.0
 40
7.0
 40
7.0
 40
8.0
 40
8.0
 40
8.0
 40
9.0
 40
9.0
 40
9.0
 40
10.0
 40
10.0
 40
10.0
 40
11.0
 40
11.0
 40
11.0
 40
12.0
 40
12.0
 40
12.0
 40
13.0
 40
13.0
 40
13.0
 40
14.0
 40
14.0
 40
14.0
 40
15.0
 40
15.0
 40
15.0
 40
16.0
 40
16.0
 40
16.0
 40
17.0
 40
17.0
 40
17.0
 40
18.0
 40
18.0
 40
18.0
 40
19.0
 40
19.0
 40
19.0
 40
20.0
 40
20.0
 40
20.0
 40
21.0
 40
21.0
 40
21.0
 40
22.0
 40
22.0
 40
22.0
 40
23.0
 40
23.0
 40
23.0
 40
24.0
 40
24.0
 40
24.0
 40
25.0
 40
25.0
 40
25.0
 40
25.0
 10
116.7360270182292
 20
71.13054199218749
 30
0.0
 10
116.6264729817708
 20
70.4298095703125
 30
0.0
 10
116.2109944661458
 20
68.57014702690972
 30
0.0
 10
116.1228000217014
 20
68.28489312065972
 30
0.0
 10
116.0359836154514
 20
68.00101725260416
 30
0.0
 10
116.1014404296875
 20
67.78190917968749
 30
0.0
 10
116.0573432074653
 20
67.43188747829861
 30
0.0
 10
116.0139350043403
 20
67.08186577690972
 30
0.0
 10
115.8168755425347
 20
66.49068739149305
 30
0.0
 10
115.6852728949653
 20
66.25021972656249
 30
0.0
 10
115.5543592664931
 20
66.00906304253472
 30
0.0
 10
115.4007080078125
 20
65.24356282552083
 30
0.0
 10
115.3572998046875
 20
64.84944390190972
 30
0.0
 10
115.3132025824653
 20
64.45532497829861
 30
0.0
 10
115.4227566189236
 20
63.82073838975694
 30
0.0
 10
115.2256971571181
 20
63.42661946614583
 30
0.0
 10
115.0286376953125
 20
63.03250054253472
 30
0.0
 10
114.7661214192708
 20
60.97577853732638
 30
0.0
 10
114.6131591796875
 20
60.69121365017361
 30
0.0
 10
114.7661214192708
 20
60.55961100260416
 30
0.0
 10
114.9197726779514
 20
60.47210557725694
 30
0.0
 10
114.9411322699653
 20
60.47210557725694
 30
0.0
 10
114.9411322699653
 20
60.12208387586805
 30
0.0
 10
115.1161431206597
 20
59.81547037760416
 30
0.0
 10
115.1822889539931
 20
59.39999186197916
 30
0.0
 10
115.2477457682292
 20
58.98382432725694
 30
0.0
 10
115.6087917751736
 20
57.74772406684027
 30
0.0
 10
115.3132025824653
 20
57.64919433593749
 30
0.0
 10
115.2477457682292
 20
57.62714572482638
 30
0.0
 10
115.0506863064236
 20
57.69260253906249
 30
0.0
 10
115.0506863064236
 20
57.69260253906249
 30
0.0
 10
115.0506863064236
 20
57.69260253906249
 30
0.0
 10
115.2043375651042
 20
57.49623209635416
 30
0.0
 10
114.9411322699653
 20
57.36462944878472
 30
0.0
 10
114.6786159939236
 20
57.23302680121527
 30
0.0
 10
114.2410888671875
 20
56.99255913628472
 30
0.0
 10
113.9565239800347
 20
56.90505371093749
 30
0.0
 10
113.6719590928819
 20
56.81754828559027
 30
0.0
 10
112.9057698567708
 20
56.53298339843749
 30
0.0
 10
112.7748562282986
 20
56.42342936197916
 30
0.0
 10
112.6432535807292
 20
56.31387532552083
 30
0.0
 10
112.4765109592014
 20
56.11957194010416
 30
0.0
 10
112.2491346571181
 20
56.05135904947916
 30
0.0
 10
112.2057264539931
 20
55.8108913845486
 30
0.0
 10
112.1182210286458
 20
55.72338595920139
 30
0.0
 10
112.2057264539931
 20
55.46086968315971
 30
0.0
 10
112.2932318793403
 20
55.19766438802083
 30
0.0
 10
112.4682427300347
 20
54.76013726128472
 30
0.0
 10
112.5998453776042
 20
54.54171820746527
 30
0.0
 10
112.7307590060764
 20
54.3226101345486
 30
0.0
 10
112.9278184678819
 20
54.16964789496527
 30
0.0
 10
113.0814697265625
 20
53.8850830078125
 30
0.0
 10
113.2344319661458
 20
53.60051812065971
 30
0.0
 10
113.3873942057292
 20
53.25049641927083
 30
0.0
 10
113.3219373914931
 20
53.1409423828125
 30
0.0
 10
113.2564805772569
 20
53.03138834635416
 30
0.0
 10
113.1903347439236
 20
52.7688720703125
 30
0.0
 10
113.1248779296875
 20
52.33134494357638
 30
0.0
 10
113.0594211154514
 20
51.89312879774305
 30
0.0
 10
113.1469265407986
 20
51.3460476345486
 30
0.0
 10
112.8844102647569
 20
50.62395562065971
 30
0.0
 10
112.6218939887153
 20
49.90186360677083
 30
0.0
 10
112.4461941189236
 20
49.35478244357638
 30
0.0
 10
112.4682427300347
 20
48.91656629774305
 30
0.0
 10
112.4902913411458
 20
48.47903917100694
 30
0.0
 10
112.4902913411458
 20
47.36282823350694
 30
0.0
 10
112.2932318793403
 20
46.96939832899305
 30
0.0
 10
112.0961724175347
 20
46.57527940538194
 30
0.0
 10
111.8777533637153
 20
45.41566026475694
 30
0.0
 10
111.7461507161458
 20
44.80243326822917
 30
0.0
 10
111.6145480685764
 20
44.18989529079861
 30
0.0
 10
111.3299831814236
 20
43.18323838975694
 30
0.0
 10
111.2865749782986
 20
42.89867350260416
 30
0.0
 10
111.2424777560764
 20
42.61410861545139
 30
0.0
 10
111.1115641276042
 20
42.24203830295139
 30
0.0
 10
111.1549723307292
 20
41.97952202690972
 30
0.0
  0
SPLINE
  5
6E
330
A
100
AcDbEntity
  8
LAYER_1
 62
     7
100
AcDbSpline
210
0.0
220
0.0
230
1.0
 70
     8
 71
     3
 72
    65
 73
    61
 74
     0
 42
0.0000000001
 43
0.0000000001
 40
0.0
 40
0.0
 40
0.0
 40
0.0
 40
1.0
 40
1.0
 40
1.0
 40
2.0
 40
2.0
 40
2.0
 40
3.0
 40
3.0
 40
3.0
 40
4.0
 40
4.0
 40
4.0
 40
5.0
 40
5.0
 40
5.0
 40
6.0
 40
6.0
 40
6.0
 40
7.0
 40
7.0
 40
7.0
 40
8.0
 40
8.0
 40
8.0
 40
9.0
 40
9.0
 40
9.0
 40
10.0
 40
10.0
 40
10.0
 40
11.0
 40
11.0
 40
11.0
 40
12.0
 40
12.0
 40
12.0
 40
13.0
 40
13.0
 40
13.0
 40
14.0
 40
14.0
 40
14.0
 40
15.0
 40
15.0
 40
15.0
 40
16.0
 40
16.0
 40
16.0
 40
17.0
 40
17.0
 40
17.0
 40
18.0
 40
18.0
 40
18.0
 40
19.0
 40
19.0
 40
19.0
 40
20.0
 40
20.0
 40
20.0
 40
20.0
 10
112.534388563368
 20
41.38834364149305
 30
0.0
 10
112.6432535807292
 20
41.91337619357638
 30
0.0
 10
112.7307590060764
 20
42.6361572265625
 30
0.0
 10
112.8844102647569
 20
43.3802978515625
 30
0.0
 10
113.0373725043403
 20
44.1244384765625
 30
0.0
 10
113.2778401692708
 20
45.59067111545139
 30
0.0
 10
113.3219373914931
 20
46.02819824218749
 30
0.0
 10
113.3653455946181
 20
46.46572536892361
 30
0.0
 10
113.5410454644097
 20
47.38487684461805
 30
0.0
 10
113.6940077039931
 20
47.80104437934028
 30
0.0
 10
113.8469699435764
 20
48.21652289496527
 30
0.0
 10
114.0881266276042
 20
49.63934733072916
 30
0.0
 10
114.1535834418403
 20
49.96732042100694
 30
0.0
 10
114.2190402560764
 20
50.29598253038194
 30
0.0
 10
114.5477023654514
 20
51.54310709635416
 30
0.0
 10
114.6131591796875
 20
51.74016655815971
 30
0.0
 10
114.6786159939236
 20
51.93722601996527
 30
0.0
 10
114.6352077907986
 20
52.28724772135416
 30
0.0
 10
114.6352077907986
 20
52.57181260850694
 30
0.0
 10
114.5036051432292
 20
52.90047471788194
 30
0.0
 10
114.5256537543403
 20
52.74682345920139
 30
0.0
 10
114.3285942925347
 20
53.42550726996527
 30
0.0
 10
114.1315348307292
 20
54.10350206163194
 30
0.0
 10
113.8910671657986
 20
54.51966959635416
 30
0.0
 10
113.6499104817708
 20
54.80423448350694
 30
0.0
 10
113.4094428168403
 20
55.08879937065971
 30
0.0
 10
113.4748996310764
 20
55.35131564670139
 30
0.0
 10
113.4969482421875
 20
55.46086968315971
 30
0.0
 10
113.7594645182292
 20
55.56973470052083
 30
0.0
 10
114.1315348307292
 20
55.72338595920139
 30
0.0
 10
114.5036051432292
 20
55.85429958767361
 30
0.0
 10
114.8756754557292
 20
55.98590223524305
 30
0.0
 10
115.9477891710069
 20
56.40138075086805
 30
0.0
 10
115.9477891710069
 20
56.40138075086805
 30
0.0
 10
115.9477891710069
 20
56.40138075086805
 30
0.0
 10
116.4514621310764
 20
56.77345106336805
 30
0.0
 10
116.6919297960069
 20
56.88300509982638
 30
0.0
 10
116.7580756293403
 20
57.16756998697916
 30
0.0
 10
116.8014838324653
 20
57.58373752170139
 30
0.0
 10
116.6919297960069
 20
57.93375922309027
 30
0.0
 10
116.5823757595486
 20
58.28378092447916
 30
0.0
 10
116.3639567057292
 20
59.33453504774305
 30
0.0
 10
116.1889458550347
 20
59.81547037760416
 30
0.0
 10
116.1668972439236
 20
59.85956759982638
 30
0.0
 10
116.0573432074653
 20
59.88161621093749
 30
0.0
 10
115.9043809678819
 20
60.01252983940972
 30
0.0
 10
115.9698377821181
 20
60.18754069010416
 30
0.0
 10
116.2544026692708
 20
60.29709472656249
 30
0.0
 10
116.2764512803819
 20
60.80076768663194
 30
0.0
 10
116.2984998914931
 20
61.30375162760416
 30
0.0
 10
116.2109944661458
 20
62.04789225260416
 30
0.0
 10
116.4294135199653
 20
62.52951660156249
 30
0.0
 10
116.6485215928819
 20
63.01114095052083
 30
0.0
 10
116.8235324435764
 20
63.95234103732638
 30
0.0
 10
116.8676296657986
 20
64.45532497829861
 30
0.0
 10
116.9110378689236
 20
64.95899793836804
 30
0.0
 10
117.1080973307292
 20
65.96565483940972
 30
0.0
 10
117.1956027560764
 20
66.29362792968749
 30
0.0
 10
117.2831081814236
 20
66.62160101996527
 30
0.0
 10
117.4801676432292
 20
67.05981716579861
 30
0.0
 10
117.5456244574653
 20
67.49734429253472
 30
0.0
  0
SPLINE
  5
6D
330
A
100
AcDbEntity
  8
LAYER_1
 62
     7
100
AcDbSpline
210
0.0
220
0.0
230
1.0
 70
     8
 71
     3
 72
    47
 73
    43
 74
     0
 42
0.0000000001
 43
0.0000000001
 40
0.0
 40
0.0
 40
0.0
 40
0.0
 40
1.0
 40
1.0
 40
1.0
 40
2.0
 40
2.0
 40
2.0
 40
3.0
 40
3.0
 40
3.0
 40
4.0
 40
4.0
 40
4.0
 40
5.0
 40
5.0
 40
5.0
 40
6.0
 40
6.0
 40
6.0
 40
7.0
 40
7.0
 40
7.0
 40
8.0
 40
8.0
 40
8.0
 40
9.0
 40
9.0
 40
9.0
 40
10.0
 40
10.0
 40
10.0
 40
11.0
 40
11.0
 40
11.0
 40
12.0
 40
12.0
 40
12.0
 40
13.0
 40
13.0
 40
13.0
 40
14.0
 40
14.0
 40
14.0
 40
14.0
 10
114.3720024956597
 20
40.57874620225694
 30
0.0
 10
114.4815565321181
 20
41.45448947482639
 30
0.0
 10
114.9631808810764
 20
42.65820583767361
 30
0.0
 10
115.0286376953125
 20
43.13914116753472
 30
0.0
 10
115.0947835286458
 20
43.62076551649305
 30
0.0
 10
115.5102620442708
 20
46.48777398003472
 30
0.0
 10
115.5977674696181
 20
46.72824164496527
 30
0.0
 10
115.6852728949653
 20
46.96939832899305
 30
0.0
 10
115.8168755425347
 20
48.47903917100694
 30
0.0
 10
115.9477891710069
 20
49.09226616753472
 30
0.0
 10
116.0793918185764
 20
49.70480414496527
 30
0.0
 10
116.3639567057292
 20
51.69606933593749
 30
0.0
 10
116.3639567057292
 20
51.69606933593749
 30
0.0
 10
116.3639567057292
 20
51.69606933593749
 30
0.0
 10
116.1889458550347
 20
51.80562337239583
 30
0.0
 10
116.0359836154514
 20
52.0901882595486
 30
0.0
 10
115.8823323567708
 20
52.37475314670139
 30
0.0
 10
115.5543592664931
 20
53.25049641927083
 30
0.0
 10
115.3572998046875
 20
53.53506130642361
 30
0.0
 10
115.1602403428819
 20
53.81893717447916
 30
0.0
 10
114.9631808810764
 20
54.54171820746527
 30
0.0
 10
114.9197726779514
 20
54.76013726128472
 30
0.0
 10
115.1602403428819
 20
54.86969129774305
 30
0.0
 10
115.4227566189236
 20
55.04470214843749
 30
0.0
 10
115.6639133029514
 20
55.08879937065971
 30
0.0
 10
115.9043809678819
 20
55.13220757378472
 30
0.0
 10
117.0640001085069
 20
55.65792914496527
 30
0.0
 10
117.2176513671875
 20
55.72338595920139
 30
0.0
 10
117.3706136067708
 20
55.78884277343749
 30
0.0
 10
117.7867811414931
 20
56.07340766059027
 30
0.0
 10
117.9838406032986
 20
56.16091308593749
 30
0.0
 10
118.0052001953125
 20
56.35797254774305
 30
0.0
 10
118.0052001953125
 20
56.31387532552083
 30
0.0
 10
118.0272488064236
 20
56.70799424913194
 30
0.0
 10
118.0492974175347
 20
57.10211317274305
 30
0.0
 10
117.9397433810764
 20
57.40803765190972
 30
0.0
 10
117.8742865668403
 20
57.6712429470486
 30
0.0
 10
117.8081407335069
 20
57.93375922309027
 30
0.0
 10
117.6331298828125
 20
58.32787814670138
 30
0.0
 10
117.6331298828125
 20
58.4153835720486
 30
0.0
 10
117.6331298828125
 20
58.50288899739583
 30
0.0
 10
117.3051567925347
 20
60.07867567274305
 30
0.0
 10
117.6110812717014
 20
60.82212727864583
 30
0.0
  0
SPLINE
  5
6C
330
A
100
AcDbEntity
  8
LAYER_1
 62
     7
100
AcDbSpline
210
0.0
220
0.0
230
1.0
 70
     8
 71
     3
 72
    20
 73
    16
 74
     0
 42
0.0000000001
 43
0.0000000001
 40
0.0
 40
0.0
 40
0.0
 40
0.0
 40
1.0
 40
1.0
 40
1.0
 40
2.0
 40
2.0
 40
2.0
 40
3.0
 40
3.0
 40
3.0
 40
4.0
 40
4.0
 40
4.0
 40
5.0
 40
5.0
 40
5.0
 40
5.0
 10
115.9043809678819
 20
39.85665418836805
 30
0.0
 10
116.1668972439236
 20
40.60079481336805
 30
0.0
 10
116.2764512803819
 20
41.67290852864583
 30
0.0
 10
116.3198594835069
 20
42.08907606336805
 30
0.0
 10
116.3639567057292
 20
42.50455457899305
 30
0.0
 10
116.5169189453125
 20
43.33620062934028
 30
0.0
 10
116.6044243706597
 20
43.62076551649305
 30
0.0
 10
116.6919297960069
 20
43.90533040364583
 30
0.0
 10
116.8676296657986
 20
44.99949273003472
 30
0.0
 10
116.8676296657986
 20
45.34951443142361
 30
0.0
 10
116.8676296657986
 20
45.6995361328125
 30
0.0
 10
116.9110378689236
 20
46.09365505642361
 30
0.0
 10
117.1080973307292
 20
47.05690375434028
 30
0.0
 10
117.3051567925347
 20
48.01946343315971
 30
0.0
 10
117.5676730685764
 20
48.6760986328125
 30
0.0
 10
117.5897216796875
 20
49.57320149739583
 30
0.0
  0
LWPOLYLINE
  5
5A
330
A
100
AcDbEntity
  8
LAYER_1
 62
     7
100
AcDbPolyline
 90
       16
 70
     1
 43
0.0
 10
66.0889892578125
 20
59.57500271267361
 10
67.12251790364583
 20
59.92502441406249
 10
72.89994303385416
 20
57.82420518663194
 10
82.74809299045138
 20
61.63241373697916
 10
83.95663248697916
 20
61.28170301649305
 10
83.95663248697916
 20
56.07340766059027
 10
80.89256456163194
 20
51.21513400607638
 10
80.89256456163194
 20
47.1878173828125
 10
83.86912706163194
 20
43.64281412760416
 10
83.86912706163194
 20
39.48458387586805
 10
73.03154568142361
 20
35.45795627170138
 10
66.13308648003472
 20
37.95289442274305
 10
66.00148383246527
 20
41.76041395399305
 10
62.19396430121527
 20
47.23191460503472
 10
62.23737250434027
 20
52.48430718315971
 10
66.0889892578125
 20
55.54837510850694
  0
LINE
  5
59
330
A
100
AcDbEntity
  8
LAYER_1
 62
     7
100
AcDbLine
 10
66.33428005642361
 20
55.52632649739583
 30
0.0
 11
67.01296386718749
 21
55.59178331163194
 31
0.0
  0
LINE
  5
58
330
A
100
AcDbEntity
  8
LAYER_1
 62
     7
100
AcDbLine
 10
63.07315266927083
 20
47.58193630642361
 30
0.0
 11
62.43925509982638
 21
47.27532280815972
 31
0.0
  0
LINE
  5
57
330
A
100
AcDbEntity
  8
LAYER_1
 62
     7
100
AcDbLine
 10
66.86000162760416
 20
42.04497884114583
 30
0.0
 11
66.20336642795138
 21
41.78246256510416
 31
0.0
  0
LINE
  5
56
330
A
100
AcDbEntity
  8
LAYER_1
 62
     7
100
AcDbLine
 10
66.94750705295138
 20
38.36837293836805
 30
0.0
 11
66.35632866753471
 21
37.97425401475694
 31
0.0
  0
LINE
  5
55
330
A
100
AcDbEntity
  8
LAYER_1
 62
     7
100
AcDbLine
 10
83.01060926649305
 20
39.94415961371527
 30
0.0
 11
83.60178765190972
 21
39.52799207899305
 31
0.0
  0
LINE
  5
54
330
A
100
AcDbEntity
  8
LAYER_1
 62
     7
100
AcDbLine
 10
80.01268717447915
 20
47.29737141927083
 30
0.0
 11
80.62522515190972
 21
47.20986599392361
 31
0.0
  0
LINE
  5
53
330
A
100
AcDbEntity
  8
LAYER_1
 62
     7
100
AcDbLine
 10
80.03473578559027
 20
51.23718261718749
 30
0.0
 11
80.64727376302082
 21
51.23718261718749
 31
0.0
  0
LINE
  5
52
330
A
100
AcDbEntity
  8
LAYER_1
 62
     7
100
AcDbLine
 10
83.07675509982639
 20
56.09545627170139
 30
0.0
 11
83.71134168836805
 21
56.07340766059027
 31
0.0
  0
LWPOLYLINE
  5
43
330
A
100
AcDbEntity
  8
LAYER_1
 62
     7
100
AcDbPolyline
 90
       13
 70
     0
 43
0.0
 10
67.12251790364583
 20
59.79411078559027
 10
67.03501247829861
 20
55.59178331163194
 10
63.09520128038194
 20
52.44089898003472
 10
63.13929850260416
 20
47.62603352864583
 10
66.92545844184028
 20
41.93542480468749
 10
67.09151204427083
 20
38.49101833767361
 10
72.89994303385416
 20
36.33301052517361
 10
82.96720106336805
 20
39.96620822482639
 10
82.98924967447915
 20
43.55530870225694
 10
79.94723036024305
 20
47.34146864149305
 10
79.99063856336805
 20
51.21513400607638
 10
83.05470648871527
 20
56.07340766059027
 10
82.92379286024305
 20
61.50081108940972
  0
LINE
  5
42
330
A
100
AcDbEntity
  8
LAYER_1
 62
     7
100
AcDbLine
 10
62.48266330295138
 20
52.4622585720486
 30
0.0
 11
63.02974446614583
 21
52.4622585720486
 31
0.0
  0
LINE
  5
41
330
A
100
AcDbEntity
  8
LAYER_1
 62
     7
100
AcDbLine
 10
83.05470648871527
 20
43.53326009114583
 30
0.0
 11
83.62383626302082
 21
43.62076551649305
 31
0.0
  0
LINE
  5
40
330
A
100
AcDbEntity
  8
LAYER_1
 62
     7
100
AcDbLine
 10
73.70954047309027
 20
56.16091308593749
 30
0.0
 11
73.70954047309027
 21
38.23677029079861
 31
0.0
  0
LINE
  5
3F
330
A
100
AcDbEntity
  8
LAYER_1
 62
     7
100
AcDbLine
 10
72.81243760850694
 20
37.64628092447916
 30
0.0
 11
72.81243760850694
 21
56.07340766059027
 31
0.0
  0
SPLINE
  5
3E
330
A
100
AcDbEntity
  8
LAYER_1
 62
     7
100
AcDbSpline
210
0.0
220
0.0
230
1.0
 70
     8
 71
     3
 72
    14
 73
    10
 74
     0
 42
0.0000000001
 43
0.0000000001
 40
0.0
 40
0.0
 40
0.0
 40
0.0
 40
1.0
 40
1.0
 40
1.0
 40
2.0
 40
2.0
 40
2.0
 40
3.0
 40
3.0
 40
3.0
 40
3.0
 10
68.75756022135415
 20
57.69191351996528
 30
0.0
 10
68.38962402343749
 20
57.69191351996528
 30
0.0
 10
68.09058973524304
 20
57.35360514322916
 30
0.0
 10
68.09058973524304
 20
56.93674858940972
 30
0.0
 10
68.09058973524304
 20
56.51920301649305
 30
0.0
 10
68.38962402343749
 20
56.18089463975694
 30
0.0
 10
68.75756022135415
 20
56.18089463975694
 30
0.0
 10
68.84971652560763
 20
56.18089463975694
 30
0.0
 10
68.93756646050346
 20
56.20208197699652
 30
0.0
 10
69.01732042100694
 20
56.24032253689236
 30
0.0
  0
ELLIPSE
  5
3D
330
A
100
AcDbEntity
  8
LAYER_1
 62
     7
100
AcDbEllipse
 10
69.01869845920139
 20
57.00496148003472
 30
0.0
 11
0.0
 21
-0.7551649305555555
 31
0.0
210
0.0
220
0.0
230
1.0
 40
0.8832116788321169
 41
0.0
 42
6.283185307179586
  0
SPLINE
  5
3C
330
A
100
AcDbEntity
  8
LAYER_1
 62
     7
100
AcDbSpline
210
0.0
220
0.0
230
1.0
 70
     8
 71
     3
 72
    14
 73
    10
 74
     0
 42
0.0000000001
 43
0.0000000001
 40
0.0
 40
0.0
 40
0.0
 40
0.0
 40
1.0
 40
1.0
 40
1.0
 40
2.0
 40
2.0
 40
2.0
 40
3.0
 40
3.0
 40
3.0
 40
3.0
 10
68.05131564670138
 20
53.3827880859375
 30
0.0
 10
67.6826904296875
 20
53.3827880859375
 30
0.0
 10
67.38365614149305
 20
53.04516872829861
 30
0.0
 10
67.38365614149305
 20
52.62762315538194
 30
0.0
 10
67.38365614149305
 20
52.2107666015625
 30
0.0
 10
67.6826904296875
 20
51.87245822482638
 30
0.0
 10
68.05131564670138
 20
51.87245822482638
 30
0.0
 10
68.14329969618055
 20
51.87245822482638
 30
0.0
 10
68.23097737630208
 20
51.89364556206597
 30
0.0
 10
68.31073133680555
 20
51.9318861219618
 30
0.0
  0
ELLIPSE
  5
3B
330
A
100
AcDbEntity
  8
LAYER_1
 62
     7
100
AcDbEllipse
 10
68.31176486545138
 20
52.69618055555555
 30
0.0
 11
0.0
 21
-0.7555094401041667
 31
0.0
210
0.0
220
0.0
230
1.0
 40
0.8828090552961448
 41
0.0
 42
6.283185307179586
  0
SPLINE
  5
3A
330
A
100
AcDbEntity
  8
LAYER_1
 62
     7
100
AcDbSpline
210
0.0
220
0.0
230
1.0
 70
     8
 71
     3
 72
    14
 73
    10
 74
     0
 42
0.0000000001
 43
0.0000000001
 40
0.0
 40
0.0
 40
0.0
 40
0.0
 40
1.0
 40
1.0
 40
1.0
 40
2.0
 40
2.0
 40
2.0
 40
3.0
 40
3.0
 40
3.0
 40
3.0
 10
65.2242702907986
 20
50.19125162760416
 30
0.0
 10
64.85564507378471
 20
50.19125162760416
 30
0.0
 10
64.55729980468749
 20
49.85363226996527
 30
0.0
 10
64.55729980468749
 20
49.43608669704861
 30
0.0
 10
64.55729980468749
 20
49.01923014322917
 30
0.0
 10
64.85564507378471
 20
48.68092176649305
 30
0.0
 10
65.2242702907986
 20
48.68092176649305
 30
0.0
 10
65.30884738498263
 20
48.68092176649305
 30
0.0
 10
65.38963487413194
 20
48.69866400824652
 30
0.0
 10
65.46404893663194
 20
48.73122016059028
 30
0.0
  0
SPLINE
  5
39
330
A
100
AcDbEntity
  8
LAYER_1
 62
     7
100
AcDbSpline
210
0.0
220
0.0
230
1.0
 70
    11
 71
     3
 72
    20
 73
    16
 74
     0
 42
0.0000000001
 43
0.0000000001
 40
0.0
 40
0.0
 40
0.0
 40
0.0
 40
1.0
 40
1.0
 40
1.0
 40
2.0
 40
2.0
 40
2.0
 40
3.0
 40
3.0
 40
3.0
 40
4.0
 40
4.0
 40
4.0
 40
5.0
 40
5.0
 40
5.0
 40
5.0
 10
64.84238145616318
 20
49.29983317057291
 30
0.0
 10
64.92110188802083
 20
48.98219536675347
 30
0.0
 10
65.17879503038193
 20
48.74913465711805
 30
0.0
 10
65.48471950954861
 20
48.74913465711805
 30
0.0
 10
65.8533447265625
 20
48.74913465711805
 30
0.0
 10
66.15168999565972
 20
49.08744303385416
 30
0.0
 10
66.15168999565972
 20
49.50429958767361
 30
0.0
 10
66.15168999565972
 20
49.92184516059027
 30
0.0
 10
65.8533447265625
 20
50.26015353732638
 30
0.0
 10
65.48471950954861
 20
50.26015353732638
 30
0.0
 10
65.11609429253471
 20
50.26015353732638
 30
0.0
 10
64.8177490234375
 20
49.92184516059027
 30
0.0
 10
64.8177490234375
 20
49.50429958767361
 30
0.0
 10
64.8177490234375
 20
49.43350287543402
 30
0.0
 10
64.82636176215277
 20
49.36494547526041
 30
0.0
 10
64.84238145616318
 20
49.29983317057291
 30
0.0
  0
SPLINE
  5
38
330
A
100
AcDbEntity
  8
LAYER_1
 62
     7
100
AcDbSpline
210
0.0
220
0.0
230
1.0
 70
     8
 71
     3
 72
    14
 73
    10
 74
     0
 42
0.0000000001
 43
0.0000000001
 40
0.0
 40
0.0
 40
0.0
 40
0.0
 40
1.0
 40
1.0
 40
1.0
 40
2.0
 40
2.0
 40
2.0
 40
3.0
 40
3.0
 40
3.0
 40
3.0
 10
68.87193739149305
 20
40.82196994357638
 30
0.0
 10
68.50331217447916
 20
40.82196994357638
 30
0.0
 10
68.20427788628471
 20
40.48366156684028
 30
0.0
 10
68.20427788628471
 20
40.06680501302083
 30
0.0
 10
68.20427788628471
 20
39.64925944010416
 30
0.0
 10
68.50331217447916
 20
39.31164008246527
 30
0.0
 10
68.87193739149305
 20
39.31164008246527
 30
0.0
 10
68.96392144097221
 20
39.31164008246527
 30
0.0
 10
69.05159912109374
 20
39.33265516493055
 30
0.0
 10
69.13135308159721
 20
39.37089572482638
 30
0.0
  0
ELLIPSE
  5
37
330
A
100
AcDbEntity
  8
LAYER_1
 62
     7
100
AcDbEllipse
 10
69.13238661024305
 20
40.13501790364583
 30
0.0
 11
0.0
 21
-0.7551649305555555
 31
0.0
210
0.0
220
0.0
230
1.0
 40
0.8832116788321169
 41
0.0
 42
6.283185307179586
  0
SPLINE
  5
36
330
A
100
AcDbEntity
  8
LAYER_1
 62
     7
100
AcDbSpline
210
0.0
220
0.0
230
1.0
 70
     8
 71
     3
 72
    14
 73
    10
 74
     0
 42
0.0000000001
 43
0.0000000001
 40
0.0
 40
0.0
 40
0.0
 40
0.0
 40
1.0
 40
1.0
 40
1.0
 40
2.0
 40
2.0
 40
2.0
 40
3.0
 40
3.0
 40
3.0
 40
3.0
 10
76.45045844184027
 20
43.71722819010417
 30
0.0
 10
76.81839463975693
 20
43.71722819010417
 30
0.0
 10
77.11742892795138
 20
43.37891981336805
 30
0.0
 10
77.11742892795138
 20
42.96206325954861
 30
0.0
 10
77.11742892795138
 20
42.54451768663194
 30
0.0
 10
76.81839463975693
 20
42.20620930989583
 30
0.0
 10
76.45045844184027
 20
42.20620930989583
 30
0.0
 10
76.3583021375868
 20
42.20620930989583
 30
0.0
 10
76.27045220269096
 20
42.22739664713541
 30
0.0
 10
76.19069824218749
 20
42.26563720703125
 30
0.0
  0
ELLIPSE
  5
35
330
A
100
AcDbEntity
  8
LAYER_1
 62
     7
100
AcDbEllipse
 10
76.18932020399305
 20
43.03027615017361
 30
0.0
 11
0.0
 21
-0.7551649305555555
 31
0.0
210
0.0
220
0.0
230
1.0
 40
0.8832116788321169
 41
0.0
 42
6.283185307179586
  0
SPLINE
  5
34
330
A
100
AcDbEntity
  8
LAYER_1
 62
     7
100
AcDbSpline
210
0.0
220
0.0
230
1.0
 70
     8
 71
     3
 72
    14
 73
    10
 74
     0
 42
0.0000000001
 43
0.0000000001
 40
0.0
 40
0.0
 40
0.0
 40
0.0
 40
1.0
 40
1.0
 40
1.0
 40
2.0
 40
2.0
 40
2.0
 40
3.0
 40
3.0
 40
3.0
 40
3.0
 10
81.12338595920139
 20
42.02982042100694
 30
0.0
 10
81.49201117621527
 20
42.02982042100694
 30
0.0
 10
81.79104546440972
 20
41.69220106336805
 30
0.0
 10
81.79104546440972
 20
41.27465549045139
 30
0.0
 10
81.79104546440972
 20
40.85779893663194
 30
0.0
 10
81.49201117621527
 20
40.51949055989583
 30
0.0
 10
81.12338595920139
 20
40.51949055989583
 30
0.0
 10
81.02967936197916
 20
40.51949055989583
 30
0.0
 10
80.94045138888889
 20
40.54136691623263
 30
0.0
 10
80.85966389973957
 20
40.58098551432291
 30
0.0
  0
ELLIPSE
  5
33
330
A
100
AcDbEntity
  8
LAYER_1
 62
     7
100
AcDbEllipse
 10
80.86293674045139
 20
41.343212890625
 30
0.0
 11
0.0
 21
-0.7555094401041667
 31
0.0
210
0.0
220
0.0
230
1.0
 40
0.8828090552961448
 41
0.0
 42
6.283185307179586
  0
SPLINE
  5
32
330
A
100
AcDbEntity
  8
LAYER_1
 62
     7
100
AcDbSpline
210
0.0
220
0.0
230
1.0
 70
     8
 71
     3
 72
    14
 73
    10
 74
     0
 42
0.0000000001
 43
0.0000000001
 40
0.0
 40
0.0
 40
0.0
 40
0.0
 40
1.0
 40
1.0
 40
1.0
 40
2.0
 40
2.0
 40
2.0
 40
3.0
 40
3.0
 40
3.0
 40
3.0
 10
77.97732476128472
 20
48.61822102864583
 30
0.0
 10
78.34594997829861
 20
48.61822102864583
 30
0.0
 10
78.64498426649305
 20
48.28060167100694
 30
0.0
 10
78.64498426649305
 20
47.86305609809028
 30
0.0
 10
78.64498426649305
 20
47.44619954427083
 30
0.0
 10
78.34594997829861
 20
47.10789116753472
 30
0.0
 10
77.97732476128472
 20
47.10789116753472
 30
0.0
 10
77.8836181640625
 20
47.10789116753472
 30
0.0
 10
77.79439019097221
 20
47.12976752387152
 30
0.0
 10
77.71343044704861
 20
47.1693861219618
 30
0.0
  0
ELLIPSE
  5
31
330
A
100
AcDbEntity
  8
LAYER_1
 62
     7
100
AcDbEllipse
 10
77.71687554253471
 20
47.93161349826389
 30
0.0
 11
0.0
 21
-0.7555094401041667
 31
0.0
210
0.0
220
0.0
230
1.0
 40
0.8828090552961448
 41
0.0
 42
6.283185307179586
  0
SPLINE
  5
30
330
A
100
AcDbEntity
  8
LAYER_1
 62
     7
100
AcDbSpline
210
0.0
220
0.0
230
1.0
 70
     8
 71
     3
 72
    14
 73
    10
 74
     0
 42
0.0000000001
 43
0.0000000001
 40
0.0
 40
0.0
 40
0.0
 40
0.0
 40
1.0
 40
1.0
 40
1.0
 40
2.0
 40
2.0
 40
2.0
 40
3.0
 40
3.0
 40
3.0
 40
3.0
 10
81.00969780815971
 20
59.31041937934027
 30
0.0
 10
81.3783230251736
 20
59.31041937934027
 30
0.0
 10
81.67666829427083
 20
58.97211100260416
 30
0.0
 10
81.67666829427083
 20
58.55525444878472
 30
0.0
 10
81.67666829427083
 20
58.13770887586805
 30
0.0
 10
81.3783230251736
 20
57.80008951822916
 30
0.0
 10
81.00969780815971
 20
57.80008951822916
 30
0.0
 10
80.91754150390624
 20
57.80008951822916
 30
0.0
 10
80.82986382378472
 20
57.82110460069444
 30
0.0
 10
80.75010986328124
 20
57.85934516059027
 30
0.0
  0
ELLIPSE
  5
2F
330
A
100
AcDbEntity
  8
LAYER_1
 62
     7
100
AcDbEllipse
 10
80.74924858940972
 20
58.62346733940971
 30
0.0
 11
0.0
 21
-0.7551649305555555
 31
0.0
210
0.0
220
0.0
230
1.0
 40
0.8841240875912408
 41
0.0
 42
6.283185307179586
  0
HATCH
  5
2E
330
A
100
AcDbEntity
  8
LAYER_1
 62
     7
100
AcDbHatch
 10
0.0
 20
0.0
 30
0.0
210
0.0
220
0.0
230
1.0
  2
SOLID
 70
     1
 71
     0
 91
        1
 92
        1
 93
        1
 72
     4
 94
        3
 73
     0
 74
     0
 95
       35
 96
       31
 40
0.0
 40
0.0
 40
0.0
 40
0.0
 40
1.0
 40
1.0
 40
1.0
 40
2.0
 40
2.0
 40
2.0
 40
3.0
 40
3.0
 40
3.0
 40
4.0
 40
4.0
 40
4.0
 40
5.0
 40
5.0
 40
5.0
 40
6.0
 40
6.0
 40
6.0
 40
7.0
 40
7.0
 40
7.0
 40
8.0
 40
8.0
 40
8.0
 40
9.0
 40
9.0
 40
9.0
 40
10.0
 40
10.0
 40
10.0
 40
10.0
 10
76.47664116753471
 20
80.32619086371527
 10
76.47664116753471
 20
80.32619086371527
 10
75.76695149739582
 20
80.04300401475693
 10
75.76695149739582
 20
80.04300401475693
 10
75.76695149739582
 20
80.04300401475693
 10
75.76695149739582
 20
86.33030327690972
 10
75.76695149739582
 20
86.33030327690972
 10
75.76695149739582
 20
86.33030327690972
 10
79.40428331163194
 20
87.78137749565971
 10
79.40428331163194
 20
87.78137749565971
 10
79.40428331163194
 20
87.78137749565971
 10
79.40428331163194
 20
87.02827962239583
 10
79.40428331163194
 20
87.02827962239583
 10
79.40428331163194
 20
87.02827962239583
 10
76.47664116753471
 20
85.86039225260416
 10
76.47664116753471
 20
85.86039225260416
 10
76.47664116753471
 20
85.86039225260416
 10
76.47664116753471
 20
83.93389485677082
 10
76.47664116753471
 20
83.93389485677082
 10
76.47664116753471
 20
83.93389485677082
 10
79.0528835720486
 20
84.96191134982638
 10
79.0528835720486
 20
84.96191134982638
 10
79.0528835720486
 20
84.96191134982638
 10
79.0528835720486
 20
84.2088134765625
 10
79.0528835720486
 20
84.2088134765625
 10
79.0528835720486
 20
84.2088134765625
 10
76.47664116753471
 20
83.18079698350694
 10
76.47664116753471
 20
83.18079698350694
 10
76.47664116753471
 20
83.18079698350694
 10
76.47664116753471
 20
80.32619086371527
 10
76.47664116753471
 20
80.32619086371527
 97
        0
 75
     0
 76
     1
 98
        1
 10
0.0
 20
0.0
  0
HATCH
  5
2D
330
A
100
AcDbEntity
  8
LAYER_1
 62
     7
100
AcDbHatch
 10
0.0
 20
0.0
 30
0.0
210
0.0
220
0.0
230
1.0
  2
SOLID
 70
     1
 71
     0
 91
        1
 92
        1
 93
        1
 72
     4
 94
        3
 73
     0
 74
     0
 95
       26
 96
       22
 40
0.0
 40
0.0
 40
0.0
 40
0.0
 40
1.0
 40
1.0
 40
1.0
 40
2.0
 40
2.0
 40
2.0
 40
3.0
 40
3.0
 40
3.0
 40
4.0
 40
4.0
 40
4.0
 40
5.0
 40
5.0
 40
5.0
 40
6.0
 40
6.0
 40
6.0
 40
7.0
 40
7.0
 40
7.0
 40
7.0
 10
81.86890462239583
 20
79.56069064670139
 10
81.86890462239583
 20
79.56069064670139
 10
81.18126356336805
 20
79.28646104600693
 10
81.18126356336805
 20
79.28646104600693
 10
81.18126356336805
 20
79.28646104600693
 10
81.18126356336805
 20
83.65622016059027
 10
81.18126356336805
 20
83.65622016059027
 10
81.18126356336805
 20
83.65622016059027
 10
79.98099229600693
 20
83.17735188802082
 10
79.98099229600693
 20
83.17735188802082
 10
79.98099229600693
 20
83.17735188802082
 10
79.98099229600693
 20
83.79057888454861
 10
79.98099229600693
 20
83.79057888454861
 10
80.81539442274305
 20
84.19296603732639
 10
81.15921495225693
 20
84.42654351128472
 10
81.36454264322916
 20
85.51519368489582
 10
81.36454264322916
 20
85.51519368489582
 10
81.86890462239583
 20
85.71707628038193
 10
81.86890462239583
 20
85.71707628038193
 10
81.86890462239583
 20
85.71707628038193
 10
81.86890462239583
 20
79.56069064670139
 10
81.86890462239583
 20
79.56069064670139
 97
        0
 75
     0
 76
     1
 98
        1
 10
0.0
 20
0.0
  0
HATCH
  5
2C
330
A
100
AcDbEntity
  8
LAYER_1
 62
     7
100
AcDbHatch
 10
0.0
 20
0.0
 30
0.0
210
0.0
220
0.0
230
1.0
  2
SOLID
 70
     1
 71
     0
 91
        1
 92
        3
 72
     0
 73
     1
 93
        7
 10
16.52371148003472
 20
17.8624755859375
 10
16.52371148003472
 20
16.4176025390625
 10
40.95495062934027
 20
26.02390679253472
 10
40.97355414496528
 20
24.14839680989583
 10
46.4188720703125
 20
28.76069064670139
 10
40.97355414496528
 20
29.46142306857639
 10
40.95495062934027
 20
27.44535319010416
 97
        0
 75
     0
 76
     1
 98
        1
 10
0.0
 20
0.0
  0
HATCH
  5
2B
330
A
100
AcDbEntity
  8
LAYER_1
 62
     7
100
AcDbHatch
 10
0.0
 20
0.0
 30
0.0
210
0.0
220
0.0
230
1.0
  2
SOLID
 70
     1
 71
     0
 91
        1
 92
        1
 93
        1
 72
     4
 94
        3
 73
     0
 74
     0
 95
       35
 96
       31
 40
0.0
 40
0.0
 40
0.0
 40
0.0
 40
1.0
 40
1.0
 40
1.0
 40
2.0
 40
2.0
 40
2.0
 40
3.0
 40
3.0
 40
3.0
 40
4.0
 40
4.0
 40
4.0
 40
5.0
 40
5.0
 40
5.0
 40
6.0
 40
6.0
 40
6.0
 40
7.0
 40
7.0
 40
7.0
 40
8.0
 40
8.0
 40
8.0
 40
9.0
 40
9.0
 40
9.0
 40
10.0
 40
10.0
 40
10.0
 40
10.0
 10
18.66587185329861
 20
23.23475748697916
 10
18.66587185329861
 20
23.23475748697916
 10
17.95480414496528
 20
22.95570475260416
 10
17.95480414496528
 20
22.95570475260416
 10
17.95480414496528
 20
22.95570475260416
 10
17.93895670572917
 20
29.24300401475694
 10
17.93895670572917
 20
29.24300401475694
 10
17.93895670572917
 20
29.24300401475694
 10
21.58180067274305
 20
30.67202962239583
 10
21.58180067274305
 20
30.67202962239583
 10
21.58180067274305
 20
30.67202962239583
 10
21.58386773003472
 20
29.91893174913194
 10
21.58386773003472
 20
29.91893174913194
 10
21.58386773003472
 20
29.91893174913194
 10
18.65209147135417
 20
28.76895887586805
 10
18.65209147135417
 20
28.76895887586805
 10
18.65209147135417
 20
28.76895887586805
 10
18.65691460503472
 20
26.84246148003472
 10
18.65691460503472
 20
26.84246148003472
 10
18.65691460503472
 20
26.84246148003472
 10
21.23660210503472
 20
27.85463053385416
 10
21.23660210503472
 20
27.85463053385416
 10
21.23660210503472
 20
27.85463053385416
 10
21.23866916232639
 20
27.10153266059028
 10
21.23866916232639
 20
27.10153266059028
 10
21.23866916232639
 20
27.10153266059028
 10
18.65829264322916
 20
26.08936360677083
 10
18.65829264322916
 20
26.08936360677083
 10
18.65829264322916
 20
26.08936360677083
 10
18.66587185329861
 20
23.23475748697916
 10
18.66587185329861
 20
23.23475748697916
 97
        0
 75
     0
 76
     1
 98
        1
 10
0.0
 20
0.0
  0
HATCH
  5
2A
330
A
100
AcDbEntity
  8
LAYER_1
 62
     7
100
AcDbHatch
 10
0.0
 20
0.0
 30
0.0
210
0.0
220
0.0
230
1.0
  2
SOLID
 70
     1
 71
     0
 91
        1
 92
        1
 93
        1
 72
     4
 94
        3
 73
     0
 74
     0
 95
       47
 96
       43
 40
0.0
 40
0.0
 40
0.0
 40
0.0
 40
1.0
 40
1.0
 40
1.0
 40
2.0
 40
2.0
 40
2.0
 40
3.0
 40
3.0
 40
3.0
 40
4.0
 40
4.0
 40
4.0
 40
5.0
 40
5.0
 40
5.0
 40
6.0
 40
6.0
 40
6.0
 40
7.0
 40
7.0
 40
7.0
 40
8.0
 40
8.0
 40
8.0
 40
9.0
 40
9.0
 40
9.0
 40
10.0
 40
10.0
 40
10.0
 40
11.0
 40
11.0
 40
11.0
 40
12.0
 40
12.0
 40
12.0
 40
13.0
 40
13.0
 40
13.0
 40
14.0
 40
14.0
 40
14.0
 40
14.0
 10
21.75818956163194
 20
25.48164876302083
 10
21.75336642795139
 20
27.4866943359375
 10
22.97706434461805
 20
28.1688232421875
 10
23.53379177517361
 20
28.38655327690972
 10
24.42813856336806
 20
28.73795301649305
 10
25.14816351996528
 20
28.32798665364583
 10
25.15091959635416
 20
27.18076985677083
 10
25.15367567274305
 20
26.07765028211805
 10
24.54664984809028
 20
25.37485080295139
 10
23.7783935546875
 20
24.58247884114583
 10
23.7783935546875
 20
24.58247884114583
 10
23.24371473524305
 20
24.02230631510416
 10
23.24371473524305
 20
24.02230631510416
 10
22.54160427517361
 20
23.28161078559027
 10
22.38864203559028
 20
22.74004177517361
 10
22.35970323350694
 20
22.49199490017361
 10
22.35970323350694
 20
22.49199490017361
 10
25.15987684461805
 20
23.59098036024306
 10
25.15987684461805
 20
23.59098036024306
 10
25.15987684461805
 20
23.59098036024306
 10
25.16194390190972
 20
22.86406521267361
 10
25.16194390190972
 20
22.86406521267361
 10
25.16194390190972
 20
22.86406521267361
 10
21.63623318142361
 20
21.48051486545139
 10
21.63623318142361
 20
21.48051486545139
 10
21.6699951171875
 20
22.77311469184028
 10
22.15161946614583
 20
23.64610188802083
 10
22.83926052517361
 20
24.39782172309027
 10
22.83926052517361
 20
24.39782172309027
 10
23.52001139322917
 20
25.13851725260416
 10
23.52001139322917
 20
25.13851725260416
 10
24.06915961371528
 20
25.73038465711805
 10
24.46396755642361
 20
26.13966200086805
 10
24.46190049913194
 20
26.94512532552083
 10
24.4605224609375
 20
27.43570692274305
 10
24.19525010850694
 20
27.95384928385417
 10
23.44077419704861
 20
27.65757107204861
 10
22.46581217447917
 20
27.27516547309028
 10
22.42447102864583
 20
26.1720458984375
 10
22.40311143663194
 20
25.73451877170139
 10
22.40311143663194
 20
25.73451877170139
 10
21.75818956163194
 20
25.48164876302083
 10
21.75818956163194
 20
25.48164876302083
 97
        0
 75
     0
 76
     1
 98
        1
 10
0.0
 20
0.0
  0
SPLINE
  5
29
330
A
100
AcDbEntity
  8
LAYER_1
 62
     7
100
AcDbSpline
210
0.0
220
0.0
230
1.0
 70
     8
 71
     3
 72
     8
 73
     4
 74
     0
 42
0.0000000001
 43
0.0000000001
 40
0.0
 40
0.0
 40
0.0
 40
0.0
 40
1.0
 40
1.0
 40
1.0
 40
1.0
 10
75.32942437065971
 20
53.64392632378472
 30
0.0
 10
75.32942437065971
 20
52.96593153211805
 30
0.0
 10
75.87650553385416
 20
51.56515570746527
 30
0.0
 10
76.70815158420139
 20
51.19308539496527
 30
0.0
  0
LWPOLYLINE
  5
22
330
A
100
AcDbEntity
  8
LAYER_1
 62
     7
100
AcDbPolyline
 90
        5
 70
     0
 43
0.0
 10
75.35147298177083
 20
55.85429958767361
 10
75.28532714843749
 20
51.67470974392361
 10
76.07356499565971
 20
50.27393391927083
 10
76.94861924913194
 20
51.58720431857638
 10
76.90521104600694
 20
56.42342936197916
  0
ENDSEC
  0
SECTION
  2
OBJECTS
  0
DICTIONARY
  5
19
330
0
100
AcDbDictionary
281
     1
  3
ACAD_COLOR
350
E3
  3
ACAD_GROUP
350
1A
  3
ACAD_LAYOUT
350
B0
  3
ACAD_MATERIAL
350
E5
  3
ACAD_MLINESTYLE
350
1B
  3
ACAD_PLOTSETTINGS
350
B1
  3
ACAD_PLOTSTYLENAME
350
AE
  3
ACDBHEADERROUNDTRIPXREC
350
E2
  0
DICTIONARY
  5
E3
102
{ACAD_REACTORS
330
19
102
}
330
19
100
AcDbDictionary
281
     1
  0
DICTIONARY
  5
1A
102
{ACAD_REACTORS
330
19
102
}
330
19
100
AcDbDictionary
281
     1
  0
DICTIONARY
  5
B0
102
{ACAD_REACTORS
330
19
102
}
330
19
100
AcDbDictionary
281
     1
  3
Layout1
350
B3
  3
Model
350
B2
  0
DICTIONARY
  5
E5
102
{ACAD_REACTORS
330
19
102
}
330
19
100
AcDbDictionary
281
     1
  0
DICTIONARY
  5
1B
102
{ACAD_REACTORS
330
19
102
}
330
19
100
AcDbDictionary
281
     1
  3
STANDARD
350
1C
  0
DICTIONARY
  5
B1
102
{ACAD_REACTORS
330
19
102
}
330
19
100
AcDbDictionary
281
     1
  0
ACDBDICTIONARYWDFLT
  5
AE
102
{ACAD_REACTORS
330
19
102
}
330
19
100
AcDbDictionary
281
     1
  3
Normal
350
AF
100
AcDbDictionaryWithDefault
340
AF
  0
DICTIONARY
  5
E2
102
{ACAD_REACTORS
330
19
102
}
330
19
100
AcDbDictionary
281
     1
  3
COLORDICT
350
E4
  3
MATERIALDICT
350
E6
  0
LAYOUT
  5
B3
102
{ACAD_REACTORS
330
B0
102
}
102
{ACAD_XDICTIONARY
360
E7
102
}
330
B0
100
AcDbPlotSettings
  1

  2
Support Center HP LaserJet 4
  4

  6

 40
0.0
 41
0.0
 42
0.0
 43
0.0
 44
0.0
 45
0.0
 46
0.0
 47
0.0
 48
0.0
 49
0.0
140
0.0
141
0.0
142
1.0
143
1.0
 70
   688
 72
     0
 73
     0
 74
     5
  7

 75
    16
147
1.0
148
0.0
149
0.0
100
AcDbLayout
  1
Layout1
 70
     0
 71
     1
 10
0.0
 20
0.0
 11
12.0
 21
9.0
 12
0.0
 22
0.0
 32
0.0
 14
1.000000000000000E+20
 24
1.000000000000000E+20
 34
1.000000000000000E+20
 15
-1.000000000000000E+20
 25
-1.000000000000000E+20
 35
-1.000000000000000E+20
146
0.0
 13
0.0
 23
0.0
 33
0.0
 16
1.0
 26
0.0
 36
0.0
 17
0.0
 27
1.0
 37
0.0
 76
     0
330
B
  0
LAYOUT
  5
B2
102
{ACAD_REACTORS
330
B0
102
}
102
{ACAD_XDICTIONARY
360
E9
102
}
330
B0
100
AcDbPlotSettings
  1

  2
Support Center HP LaserJet 4
  4

  6

 40
0.0
 41
0.0
 42
0.0
 43
0.0
 44
0.0
 45
0.0
 46
0.0
 47
0.0
 48
0.0
 49
0.0
140
0.0
141
0.0
142
1.0
143
1.0
 70
  1712
 72
     0
 73
     0
 74
     0
  7

 75
     0
147
1.0
148
0.0
149
0.0
100
AcDbLayout
  1
Model
 70
     1
 71
     0
 10
0.0
 20
0.0
 11
12.0
 21
9.0
 12
0.0
 22
0.0
 32
0.0
 14
0.0
 24
0.0
 34
0.0
 15
0.0
 25
0.0
 35
0.0
146
0.0
 13
0.0
 23
0.0
 33
0.0
 16
1.0
 26
0.0
 36
0.0
 17
0.0
 27
1.0
 37
0.0
 76
     0
330
A
  0
MLINESTYLE
  5
1C
102
{ACAD_REACTORS
330
1B
102
}
330
1B
100
AcDbMlineStyle
  2
STANDARD
 70
     0
  3

 62
     0
 51
90.0000000000002
 52
90.0000000000002
 71
     2
 49
0.5
 62
   256
  6
BYLAYER
 49
-0.5
 62
   256
  6
BYLAYER
  0
ACDBPLACEHOLDER
  5
AF
102
{ACAD_REACTORS
330
AE
102
}
330
AE
  0
XRECORD
  5
E4
102
{ACAD_REACTORS
330
E2
102
}
330
E2
100
AcDbXrecord
340
E3
  0
XRECORD
  5
E6
102
{ACAD_REACTORS
330
E2
102
}
330
E2
100
AcDbXrecord
340
E5
  0
DICTIONARY
  5
E7
330
B3
100
AcDbDictionary
280
     1
281
     1
  3
ACAD_XREC_ROUNDTRIP
360
E8
  0
DICTIONARY
  5
E9
330
B2
100
AcDbDictionary
280
     1
281
     1
  3
ACAD_XREC_ROUNDTRIP
360
EA
  0
XRECORD
  5
E8
102
{ACAD_REACTORS
330
E7
102
}
330
E7
100
AcDbXrecord
102
SHADEPLOT
 70
     0
102
SHADEPLOTRESLEVEL
 70
     0
102
SHADEPLOTCUSTOMDPI
 70
     0
  0
XRECORD
  5
EA
102
{ACAD_REACTORS
330
E9
102
}
330
E9
100
AcDbXrecord
102
SHADEPLOT
 70
-25416
102
SHADEPLOTRESLEVEL
 70
 -2880
102
SHADEPLOTCUSTOMDPI
 70
 20968
  0
ENDSEC
  0
EOF
