  0
SECTION
  2
HEADER
  9
$ACADVER
  1
AC1015
  9
$ACADMAINTVER
 70
     6
  9
$DWGCODEPAGE
  3
ISO8859-1
  9
$INSBASE
 10
0.0
 20
0.0
 30
0.0
  9
$EXTMIN
 10
0.193893
 20
0.2200483333333334
 30
0.0
  9
$EXTMAX
 10
5.448878000000001
 20
5.328629
 30
0.0
  9
$LIMMIN
 10
0.0
 20
0.0
  9
$LIMMAX
 10
8.0
 20
8.0
  9
$ORTHOMODE
 70
     1
  9
$REGENMODE
 70
     1
  9
$FILLMODE
 70
     1
  9
$QTEXTMODE
 70
     0
  9
$MIRRTEXT
 70
     1
  9
$LTSCALE
 40
0.5
  9
$ATTMODE
 70
     1
  9
$TEXTSIZE
 40
0.131
  9
$TRACEWID
 40
0.05
  9
$TEXTSTYLE
  7
STANDARD
  9
$CLAYER
  8
0
  9
$CELTYPE
  6
ByLayer
  9
$CECOLOR
 62
   256
  9
$CELTSCALE
 40
1.0
  9
$DISPSILH
 70
     0
  9
$DIMSCALE
 40
1.0
  9
$DIMASZ
 40
0.125
  9
$DIMEXO
 40
0.062
  9
$DIMDLI
 40
0.375
  9
$DIMRND
 40
0.0
  9
$DIMDLE
 40
0.0
  9
$DIMEXE
 40
0.08
  9
$DIMTP
 40
0.0
  9
$DIMTM
 40
0.0
  9
$DIMTXT
 40
0.09
  9
$DIMCEN
 40
-0.06
  9
$DIMTSZ
 40
0.0
  9
$DIMTOL
 70
     0
  9
$DIMLIM
 70
     0
  9
$DIMTIH
 70
     1
  9
$DIMTOH
 70
     1
  9
$DIMSE1
 70
     0
  9
$DIMSE2
 70
     0
  9
$DIMTAD
 70
     0
  9
$DIMZIN
 70
     0
  9
$DIMBLK
  1

  9
$DIMASO
 70
     0
  9
$DIMSHO
 70
     0
  9
$DIMPOST
  1

  9
$DIMAPOST
  1

  9
$DIMALT
 70
     0
  9
$DIMALTD
 70
     2
  9
$DIMALTF
 40
25.4
  9
$DIMLFAC
 40
1.0
  9
$DIMTOFL
 70
     0
  9
$DIMTVP
 40
0.0
  9
$DIMTIX
 70
     0
  9
$DIMSOXD
 70
     0
  9
$DIMSAH
 70
     0
  9
$DIMBLK1
  1

  9
$DIMBLK2
  1

  9
$DIMSTYLE
  2
Standard
  9
$DIMCLRD
 70
     0
  9
$DIMCLRE
 70
     0
  9
$DIMCLRT
 70
     0
  9
$DIMTFAC
 40
1.0
  9
$DIMGAP
 40
0.09
  9
$DIMJUST
 70
     0
  9
$DIMSD1
 70
     0
  9
$DIMSD2
 70
     0
  9
$DIMTOLJ
 70
     1
  9
$DIMTZIN
 70
     0
  9
$DIMALTZ
 70
     0
  9
$DIMALTTZ
 70
     0
  9
$DIMUPT
 70
     0
  9
$DIMDEC
 70
     4
  9
$DIMTDEC
 70
     4
  9
$DIMALTU
 70
     2
  9
$DIMALTTD
 70
     2
  9
$DIMTXSTY
  7
STANDARD
  9
$DIMAUNIT
 70
     0
  9
$DIMADEC
 70
     0
  9
$DIMALTRND
 40
0.0
  9
$DIMAZIN
 70
     0
  9
$DIMDSEP
 70
    46
  9
$DIMATFIT
 70
     3
  9
$DIMFRAC
 70
     0
  9
$DIMLDRBLK
  1

  9
$DIMLUNIT
 70
     2
  9
$DIMLWD
 70
    -2
  9
$DIMLWE
 70
    -2
  9
$DIMTMOVE
 70
     0
  9
$LUNITS
 70
     2
  9
$LUPREC
 70
     4
  9
$SKETCHINC
 40
0.1
  9
$FILLETRAD
 40
0.0
  9
$AUNITS
 70
     0
  9
$AUPREC
 70
     0
  9
$MENU
  1
qa
  9
$ELEVATION
 40
0.0
  9
$PELEVATION
 40
0.0
  9
$THICKNESS
 40
0.0
  9
$LIMCHECK
 70
     0
  9
$CHAMFERA
 40
0.0
  9
$CHAMFERB
 40
0.0
  9
$CHAMFERC
 40
1.0
  9
$CHAMFERD
 40
0.0
  9
$SKPOLY
 70
     0
  9
$TDCREATE
 40
2453955.562624178
  9
$TDUCREATE
 40
2453955.895957511
  9
$TDUPDATE
 40
2453955.604290857
  9
$TDUUPDATE
 40
2453955.895957523
  9
$TDINDWG
 40
0.0000000116
  9
$TDUSRTIMER
 40
0.0000000116
  9
$USRTIMER
 70
     1
  9
$ANGBASE
 50
0.0
  9
$ANGDIR
 70
     0
  9
$PDMODE
 70
     0
  9
$PDSIZE
 40
0.0
  9
$PLINEWID
 40
0.0
  9
$SPLFRAME
 70
     0
  9
$SPLINETYPE
 70
     6
  9
$SPLINESEGS
 70
     8
  9
$HANDSEED
  5
3A0
  9
$SURFTAB1
 70
     6
  9
$SURFTAB2
 70
     6
  9
$SURFTYPE
 70
     6
  9
$SURFU
 70
     6
  9
$SURFV
 70
     6
  9
$UCSBASE
  2

  9
$UCSNAME
  2

  9
$UCSORG
 10
0.0
 20
0.0
 30
0.0
  9
$UCSXDIR
 10
1.0
 20
0.0
 30
0.0
  9
$UCSYDIR
 10
0.0
 20
1.0
 30
0.0
  9
$UCSORTHOREF
  2

  9
$UCSORTHOVIEW
 70
     0
  9
$UCSORGTOP
 10
0.0
 20
0.0
 30
0.0
  9
$UCSORGBOTTOM
 10
0.0
 20
0.0
 30
0.0
  9
$UCSORGLEFT
 10
0.0
 20
0.0
 30
0.0
  9
$UCSORGRIGHT
 10
0.0
 20
0.0
 30
0.0
  9
$UCSORGFRONT
 10
0.0
 20
0.0
 30
0.0
  9
$UCSORGBACK
 10
0.0
 20
0.0
 30
0.0
  9
$PUCSBASE
  2

  9
$PUCSNAME
  2

  9
$PUCSORG
 10
0.0
 20
0.0
 30
0.0
  9
$PUCSXDIR
 10
1.0
 20
0.0
 30
0.0
  9
$PUCSYDIR
 10
0.0
 20
1.0
 30
0.0
  9
$PUCSORTHOREF
  2

  9
$PUCSORTHOVIEW
 70
     0
  9
$PUCSORGTOP
 10
0.0
 20
0.0
 30
0.0
  9
$PUCSORGBOTTOM
 10
0.0
 20
0.0
 30
0.0
  9
$PUCSORGLEFT
 10
0.0
 20
0.0
 30
0.0
  9
$PUCSORGRIGHT
 10
0.0
 20
0.0
 30
0.0
  9
$PUCSORGFRONT
 10
0.0
 20
0.0
 30
0.0
  9
$PUCSORGBACK
 10
0.0
 20
0.0
 30
0.0
  9
$USERI1
 70
     0
  9
$USERI2
 70
     0
  9
$USERI3
 70
     0
  9
$USERI4
 70
     0
  9
$USERI5
 70
     0
  9
$USERR1
 40
0.0
  9
$USERR2
 40
0.0
  9
$USERR3
 40
0.0
  9
$USERR4
 40
0.0
  9
$USERR5
 40
0.0
  9
$WORLDVIEW
 70
     1
  9
$SHADEDGE
 70
     3
  9
$SHADEDIF
 70
    70
  9
$TILEMODE
 70
     1
  9
$MAXACTVP
 70
    16
  9
$PINSBASE
 10
0.0
 20
0.0
 30
0.0
  9
$PLIMCHECK
 70
     0
  9
$PEXTMIN
 10
1.000000000000000E+20
 20
1.000000000000000E+20
 30
1.000000000000000E+20
  9
$PEXTMAX
 10
-1.000000000000000E+20
 20
-1.000000000000000E+20
 30
-1.000000000000000E+20
  9
$PLIMMIN
 10
0.0
 20
0.0
  9
$PLIMMAX
 10
12.0
 20
9.0
  9
$UNITMODE
 70
     0
  9
$VISRETAIN
 70
     0
  9
$PLINEGEN
 70
     0
  9
$PSLTSCALE
 70
     0
  9
$TREEDEPTH
 70
  3020
  9
$CMLSTYLE
  2
Standard
  9
$CMLJUST
 70
     0
  9
$CMLSCALE
 40
1.0
  9
$PROXYGRAPHICS
 70
     1
  9
$MEASUREMENT
 70
     0
  9
$CELWEIGHT
370
    -1
  9
$ENDCAPS
280
     0
  9
$JOINSTYLE
280
     0
  9
$LWDISPLAY
290
     0
  9
$INSUNITS
 70
     1
  9
$HYPERLINKBASE
  1

  9
$STYLESHEET
  1

  9
$XEDIT
290
     1
  9
$CEPSNTYPE
380
     0
  9
$PSTYLEMODE
290
     0
  9
$FINGERPRINTGUID
  2
{FAEB1C30-E019-11D5-929B-00C0DF256EC4}
  9
$VERSIONGUID
  2
{FAEB1C32-E019-11D5-929B-00C0DF256EC4}
  9
$EXTNAMES
290
     1
  9
$PSVPSCALE
 40
0.0
  9
$OLESTARTUP
290
     0
  0
ENDSEC
  0
SECTION
  2
CLASSES
  0
CLASS
  1
ACDBDICTIONARYWDFLT
  2
AcDbDictionaryWithDefault
  3
AutoCAD 2000
 90
        0
280
     0
281
     0
  0
CLASS
  1
ACDBPLACEHOLDER
  2
AcDbPlaceHolder
  3
ObjectDBX Classes
 90
        0
280
     0
281
     0
  0
CLASS
  1
LAYOUT
  2
AcDbLayout
  3
ObjectDBX Classes
 90
        0
280
     0
281
     0
  0
ENDSEC
  0
SECTION
  2
TABLES
  0
TABLE
  2
VPORT
  5
8
330
0
100
AcDbSymbolTable
 70
     2
  0
VPORT
  5
1E
330
8
100
AcDbSymbolTableRecord
100
AcDbViewportTableRecord
  2
*ACTIVE
 70
     0
 10
0.0
 20
0.0
 11
1.0
 21
1.0
 12
5.549636803874092
 22
4.0
 13
0.0
 23
0.0
 14
0.063
 24
0.063
 15
0.25
 25
0.25
 16
0.0
 26
0.0
 36
1.0
 17
0.0
 27
0.0
 37
0.0
 40
8.0
 41
0.7207678883071553
 42
50.0
 43
0.0
 44
0.0
 50
0.0
 51
0.0
 71
     0
 72
   100
 73
     1
 74
     0
 75
     0
 76
     0
 77
     0
 78
     0
281
     0
 65
     1
110
0.0
120
0.0
130
0.0
111
1.0
121
0.0
131
0.0
112
0.0
122
1.0
132
0.0
 79
     0
146
0.0
  0
ENDTAB
  0
TABLE
  2
LTYPE
  5
5
330
0
100
AcDbSymbolTable
 70
     1
  0
LTYPE
  5
10
330
5
100
AcDbSymbolTableRecord
100
AcDbLinetypeTableRecord
  2
ByBlock
 70
     0
  3

 72
    65
 73
     0
 40
0.0
  0
LTYPE
  5
11
330
5
100
AcDbSymbolTableRecord
100
AcDbLinetypeTableRecord
  2
ByLayer
 70
     0
  3

 72
    65
 73
     0
 40
0.0
  0
LTYPE
  5
1B
330
5
100
AcDbSymbolTableRecord
100
AcDbLinetypeTableRecord
  2
CONTINUOUS
 70
     0
  3
Solid line
 72
    65
 73
     0
 40
0.0
  0
ENDTAB
  0
TABLE
  2
LAYER
  5
2
330
0
100
AcDbSymbolTable
 70
     1
  0
LAYER
  5
1C
330
2
100
AcDbSymbolTableRecord
100
AcDbLayerTableRecord
  2
0
 70
     0
 62
     7
  6
CONTINUOUS
370
    -3
390
F
  0
ENDTAB
  0
TABLE
  2
STYLE
  5
3
330
0
100
AcDbSymbolTable
 70
     1
  0
STYLE
  5
20
330
3
100
AcDbSymbolTableRecord
100
AcDbTextStyleTableRecord
  2
STANDARD
 70
     0
 40
0.0
 41
1.0
 50
0.0
 71
     0
 42
0.131
  3
ROMANS.SHX
  4

  0
ENDTAB
  0
TABLE
  2
VIEW
  5
6
330
0
100
AcDbSymbolTable
 70
     0
  0
ENDTAB
  0
TABLE
  2
UCS
  5
7
330
0
100
AcDbSymbolTable
 70
     0
  0
ENDTAB
  0
TABLE
  2
APPID
  5
9
330
0
100
AcDbSymbolTable
 70
     1
  0
APPID
  5
1F
330
9
100
AcDbSymbolTableRecord
100
AcDbRegAppTableRecord
  2
ACAD
 70
     0
  0
ENDTAB
  0
TABLE
  2
DIMSTYLE
  5
A
330
0
100
AcDbSymbolTable
 70
     1
100
AcDbDimStyleTable
  0
DIMSTYLE
105
21
330
A
100
AcDbSymbolTableRecord
100
AcDbDimStyleTableRecord
  2
Standard
 70
     0
  3

  4

340
20
  0
ENDTAB
  0
TABLE
  2
BLOCK_RECORD
  5
1
330
0
100
AcDbSymbolTable
 70
     0
  0
BLOCK_RECORD
  5
18
330
1
100
AcDbSymbolTableRecord
100
AcDbBlockTableRecord
  2
*Model_Space
340
19
  0
BLOCK_RECORD
  5
16
330
1
100
AcDbSymbolTableRecord
100
AcDbBlockTableRecord
  2
*Paper_Space
340
17
  0
ENDTAB
  0
ENDSEC
  0
SECTION
  2
BLOCKS
  0
BLOCK
  5
395
330
18
100
AcDbEntity
  8
0
100
AcDbBlockBegin
  2
*Model_Space
 70
     0
 10
0.0
 20
0.0
 30
0.0
  3
*Model_Space
  1

  4

  0
ENDBLK
  5
396
330
18
100
AcDbEntity
  8
0
100
AcDbBlockEnd
  0
BLOCK
  5
393
330
16
100
AcDbEntity
 67
     1
  8
0
100
AcDbBlockBegin
  2
*Paper_Space
 70
     0
 10
0.0
 20
0.0
 30
0.0
  3
*Paper_Space
  1

  4

  0
ENDBLK
  5
394
330
16
100
AcDbEntity
 67
     1
  8
0
100
AcDbBlockEnd
  0
ENDSEC
  0
SECTION
  2
ENTITIES
  0
LINE
  5
22
330
18
100
AcDbEntity
  8
0
100
AcDbLine
 10
3.243878
 20
1.777384
 30
0.0
 11
4.614878
 21
0.961384
 31
0.0
  0
LINE
  5
23
330
18
100
AcDbEntity
  8
0
100
AcDbLine
 10
3.832878
 20
2.635384
 30
0.0
 11
4.017878
 21
2.536384
 31
0.0
  0
LINE
  5
24
330
18
100
AcDbEntity
  8
0
100
AcDbLine
 10
3.973878
 20
2.717384
 30
0.0
 11
3.832878
 21
2.635384
 31
0.0
  0
LINE
  5
25
330
18
100
AcDbEntity
  8
0
100
AcDbLine
 10
3.905878
 20
1.567384
 30
0.0
 11
3.845878
 21
1.606384
 31
0.0
  0
LINE
  5
26
330
18
100
AcDbEntity
  8
0
100
AcDbLine
 10
3.843878
 20
1.532384
 30
0.0
 11
3.921878
 21
1.475384
 31
0.0
  0
LINE
  5
27
330
18
100
AcDbEntity
  8
0
100
AcDbLine
 10
3.919878
 20
1.567384
 30
0.0
 11
3.258878
 21
1.961384
 31
0.0
  0
TEXT
  5
28
330
18
100
AcDbEntity
  8
0
100
AcDbText
 10
3.578878
 20
0.827384
 30
0.0
 40
0.175
  1
HEADER
 41
0.8
100
AcDbText
  0
LINE
  5
29
330
18
100
AcDbEntity
  8
0
100
AcDbLine
 10
3.159732
 20
4.028629000000001
 30
0.0
 11
2.462732
 21
3.598629
 31
0.0
  0
LINE
  5
2A
330
18
100
AcDbEntity
  8
0
100
AcDbLine
 10
2.476732
 20
3.798629
 30
0.0
 11
2.462732
 21
3.598629
 31
0.0
  0
LINE
  5
2B
330
18
100
AcDbEntity
  8
0
100
AcDbLine
 10
2.143732
 20
3.914629
 30
0.0
 11
2.142732
 21
3.704629
 31
0.0
  0
LINE
  5
2C
330
18
100
AcDbEntity
  8
0
100
AcDbLine
 10
2.279732
 20
3.915629
 30
0.0
 11
2.277732
 21
3.705629
 31
0.0
  0
LINE
  5
2D
330
18
100
AcDbEntity
  8
0
100
AcDbLine
 10
2.334732
 20
3.787629
 30
0.0
 11
2.409732
 21
3.705629
 31
0.0
  0
LINE
  5
2E
330
18
100
AcDbEntity
  8
0
100
AcDbLine
 10
2.403732
 20
3.776629
 30
0.0
 11
2.471732
 21
3.724629
 31
0.0
  0
LINE
  5
2F
330
18
100
AcDbEntity
  8
0
100
AcDbLine
 10
2.278732
 20
3.770629
 30
0.0
 11
2.331732
 21
3.711629
 31
0.0
  0
LINE
  5
30
330
18
100
AcDbEntity
  8
0
100
AcDbLine
 10
0.633893
 20
0.979733
 30
0.0
 11
2.199893
 21
1.899733
 31
0.0
  0
LINE
  5
31
330
18
100
AcDbEntity
  8
0
100
AcDbLine
 10
2.019893
 20
1.994733
 30
0.0
 11
0.4648930000000001
 21
1.084733
 31
0.0
  0
LINE
  5
32
330
18
100
AcDbEntity
  8
0
100
AcDbLine
 10
2.019893
 20
2.608733
 30
0.0
 11
1.289893
 21
2.181733
 31
0.0
  0
LINE
  5
33
330
18
100
AcDbEntity
  8
0
100
AcDbLine
 10
1.306893
 20
1.634733
 30
0.0
 11
1.380893
 21
1.680733
 31
0.0
  0
LINE
  5
34
330
18
100
AcDbEntity
  8
0
100
AcDbLine
 10
1.374893
 20
2.173733
 30
0.0
 11
1.281893
 21
2.129733
 31
0.0
  0
TEXT
  5
35
330
18
100
AcDbEntity
  8
0
100
AcDbText
 10
0.879893
 20
2.769733
 30
0.0
 40
0.175
  1
JOIST
 41
0.8
100
AcDbText
  0
TEXT
  5
36
330
18
100
AcDbEntity
  8
0
100
AcDbText
 10
1.268893
 20
0.8267329999999999
 30
0.0
 40
0.175
  1
HEADER
 41
0.8
100
AcDbText
  0
ARC
  5
37
330
18
100
AcDbEntity
  8
0
100
AcDbCircle
 10
1.361893
 20
1.901733
 30
0.0
 40
0.019
100
AcDbArc
 50
134.641
 51
151.528
  0
ARC
  5
38
330
18
100
AcDbEntity
  8
0
100
AcDbCircle
 10
1.350893
 20
1.900733
 30
0.0
 40
0.008
100
AcDbArc
 50
212.056
 51
241.528
  0
ARC
  5
39
330
18
100
AcDbEntity
  8
0
100
AcDbCircle
 10
1.327893
 20
2.137733
 30
0.0
 40
0.019
100
AcDbArc
 50
331.528
 51
348.416
  0
ARC
  5
3A
330
18
100
AcDbEntity
  8
0
100
AcDbCircle
 10
1.331893
 20
2.136733
 30
0.0
 40
0.014
100
AcDbArc
 50
348.416
 51
7.767
  0
ARC
  5
3B
330
18
100
AcDbEntity
  8
0
100
AcDbCircle
 10
1.335893
 20
2.137733
 30
0.0
 40
0.011
100
AcDbArc
 50
7.767
 51
32.056
  0
LINE
  5
3C
330
18
100
AcDbEntity
  8
0
100
AcDbLine
 10
0.4588930000000001
 20
1.320733
 30
0.0
 11
0.4648930000000001
 21
1.084733
 31
0.0
  0
LINE
  5
3D
330
18
100
AcDbEntity
  8
0
100
AcDbLine
 10
0.4648930000000001
 20
1.084733
 30
0.0
 11
0.633893
 21
0.979733
 31
0.0
  0
LINE
  5
3E
330
18
100
AcDbEntity
  8
0
100
AcDbLine
 10
0.291893
 20
2.565733
 30
0.0
 11
0.297893
 21
2.371733
 31
0.0
  0
LINE
  5
3F
330
18
100
AcDbEntity
  8
0
100
AcDbLine
 10
0.465893
 20
2.651733
 30
0.0
 11
1.289893
 21
2.181733
 31
0.0
  0
LINE
  5
40
330
18
100
AcDbEntity
  8
0
100
AcDbLine
 10
0.466893
 20
2.466733
 30
0.0
 11
0.465893
 21
2.651733
 31
0.0
  0
ARC
  5
41
330
18
100
AcDbEntity
  8
0
100
AcDbCircle
 10
0.715893
 20
2.581733
 30
0.0
 40
0.312
100
AcDbArc
 50
172.476
 51
205.362
  0
ARC
  5
42
330
18
100
AcDbEntity
  8
0
100
AcDbCircle
 10
0.724893
 20
2.584733
 30
0.0
 40
0.364
100
AcDbArc
 50
177.701
 51
205.725
  0
ARC
  5
43
330
18
100
AcDbEntity
  8
0
100
AcDbCircle
 10
0.6618930000000001
 20
2.546733
 30
0.0
 40
0.34
100
AcDbArc
 50
174.18
 51
205.026
  0
ARC
  5
44
330
18
100
AcDbEntity
  8
0
100
AcDbCircle
 10
0.711893
 20
2.819733
 30
0.0
 40
0.4370000000000001
100
AcDbArc
 50
294.586
 51
348.353
  0
SOLID
  5
45
330
18
100
AcDbEntity
  8
0
100
AcDbTrace
 10
1.008893
 20
2.475733
 30
0.0
 11
0.985893
 21
2.509733
 31
0.0
 12
0.8938930000000001
 22
2.422733
 32
0.0
 13
0.8938930000000001
 23
2.422733
 33
0.0
  0
LINE
  5
46
330
18
100
AcDbEntity
  8
0
100
AcDbLine
 10
0.284893
 20
1.959733
 30
0.0
 11
1.109893
 21
1.461733
 31
0.0
  0
LINE
  5
47
330
18
100
AcDbEntity
  8
0
100
AcDbLine
 10
0.469893
 20
2.057733
 30
0.0
 11
1.284893
 21
1.564733
 31
0.0
  0
LINE
  5
48
330
18
100
AcDbEntity
  8
0
100
AcDbLine
 10
0.4588930000000001
 20
1.320733
 30
0.0
 11
0.406893
 21
1.390733
 31
0.0
  0
LINE
  5
49
330
18
100
AcDbEntity
  8
0
100
AcDbLine
 10
0.406893
 20
1.390733
 30
0.0
 11
0.5228930000000001
 21
1.494733
 31
0.0
  0
LINE
  5
4A
330
18
100
AcDbEntity
  8
0
100
AcDbLine
 10
0.5228930000000001
 20
1.494733
 30
0.0
 11
0.4538930000000001
 21
1.532733
 31
0.0
  0
LINE
  5
4B
330
18
100
AcDbEntity
  8
0
100
AcDbLine
 10
0.592893
 20
1.773733
 30
0.0
 11
0.449893
 21
1.689733
 31
0.0
  0
LINE
  5
4C
330
18
100
AcDbEntity
  8
0
100
AcDbLine
 10
0.449893
 20
1.689733
 30
0.0
 11
0.4538930000000001
 21
1.532733
 31
0.0
  0
LINE
  5
4D
330
18
100
AcDbEntity
  8
0
100
AcDbLine
 10
0.284893
 20
1.959733
 30
0.0
 11
0.469893
 21
2.057733
 31
0.0
  0
LINE
  5
4E
330
18
100
AcDbEntity
  8
0
100
AcDbLine
 10
0.467893
 20
2.263733
 30
0.0
 11
0.362893
 21
2.330733
 31
0.0
  0
LINE
  5
4F
330
18
100
AcDbEntity
  8
0
100
AcDbLine
 10
0.362893
 20
2.330733
 30
0.0
 11
0.506893
 21
2.437733
 31
0.0
  0
LINE
  5
50
330
18
100
AcDbEntity
  8
0
100
AcDbLine
 10
0.467893
 20
2.263733
 30
0.0
 11
0.299893
 21
2.168733
 31
0.0
  0
LINE
  5
51
330
18
100
AcDbEntity
  8
0
100
AcDbLine
 10
0.506893
 20
2.437733
 30
0.0
 11
0.337893
 21
2.342733
 31
0.0
  0
LINE
  5
52
330
18
100
AcDbEntity
  8
0
100
AcDbLine
 10
0.466893
 20
2.466733
 30
0.0
 11
0.297893
 21
2.371733
 31
0.0
  0
ARC
  5
53
330
18
100
AcDbEntity
  8
0
100
AcDbCircle
 10
0.7758930000000001
 20
2.381733
 30
0.0
 40
0.426
100
AcDbArc
 50
202.896
 51
224.031
  0
ARC
  5
54
330
18
100
AcDbEntity
  8
0
100
AcDbCircle
 10
1.056893
 20
2.490733
 30
0.0
 40
0.7709999999999999
100
AcDbArc
 50
202.616
 51
215.967
  0
ARC
  5
55
330
18
100
AcDbEntity
  8
0
100
AcDbCircle
 10
0.609893
 20
2.461733
 30
0.0
 40
0.284
100
AcDbArc
 50
207.962
 51
230.779
  0
LINE
  5
56
330
18
100
AcDbEntity
  8
0
100
AcDbLine
 10
0.395893
 20
2.426733
 30
0.0
 11
0.425893
 21
2.391733
 31
0.0
  0
LINE
  5
57
330
18
100
AcDbEntity
  8
0
100
AcDbLine
 10
0.465893
 20
2.414733
 30
0.0
 11
0.303893
 21
2.297733
 31
0.0
  0
LINE
  5
58
330
18
100
AcDbEntity
  8
0
100
AcDbLine
 10
0.299893
 20
2.168733
 30
0.0
 11
0.284893
 21
1.959733
 31
0.0
  0
ARC
  5
59
330
18
100
AcDbEntity
  8
0
100
AcDbCircle
 10
1.036893
 20
2.411733
 30
0.0
 40
0.76
100
AcDbArc
 50
197.958
 51
211.467
  0
ARC
  5
5A
330
18
100
AcDbEntity
  8
0
100
AcDbCircle
 10
1.143893
 20
2.442733
 30
0.0
 40
0.9209999999999999
100
AcDbArc
 50
202.674
 51
209.472
  0
LINE
  5
5B
330
18
100
AcDbEntity
  8
0
100
AcDbLine
 10
0.362893
 20
2.330733
 30
0.0
 11
0.193893
 21
2.236733
 31
0.0
  0
LINE
  5
5C
330
18
100
AcDbEntity
  8
0
100
AcDbLine
 10
0.193893
 20
2.236733
 30
0.0
 11
0.337893
 21
2.342733
 31
0.0
  0
LINE
  5
5D
330
18
100
AcDbEntity
  8
0
100
AcDbLine
 10
0.299893
 20
2.168733
 30
0.0
 11
0.193893
 21
2.236733
 31
0.0
  0
ARC
  5
5E
330
18
100
AcDbEntity
  8
0
100
AcDbCircle
 10
0.474893
 20
2.382733
 30
0.0
 40
0.261
100
AcDbArc
 50
207.198
 51
232.072
  0
LINE
  5
5F
330
18
100
AcDbEntity
  8
0
100
AcDbLine
 10
0.396893
 20
2.375733
 30
0.0
 11
0.234893
 21
2.259733
 31
0.0
  0
ARC
  5
60
330
18
100
AcDbEntity
  8
0
100
AcDbCircle
 10
0.742893
 20
2.578733
 30
0.0
 40
0.5529999999999999
100
AcDbArc
 50
212.392
 51
224.008
  0
ARC
  5
61
330
18
100
AcDbEntity
  8
0
100
AcDbCircle
 10
0.8088930000000001
 20
2.564733
 30
0.0
 40
0.55
100
AcDbArc
 50
207.775
 51
219.348
  0
LINE
  5
62
330
18
100
AcDbEntity
  8
0
100
AcDbLine
 10
0.337893
 20
2.342733
 30
0.0
 11
0.297893
 21
2.371733
 31
0.0
  0
LINE
  5
63
330
18
100
AcDbEntity
  8
0
100
AcDbLine
 10
0.353893
 20
2.402733
 30
0.0
 11
0.380893
 21
2.366733
 31
0.0
  0
LINE
  5
64
330
18
100
AcDbEntity
  8
0
100
AcDbLine
 10
0.469893
 20
2.057733
 30
0.0
 11
0.467893
 21
2.263733
 31
0.0
  0
ARC
  5
65
330
18
100
AcDbEntity
  8
0
100
AcDbCircle
 10
0.629893
 20
2.356733
 30
0.0
 40
0.23
100
AcDbArc
 50
209.88
 51
225.655
  0
LINE
  5
66
330
18
100
AcDbEntity
  8
0
100
AcDbLine
 10
0.506893
 20
2.437733
 30
0.0
 11
0.466893
 21
2.466733
 31
0.0
  0
LINE
  5
67
330
18
100
AcDbEntity
  8
0
100
AcDbLine
 10
0.433893
 20
2.448733
 30
0.0
 11
0.465893
 21
2.414733
 31
0.0
  0
LINE
  5
68
330
18
100
AcDbEntity
  8
0
100
AcDbLine
 10
1.191893
 20
1.879733
 30
0.0
 11
1.192893
 21
1.817733
 31
0.0
  0
LINE
  5
69
330
18
100
AcDbEntity
  8
0
100
AcDbLine
 10
1.289893
 20
2.124733
 30
0.0
 11
1.292893
 21
1.811733
 31
0.0
  0
LINE
  5
6A
330
18
100
AcDbEntity
  8
0
100
AcDbLine
 10
1.192893
 20
1.817733
 30
0.0
 11
1.123893
 21
1.797733
 31
0.0
  0
LINE
  5
6B
330
18
100
AcDbEntity
  8
0
100
AcDbLine
 10
1.121893
 20
1.733733
 30
0.0
 11
1.278893
 21
1.639733
 31
0.0
  0
LINE
  5
6C
330
18
100
AcDbEntity
  8
0
100
AcDbLine
 10
1.123893
 20
1.797733
 30
0.0
 11
1.121893
 21
1.733733
 31
0.0
  0
ARC
  5
6D
330
18
100
AcDbEntity
  8
0
100
AcDbCircle
 10
1.151893
 20
1.758733
 30
0.0
 40
0.006
100
AcDbArc
 50
113.108
 51
146.847
  0
ARC
  5
6E
330
18
100
AcDbEntity
  8
0
100
AcDbCircle
 10
1.155893
 20
1.755733
 30
0.0
 40
0.011
100
AcDbArc
 50
146.847
 51
171.302
  0
ARC
  5
6F
330
18
100
AcDbEntity
  8
0
100
AcDbCircle
 10
1.160893
 20
1.755733
 30
0.0
 40
0.016
100
AcDbArc
 50
171.302
 51
188.701
  0
ARC
  5
70
330
18
100
AcDbEntity
  8
0
100
AcDbCircle
 10
1.167893
 20
1.756733
 30
0.0
 40
0.023
100
AcDbArc
 50
188.701
 51
203.108
  0
ARC
  5
71
330
18
100
AcDbEntity
  8
0
100
AcDbCircle
 10
1.167893
 20
1.756733
 30
0.0
 40
0.023
100
AcDbArc
 50
203.108
 51
217.515
  0
ARC
  5
72
330
18
100
AcDbEntity
  8
0
100
AcDbCircle
 10
1.161893
 20
1.751733
 30
0.0
 40
0.016
100
AcDbArc
 50
217.515
 51
234.914
  0
ARC
  5
73
330
18
100
AcDbEntity
  8
0
100
AcDbCircle
 10
1.158893
 20
1.747733
 30
0.0
 40
0.011
100
AcDbArc
 50
234.914
 51
259.369
  0
ARC
  5
74
330
18
100
AcDbEntity
  8
0
100
AcDbCircle
 10
1.158893
 20
1.742733
 30
0.0
 40
0.006
100
AcDbArc
 50
259.369
 51
293.108
  0
ARC
  5
75
330
18
100
AcDbEntity
  8
0
100
AcDbCircle
 10
1.158893
 20
1.742733
 30
0.0
 40
0.006
100
AcDbArc
 50
293.108
 51
326.847
  0
ARC
  5
76
330
18
100
AcDbEntity
  8
0
100
AcDbCircle
 10
1.153893
 20
1.745733
 30
0.0
 40
0.011
100
AcDbArc
 50
326.847
 51
351.302
  0
ARC
  5
77
330
18
100
AcDbEntity
  8
0
100
AcDbCircle
 10
1.148893
 20
1.746733
 30
0.0
 40
0.016
100
AcDbArc
 50
351.302
 51
8.701000000000001
  0
ARC
  5
78
330
18
100
AcDbEntity
  8
0
100
AcDbCircle
 10
1.141893
 20
1.745733
 30
0.0
 40
0.023
100
AcDbArc
 50
8.701000000000001
 51
23.108
  0
ARC
  5
79
330
18
100
AcDbEntity
  8
0
100
AcDbCircle
 10
1.141893
 20
1.745733
 30
0.0
 40
0.023
100
AcDbArc
 50
23.108
 51
37.515
  0
ARC
  5
7A
330
18
100
AcDbEntity
  8
0
100
AcDbCircle
 10
1.147893
 20
1.749733
 30
0.0
 40
0.016
100
AcDbArc
 50
37.515
 51
54.914
  0
ARC
  5
7B
330
18
100
AcDbEntity
  8
0
100
AcDbCircle
 10
1.150893
 20
1.753733
 30
0.0
 40
0.011
100
AcDbArc
 50
54.914
 51
79.369
  0
ARC
  5
7C
330
18
100
AcDbEntity
  8
0
100
AcDbCircle
 10
1.151893
 20
1.758733
 30
0.0
 40
0.006
100
AcDbArc
 50
79.369
 51
113.108
  0
LINE
  5
7D
330
18
100
AcDbEntity
  8
0
100
AcDbLine
 10
1.278893
 20
1.639733
 30
0.0
 11
1.277893
 21
1.789733
 31
0.0
  0
LINE
  5
7E
330
18
100
AcDbEntity
  8
0
100
AcDbLine
 10
1.306893
 20
1.634733
 30
0.0
 11
1.302893
 21
1.793733
 31
0.0
  0
LINE
  5
7F
330
18
100
AcDbEntity
  8
0
100
AcDbLine
 10
1.285893
 20
1.618733
 30
0.0
 11
1.284893
 21
1.564733
 31
0.0
  0
ARC
  5
80
330
18
100
AcDbEntity
  8
0
100
AcDbCircle
 10
1.219893
 20
1.816733
 30
0.0
 40
0.006
100
AcDbArc
 50
113.108
 51
146.847
  0
ARC
  5
81
330
18
100
AcDbEntity
  8
0
100
AcDbCircle
 10
1.223893
 20
1.813733
 30
0.0
 40
0.011
100
AcDbArc
 50
146.847
 51
171.302
  0
ARC
  5
82
330
18
100
AcDbEntity
  8
0
100
AcDbCircle
 10
1.228893
 20
1.813733
 30
0.0
 40
0.016
100
AcDbArc
 50
171.302
 51
188.701
  0
ARC
  5
83
330
18
100
AcDbEntity
  8
0
100
AcDbCircle
 10
1.235893
 20
1.814733
 30
0.0
 40
0.023
100
AcDbArc
 50
188.701
 51
203.108
  0
ARC
  5
84
330
18
100
AcDbEntity
  8
0
100
AcDbCircle
 10
1.235893
 20
1.814733
 30
0.0
 40
0.023
100
AcDbArc
 50
203.108
 51
217.515
  0
ARC
  5
85
330
18
100
AcDbEntity
  8
0
100
AcDbCircle
 10
1.229893
 20
1.809733
 30
0.0
 40
0.016
100
AcDbArc
 50
217.515
 51
234.914
  0
ARC
  5
86
330
18
100
AcDbEntity
  8
0
100
AcDbCircle
 10
1.226893
 20
1.805733
 30
0.0
 40
0.011
100
AcDbArc
 50
234.914
 51
259.369
  0
ARC
  5
87
330
18
100
AcDbEntity
  8
0
100
AcDbCircle
 10
1.226893
 20
1.800733
 30
0.0
 40
0.006
100
AcDbArc
 50
259.369
 51
293.108
  0
ARC
  5
88
330
18
100
AcDbEntity
  8
0
100
AcDbCircle
 10
1.226893
 20
1.800733
 30
0.0
 40
0.006
100
AcDbArc
 50
293.108
 51
326.847
  0
ARC
  5
89
330
18
100
AcDbEntity
  8
0
100
AcDbCircle
 10
1.221893
 20
1.803733
 30
0.0
 40
0.011
100
AcDbArc
 50
326.847
 51
351.302
  0
ARC
  5
8A
330
18
100
AcDbEntity
  8
0
100
AcDbCircle
 10
1.216893
 20
1.804733
 30
0.0
 40
0.016
100
AcDbArc
 50
351.302
 51
8.701000000000001
  0
ARC
  5
8B
330
18
100
AcDbEntity
  8
0
100
AcDbCircle
 10
1.209893
 20
1.803733
 30
0.0
 40
0.023
100
AcDbArc
 50
8.701000000000001
 51
23.108
  0
ARC
  5
8C
330
18
100
AcDbEntity
  8
0
100
AcDbCircle
 10
1.209893
 20
1.803733
 30
0.0
 40
0.023
100
AcDbArc
 50
23.108
 51
37.515
  0
ARC
  5
8D
330
18
100
AcDbEntity
  8
0
100
AcDbCircle
 10
1.215893
 20
1.807733
 30
0.0
 40
0.016
100
AcDbArc
 50
37.515
 51
54.914
  0
ARC
  5
8E
330
18
100
AcDbEntity
  8
0
100
AcDbCircle
 10
1.218893
 20
1.811733
 30
0.0
 40
0.011
100
AcDbArc
 50
54.914
 51
79.369
  0
ARC
  5
8F
330
18
100
AcDbEntity
  8
0
100
AcDbCircle
 10
1.219893
 20
1.816733
 30
0.0
 40
0.006
100
AcDbArc
 50
79.369
 51
113.108
  0
ARC
  5
90
330
18
100
AcDbEntity
  8
0
100
AcDbCircle
 10
1.291893
 20
1.787733
 30
0.0
 40
0.013
100
AcDbArc
 50
26.37000000000001
 51
171.99
  0
LINE
  5
91
330
18
100
AcDbEntity
  8
0
100
AcDbLine
 10
1.289893
 20
2.181733
 30
0.0
 11
1.289893
 21
2.133733
 31
0.0
  0
LINE
  5
92
330
18
100
AcDbEntity
  8
0
100
AcDbLine
 10
1.281893
 20
2.129733
 30
0.0
 11
1.120893
 21
2.227733
 31
0.0
  0
LINE
  5
93
330
18
100
AcDbEntity
  8
0
100
AcDbLine
 10
1.120893
 20
2.162733
 30
0.0
 11
1.186893
 21
2.072733
 31
0.0
  0
LINE
  5
94
330
18
100
AcDbEntity
  8
0
100
AcDbLine
 10
1.117893
 20
1.918733
 30
0.0
 11
1.191893
 21
1.879733
 31
0.0
  0
LINE
  5
95
330
18
100
AcDbEntity
  8
0
100
AcDbLine
 10
1.124893
 20
2.019733
 30
0.0
 11
1.117893
 21
1.918733
 31
0.0
  0
ARC
  5
96
330
18
100
AcDbEntity
  8
0
100
AcDbCircle
 10
1.151893
 20
1.953733
 30
0.0
 40
0.006
100
AcDbArc
 50
113.108
 51
146.847
  0
ARC
  5
97
330
18
100
AcDbEntity
  8
0
100
AcDbCircle
 10
1.155893
 20
1.951733
 30
0.0
 40
0.011
100
AcDbArc
 50
146.847
 51
171.302
  0
ARC
  5
98
330
18
100
AcDbEntity
  8
0
100
AcDbCircle
 10
1.160893
 20
1.950733
 30
0.0
 40
0.016
100
AcDbArc
 50
171.302
 51
188.701
  0
ARC
  5
99
330
18
100
AcDbEntity
  8
0
100
AcDbCircle
 10
1.167893
 20
1.951733
 30
0.0
 40
0.023
100
AcDbArc
 50
188.701
 51
203.108
  0
ARC
  5
9A
330
18
100
AcDbEntity
  8
0
100
AcDbCircle
 10
1.167893
 20
1.951733
 30
0.0
 40
0.023
100
AcDbArc
 50
203.108
 51
217.515
  0
ARC
  5
9B
330
18
100
AcDbEntity
  8
0
100
AcDbCircle
 10
1.162893
 20
1.947733
 30
0.0
 40
0.016
100
AcDbArc
 50
217.515
 51
234.914
  0
ARC
  5
9C
330
18
100
AcDbEntity
  8
0
100
AcDbCircle
 10
1.159893
 20
1.943733
 30
0.0
 40
0.011
100
AcDbArc
 50
234.914
 51
259.369
  0
ARC
  5
9D
330
18
100
AcDbEntity
  8
0
100
AcDbCircle
 10
1.158893
 20
1.938733
 30
0.0
 40
0.006
100
AcDbArc
 50
259.369
 51
293.108
  0
ARC
  5
9E
330
18
100
AcDbEntity
  8
0
100
AcDbCircle
 10
1.158893
 20
1.938733
 30
0.0
 40
0.006
100
AcDbArc
 50
293.108
 51
326.847
  0
ARC
  5
9F
330
18
100
AcDbEntity
  8
0
100
AcDbCircle
 10
1.154893
 20
1.940733
 30
0.0
 40
0.011
100
AcDbArc
 50
326.847
 51
351.302
  0
ARC
  5
A0
330
18
100
AcDbEntity
  8
0
100
AcDbCircle
 10
1.148893
 20
1.941733
 30
0.0
 40
0.016
100
AcDbArc
 50
351.302
 51
8.701000000000001
  0
ARC
  5
A1
330
18
100
AcDbEntity
  8
0
100
AcDbCircle
 10
1.141893
 20
1.940733
 30
0.0
 40
0.023
100
AcDbArc
 50
8.701000000000001
 51
23.108
  0
ARC
  5
A2
330
18
100
AcDbEntity
  8
0
100
AcDbCircle
 10
1.141893
 20
1.940733
 30
0.0
 40
0.023
100
AcDbArc
 50
23.108
 51
37.515
  0
ARC
  5
A3
330
18
100
AcDbEntity
  8
0
100
AcDbCircle
 10
1.147893
 20
1.944733
 30
0.0
 40
0.016
100
AcDbArc
 50
37.515
 51
54.914
  0
ARC
  5
A4
330
18
100
AcDbEntity
  8
0
100
AcDbCircle
 10
1.150893
 20
1.949733
 30
0.0
 40
0.011
100
AcDbArc
 50
54.914
 51
79.369
  0
ARC
  5
A5
330
18
100
AcDbEntity
  8
0
100
AcDbCircle
 10
1.151893
 20
1.953733
 30
0.0
 40
0.006
100
AcDbArc
 50
79.369
 51
113.108
  0
LINE
  5
A6
330
18
100
AcDbEntity
  8
0
100
AcDbLine
 10
1.186893
 20
2.072733
 30
0.0
 11
1.188893
 21
2.045733
 31
0.0
  0
LINE
  5
A7
330
18
100
AcDbEntity
  8
0
100
AcDbLine
 10
1.188893
 20
2.045733
 30
0.0
 11
1.124893
 21
2.019733
 31
0.0
  0
LINE
  5
A8
330
18
100
AcDbEntity
  8
0
100
AcDbLine
 10
1.216893
 20
2.063733
 30
0.0
 11
1.218893
 21
1.983733
 31
0.0
  0
LINE
  5
A9
330
18
100
AcDbEntity
  8
0
100
AcDbLine
 10
1.240893
 20
2.061733
 30
0.0
 11
1.242893
 21
1.980733
 31
0.0
  0
ARC
  5
AA
330
18
100
AcDbEntity
  8
0
100
AcDbCircle
 10
1.230893
 20
1.982733
 30
0.0
 40
0.012
100
AcDbArc
 50
174.835
 51
353.576
  0
ARC
  5
AB
330
18
100
AcDbEntity
  8
0
100
AcDbCircle
 10
1.219893
 20
1.881733
 30
0.0
 40
0.006
100
AcDbArc
 50
113.108
 51
146.847
  0
ARC
  5
AC
330
18
100
AcDbEntity
  8
0
100
AcDbCircle
 10
1.223893
 20
1.879733
 30
0.0
 40
0.011
100
AcDbArc
 50
146.847
 51
171.302
  0
ARC
  5
AD
330
18
100
AcDbEntity
  8
0
100
AcDbCircle
 10
1.229893
 20
1.878733
 30
0.0
 40
0.016
100
AcDbArc
 50
171.302
 51
188.701
  0
ARC
  5
AE
330
18
100
AcDbEntity
  8
0
100
AcDbCircle
 10
1.236893
 20
1.879733
 30
0.0
 40
0.023
100
AcDbArc
 50
188.701
 51
203.108
  0
ARC
  5
AF
330
18
100
AcDbEntity
  8
0
100
AcDbCircle
 10
1.236893
 20
1.879733
 30
0.0
 40
0.023
100
AcDbArc
 50
203.108
 51
217.515
  0
ARC
  5
B0
330
18
100
AcDbEntity
  8
0
100
AcDbCircle
 10
1.230893
 20
1.875733
 30
0.0
 40
0.016
100
AcDbArc
 50
217.515
 51
234.914
  0
ARC
  5
B1
330
18
100
AcDbEntity
  8
0
100
AcDbCircle
 10
1.227893
 20
1.871733
 30
0.0
 40
0.011
100
AcDbArc
 50
234.914
 51
259.369
  0
ARC
  5
B2
330
18
100
AcDbEntity
  8
0
100
AcDbCircle
 10
1.226893
 20
1.866733
 30
0.0
 40
0.006
100
AcDbArc
 50
259.369
 51
293.108
  0
ARC
  5
B3
330
18
100
AcDbEntity
  8
0
100
AcDbCircle
 10
1.226893
 20
1.866733
 30
0.0
 40
0.006
100
AcDbArc
 50
293.108
 51
326.847
  0
ARC
  5
B4
330
18
100
AcDbEntity
  8
0
100
AcDbCircle
 10
1.222893
 20
1.868733
 30
0.0
 40
0.011
100
AcDbArc
 50
326.847
 51
351.302
  0
ARC
  5
B5
330
18
100
AcDbEntity
  8
0
100
AcDbCircle
 10
1.217893
 20
1.869733
 30
0.0
 40
0.016
100
AcDbArc
 50
351.302
 51
8.701000000000001
  0
ARC
  5
B6
330
18
100
AcDbEntity
  8
0
100
AcDbCircle
 10
1.210893
 20
1.868733
 30
0.0
 40
0.023
100
AcDbArc
 50
8.701000000000001
 51
23.108
  0
ARC
  5
B7
330
18
100
AcDbEntity
  8
0
100
AcDbCircle
 10
1.210893
 20
1.868733
 30
0.0
 40
0.023
100
AcDbArc
 50
23.108
 51
37.515
  0
ARC
  5
B8
330
18
100
AcDbEntity
  8
0
100
AcDbCircle
 10
1.216893
 20
1.872733
 30
0.0
 40
0.016
100
AcDbArc
 50
37.515
 51
54.914
  0
ARC
  5
B9
330
18
100
AcDbEntity
  8
0
100
AcDbCircle
 10
1.218893
 20
1.877733
 30
0.0
 40
0.011
100
AcDbArc
 50
54.914
 51
79.369
  0
ARC
  5
BA
330
18
100
AcDbEntity
  8
0
100
AcDbCircle
 10
1.219893
 20
1.881733
 30
0.0
 40
0.006
100
AcDbArc
 50
79.369
 51
113.108
  0
ARC
  5
BB
330
18
100
AcDbEntity
  8
0
100
AcDbCircle
 10
1.361893
 20
1.901733
 30
0.0
 40
0.019
100
AcDbArc
 50
151.528
 51
168.416
  0
ARC
  5
BC
330
18
100
AcDbEntity
  8
0
100
AcDbCircle
 10
1.356893
 20
1.902733
 30
0.0
 40
0.014
100
AcDbArc
 50
168.416
 51
187.767
  0
ARC
  5
BD
330
18
100
AcDbEntity
  8
0
100
AcDbCircle
 10
1.353893
 20
1.902733
 30
0.0
 40
0.011
100
AcDbArc
 50
187.767
 51
212.056
  0
ARC
  5
BE
330
18
100
AcDbEntity
  8
0
100
AcDbCircle
 10
1.338893
 20
2.138733
 30
0.0
 40
0.008
100
AcDbArc
 50
61.52799999999999
 51
91.00100000000001
  0
ARC
  5
BF
330
18
100
AcDbEntity
  8
0
100
AcDbCircle
 10
1.338893
 20
2.135733
 30
0.0
 40
0.011
100
AcDbArc
 50
91.00100000000001
 51
115.289
  0
ARC
  5
C0
330
18
100
AcDbEntity
  8
0
100
AcDbCircle
 10
1.339893
 20
2.132733
 30
0.0
 40
0.014
100
AcDbArc
 50
115.289
 51
134.641
  0
ARC
  5
C1
330
18
100
AcDbEntity
  8
0
100
AcDbCircle
 10
1.342893
 20
2.129733
 30
0.0
 40
0.019
100
AcDbArc
 50
134.641
 51
151.528
  0
ARC
  5
C2
330
18
100
AcDbEntity
  8
0
100
AcDbCircle
 10
1.342893
 20
2.129733
 30
0.0
 40
0.019
100
AcDbArc
 50
151.528
 51
168.416
  0
ARC
  5
C3
330
18
100
AcDbEntity
  8
0
100
AcDbCircle
 10
1.338893
 20
2.130733
 30
0.0
 40
0.014
100
AcDbArc
 50
168.416
 51
187.767
  0
ARC
  5
C4
330
18
100
AcDbEntity
  8
0
100
AcDbCircle
 10
1.334893
 20
2.129733
 30
0.0
 40
0.011
100
AcDbArc
 50
187.767
 51
212.056
  0
ARC
  5
C5
330
18
100
AcDbEntity
  8
0
100
AcDbCircle
 10
1.331893
 20
2.127733
 30
0.0
 40
0.008
100
AcDbArc
 50
212.056
 51
241.528
  0
ARC
  5
C6
330
18
100
AcDbEntity
  8
0
100
AcDbCircle
 10
1.331893
 20
2.127733
 30
0.0
 40
0.008
100
AcDbArc
 50
241.528
 51
271.001
  0
ARC
  5
C7
330
18
100
AcDbEntity
  8
0
100
AcDbCircle
 10
1.331893
 20
2.131733
 30
0.0
 40
0.011
100
AcDbArc
 50
271.001
 51
295.289
  0
ARC
  5
C8
330
18
100
AcDbEntity
  8
0
100
AcDbCircle
 10
1.330893
 20
2.134733
 30
0.0
 40
0.014
100
AcDbArc
 50
295.289
 51
314.641
  0
ARC
  5
C9
330
18
100
AcDbEntity
  8
0
100
AcDbCircle
 10
1.327893
 20
2.137733
 30
0.0
 40
0.019
100
AcDbArc
 50
314.641
 51
331.528
  0
ARC
  5
CA
330
18
100
AcDbEntity
  8
0
100
AcDbCircle
 10
1.338893
 20
2.138733
 30
0.0
 40
0.008
100
AcDbArc
 50
32.056
 51
61.52799999999999
  0
LINE
  5
CB
330
18
100
AcDbEntity
  8
0
100
AcDbLine
 10
1.120893
 20
2.227733
 30
0.0
 11
1.120893
 21
2.162733
 31
0.0
  0
ARC
  5
CC
330
18
100
AcDbEntity
  8
0
100
AcDbCircle
 10
1.153893
 20
2.191733
 30
0.0
 40
0.006
100
AcDbArc
 50
113.108
 51
146.847
  0
ARC
  5
CD
330
18
100
AcDbEntity
  8
0
100
AcDbCircle
 10
1.157893
 20
2.188733
 30
0.0
 40
0.011
100
AcDbArc
 50
146.847
 51
171.302
  0
ARC
  5
CE
330
18
100
AcDbEntity
  8
0
100
AcDbCircle
 10
1.162893
 20
2.187733
 30
0.0
 40
0.016
100
AcDbArc
 50
171.302
 51
188.701
  0
ARC
  5
CF
330
18
100
AcDbEntity
  8
0
100
AcDbCircle
 10
1.169893
 20
2.188733
 30
0.0
 40
0.023
100
AcDbArc
 50
188.701
 51
203.108
  0
ARC
  5
D0
330
18
100
AcDbEntity
  8
0
100
AcDbCircle
 10
1.169893
 20
2.188733
 30
0.0
 40
0.023
100
AcDbArc
 50
203.108
 51
217.515
  0
ARC
  5
D1
330
18
100
AcDbEntity
  8
0
100
AcDbCircle
 10
1.164893
 20
2.184733
 30
0.0
 40
0.016
100
AcDbArc
 50
217.515
 51
234.914
  0
ARC
  5
D2
330
18
100
AcDbEntity
  8
0
100
AcDbCircle
 10
1.161893
 20
2.180733
 30
0.0
 40
0.011
100
AcDbArc
 50
234.914
 51
259.369
  0
ARC
  5
D3
330
18
100
AcDbEntity
  8
0
100
AcDbCircle
 10
1.160893
 20
2.175733
 30
0.0
 40
0.006
100
AcDbArc
 50
259.369
 51
293.108
  0
ARC
  5
D4
330
18
100
AcDbEntity
  8
0
100
AcDbCircle
 10
1.160893
 20
2.175733
 30
0.0
 40
0.006
100
AcDbArc
 50
293.108
 51
326.847
  0
ARC
  5
D5
330
18
100
AcDbEntity
  8
0
100
AcDbCircle
 10
1.156893
 20
2.178733
 30
0.0
 40
0.011
100
AcDbArc
 50
326.847
 51
351.302
  0
ARC
  5
D6
330
18
100
AcDbEntity
  8
0
100
AcDbCircle
 10
1.151893
 20
2.178733
 30
0.0
 40
0.016
100
AcDbArc
 50
351.302
 51
8.701000000000001
  0
ARC
  5
D7
330
18
100
AcDbEntity
  8
0
100
AcDbCircle
 10
1.144893
 20
2.177733
 30
0.0
 40
0.023
100
AcDbArc
 50
8.701000000000001
 51
23.108
  0
ARC
  5
D8
330
18
100
AcDbEntity
  8
0
100
AcDbCircle
 10
1.144893
 20
2.177733
 30
0.0
 40
0.023
100
AcDbArc
 50
23.108
 51
37.515
  0
ARC
  5
D9
330
18
100
AcDbEntity
  8
0
100
AcDbCircle
 10
1.149893
 20
2.182733
 30
0.0
 40
0.016
100
AcDbArc
 50
37.515
 51
54.914
  0
ARC
  5
DA
330
18
100
AcDbEntity
  8
0
100
AcDbCircle
 10
1.152893
 20
2.186733
 30
0.0
 40
0.011
100
AcDbArc
 50
54.914
 51
79.369
  0
ARC
  5
DB
330
18
100
AcDbEntity
  8
0
100
AcDbCircle
 10
1.153893
 20
2.191733
 30
0.0
 40
0.006
100
AcDbArc
 50
79.369
 51
113.108
  0
LINE
  5
DC
330
18
100
AcDbEntity
  8
0
100
AcDbLine
 10
0.465893
 20
2.651733
 30
0.0
 11
0.291893
 21
2.565733
 31
0.0
  0
ARC
  5
DD
330
18
100
AcDbEntity
  8
0
100
AcDbCircle
 10
4.107878
 20
1.267384
 30
0.0
 40
0.518
100
AcDbArc
 50
149.673
 51
205.718
  0
ARC
  5
DE
330
18
100
AcDbEntity
  8
0
100
AcDbCircle
 10
0.268893
 20
1.440733
 30
0.0
 40
1.458
100
AcDbArc
 50
344.5580000000001
 51
6.65
  0
TEXT
  5
DF
330
18
100
AcDbEntity
  8
0
100
AcDbText
 10
1.722
 20
0.433715
 30
0.0
 40
0.125
  1
Simpson Strong-Tie
100
AcDbText
  0
TEXT
  5
E0
330
18
100
AcDbEntity
  8
0
100
AcDbText
 10
1.732
 20
0.261715
 30
0.0
 40
0.125
  1
A35 Framing Anchor
100
AcDbText
  0
LINE
  5
E1
330
18
100
AcDbEntity
  8
0
100
AcDbLine
 10
2.199893
 20
1.899733
 30
0.0
 11
2.199893
 21
2.520733
 31
0.0
  0
LINE
  5
E2
330
18
100
AcDbEntity
  8
0
100
AcDbLine
 10
2.019893
 20
2.608733
 30
0.0
 11
2.019893
 21
1.994733
 31
0.0
  0
LINE
  5
E3
330
18
100
AcDbEntity
  8
0
100
AcDbLine
 10
2.023893
 20
2.515733
 30
0.0
 11
2.079893
 21
2.391733
 31
0.0
  0
LINE
  5
E4
330
18
100
AcDbEntity
  8
0
100
AcDbLine
 10
2.149893
 20
2.545733
 30
0.0
 11
2.165893
 21
2.455733
 31
0.0
  0
LINE
  5
E5
330
18
100
AcDbEntity
  8
0
100
AcDbLine
 10
2.093893
 20
2.509733
 30
0.0
 11
2.128893
 21
2.393733
 31
0.0
  0
LINE
  5
E6
330
18
100
AcDbEntity
  8
0
100
AcDbLine
 10
1.462893
 20
1.834733
 30
0.0
 11
1.455893
 21
1.905733
 31
0.0
  0
LINE
  5
E7
330
18
100
AcDbEntity
  8
0
100
AcDbLine
 10
1.391893
 20
1.743733
 30
0.0
 11
1.462893
 21
1.834733
 31
0.0
  0
LINE
  5
E8
330
18
100
AcDbEntity
  8
0
100
AcDbLine
 10
1.392893
 20
1.704733
 30
0.0
 11
1.389893
 21
1.734733
 31
0.0
  0
ARC
  5
E9
330
18
100
AcDbEntity
  8
0
100
AcDbCircle
 10
1.401893
 20
1.736733
 30
0.0
 40
0.013
100
AcDbArc
 50
142.034
 51
186.483
  0
ARC
  5
EA
330
18
100
AcDbEntity
  8
0
100
AcDbCircle
 10
1.367893
 20
1.702733
 30
0.0
 40
0.025
100
AcDbArc
 50
301.873
 51
6.314
  0
ARC
  5
EB
330
18
100
AcDbEntity
  8
0
100
AcDbCircle
 10
1.361893
 20
1.699733
 30
0.0
 40
0.008
100
AcDbArc
 50
61.52799999999999
 51
91.00100000000001
  0
ARC
  5
EC
330
18
100
AcDbEntity
  8
0
100
AcDbCircle
 10
1.361893
 20
1.696733
 30
0.0
 40
0.011
100
AcDbArc
 50
91.00100000000001
 51
115.289
  0
ARC
  5
ED
330
18
100
AcDbEntity
  8
0
100
AcDbCircle
 10
1.363893
 20
1.693733
 30
0.0
 40
0.014
100
AcDbArc
 50
115.289
 51
134.641
  0
ARC
  5
EE
330
18
100
AcDbEntity
  8
0
100
AcDbCircle
 10
1.366893
 20
1.690733
 30
0.0
 40
0.019
100
AcDbArc
 50
134.641
 51
151.528
  0
ARC
  5
EF
330
18
100
AcDbEntity
  8
0
100
AcDbCircle
 10
1.366893
 20
1.690733
 30
0.0
 40
0.019
100
AcDbArc
 50
151.528
 51
168.416
  0
ARC
  5
F0
330
18
100
AcDbEntity
  8
0
100
AcDbCircle
 10
1.361893
 20
1.690733
 30
0.0
 40
0.014
100
AcDbArc
 50
168.416
 51
187.767
  0
ARC
  5
F1
330
18
100
AcDbEntity
  8
0
100
AcDbCircle
 10
1.358893
 20
1.690733
 30
0.0
 40
0.011
100
AcDbArc
 50
187.767
 51
212.056
  0
ARC
  5
F2
330
18
100
AcDbEntity
  8
0
100
AcDbCircle
 10
1.355893
 20
1.688733
 30
0.0
 40
0.008
100
AcDbArc
 50
212.056
 51
241.528
  0
ARC
  5
F3
330
18
100
AcDbEntity
  8
0
100
AcDbCircle
 10
1.355893
 20
1.688733
 30
0.0
 40
0.008
100
AcDbArc
 50
241.528
 51
271.001
  0
ARC
  5
F4
330
18
100
AcDbEntity
  8
0
100
AcDbCircle
 10
1.355893
 20
1.692733
 30
0.0
 40
0.011
100
AcDbArc
 50
271.001
 51
295.289
  0
ARC
  5
F5
330
18
100
AcDbEntity
  8
0
100
AcDbCircle
 10
1.354893
 20
1.695733
 30
0.0
 40
0.014
100
AcDbArc
 50
295.289
 51
314.641
  0
ARC
  5
F6
330
18
100
AcDbEntity
  8
0
100
AcDbCircle
 10
1.350893
 20
1.698733
 30
0.0
 40
0.019
100
AcDbArc
 50
314.641
 51
331.528
  0
ARC
  5
F7
330
18
100
AcDbEntity
  8
0
100
AcDbCircle
 10
1.350893
 20
1.698733
 30
0.0
 40
0.019
100
AcDbArc
 50
331.528
 51
348.416
  0
ARC
  5
F8
330
18
100
AcDbEntity
  8
0
100
AcDbCircle
 10
1.355893
 20
1.697733
 30
0.0
 40
0.014
100
AcDbArc
 50
348.416
 51
7.767
  0
ARC
  5
F9
330
18
100
AcDbEntity
  8
0
100
AcDbCircle
 10
1.358893
 20
1.697733
 30
0.0
 40
0.011
100
AcDbArc
 50
7.767
 51
32.056
  0
ARC
  5
FA
330
18
100
AcDbEntity
  8
0
100
AcDbCircle
 10
1.361893
 20
1.699733
 30
0.0
 40
0.008
100
AcDbArc
 50
32.056
 51
61.52799999999999
  0
ARC
  5
FB
330
18
100
AcDbEntity
  8
0
100
AcDbCircle
 10
1.362893
 20
1.764733
 30
0.0
 40
0.008
100
AcDbArc
 50
61.52799999999999
 51
91.00100000000001
  0
ARC
  5
FC
330
18
100
AcDbEntity
  8
0
100
AcDbCircle
 10
1.362893
 20
1.761733
 30
0.0
 40
0.011
100
AcDbArc
 50
91.00100000000001
 51
115.289
  0
ARC
  5
FD
330
18
100
AcDbEntity
  8
0
100
AcDbCircle
 10
1.364893
 20
1.758733
 30
0.0
 40
0.014
100
AcDbArc
 50
115.289
 51
134.641
  0
ARC
  5
FE
330
18
100
AcDbEntity
  8
0
100
AcDbCircle
 10
1.367893
 20
1.755733
 30
0.0
 40
0.019
100
AcDbArc
 50
134.641
 51
151.528
  0
ARC
  5
FF
330
18
100
AcDbEntity
  8
0
100
AcDbCircle
 10
1.367893
 20
1.755733
 30
0.0
 40
0.019
100
AcDbArc
 50
151.528
 51
168.416
  0
ARC
  5
100
330
18
100
AcDbEntity
  8
0
100
AcDbCircle
 10
1.363893
 20
1.755733
 30
0.0
 40
0.014
100
AcDbArc
 50
168.416
 51
187.767
  0
ARC
  5
101
330
18
100
AcDbEntity
  8
0
100
AcDbCircle
 10
1.359893
 20
1.755733
 30
0.0
 40
0.011
100
AcDbArc
 50
187.767
 51
212.056
  0
ARC
  5
102
330
18
100
AcDbEntity
  8
0
100
AcDbCircle
 10
1.356893
 20
1.753733
 30
0.0
 40
0.008
100
AcDbArc
 50
212.056
 51
241.528
  0
ARC
  5
103
330
18
100
AcDbEntity
  8
0
100
AcDbCircle
 10
1.356893
 20
1.753733
 30
0.0
 40
0.008
100
AcDbArc
 50
241.528
 51
271.001
  0
ARC
  5
104
330
18
100
AcDbEntity
  8
0
100
AcDbCircle
 10
1.356893
 20
1.757733
 30
0.0
 40
0.011
100
AcDbArc
 50
271.001
 51
295.289
  0
ARC
  5
105
330
18
100
AcDbEntity
  8
0
100
AcDbCircle
 10
1.355893
 20
1.760733
 30
0.0
 40
0.014
100
AcDbArc
 50
295.289
 51
314.641
  0
ARC
  5
106
330
18
100
AcDbEntity
  8
0
100
AcDbCircle
 10
1.352893
 20
1.763733
 30
0.0
 40
0.019
100
AcDbArc
 50
314.641
 51
331.528
  0
ARC
  5
107
330
18
100
AcDbEntity
  8
0
100
AcDbCircle
 10
1.352893
 20
1.763733
 30
0.0
 40
0.019
100
AcDbArc
 50
331.528
 51
348.416
  0
ARC
  5
108
330
18
100
AcDbEntity
  8
0
100
AcDbCircle
 10
1.356893
 20
1.762733
 30
0.0
 40
0.014
100
AcDbArc
 50
348.416
 51
7.767
  0
ARC
  5
109
330
18
100
AcDbEntity
  8
0
100
AcDbCircle
 10
1.359893
 20
1.762733
 30
0.0
 40
0.011
100
AcDbArc
 50
7.767
 51
32.056
  0
ARC
  5
10A
330
18
100
AcDbEntity
  8
0
100
AcDbCircle
 10
1.362893
 20
1.764733
 30
0.0
 40
0.008
100
AcDbArc
 50
32.056
 51
61.52799999999999
  0
SOLID
  5
10B
330
18
100
AcDbEntity
  8
0
100
AcDbTrace
 10
1.703893
 20
1.483733
 30
0.0
 11
1.744893
 21
1.485733
 31
0.0
 12
1.716893
 22
1.609733
 32
0.0
 13
1.716893
 23
1.609733
 33
0.0
  0
LINE
  5
10C
330
18
100
AcDbEntity
  8
0
100
AcDbLine
 10
1.374893
 20
2.147733
 30
0.0
 11
1.374893
 21
2.173733
 31
0.0
  0
LINE
  5
10D
330
18
100
AcDbEntity
  8
0
100
AcDbLine
 10
1.381893
 20
1.937733
 30
0.0
 11
1.455893
 21
2.076733
 31
0.0
  0
LINE
  5
10E
330
18
100
AcDbEntity
  8
0
100
AcDbLine
 10
1.455893
 20
1.905733
 30
0.0
 11
1.391893
 21
1.874733
 31
0.0
  0
ARC
  5
10F
330
18
100
AcDbEntity
  8
0
100
AcDbCircle
 10
1.423893
 20
1.867733
 30
0.0
 40
0.008
100
AcDbArc
 50
61.52799999999999
 51
91.00100000000001
  0
ARC
  5
110
330
18
100
AcDbEntity
  8
0
100
AcDbCircle
 10
1.415893
 20
1.862733
 30
0.0
 40
0.014
100
AcDbArc
 50
295.289
 51
314.641
  0
LINE
  5
111
330
18
100
AcDbEntity
  8
0
100
AcDbLine
 10
1.391893
 20
1.874733
 30
0.0
 11
1.381893
 21
1.937733
 31
0.0
  0
ARC
  5
112
330
18
100
AcDbEntity
  8
0
100
AcDbCircle
 10
1.423893
 20
1.863733
 30
0.0
 40
0.011
100
AcDbArc
 50
91.00100000000001
 51
115.289
  0
ARC
  5
113
330
18
100
AcDbEntity
  8
0
100
AcDbCircle
 10
1.424893
 20
1.860733
 30
0.0
 40
0.014
100
AcDbArc
 50
115.289
 51
134.641
  0
ARC
  5
114
330
18
100
AcDbEntity
  8
0
100
AcDbCircle
 10
1.427893
 20
1.857733
 30
0.0
 40
0.019
100
AcDbArc
 50
134.641
 51
151.528
  0
ARC
  5
115
330
18
100
AcDbEntity
  8
0
100
AcDbCircle
 10
1.427893
 20
1.857733
 30
0.0
 40
0.019
100
AcDbArc
 50
151.528
 51
168.416
  0
ARC
  5
116
330
18
100
AcDbEntity
  8
0
100
AcDbCircle
 10
1.423893
 20
1.858733
 30
0.0
 40
0.014
100
AcDbArc
 50
168.416
 51
187.767
  0
ARC
  5
117
330
18
100
AcDbEntity
  8
0
100
AcDbCircle
 10
1.420893
 20
1.857733
 30
0.0
 40
0.011
100
AcDbArc
 50
187.767
 51
212.056
  0
ARC
  5
118
330
18
100
AcDbEntity
  8
0
100
AcDbCircle
 10
1.417893
 20
1.855733
 30
0.0
 40
0.008
100
AcDbArc
 50
212.056
 51
241.528
  0
ARC
  5
119
330
18
100
AcDbEntity
  8
0
100
AcDbCircle
 10
1.417893
 20
1.855733
 30
0.0
 40
0.008
100
AcDbArc
 50
241.528
 51
271.001
  0
ARC
  5
11A
330
18
100
AcDbEntity
  8
0
100
AcDbCircle
 10
1.417893
 20
1.859733
 30
0.0
 40
0.011
100
AcDbArc
 50
271.001
 51
295.289
  0
ARC
  5
11B
330
18
100
AcDbEntity
  8
0
100
AcDbCircle
 10
1.356893
 20
1.911733
 30
0.0
 40
0.008
100
AcDbArc
 50
61.52799999999999
 51
91.00100000000001
  0
ARC
  5
11C
330
18
100
AcDbEntity
  8
0
100
AcDbCircle
 10
1.356893
 20
1.908733
 30
0.0
 40
0.011
100
AcDbArc
 50
91.00100000000001
 51
115.289
  0
ARC
  5
11D
330
18
100
AcDbEntity
  8
0
100
AcDbCircle
 10
1.358893
 20
1.905733
 30
0.0
 40
0.014
100
AcDbArc
 50
115.289
 51
134.641
  0
ARC
  5
11E
330
18
100
AcDbEntity
  8
0
100
AcDbCircle
 10
1.350893
 20
1.900733
 30
0.0
 40
0.008
100
AcDbArc
 50
241.528
 51
271.001
  0
ARC
  5
11F
330
18
100
AcDbEntity
  8
0
100
AcDbCircle
 10
1.350893
 20
1.903733
 30
0.0
 40
0.011
100
AcDbArc
 50
271.001
 51
295.289
  0
ARC
  5
120
330
18
100
AcDbEntity
  8
0
100
AcDbCircle
 10
1.349893
 20
1.907733
 30
0.0
 40
0.014
100
AcDbArc
 50
295.289
 51
314.641
  0
ARC
  5
121
330
18
100
AcDbEntity
  8
0
100
AcDbCircle
 10
1.345893
 20
1.910733
 30
0.0
 40
0.019
100
AcDbArc
 50
314.641
 51
331.528
  0
ARC
  5
122
330
18
100
AcDbEntity
  8
0
100
AcDbCircle
 10
1.345893
 20
1.910733
 30
0.0
 40
0.019
100
AcDbArc
 50
331.528
 51
348.416
  0
ARC
  5
123
330
18
100
AcDbEntity
  8
0
100
AcDbCircle
 10
1.350893
 20
1.909733
 30
0.0
 40
0.014
100
AcDbArc
 50
348.416
 51
7.767
  0
ARC
  5
124
330
18
100
AcDbEntity
  8
0
100
AcDbCircle
 10
1.353893
 20
1.909733
 30
0.0
 40
0.011
100
AcDbArc
 50
7.767
 51
32.056
  0
ARC
  5
125
330
18
100
AcDbEntity
  8
0
100
AcDbCircle
 10
1.356893
 20
1.911733
 30
0.0
 40
0.008
100
AcDbArc
 50
32.056
 51
61.52799999999999
  0
ARC
  5
126
330
18
100
AcDbEntity
  8
0
100
AcDbCircle
 10
1.412893
 20
1.865733
 30
0.0
 40
0.019
100
AcDbArc
 50
314.641
 51
331.528
  0
ARC
  5
127
330
18
100
AcDbEntity
  8
0
100
AcDbCircle
 10
1.412893
 20
1.865733
 30
0.0
 40
0.019
100
AcDbArc
 50
331.528
 51
348.416
  0
ARC
  5
128
330
18
100
AcDbEntity
  8
0
100
AcDbCircle
 10
1.416893
 20
1.864733
 30
0.0
 40
0.014
100
AcDbArc
 50
348.416
 51
7.767
  0
ARC
  5
129
330
18
100
AcDbEntity
  8
0
100
AcDbCircle
 10
1.420893
 20
1.865733
 30
0.0
 40
0.011
100
AcDbArc
 50
7.767
 51
32.056
  0
ARC
  5
12A
330
18
100
AcDbEntity
  8
0
100
AcDbCircle
 10
1.423893
 20
1.867733
 30
0.0
 40
0.008
100
AcDbArc
 50
32.056
 51
61.52799999999999
  0
LINE
  5
12B
330
18
100
AcDbEntity
  8
0
100
AcDbLine
 10
1.454893
 20
2.122733
 30
0.0
 11
1.382893
 21
2.137733
 31
0.0
  0
ARC
  5
12C
330
18
100
AcDbEntity
  8
0
100
AcDbCircle
 10
1.407893
 20
2.094733
 30
0.0
 40
0.019
100
AcDbArc
 50
314.641
 51
331.528
  0
ARC
  5
12D
330
18
100
AcDbEntity
  8
0
100
AcDbCircle
 10
1.417893
 20
2.095733
 30
0.0
 40
0.008
100
AcDbArc
 50
32.056
 51
61.52799999999999
  0
ARC
  5
12E
330
18
100
AcDbEntity
  8
0
100
AcDbCircle
 10
1.384893
 20
2.147733
 30
0.0
 40
0.01
100
AcDbArc
 50
179.767
 51
258.701
  0
ARC
  5
12F
330
18
100
AcDbEntity
  8
0
100
AcDbCircle
 10
1.417893
 20
2.095733
 30
0.0
 40
0.008
100
AcDbArc
 50
61.52799999999999
 51
91.00100000000001
  0
ARC
  5
130
330
18
100
AcDbEntity
  8
0
100
AcDbCircle
 10
1.418893
 20
2.092733
 30
0.0
 40
0.011
100
AcDbArc
 50
91.00100000000001
 51
115.289
  0
ARC
  5
131
330
18
100
AcDbEntity
  8
0
100
AcDbCircle
 10
1.419893
 20
2.089733
 30
0.0
 40
0.014
100
AcDbArc
 50
115.289
 51
134.641
  0
ARC
  5
132
330
18
100
AcDbEntity
  8
0
100
AcDbCircle
 10
1.422893
 20
2.086733
 30
0.0
 40
0.019
100
AcDbArc
 50
134.641
 51
151.528
  0
ARC
  5
133
330
18
100
AcDbEntity
  8
0
100
AcDbCircle
 10
1.422893
 20
2.086733
 30
0.0
 40
0.019
100
AcDbArc
 50
151.528
 51
168.416
  0
ARC
  5
134
330
18
100
AcDbEntity
  8
0
100
AcDbCircle
 10
1.418893
 20
2.087733
 30
0.0
 40
0.014
100
AcDbArc
 50
168.416
 51
187.767
  0
ARC
  5
135
330
18
100
AcDbEntity
  8
0
100
AcDbCircle
 10
1.414893
 20
2.086733
 30
0.0
 40
0.011
100
AcDbArc
 50
187.767
 51
212.056
  0
ARC
  5
136
330
18
100
AcDbEntity
  8
0
100
AcDbCircle
 10
1.411893
 20
2.084733
 30
0.0
 40
0.008
100
AcDbArc
 50
212.056
 51
241.528
  0
ARC
  5
137
330
18
100
AcDbEntity
  8
0
100
AcDbCircle
 10
1.411893
 20
2.084733
 30
0.0
 40
0.008
100
AcDbArc
 50
241.528
 51
271.001
  0
ARC
  5
138
330
18
100
AcDbEntity
  8
0
100
AcDbCircle
 10
1.411893
 20
2.088733
 30
0.0
 40
0.011
100
AcDbArc
 50
271.001
 51
295.289
  0
ARC
  5
139
330
18
100
AcDbEntity
  8
0
100
AcDbCircle
 10
1.410893
 20
2.091733
 30
0.0
 40
0.014
100
AcDbArc
 50
295.289
 51
314.641
  0
LINE
  5
13A
330
18
100
AcDbEntity
  8
0
100
AcDbLine
 10
1.455893
 20
2.076733
 30
0.0
 11
1.454893
 21
2.122733
 31
0.0
  0
ARC
  5
13B
330
18
100
AcDbEntity
  8
0
100
AcDbCircle
 10
1.407893
 20
2.094733
 30
0.0
 40
0.019
100
AcDbArc
 50
331.528
 51
348.416
  0
ARC
  5
13C
330
18
100
AcDbEntity
  8
0
100
AcDbCircle
 10
1.411893
 20
2.093733
 30
0.0
 40
0.014
100
AcDbArc
 50
348.416
 51
7.767
  0
ARC
  5
13D
330
18
100
AcDbEntity
  8
0
100
AcDbCircle
 10
1.415893
 20
2.094733
 30
0.0
 40
0.011
100
AcDbArc
 50
7.767
 51
32.056
  0
LINE
  5
13E
330
18
100
AcDbEntity
  8
0
100
AcDbLine
 10
2.019893
 20
2.178733
 30
0.0
 11
2.049893
 21
2.103733
 31
0.0
  0
LINE
  5
13F
330
18
100
AcDbEntity
  8
0
100
AcDbLine
 10
2.086893
 20
2.169733
 30
0.0
 11
2.102893
 21
2.036733
 31
0.0
  0
LINE
  5
140
330
18
100
AcDbEntity
  8
0
100
AcDbLine
 10
2.124893
 20
2.254733
 30
0.0
 11
2.149893
 21
2.151733
 31
0.0
  0
LINE
  5
141
330
18
100
AcDbEntity
  8
0
100
AcDbLine
 10
2.171893
 20
2.227733
 30
0.0
 11
2.199893
 21
2.131733
 31
0.0
  0
LINE
  5
142
330
18
100
AcDbEntity
  8
0
100
AcDbLine
 10
2.019893
 20
1.994733
 30
0.0
 11
2.199893
 21
1.899733
 31
0.0
  0
LINE
  5
143
330
18
100
AcDbEntity
  8
0
100
AcDbLine
 10
2.061893
 20
2.016733
 30
0.0
 11
2.064893
 21
1.971733
 31
0.0
  0
LINE
  5
144
330
18
100
AcDbEntity
  8
0
100
AcDbLine
 10
2.102893
 20
2.036733
 30
0.0
 11
2.108893
 21
1.947733
 31
0.0
  0
LINE
  5
145
330
18
100
AcDbEntity
  8
0
100
AcDbLine
 10
2.049893
 20
2.103733
 30
0.0
 11
2.061893
 21
2.016733
 31
0.0
  0
LINE
  5
146
330
18
100
AcDbEntity
  8
0
100
AcDbLine
 10
2.161893
 20
2.058733
 30
0.0
 11
2.162893
 21
1.937733
 31
0.0
  0
LINE
  5
147
330
18
100
AcDbEntity
  8
0
100
AcDbLine
 10
2.162893
 20
1.937733
 30
0.0
 11
2.161893
 21
1.919733
 31
0.0
  0
LINE
  5
148
330
18
100
AcDbEntity
  8
0
100
AcDbLine
 10
2.149893
 20
2.151733
 30
0.0
 11
2.161893
 21
2.058733
 31
0.0
  0
LINE
  5
149
330
18
100
AcDbEntity
  8
0
100
AcDbLine
 10
2.043893
 20
2.341733
 30
0.0
 11
2.086893
 21
2.169733
 31
0.0
  0
LINE
  5
14A
330
18
100
AcDbEntity
  8
0
100
AcDbLine
 10
2.079893
 20
2.391733
 30
0.0
 11
2.124893
 21
2.254733
 31
0.0
  0
LINE
  5
14B
330
18
100
AcDbEntity
  8
0
100
AcDbLine
 10
2.019893
 20
2.406733
 30
0.0
 11
2.043893
 21
2.341733
 31
0.0
  0
LINE
  5
14C
330
18
100
AcDbEntity
  8
0
100
AcDbLine
 10
2.128893
 20
2.393733
 30
0.0
 11
2.157893
 21
2.298733
 31
0.0
  0
LINE
  5
14D
330
18
100
AcDbEntity
  8
0
100
AcDbLine
 10
2.157893
 20
2.298733
 30
0.0
 11
2.171893
 21
2.227733
 31
0.0
  0
LINE
  5
14E
330
18
100
AcDbEntity
  8
0
100
AcDbLine
 10
2.165893
 20
2.455733
 30
0.0
 11
2.199893
 21
2.349733
 31
0.0
  0
LINE
  5
14F
330
18
100
AcDbEntity
  8
0
100
AcDbLine
 10
2.199893
 20
2.520733
 30
0.0
 11
2.019893
 21
2.608733
 31
0.0
  0
LINE
  5
150
330
18
100
AcDbEntity
  8
0
100
AcDbLine
 10
2.019893
 20
2.521733
 30
0.0
 11
2.023893
 21
2.515733
 31
0.0
  0
LINE
  5
151
330
18
100
AcDbEntity
  8
0
100
AcDbLine
 10
2.060893
 20
2.588733
 30
0.0
 11
2.093893
 21
2.509733
 31
0.0
  0
LINE
  5
152
330
18
100
AcDbEntity
  8
0
100
AcDbLine
 10
2.462732
 20
3.598629
 30
0.0
 11
2.277732
 21
3.705629
 31
0.0
  0
ARC
  5
153
330
18
100
AcDbEntity
  8
0
100
AcDbCircle
 10
2.745732
 20
3.840629
 30
0.0
 40
0.5539999999999999
100
AcDbArc
 50
196.675
 51
250.317
  0
SOLID
  5
154
330
18
100
AcDbEntity
  8
0
100
AcDbTrace
 10
2.248732
 20
3.558629
 30
0.0
 11
2.286732
 21
3.576629
 31
0.0
 12
2.214732
 22
3.681629
 32
0.0
 13
2.214732
 23
3.681629
 33
0.0
  0
LINE
  5
155
330
18
100
AcDbEntity
  8
0
100
AcDbLine
 10
2.142732
 20
3.704629
 30
0.0
 11
2.277732
 21
3.705629
 31
0.0
  0
LINE
  5
156
330
18
100
AcDbEntity
  8
0
100
AcDbLine
 10
2.409732
 20
3.705629
 30
0.0
 11
2.465732
 21
3.636629
 31
0.0
  0
LINE
  5
157
330
18
100
AcDbEntity
  8
0
100
AcDbLine
 10
2.331732
 20
3.711629
 30
0.0
 11
2.390732
 21
3.640629
 31
0.0
  0
LINE
  5
158
330
18
100
AcDbEntity
  8
0
100
AcDbLine
 10
3.832878
 20
2.635384
 30
0.0
 11
3.832878
 21
1.619384
 31
0.0
  0
LINE
  5
159
330
18
100
AcDbEntity
  8
0
100
AcDbLine
 10
3.258878
 20
1.961384
 30
0.0
 11
3.243878
 21
1.777384
 31
0.0
  0
SOLID
  5
15A
330
18
100
AcDbEntity
  8
0
100
AcDbTrace
 10
3.588878
 20
1.425384
 30
0.0
 11
3.626878
 21
1.407384
 31
0.0
 12
3.660878
 22
1.529384
 32
0.0
 13
3.660878
 23
1.529384
 33
0.0
  0
LINE
  5
15B
330
18
100
AcDbEntity
  8
0
100
AcDbLine
 10
3.845878
 20
1.606384
 30
0.0
 11
3.843878
 21
1.532384
 31
0.0
  0
LINE
  5
15C
330
18
100
AcDbEntity
  8
0
100
AcDbLine
 10
3.411878
 20
2.156384
 30
0.0
 11
3.646878
 21
2.121384
 31
0.0
  0
LINE
  5
15D
330
18
100
AcDbEntity
  8
0
100
AcDbLine
 10
3.400878
 20
2.050384
 30
0.0
 11
3.411878
 21
2.156384
 31
0.0
  0
LINE
  5
15E
330
18
100
AcDbEntity
  8
0
100
AcDbLine
 10
3.258878
 20
1.961384
 30
0.0
 11
3.400878
 21
2.050384
 31
0.0
  0
LINE
  5
15F
330
18
100
AcDbEntity
  8
0
100
AcDbLine
 10
3.646878
 20
2.121384
 30
0.0
 11
3.645878
 21
2.202384
 31
0.0
  0
LINE
  5
160
330
18
100
AcDbEntity
  8
0
100
AcDbLine
 10
3.645878
 20
2.202384
 30
0.0
 11
3.762878
 21
2.275384
 31
0.0
  0
LINE
  5
161
330
18
100
AcDbEntity
  8
0
100
AcDbLine
 10
3.762878
 20
2.275384
 30
0.0
 11
3.832878
 21
2.229384
 31
0.0
  0
TEXT
  5
162
330
18
100
AcDbEntity
  8
0
100
AcDbText
 10
2.607732
 20
3.218629
 30
0.0
 40
0.175
  1
HEADER
 41
0.8
100
AcDbText
  0
LINE
  5
163
330
18
100
AcDbEntity
  8
0
100
AcDbLine
 10
2.102732
 20
4.647629
 30
0.0
 11
2.817732
 21
4.228629
 31
0.0
  0
LINE
  5
164
330
18
100
AcDbEntity
  8
0
100
AcDbLine
 10
3.508732
 20
4.452629
 30
0.0
 11
2.108732
 21
5.259629
 31
0.0
  0
LINE
  5
165
330
18
100
AcDbEntity
  8
0
100
AcDbLine
 10
2.271732
 20
5.328629
 30
0.0
 11
3.667732
 21
4.546629
 31
0.0
  0
LINE
  5
166
330
18
100
AcDbEntity
  8
0
100
AcDbLine
 10
2.476732
 20
3.798629
 30
0.0
 11
2.873732
 21
4.047629
 31
0.0
  0
LINE
  5
167
330
18
100
AcDbEntity
  8
0
100
AcDbLine
 10
2.156732
 20
5.005629
 30
0.0
 11
2.106732
 21
5.064629
 31
0.0
  0
LINE
  5
168
330
18
100
AcDbEntity
  8
0
100
AcDbLine
 10
1.932732
 20
4.123629
 30
0.0
 11
2.075732
 21
4.037629
 31
0.0
  0
LINE
  5
169
330
18
100
AcDbEntity
  8
0
100
AcDbLine
 10
1.932732
 20
4.123629
 30
0.0
 11
2.454732
 21
4.441629
 31
0.0
  0
LINE
  5
16A
330
18
100
AcDbEntity
  8
0
100
AcDbLine
 10
2.074732
 20
3.827629
 30
0.0
 11
1.919732
 21
3.917629
 31
0.0
  0
LINE
  5
16B
330
18
100
AcDbEntity
  8
0
100
AcDbLine
 10
1.971732
 20
4.064629
 30
0.0
 11
1.928732
 21
4.059629
 31
0.0
  0
LINE
  5
16C
330
18
100
AcDbEntity
  8
0
100
AcDbLine
 10
1.991732
 20
4.005629
 30
0.0
 11
1.924732
 21
4.000629
 31
0.0
  0
LINE
  5
16D
330
18
100
AcDbEntity
  8
0
100
AcDbLine
 10
1.998732
 20
3.953629
 30
0.0
 11
1.929732
 21
3.946629
 31
0.0
  0
LINE
  5
16E
330
18
100
AcDbEntity
  8
0
100
AcDbLine
 10
1.973732
 20
3.913629
 30
0.0
 11
1.936732
 21
3.907629
 31
0.0
  0
LINE
  5
16F
330
18
100
AcDbEntity
  8
0
100
AcDbLine
 10
1.919732
 20
3.917629
 30
0.0
 11
1.932732
 21
4.123629
 31
0.0
  0
LINE
  5
170
330
18
100
AcDbEntity
  8
0
100
AcDbLine
 10
1.929732
 20
3.946629
 30
0.0
 11
1.921732
 21
3.943629
 31
0.0
  0
LINE
  5
171
330
18
100
AcDbEntity
  8
0
100
AcDbLine
 10
2.279732
 20
3.915629
 30
0.0
 11
2.476732
 21
3.798629
 31
0.0
  0
LINE
  5
172
330
18
100
AcDbEntity
  8
0
100
AcDbLine
 10
2.278732
 20
3.835629
 30
0.0
 11
2.334732
 21
3.787629
 31
0.0
  0
LINE
  5
173
330
18
100
AcDbEntity
  8
0
100
AcDbLine
 10
2.279732
 20
3.879629
 30
0.0
 11
2.332732
 21
3.842629
 31
0.0
  0
LINE
  5
174
330
18
100
AcDbEntity
  8
0
100
AcDbLine
 10
2.075732
 20
4.037629
 30
0.0
 11
2.151732
 21
4.040629
 31
0.0
  0
LINE
  5
175
330
18
100
AcDbEntity
  8
0
100
AcDbLine
 10
2.074732
 20
3.827629
 30
0.0
 11
2.143732
 21
3.830629
 31
0.0
  0
LINE
  5
176
330
18
100
AcDbEntity
  8
0
100
AcDbLine
 10
2.075732
 20
4.006629
 30
0.0
 11
2.147732
 21
3.982629
 31
0.0
  0
LINE
  5
177
330
18
100
AcDbEntity
  8
0
100
AcDbLine
 10
2.075732
 20
3.959629
 30
0.0
 11
2.145732
 21
3.937629
 31
0.0
  0
LINE
  5
178
330
18
100
AcDbEntity
  8
0
100
AcDbLine
 10
2.075732
 20
3.914629
 30
0.0
 11
2.143732
 21
3.893629
 31
0.0
  0
LINE
  5
179
330
18
100
AcDbEntity
  8
0
100
AcDbLine
 10
2.074732
 20
3.871629
 30
0.0
 11
2.143732
 21
3.848629
 31
0.0
  0
LINE
  5
17A
330
18
100
AcDbEntity
  8
0
100
AcDbLine
 10
2.075732
 20
4.037629
 30
0.0
 11
2.074732
 21
3.827629
 31
0.0
  0
LINE
  5
17B
330
18
100
AcDbEntity
  8
0
100
AcDbLine
 10
2.075732
 20
3.914629
 30
0.0
 11
2.026732
 21
3.918629
 31
0.0
  0
LINE
  5
17C
330
18
100
AcDbEntity
  8
0
100
AcDbLine
 10
2.026732
 20
3.918629
 30
0.0
 11
1.973732
 21
3.913629
 31
0.0
  0
LINE
  5
17D
330
18
100
AcDbEntity
  8
0
100
AcDbLine
 10
1.997732
 20
3.872629
 30
0.0
 11
2.074732
 21
3.871629
 31
0.0
  0
LINE
  5
17E
330
18
100
AcDbEntity
  8
0
100
AcDbLine
 10
2.075732
 20
4.006629
 30
0.0
 11
1.991732
 21
4.005629
 31
0.0
  0
LINE
  5
17F
330
18
100
AcDbEntity
  8
0
100
AcDbLine
 10
2.075732
 20
3.959629
 30
0.0
 11
1.998732
 21
3.953629
 31
0.0
  0
LINE
  5
180
330
18
100
AcDbEntity
  8
0
100
AcDbLine
 10
2.042732
 20
4.057629
 30
0.0
 11
1.971732
 21
4.064629
 31
0.0
  0
LINE
  5
181
330
18
100
AcDbEntity
  8
0
100
AcDbLine
 10
2.151732
 20
4.040629
 30
0.0
 11
2.143732
 21
3.914629
 31
0.0
  0
LINE
  5
182
330
18
100
AcDbEntity
  8
0
100
AcDbLine
 10
2.143732
 20
3.914629
 30
0.0
 11
2.279732
 21
3.915629
 31
0.0
  0
LINE
  5
183
330
18
100
AcDbEntity
  8
0
100
AcDbLine
 10
2.279732
 20
3.886629
 30
0.0
 11
2.193732
 21
3.874629
 31
0.0
  0
LINE
  5
184
330
18
100
AcDbEntity
  8
0
100
AcDbLine
 10
2.278732
 20
3.843629
 30
0.0
 11
2.197732
 21
3.827629
 31
0.0
  0
LINE
  5
185
330
18
100
AcDbEntity
  8
0
100
AcDbLine
 10
2.278732
 20
3.758629
 30
0.0
 11
2.200732
 21
3.761629
 31
0.0
  0
LINE
  5
186
330
18
100
AcDbEntity
  8
0
100
AcDbLine
 10
2.193732
 20
3.874629
 30
0.0
 11
2.143732
 21
3.872629
 31
0.0
  0
LINE
  5
187
330
18
100
AcDbEntity
  8
0
100
AcDbLine
 10
2.197732
 20
3.827629
 30
0.0
 11
2.143732
 21
3.825629
 31
0.0
  0
LINE
  5
188
330
18
100
AcDbEntity
  8
0
100
AcDbLine
 10
2.200732
 20
3.761629
 30
0.0
 11
2.142732
 21
3.763629
 31
0.0
  0
LINE
  5
189
330
18
100
AcDbEntity
  8
0
100
AcDbLine
 10
2.332732
 20
3.842629
 30
0.0
 11
2.403732
 21
3.776629
 31
0.0
  0
LINE
  5
18A
330
18
100
AcDbEntity
  8
0
100
AcDbLine
 10
2.104732
 20
4.828629
 30
0.0
 11
2.102732
 21
4.647629
 31
0.0
  0
LINE
  5
18B
330
18
100
AcDbEntity
  8
0
100
AcDbLine
 10
2.019732
 20
4.911629000000001
 30
0.0
 11
2.156732
 21
5.005629
 31
0.0
  0
LINE
  5
18C
330
18
100
AcDbEntity
  8
0
100
AcDbLine
 10
2.104732
 20
4.828629
 30
0.0
 11
2.019732
 21
4.911629000000001
 31
0.0
  0
LINE
  5
18D
330
18
100
AcDbEntity
  8
0
100
AcDbLine
 10
2.108732
 20
5.259629
 30
0.0
 11
2.271732
 21
5.328629
 31
0.0
  0
LINE
  5
18E
330
18
100
AcDbEntity
  8
0
100
AcDbLine
 10
2.108732
 20
5.259629
 30
0.0
 11
2.106732
 21
5.064629
 31
0.0
  0
TEXT
  5
18F
330
18
100
AcDbEntity
  8
0
100
AcDbText
 10
3.095732
 20
5.020629000000001
 30
0.0
 40
0.175
  1
JOIST
 41
0.8
100
AcDbText
  0
ARC
  5
190
330
18
100
AcDbEntity
  8
0
100
AcDbCircle
 10
3.403732
 20
4.865629
 30
0.0
 40
0.359
100
AcDbArc
 50
307.099
 51
37.659
  0
LINE
  5
191
330
18
100
AcDbEntity
  8
0
100
AcDbLine
 10
3.016732
 20
4.112629
 30
0.0
 11
3.508732
 21
3.824629
 31
0.0
  0
LINE
  5
192
330
18
100
AcDbEntity
  8
0
100
AcDbLine
 10
3.018732
 20
3.962629
 30
0.0
 11
3.012732
 21
4.483629000000001
 31
0.0
  0
LINE
  5
193
330
18
100
AcDbEntity
  8
0
100
AcDbLine
 10
2.889732
 20
4.406629
 30
0.0
 11
2.884732
 21
4.346629
 31
0.0
  0
LINE
  5
194
330
18
100
AcDbEntity
  8
0
100
AcDbLine
 10
2.930732
 20
4.443629000000001
 30
0.0
 11
2.934732
 21
4.388629
 31
0.0
  0
LINE
  5
195
330
18
100
AcDbEntity
  8
0
100
AcDbLine
 10
2.940732
 20
3.959629
 30
0.0
 11
2.885732
 21
3.988629
 31
0.0
  0
LINE
  5
196
330
18
100
AcDbEntity
  8
0
100
AcDbLine
 10
2.931732
 20
4.380629
 30
0.0
 11
2.874732
 21
4.297629
 31
0.0
  0
LINE
  5
197
330
18
100
AcDbEntity
  8
0
100
AcDbLine
 10
2.873732
 20
4.047629
 30
0.0
 11
2.937732
 21
4.087629
 31
0.0
  0
LINE
  5
198
330
18
100
AcDbEntity
  8
0
100
AcDbLine
 10
2.935732
 20
4.176629
 30
0.0
 11
2.878732
 21
4.213629
 31
0.0
  0
ARC
  5
199
330
18
100
AcDbEntity
  8
0
100
AcDbCircle
 10
2.896732
 20
4.264629
 30
0.0
 40
0.013
100
AcDbArc
 50
313.349
 51
333.706
  0
ARC
  5
19A
330
18
100
AcDbEntity
  8
0
100
AcDbCircle
 10
2.893732
 20
4.265629
 30
0.0
 40
0.016
100
AcDbArc
 50
333.706
 51
352.087
  0
ARC
  5
19B
330
18
100
AcDbEntity
  8
0
100
AcDbCircle
 10
2.896732
 20
4.266629
 30
0.0
 40
0.013
100
AcDbArc
 50
10.468
 51
30.824
  0
ARC
  5
19C
330
18
100
AcDbEntity
  8
0
100
AcDbCircle
 10
2.897732
 20
4.018629
 30
0.0
 40
0.013
100
AcDbArc
 50
313.349
 51
333.706
  0
ARC
  5
19D
330
18
100
AcDbEntity
  8
0
100
AcDbCircle
 10
2.900732
 20
4.021629
 30
0.0
 40
0.01
100
AcDbArc
 50
30.824
 51
54.778
  0
LINE
  5
19E
330
18
100
AcDbEntity
  8
0
100
AcDbLine
 10
2.870732
 20
4.051629
 30
0.0
 11
2.702732
 21
4.153629000000001
 31
0.0
  0
LINE
  5
19F
330
18
100
AcDbEntity
  8
0
100
AcDbLine
 10
2.878732
 20
3.999629
 30
0.0
 11
2.876732
 21
4.041629
 31
0.0
  0
ARC
  5
1A0
330
18
100
AcDbEntity
  8
0
100
AcDbCircle
 10
2.891732
 20
3.999629
 30
0.0
 40
0.013
100
AcDbArc
 50
183.198
 51
241.842
  0
ARC
  5
1A1
330
18
100
AcDbEntity
  8
0
100
AcDbCircle
 10
2.863732
 20
4.040629
 30
0.0
 40
0.013
100
AcDbArc
 50
3.198
 51
58.60499999999999
  0
ARC
  5
1A2
330
18
100
AcDbEntity
  8
0
100
AcDbCircle
 10
2.901732
 20
4.023629
 30
0.0
 40
0.008
100
AcDbArc
 50
82.087
 51
109.396
  0
ARC
  5
1A3
330
18
100
AcDbEntity
  8
0
100
AcDbCircle
 10
2.902732
 20
4.020629000000001
 30
0.0
 40
0.01
100
AcDbArc
 50
109.396
 51
133.349
  0
ARC
  5
1A4
330
18
100
AcDbEntity
  8
0
100
AcDbCircle
 10
2.903732
 20
4.019629
 30
0.0
 40
0.013
100
AcDbArc
 50
133.349
 51
153.706
  0
ARC
  5
1A5
330
18
100
AcDbEntity
  8
0
100
AcDbCircle
 10
2.906732
 20
4.018629
 30
0.0
 40
0.016
100
AcDbArc
 50
153.706
 51
172.087
  0
ARC
  5
1A6
330
18
100
AcDbEntity
  8
0
100
AcDbCircle
 10
2.906732
 20
4.018629
 30
0.0
 40
0.016
100
AcDbArc
 50
172.087
 51
190.468
  0
ARC
  5
1A7
330
18
100
AcDbEntity
  8
0
100
AcDbCircle
 10
2.903732
 20
4.017629
 30
0.0
 40
0.013
100
AcDbArc
 50
190.468
 51
210.824
  0
ARC
  5
1A8
330
18
100
AcDbEntity
  8
0
100
AcDbCircle
 10
2.901732
 20
4.016629
 30
0.0
 40
0.01
100
AcDbArc
 50
210.824
 51
234.778
  0
ARC
  5
1A9
330
18
100
AcDbEntity
  8
0
100
AcDbCircle
 10
2.900732
 20
4.014629
 30
0.0
 40
0.008
100
AcDbArc
 50
234.778
 51
262.087
  0
ARC
  5
1AA
330
18
100
AcDbEntity
  8
0
100
AcDbCircle
 10
2.900732
 20
4.014629
 30
0.0
 40
0.008
100
AcDbArc
 50
262.087
 51
289.396
  0
ARC
  5
1AB
330
18
100
AcDbEntity
  8
0
100
AcDbCircle
 10
2.899732
 20
4.016629
 30
0.0
 40
0.01
100
AcDbArc
 50
289.396
 51
313.349
  0
ARC
  5
1AC
330
18
100
AcDbEntity
  8
0
100
AcDbCircle
 10
2.901732
 20
4.023629
 30
0.0
 40
0.008
100
AcDbArc
 50
54.778
 51
82.087
  0
LINE
  5
1AD
330
18
100
AcDbEntity
  8
0
100
AcDbLine
 10
2.751732
 20
4.185629000000001
 30
0.0
 11
2.859732
 21
4.153629000000001
 31
0.0
  0
ARC
  5
1AE
330
18
100
AcDbEntity
  8
0
100
AcDbCircle
 10
2.748732
 20
4.173629
 30
0.0
 40
0.013
100
AcDbArc
 50
73.36399999999999
 51
126.904
  0
ARC
  5
1AF
330
18
100
AcDbEntity
  8
0
100
AcDbCircle
 10
2.753732
 20
4.161629000000001
 30
0.0
 40
0.014
100
AcDbArc
 50
254.088
 51
270.413
  0
ARC
  5
1B0
330
18
100
AcDbEntity
  8
0
100
AcDbCircle
 10
2.753732
 20
4.147629
 30
0.0
 40
0.014
100
AcDbArc
 50
90.413
 51
106.738
  0
LINE
  5
1B1
330
18
100
AcDbEntity
  8
0
100
AcDbLine
 10
2.702732
 20
4.153629000000001
 30
0.0
 11
2.740732
 21
4.183629
 31
0.0
  0
ARC
  5
1B2
330
18
100
AcDbEntity
  8
0
100
AcDbCircle
 10
2.748732
 20
4.154629
 30
0.0
 40
0.005
100
AcDbArc
 50
180.413
 51
210.774
  0
ARC
  5
1B3
330
18
100
AcDbEntity
  8
0
100
AcDbCircle
 10
2.750732
 20
4.155629
 30
0.0
 40
0.008
100
AcDbArc
 50
210.774
 51
235.148
  0
ARC
  5
1B4
330
18
100
AcDbEntity
  8
0
100
AcDbCircle
 10
2.752732
 20
4.158629
 30
0.0
 40
0.011
100
AcDbArc
 50
235.148
 51
254.088
  0
ARC
  5
1B5
330
18
100
AcDbEntity
  8
0
100
AcDbCircle
 10
2.752732
 20
4.150629
 30
0.0
 40
0.011
100
AcDbArc
 50
106.738
 51
125.677
  0
ARC
  5
1B6
330
18
100
AcDbEntity
  8
0
100
AcDbCircle
 10
2.750732
 20
4.152629
 30
0.0
 40
0.008
100
AcDbArc
 50
125.677
 51
150.051
  0
ARC
  5
1B7
330
18
100
AcDbEntity
  8
0
100
AcDbCircle
 10
2.748732
 20
4.154629
 30
0.0
 40
0.005
100
AcDbArc
 50
150.051
 51
180.413
  0
LINE
  5
1B8
330
18
100
AcDbEntity
  8
0
100
AcDbLine
 10
2.817732
 20
4.329629
 30
0.0
 11
2.817732
 21
4.228629
 31
0.0
  0
LINE
  5
1B9
330
18
100
AcDbEntity
  8
0
100
AcDbLine
 10
2.871732
 20
4.290629
 30
0.0
 11
2.873732
 21
4.223629
 31
0.0
  0
LINE
  5
1BA
330
18
100
AcDbEntity
  8
0
100
AcDbLine
 10
2.817732
 20
4.228629
 30
0.0
 11
2.904732
 21
4.177629000000001
 31
0.0
  0
ARC
  5
1BB
330
18
100
AcDbEntity
  8
0
100
AcDbCircle
 10
2.753732
 20
4.161629000000001
 30
0.0
 40
0.014
100
AcDbArc
 50
270.413
 51
286.738
  0
ARC
  5
1BC
330
18
100
AcDbEntity
  8
0
100
AcDbCircle
 10
2.754732
 20
4.158629
 30
0.0
 40
0.011
100
AcDbArc
 50
286.738
 51
305.677
  0
ARC
  5
1BD
330
18
100
AcDbEntity
  8
0
100
AcDbCircle
 10
2.755732
 20
4.155629
 30
0.0
 40
0.008
100
AcDbArc
 50
305.677
 51
330.051
  0
ARC
  5
1BE
330
18
100
AcDbEntity
  8
0
100
AcDbCircle
 10
2.758732
 20
4.154629
 30
0.0
 40
0.005
100
AcDbArc
 50
330.051
 51
0.413
  0
ARC
  5
1BF
330
18
100
AcDbEntity
  8
0
100
AcDbCircle
 10
2.758732
 20
4.154629
 30
0.0
 40
0.005
100
AcDbArc
 50
0.413
 51
30.774
  0
ARC
  5
1C0
330
18
100
AcDbEntity
  8
0
100
AcDbCircle
 10
2.755732
 20
4.152629
 30
0.0
 40
0.008
100
AcDbArc
 50
30.774
 51
55.148
  0
ARC
  5
1C1
330
18
100
AcDbEntity
  8
0
100
AcDbCircle
 10
2.754732
 20
4.150629
 30
0.0
 40
0.011
100
AcDbArc
 50
55.148
 51
74.08800000000001
  0
ARC
  5
1C2
330
18
100
AcDbEntity
  8
0
100
AcDbCircle
 10
2.753732
 20
4.147629
 30
0.0
 40
0.014
100
AcDbArc
 50
74.08800000000001
 51
90.413
  0
LINE
  5
1C3
330
18
100
AcDbEntity
  8
0
100
AcDbLine
 10
2.859732
 20
4.153629000000001
 30
0.0
 11
2.904732
 21
4.177629000000001
 31
0.0
  0
ARC
  5
1C4
330
18
100
AcDbEntity
  8
0
100
AcDbCircle
 10
2.885732
 20
4.223629
 30
0.0
 40
0.013
100
AcDbArc
 50
181.203
 51
237.146
  0
ARC
  5
1C5
330
18
100
AcDbEntity
  8
0
100
AcDbCircle
 10
2.879732
 20
4.129629
 30
0.0
 40
0.005
100
AcDbArc
 50
180.413
 51
210.774
  0
ARC
  5
1C6
330
18
100
AcDbEntity
  8
0
100
AcDbCircle
 10
2.881732
 20
4.130629
 30
0.0
 40
0.008
100
AcDbArc
 50
210.774
 51
235.148
  0
ARC
  5
1C7
330
18
100
AcDbEntity
  8
0
100
AcDbCircle
 10
2.882732
 20
4.132629
 30
0.0
 40
0.011
100
AcDbArc
 50
235.148
 51
254.088
  0
ARC
  5
1C8
330
18
100
AcDbEntity
  8
0
100
AcDbCircle
 10
2.883732
 20
4.136629
 30
0.0
 40
0.014
100
AcDbArc
 50
254.088
 51
270.413
  0
ARC
  5
1C9
330
18
100
AcDbEntity
  8
0
100
AcDbCircle
 10
2.883732
 20
4.136629
 30
0.0
 40
0.014
100
AcDbArc
 50
270.413
 51
286.738
  0
ARC
  5
1CA
330
18
100
AcDbEntity
  8
0
100
AcDbCircle
 10
2.885732
 20
4.132629
 30
0.0
 40
0.011
100
AcDbArc
 50
286.738
 51
305.677
  0
ARC
  5
1CB
330
18
100
AcDbEntity
  8
0
100
AcDbCircle
 10
2.886732
 20
4.130629
 30
0.0
 40
0.008
100
AcDbArc
 50
305.677
 51
330.051
  0
ARC
  5
1CC
330
18
100
AcDbEntity
  8
0
100
AcDbCircle
 10
2.889732
 20
4.129629
 30
0.0
 40
0.005
100
AcDbArc
 50
330.051
 51
0.413
  0
ARC
  5
1CD
330
18
100
AcDbEntity
  8
0
100
AcDbCircle
 10
2.889732
 20
4.129629
 30
0.0
 40
0.005
100
AcDbArc
 50
0.413
 51
30.774
  0
ARC
  5
1CE
330
18
100
AcDbEntity
  8
0
100
AcDbCircle
 10
2.886732
 20
4.127629
 30
0.0
 40
0.008
100
AcDbArc
 50
30.774
 51
55.148
  0
ARC
  5
1CF
330
18
100
AcDbEntity
  8
0
100
AcDbCircle
 10
2.885732
 20
4.125629
 30
0.0
 40
0.011
100
AcDbArc
 50
55.148
 51
74.08800000000001
  0
ARC
  5
1D0
330
18
100
AcDbEntity
  8
0
100
AcDbCircle
 10
2.884732
 20
4.121629
 30
0.0
 40
0.014
100
AcDbArc
 50
74.08800000000001
 51
90.413
  0
ARC
  5
1D1
330
18
100
AcDbEntity
  8
0
100
AcDbCircle
 10
2.884732
 20
4.121629
 30
0.0
 40
0.014
100
AcDbArc
 50
90.413
 51
106.738
  0
ARC
  5
1D2
330
18
100
AcDbEntity
  8
0
100
AcDbCircle
 10
2.883732
 20
4.125629
 30
0.0
 40
0.011
100
AcDbArc
 50
106.738
 51
125.677
  0
ARC
  5
1D3
330
18
100
AcDbEntity
  8
0
100
AcDbCircle
 10
2.881732
 20
4.127629
 30
0.0
 40
0.008
100
AcDbArc
 50
125.677
 51
150.051
  0
ARC
  5
1D4
330
18
100
AcDbEntity
  8
0
100
AcDbCircle
 10
2.879732
 20
4.129629
 30
0.0
 40
0.005
100
AcDbArc
 50
150.051
 51
180.413
  0
LINE
  5
1D5
330
18
100
AcDbEntity
  8
0
100
AcDbLine
 10
2.873732
 20
4.335629
 30
0.0
 11
2.817732
 21
4.329629
 31
0.0
  0
ARC
  5
1D6
330
18
100
AcDbEntity
  8
0
100
AcDbCircle
 10
2.871732
 20
4.347629
 30
0.0
 40
0.013
100
AcDbArc
 50
276.175
 51
354.506
  0
ARC
  5
1D7
330
18
100
AcDbEntity
  8
0
100
AcDbCircle
 10
2.884732
 20
4.290629
 30
0.0
 40
0.013
100
AcDbArc
 50
145.058
 51
181.203
  0
ARC
  5
1D8
330
18
100
AcDbEntity
  8
0
100
AcDbCircle
 10
2.899732
 20
4.269629
 30
0.0
 40
0.008
100
AcDbArc
 50
82.087
 51
109.396
  0
ARC
  5
1D9
330
18
100
AcDbEntity
  8
0
100
AcDbCircle
 10
2.900732
 20
4.266629
 30
0.0
 40
0.01
100
AcDbArc
 50
109.396
 51
133.349
  0
ARC
  5
1DA
330
18
100
AcDbEntity
  8
0
100
AcDbCircle
 10
2.901732
 20
4.265629
 30
0.0
 40
0.013
100
AcDbArc
 50
133.349
 51
153.706
  0
ARC
  5
1DB
330
18
100
AcDbEntity
  8
0
100
AcDbCircle
 10
2.904732
 20
4.264629
 30
0.0
 40
0.016
100
AcDbArc
 50
153.706
 51
172.087
  0
ARC
  5
1DC
330
18
100
AcDbEntity
  8
0
100
AcDbCircle
 10
2.904732
 20
4.264629
 30
0.0
 40
0.016
100
AcDbArc
 50
172.087
 51
190.468
  0
ARC
  5
1DD
330
18
100
AcDbEntity
  8
0
100
AcDbCircle
 10
2.901732
 20
4.263629
 30
0.0
 40
0.013
100
AcDbArc
 50
190.468
 51
210.824
  0
ARC
  5
1DE
330
18
100
AcDbEntity
  8
0
100
AcDbCircle
 10
2.899732
 20
4.262629
 30
0.0
 40
0.01
100
AcDbArc
 50
210.824
 51
234.778
  0
ARC
  5
1DF
330
18
100
AcDbEntity
  8
0
100
AcDbCircle
 10
2.898732
 20
4.260629
 30
0.0
 40
0.008
100
AcDbArc
 50
234.778
 51
262.087
  0
ARC
  5
1E0
330
18
100
AcDbEntity
  8
0
100
AcDbCircle
 10
2.898732
 20
4.260629
 30
0.0
 40
0.008
100
AcDbArc
 50
262.087
 51
289.396
  0
ARC
  5
1E1
330
18
100
AcDbEntity
  8
0
100
AcDbCircle
 10
2.897732
 20
4.262629
 30
0.0
 40
0.01
100
AcDbArc
 50
289.396
 51
313.349
  0
ARC
  5
1E2
330
18
100
AcDbEntity
  8
0
100
AcDbCircle
 10
2.898732
 20
4.267629
 30
0.0
 40
0.01
100
AcDbArc
 50
30.824
 51
54.778
  0
ARC
  5
1E3
330
18
100
AcDbEntity
  8
0
100
AcDbCircle
 10
2.899732
 20
4.269629
 30
0.0
 40
0.008
100
AcDbArc
 50
54.778
 51
82.087
  0
ARC
  5
1E4
330
18
100
AcDbEntity
  8
0
100
AcDbCircle
 10
2.847732
 20
4.276629
 30
0.0
 40
0.009
100
AcDbArc
 50
70.036
 51
94.49499999999999
  0
ARC
  5
1E5
330
18
100
AcDbEntity
  8
0
100
AcDbCircle
 10
2.847732
 20
4.275629
 30
0.0
 40
0.01
100
AcDbArc
 50
94.49499999999999
 51
117.714
  0
ARC
  5
1E6
330
18
100
AcDbEntity
  8
0
100
AcDbCircle
 10
2.847732
 20
4.275629
 30
0.0
 40
0.011
100
AcDbArc
 50
117.714
 51
139.37
  0
ARC
  5
1E7
330
18
100
AcDbEntity
  8
0
100
AcDbCircle
 10
2.848732
 20
4.274629
 30
0.0
 40
0.012
100
AcDbArc
 50
139.37
 51
160.036
  0
ARC
  5
1E8
330
18
100
AcDbEntity
  8
0
100
AcDbCircle
 10
2.848732
 20
4.274629
 30
0.0
 40
0.012
100
AcDbArc
 50
160.036
 51
180.703
  0
ARC
  5
1E9
330
18
100
AcDbEntity
  8
0
100
AcDbCircle
 10
2.847732
 20
4.274629
 30
0.0
 40
0.011
100
AcDbArc
 50
180.703
 51
202.358
  0
ARC
  5
1EA
330
18
100
AcDbEntity
  8
0
100
AcDbCircle
 10
2.846732
 20
4.273629
 30
0.0
 40
0.01
100
AcDbArc
 50
202.358
 51
225.577
  0
ARC
  5
1EB
330
18
100
AcDbEntity
  8
0
100
AcDbCircle
 10
2.845732
 20
4.273629
 30
0.0
 40
0.009
100
AcDbArc
 50
225.577
 51
250.036
  0
ARC
  5
1EC
330
18
100
AcDbEntity
  8
0
100
AcDbCircle
 10
2.845732
 20
4.273629
 30
0.0
 40
0.009
100
AcDbArc
 50
250.036
 51
274.495
  0
ARC
  5
1ED
330
18
100
AcDbEntity
  8
0
100
AcDbCircle
 10
2.845732
 20
4.274629
 30
0.0
 40
0.01
100
AcDbArc
 50
274.495
 51
297.714
  0
ARC
  5
1EE
330
18
100
AcDbEntity
  8
0
100
AcDbCircle
 10
2.845732
 20
4.275629
 30
0.0
 40
0.011
100
AcDbArc
 50
297.714
 51
319.37
  0
ARC
  5
1EF
330
18
100
AcDbEntity
  8
0
100
AcDbCircle
 10
2.844732
 20
4.275629
 30
0.0
 40
0.012
100
AcDbArc
 50
319.37
 51
340.036
  0
ARC
  5
1F0
330
18
100
AcDbEntity
  8
0
100
AcDbCircle
 10
2.844732
 20
4.275629
 30
0.0
 40
0.012
100
AcDbArc
 50
340.036
 51
0.703
  0
ARC
  5
1F1
330
18
100
AcDbEntity
  8
0
100
AcDbCircle
 10
2.845732
 20
4.275629
 30
0.0
 40
0.011
100
AcDbArc
 50
0.703
 51
22.358
  0
ARC
  5
1F2
330
18
100
AcDbEntity
  8
0
100
AcDbCircle
 10
2.846732
 20
4.276629
 30
0.0
 40
0.01
100
AcDbArc
 50
22.358
 51
45.57699999999999
  0
ARC
  5
1F3
330
18
100
AcDbEntity
  8
0
100
AcDbCircle
 10
2.847732
 20
4.276629
 30
0.0
 40
0.009
100
AcDbArc
 50
45.57699999999999
 51
70.036
  0
LINE
  5
1F4
330
18
100
AcDbEntity
  8
0
100
AcDbLine
 10
3.012732
 20
3.952629
 30
0.0
 11
2.948732
 21
3.913629
 31
0.0
  0
ARC
  5
1F5
330
18
100
AcDbEntity
  8
0
100
AcDbCircle
 10
2.946732
 20
3.917629
 30
0.0
 40
0.005
100
AcDbArc
 50
181.308
 51
301.376
  0
ARC
  5
1F6
330
18
100
AcDbEntity
  8
0
100
AcDbCircle
 10
2.975732
 20
3.975629
 30
0.0
 40
0.013
100
AcDbArc
 50
313.349
 51
333.706
  0
LINE
  5
1F7
330
18
100
AcDbEntity
  8
0
100
AcDbLine
 10
2.941732
 20
3.917629
 30
0.0
 11
2.940732
 21
3.959629
 31
0.0
  0
ARC
  5
1F8
330
18
100
AcDbEntity
  8
0
100
AcDbCircle
 10
2.979732
 20
3.980629
 30
0.0
 40
0.008
100
AcDbArc
 50
82.087
 51
109.396
  0
ARC
  5
1F9
330
18
100
AcDbEntity
  8
0
100
AcDbCircle
 10
2.980732
 20
3.977629
 30
0.0
 40
0.01
100
AcDbArc
 50
109.396
 51
133.349
  0
ARC
  5
1FA
330
18
100
AcDbEntity
  8
0
100
AcDbCircle
 10
2.981732
 20
3.976629
 30
0.0
 40
0.013
100
AcDbArc
 50
133.349
 51
153.706
  0
ARC
  5
1FB
330
18
100
AcDbEntity
  8
0
100
AcDbCircle
 10
2.984732
 20
3.974629
 30
0.0
 40
0.016
100
AcDbArc
 50
153.706
 51
172.087
  0
ARC
  5
1FC
330
18
100
AcDbEntity
  8
0
100
AcDbCircle
 10
2.984732
 20
3.974629
 30
0.0
 40
0.016
100
AcDbArc
 50
172.087
 51
190.468
  0
ARC
  5
1FD
330
18
100
AcDbEntity
  8
0
100
AcDbCircle
 10
2.981732
 20
3.974629
 30
0.0
 40
0.013
100
AcDbArc
 50
190.468
 51
210.824
  0
ARC
  5
1FE
330
18
100
AcDbEntity
  8
0
100
AcDbCircle
 10
2.979732
 20
3.973629
 30
0.0
 40
0.01
100
AcDbArc
 50
210.824
 51
234.778
  0
ARC
  5
1FF
330
18
100
AcDbEntity
  8
0
100
AcDbCircle
 10
2.978732
 20
3.971629
 30
0.0
 40
0.008
100
AcDbArc
 50
234.778
 51
262.087
  0
ARC
  5
200
330
18
100
AcDbEntity
  8
0
100
AcDbCircle
 10
2.978732
 20
3.971629
 30
0.0
 40
0.008
100
AcDbArc
 50
262.087
 51
289.396
  0
ARC
  5
201
330
18
100
AcDbEntity
  8
0
100
AcDbCircle
 10
2.977732
 20
3.973629
 30
0.0
 40
0.01
100
AcDbArc
 50
289.396
 51
313.349
  0
ARC
  5
202
330
18
100
AcDbEntity
  8
0
100
AcDbCircle
 10
2.977732
 20
3.978629
 30
0.0
 40
0.01
100
AcDbArc
 50
30.824
 51
54.778
  0
ARC
  5
203
330
18
100
AcDbEntity
  8
0
100
AcDbCircle
 10
2.979732
 20
3.980629
 30
0.0
 40
0.008
100
AcDbArc
 50
54.778
 51
82.087
  0
ARC
  5
204
330
18
100
AcDbEntity
  8
0
100
AcDbCircle
 10
2.895732
 20
4.019629
 30
0.0
 40
0.016
100
AcDbArc
 50
333.706
 51
352.087
  0
ARC
  5
205
330
18
100
AcDbEntity
  8
0
100
AcDbCircle
 10
2.895732
 20
4.019629
 30
0.0
 40
0.016
100
AcDbArc
 50
352.087
 51
10.468
  0
ARC
  5
206
330
18
100
AcDbEntity
  8
0
100
AcDbCircle
 10
2.898732
 20
4.020629000000001
 30
0.0
 40
0.013
100
AcDbArc
 50
10.468
 51
30.824
  0
ARC
  5
207
330
18
100
AcDbEntity
  8
0
100
AcDbCircle
 10
3.006732
 20
3.962629
 30
0.0
 40
0.013
100
AcDbArc
 50
301.376
 51
0.7190000000000001
  0
ARC
  5
208
330
18
100
AcDbEntity
  8
0
100
AcDbCircle
 10
2.973732
 20
3.976629
 30
0.0
 40
0.016
100
AcDbArc
 50
333.706
 51
352.087
  0
ARC
  5
209
330
18
100
AcDbEntity
  8
0
100
AcDbCircle
 10
2.973732
 20
3.976629
 30
0.0
 40
0.016
100
AcDbArc
 50
352.087
 51
10.468
  0
ARC
  5
20A
330
18
100
AcDbEntity
  8
0
100
AcDbCircle
 10
2.975732
 20
3.976629
 30
0.0
 40
0.013
100
AcDbArc
 50
10.468
 51
30.824
  0
LINE
  5
20B
330
18
100
AcDbEntity
  8
0
100
AcDbLine
 10
2.937732
 20
4.087629
 30
0.0
 11
2.935732
 21
4.176629
 31
0.0
  0
ARC
  5
20C
330
18
100
AcDbEntity
  8
0
100
AcDbCircle
 10
2.969732
 20
4.175629
 30
0.0
 40
0.008
100
AcDbArc
 50
82.087
 51
109.396
  0
ARC
  5
20D
330
18
100
AcDbEntity
  8
0
100
AcDbCircle
 10
2.969732
 20
4.173629
 30
0.0
 40
0.01
100
AcDbArc
 50
109.396
 51
133.349
  0
ARC
  5
20E
330
18
100
AcDbEntity
  8
0
100
AcDbCircle
 10
2.971732
 20
4.171629
 30
0.0
 40
0.013
100
AcDbArc
 50
133.349
 51
153.706
  0
ARC
  5
20F
330
18
100
AcDbEntity
  8
0
100
AcDbCircle
 10
2.973732
 20
4.170629
 30
0.0
 40
0.016
100
AcDbArc
 50
153.706
 51
172.087
  0
ARC
  5
210
330
18
100
AcDbEntity
  8
0
100
AcDbCircle
 10
2.973732
 20
4.170629
 30
0.0
 40
0.016
100
AcDbArc
 50
172.087
 51
190.468
  0
ARC
  5
211
330
18
100
AcDbEntity
  8
0
100
AcDbCircle
 10
2.971732
 20
4.170629
 30
0.0
 40
0.013
100
AcDbArc
 50
190.468
 51
210.824
  0
ARC
  5
212
330
18
100
AcDbEntity
  8
0
100
AcDbCircle
 10
2.969732
 20
4.168629
 30
0.0
 40
0.01
100
AcDbArc
 50
210.824
 51
234.778
  0
ARC
  5
213
330
18
100
AcDbEntity
  8
0
100
AcDbCircle
 10
2.967732
 20
4.166629
 30
0.0
 40
0.008
100
AcDbArc
 50
234.778
 51
262.087
  0
ARC
  5
214
330
18
100
AcDbEntity
  8
0
100
AcDbCircle
 10
2.967732
 20
4.166629
 30
0.0
 40
0.008
100
AcDbArc
 50
262.087
 51
289.396
  0
ARC
  5
215
330
18
100
AcDbEntity
  8
0
100
AcDbCircle
 10
2.967732
 20
4.169629000000001
 30
0.0
 40
0.01
100
AcDbArc
 50
289.396
 51
313.349
  0
ARC
  5
216
330
18
100
AcDbEntity
  8
0
100
AcDbCircle
 10
2.965732
 20
4.170629
 30
0.0
 40
0.013
100
AcDbArc
 50
313.349
 51
333.706
  0
ARC
  5
217
330
18
100
AcDbEntity
  8
0
100
AcDbCircle
 10
2.963732
 20
4.172629
 30
0.0
 40
0.016
100
AcDbArc
 50
333.706
 51
352.087
  0
ARC
  5
218
330
18
100
AcDbEntity
  8
0
100
AcDbCircle
 10
2.963732
 20
4.172629
 30
0.0
 40
0.016
100
AcDbArc
 50
352.087
 51
10.468
  0
ARC
  5
219
330
18
100
AcDbEntity
  8
0
100
AcDbCircle
 10
2.965732
 20
4.172629
 30
0.0
 40
0.013
100
AcDbArc
 50
10.468
 51
30.824
  0
ARC
  5
21A
330
18
100
AcDbEntity
  8
0
100
AcDbCircle
 10
2.967732
 20
4.173629
 30
0.0
 40
0.01
100
AcDbArc
 50
30.824
 51
54.778
  0
ARC
  5
21B
330
18
100
AcDbEntity
  8
0
100
AcDbCircle
 10
2.969732
 20
4.175629
 30
0.0
 40
0.008
100
AcDbArc
 50
54.778
 51
82.087
  0
ARC
  5
21C
330
18
100
AcDbEntity
  8
0
100
AcDbCircle
 10
2.973732
 20
4.104629
 30
0.0
 40
0.008
100
AcDbArc
 50
82.087
 51
109.396
  0
ARC
  5
21D
330
18
100
AcDbEntity
  8
0
100
AcDbCircle
 10
2.974732
 20
4.101629
 30
0.0
 40
0.01
100
AcDbArc
 50
109.396
 51
133.349
  0
ARC
  5
21E
330
18
100
AcDbEntity
  8
0
100
AcDbCircle
 10
2.975732
 20
4.100629000000001
 30
0.0
 40
0.013
100
AcDbArc
 50
133.349
 51
153.706
  0
ARC
  5
21F
330
18
100
AcDbEntity
  8
0
100
AcDbCircle
 10
2.978732
 20
4.099629
 30
0.0
 40
0.016
100
AcDbArc
 50
153.706
 51
172.087
  0
ARC
  5
220
330
18
100
AcDbEntity
  8
0
100
AcDbCircle
 10
2.978732
 20
4.099629
 30
0.0
 40
0.016
100
AcDbArc
 50
172.087
 51
190.468
  0
ARC
  5
221
330
18
100
AcDbEntity
  8
0
100
AcDbCircle
 10
2.975732
 20
4.098629
 30
0.0
 40
0.013
100
AcDbArc
 50
190.468
 51
210.824
  0
ARC
  5
222
330
18
100
AcDbEntity
  8
0
100
AcDbCircle
 10
2.973732
 20
4.097629
 30
0.0
 40
0.01
100
AcDbArc
 50
210.824
 51
234.778
  0
ARC
  5
223
330
18
100
AcDbEntity
  8
0
100
AcDbCircle
 10
2.972732
 20
4.095629
 30
0.0
 40
0.008
100
AcDbArc
 50
234.778
 51
262.087
  0
ARC
  5
224
330
18
100
AcDbEntity
  8
0
100
AcDbCircle
 10
2.972732
 20
4.095629
 30
0.0
 40
0.008
100
AcDbArc
 50
262.087
 51
289.396
  0
ARC
  5
225
330
18
100
AcDbEntity
  8
0
100
AcDbCircle
 10
2.971732
 20
4.097629
 30
0.0
 40
0.01
100
AcDbArc
 50
289.396
 51
313.349
  0
ARC
  5
226
330
18
100
AcDbEntity
  8
0
100
AcDbCircle
 10
2.969732
 20
4.099629
 30
0.0
 40
0.013
100
AcDbArc
 50
313.349
 51
333.706
  0
ARC
  5
227
330
18
100
AcDbEntity
  8
0
100
AcDbCircle
 10
2.967732
 20
4.100629000000001
 30
0.0
 40
0.016
100
AcDbArc
 50
333.706
 51
352.087
  0
ARC
  5
228
330
18
100
AcDbEntity
  8
0
100
AcDbCircle
 10
2.967732
 20
4.100629000000001
 30
0.0
 40
0.016
100
AcDbArc
 50
352.087
 51
10.468
  0
ARC
  5
229
330
18
100
AcDbEntity
  8
0
100
AcDbCircle
 10
2.970732
 20
4.101629
 30
0.0
 40
0.013
100
AcDbArc
 50
10.468
 51
30.824
  0
ARC
  5
22A
330
18
100
AcDbEntity
  8
0
100
AcDbCircle
 10
2.972732
 20
4.102629
 30
0.0
 40
0.01
100
AcDbArc
 50
30.824
 51
54.778
  0
ARC
  5
22B
330
18
100
AcDbEntity
  8
0
100
AcDbCircle
 10
2.973732
 20
4.104629
 30
0.0
 40
0.008
100
AcDbArc
 50
54.778
 51
82.087
  0
ARC
  5
22C
330
18
100
AcDbEntity
  8
0
100
AcDbCircle
 10
2.921732
 20
4.387629
 30
0.0
 40
0.013
100
AcDbArc
 50
325.058
 51
3.304
  0
ARC
  5
22D
330
18
100
AcDbEntity
  8
0
100
AcDbCircle
 10
2.893732
 20
4.265629
 30
0.0
 40
0.016
100
AcDbArc
 50
352.087
 51
10.468
  0
LINE
  5
22E
330
18
100
AcDbEntity
  8
0
100
AcDbLine
 10
3.012732
 20
4.483629000000001
 30
0.0
 11
2.827732
 21
4.584629000000001
 31
0.0
  0
LINE
  5
22F
330
18
100
AcDbEntity
  8
0
100
AcDbLine
 10
2.820732
 20
4.580629
 30
0.0
 11
2.820732
 21
4.518629
 31
0.0
  0
LINE
  5
230
330
18
100
AcDbEntity
  8
0
100
AcDbLine
 10
2.822732
 20
4.510629
 30
0.0
 11
2.887732
 21
4.414629
 31
0.0
  0
ARC
  5
231
330
18
100
AcDbEntity
  8
0
100
AcDbCircle
 10
2.832732
 20
4.517629
 30
0.0
 40
0.013
100
AcDbArc
 50
178.066
 51
214.192
  0
ARC
  5
232
330
18
100
AcDbEntity
  8
0
100
AcDbCircle
 10
2.877732
 20
4.407629
 30
0.0
 40
0.013
100
AcDbArc
 50
354.506
 51
34.192
  0
ARC
  5
233
330
18
100
AcDbEntity
  8
0
100
AcDbCircle
 10
2.856732
 20
4.531629
 30
0.0
 40
0.009
100
AcDbArc
 50
70.036
 51
94.49499999999999
  0
ARC
  5
234
330
18
100
AcDbEntity
  8
0
100
AcDbCircle
 10
2.856732
 20
4.530629
 30
0.0
 40
0.01
100
AcDbArc
 50
94.49499999999999
 51
117.714
  0
ARC
  5
235
330
18
100
AcDbEntity
  8
0
100
AcDbCircle
 10
2.856732
 20
4.529629
 30
0.0
 40
0.011
100
AcDbArc
 50
117.714
 51
139.37
  0
ARC
  5
236
330
18
100
AcDbEntity
  8
0
100
AcDbCircle
 10
2.857732
 20
4.529629
 30
0.0
 40
0.012
100
AcDbArc
 50
139.37
 51
160.036
  0
ARC
  5
237
330
18
100
AcDbEntity
  8
0
100
AcDbCircle
 10
2.857732
 20
4.529629
 30
0.0
 40
0.012
100
AcDbArc
 50
160.036
 51
180.703
  0
ARC
  5
238
330
18
100
AcDbEntity
  8
0
100
AcDbCircle
 10
2.856732
 20
4.529629
 30
0.0
 40
0.011
100
AcDbArc
 50
180.703
 51
202.358
  0
ARC
  5
239
330
18
100
AcDbEntity
  8
0
100
AcDbCircle
 10
2.855732
 20
4.528629000000001
 30
0.0
 40
0.01
100
AcDbArc
 50
202.358
 51
225.577
  0
ARC
  5
23A
330
18
100
AcDbEntity
  8
0
100
AcDbCircle
 10
2.855732
 20
4.528629000000001
 30
0.0
 40
0.009
100
AcDbArc
 50
225.577
 51
250.036
  0
ARC
  5
23B
330
18
100
AcDbEntity
  8
0
100
AcDbCircle
 10
2.855732
 20
4.528629000000001
 30
0.0
 40
0.009
100
AcDbArc
 50
250.036
 51
274.495
  0
ARC
  5
23C
330
18
100
AcDbEntity
  8
0
100
AcDbCircle
 10
2.855732
 20
4.529629
 30
0.0
 40
0.01
100
AcDbArc
 50
274.495
 51
297.714
  0
ARC
  5
23D
330
18
100
AcDbEntity
  8
0
100
AcDbCircle
 10
2.854732
 20
4.529629
 30
0.0
 40
0.011
100
AcDbArc
 50
297.714
 51
319.37
  0
ARC
  5
23E
330
18
100
AcDbEntity
  8
0
100
AcDbCircle
 10
2.853732
 20
4.530629
 30
0.0
 40
0.012
100
AcDbArc
 50
319.37
 51
340.036
  0
ARC
  5
23F
330
18
100
AcDbEntity
  8
0
100
AcDbCircle
 10
2.853732
 20
4.530629
 30
0.0
 40
0.012
100
AcDbArc
 50
340.036
 51
0.703
  0
ARC
  5
240
330
18
100
AcDbEntity
  8
0
100
AcDbCircle
 10
2.854732
 20
4.530629
 30
0.0
 40
0.011
100
AcDbArc
 50
0.703
 51
22.358
  0
ARC
  5
241
330
18
100
AcDbEntity
  8
0
100
AcDbCircle
 10
2.855732
 20
4.530629
 30
0.0
 40
0.01
100
AcDbArc
 50
22.358
 51
45.57699999999999
  0
ARC
  5
242
330
18
100
AcDbEntity
  8
0
100
AcDbCircle
 10
2.856732
 20
4.531629
 30
0.0
 40
0.009
100
AcDbArc
 50
45.57699999999999
 51
70.036
  0
ARC
  5
243
330
18
100
AcDbEntity
  8
0
100
AcDbCircle
 10
2.825732
 20
4.580629
 30
0.0
 40
0.005
100
AcDbArc
 50
61.06399999999999
 51
180.0
  0
LINE
  5
244
330
18
100
AcDbEntity
  8
0
100
AcDbLine
 10
3.012732
 20
4.483629000000001
 30
0.0
 11
2.930732
 21
4.443629000000001
 31
0.0
  0
ARC
  5
245
330
18
100
AcDbEntity
  8
0
100
AcDbCircle
 10
2.966732
 20
4.429629
 30
0.0
 40
0.008
100
AcDbArc
 50
82.087
 51
109.396
  0
ARC
  5
246
330
18
100
AcDbEntity
  8
0
100
AcDbCircle
 10
2.967732
 20
4.427629000000001
 30
0.0
 40
0.01
100
AcDbArc
 50
109.396
 51
133.349
  0
ARC
  5
247
330
18
100
AcDbEntity
  8
0
100
AcDbCircle
 10
2.968732
 20
4.425629
 30
0.0
 40
0.013
100
AcDbArc
 50
133.349
 51
153.706
  0
ARC
  5
248
330
18
100
AcDbEntity
  8
0
100
AcDbCircle
 10
2.971732
 20
4.424629
 30
0.0
 40
0.016
100
AcDbArc
 50
153.706
 51
172.087
  0
ARC
  5
249
330
18
100
AcDbEntity
  8
0
100
AcDbCircle
 10
2.971732
 20
4.424629
 30
0.0
 40
0.016
100
AcDbArc
 50
172.087
 51
190.468
  0
ARC
  5
24A
330
18
100
AcDbEntity
  8
0
100
AcDbCircle
 10
2.968732
 20
4.423629
 30
0.0
 40
0.013
100
AcDbArc
 50
190.468
 51
210.824
  0
ARC
  5
24B
330
18
100
AcDbEntity
  8
0
100
AcDbCircle
 10
2.966732
 20
4.422629
 30
0.0
 40
0.01
100
AcDbArc
 50
210.824
 51
234.778
  0
ARC
  5
24C
330
18
100
AcDbEntity
  8
0
100
AcDbCircle
 10
2.965732
 20
4.420629
 30
0.0
 40
0.008
100
AcDbArc
 50
234.778
 51
262.087
  0
ARC
  5
24D
330
18
100
AcDbEntity
  8
0
100
AcDbCircle
 10
2.965732
 20
4.420629
 30
0.0
 40
0.008
100
AcDbArc
 50
262.087
 51
289.396
  0
ARC
  5
24E
330
18
100
AcDbEntity
  8
0
100
AcDbCircle
 10
2.964732
 20
4.423629
 30
0.0
 40
0.01
100
AcDbArc
 50
289.396
 51
313.349
  0
ARC
  5
24F
330
18
100
AcDbEntity
  8
0
100
AcDbCircle
 10
2.963732
 20
4.424629
 30
0.0
 40
0.013
100
AcDbArc
 50
313.349
 51
333.706
  0
ARC
  5
250
330
18
100
AcDbEntity
  8
0
100
AcDbCircle
 10
2.960732
 20
4.425629
 30
0.0
 40
0.016
100
AcDbArc
 50
333.706
 51
352.087
  0
ARC
  5
251
330
18
100
AcDbEntity
  8
0
100
AcDbCircle
 10
2.960732
 20
4.425629
 30
0.0
 40
0.016
100
AcDbArc
 50
352.087
 51
10.468
  0
ARC
  5
252
330
18
100
AcDbEntity
  8
0
100
AcDbCircle
 10
2.963732
 20
4.426629
 30
0.0
 40
0.013
100
AcDbArc
 50
10.468
 51
30.824
  0
ARC
  5
253
330
18
100
AcDbEntity
  8
0
100
AcDbCircle
 10
2.965732
 20
4.427629000000001
 30
0.0
 40
0.01
100
AcDbArc
 50
30.824
 51
54.778
  0
ARC
  5
254
330
18
100
AcDbEntity
  8
0
100
AcDbCircle
 10
2.966732
 20
4.429629
 30
0.0
 40
0.008
100
AcDbArc
 50
54.778
 51
82.087
  0
LINE
  5
255
330
18
100
AcDbEntity
  8
0
100
AcDbLine
 10
3.508732
 20
3.824629
 30
0.0
 11
3.508732
 21
4.452629
 31
0.0
  0
LINE
  5
256
330
18
100
AcDbEntity
  8
0
100
AcDbLine
 10
3.667732
 20
4.546629
 30
0.0
 11
3.672732
 21
3.930629
 31
0.0
  0
LINE
  5
257
330
18
100
AcDbEntity
  8
0
100
AcDbLine
 10
3.557732
 20
4.399629
 30
0.0
 11
3.608732
 21
4.278629000000001
 31
0.0
  0
LINE
  5
258
330
18
100
AcDbEntity
  8
0
100
AcDbLine
 10
3.580732
 20
4.452629
 30
0.0
 11
3.629732
 21
4.348629
 31
0.0
  0
LINE
  5
259
330
18
100
AcDbEntity
  8
0
100
AcDbLine
 10
3.672732
 20
3.930629
 30
0.0
 11
3.508732
 21
3.824629
 31
0.0
  0
LINE
  5
25A
330
18
100
AcDbEntity
  8
0
100
AcDbLine
 10
3.511732
 20
4.052629000000001
 30
0.0
 11
3.539732
 21
3.952629
 31
0.0
  0
LINE
  5
25B
330
18
100
AcDbEntity
  8
0
100
AcDbLine
 10
3.524732
 20
4.152629
 30
0.0
 11
3.574732
 21
4.020629000000001
 31
0.0
  0
LINE
  5
25C
330
18
100
AcDbEntity
  8
0
100
AcDbLine
 10
3.508732
 20
4.360629
 30
0.0
 11
3.541732
 21
4.283629
 31
0.0
  0
LINE
  5
25D
330
18
100
AcDbEntity
  8
0
100
AcDbLine
 10
3.508732
 20
4.066629
 30
0.0
 11
3.511732
 21
4.052629000000001
 31
0.0
  0
LINE
  5
25E
330
18
100
AcDbEntity
  8
0
100
AcDbLine
 10
3.508732
 20
4.196629
 30
0.0
 11
3.524732
 21
4.152629
 31
0.0
  0
LINE
  5
25F
330
18
100
AcDbEntity
  8
0
100
AcDbLine
 10
3.580732
 20
4.172629
 30
0.0
 11
3.630732
 21
4.046629
 31
0.0
  0
LINE
  5
260
330
18
100
AcDbEntity
  8
0
100
AcDbLine
 10
3.539732
 20
3.952629
 30
0.0
 11
3.576732
 21
3.868629
 31
0.0
  0
LINE
  5
261
330
18
100
AcDbEntity
  8
0
100
AcDbLine
 10
3.608732
 20
3.943629
 30
0.0
 11
3.632732
 21
3.904629
 31
0.0
  0
LINE
  5
262
330
18
100
AcDbEntity
  8
0
100
AcDbLine
 10
3.574732
 20
4.020629000000001
 30
0.0
 11
3.608732
 21
3.943629
 31
0.0
  0
LINE
  5
263
330
18
100
AcDbEntity
  8
0
100
AcDbLine
 10
3.630732
 20
4.046629
 30
0.0
 11
3.672732
 21
3.956629
 31
0.0
  0
LINE
  5
264
330
18
100
AcDbEntity
  8
0
100
AcDbLine
 10
3.541732
 20
4.283629
 30
0.0
 11
3.580732
 21
4.172629
 31
0.0
  0
LINE
  5
265
330
18
100
AcDbEntity
  8
0
100
AcDbLine
 10
3.608732
 20
4.278629000000001
 30
0.0
 11
3.652732
 21
4.151629
 31
0.0
  0
LINE
  5
266
330
18
100
AcDbEntity
  8
0
100
AcDbLine
 10
3.652732
 20
4.151629
 30
0.0
 11
3.670732
 21
4.116629
 31
0.0
  0
LINE
  5
267
330
18
100
AcDbEntity
  8
0
100
AcDbLine
 10
3.629732
 20
4.348629
 30
0.0
 11
3.669732
 21
4.255629
 31
0.0
  0
LINE
  5
268
330
18
100
AcDbEntity
  8
0
100
AcDbLine
 10
3.669732
 20
4.255629
 30
0.0
 11
3.669732
 21
4.255629
 31
0.0
  0
LINE
  5
269
330
18
100
AcDbEntity
  8
0
100
AcDbLine
 10
3.508732
 20
4.452629
 30
0.0
 11
3.667732
 21
4.546629
 31
0.0
  0
LINE
  5
26A
330
18
100
AcDbEntity
  8
0
100
AcDbLine
 10
3.529732
 20
4.464629
 30
0.0
 11
3.557732
 21
4.399629
 31
0.0
  0
SOLID
  5
26B
330
18
100
AcDbEntity
  8
0
100
AcDbTrace
 10
3.719732
 20
4.657629
 30
0.0
 11
3.688732
 21
4.685629000000001
 31
0.0
 12
3.619732
 22
4.579629
 32
0.0
 13
3.619732
 23
4.579629
 33
0.0
  0
LINE
  5
26C
330
18
100
AcDbEntity
  8
0
100
AcDbLine
 10
3.608732
 20
4.511629
 30
0.0
 11
3.623732
 21
4.472629
 31
0.0
  0
LINE
  5
26D
330
18
100
AcDbEntity
  8
0
100
AcDbLine
 10
3.565732
 20
4.486629
 30
0.0
 11
3.580732
 21
4.452629
 31
0.0
  0
LINE
  5
26E
330
18
100
AcDbEntity
  8
0
100
AcDbLine
 10
3.623732
 20
4.472629
 30
0.0
 11
3.668732
 21
4.402629
 31
0.0
  0
LINE
  5
26F
330
18
100
AcDbEntity
  8
0
100
AcDbLine
 10
4.614878
 20
0.961384
 30
0.0
 11
5.148878
 21
1.271384
 31
0.0
  0
LINE
  5
270
330
18
100
AcDbEntity
  8
0
100
AcDbLine
 10
5.135878
 20
1.463384
 30
0.0
 11
4.613878
 21
1.155384
 31
0.0
  0
LINE
  5
271
330
18
100
AcDbEntity
  8
0
100
AcDbLine
 10
4.613878
 20
1.155384
 30
0.0
 11
4.169878
 21
1.419384
 31
0.0
  0
LINE
  5
272
330
18
100
AcDbEntity
  8
0
100
AcDbLine
 10
5.005878
 20
1.188384
 30
0.0
 11
5.018878
 21
1.205384
 31
0.0
  0
LINE
  5
273
330
18
100
AcDbEntity
  8
0
100
AcDbLine
 10
4.881878
 20
1.149384
 30
0.0
 11
5.008878
 21
1.280384
 31
0.0
  0
LINE
  5
274
330
18
100
AcDbEntity
  8
0
100
AcDbLine
 10
4.732878
 20
1.189384
 30
0.0
 11
4.759878
 21
1.241384
 31
0.0
  0
LINE
  5
275
330
18
100
AcDbEntity
  8
0
100
AcDbLine
 10
4.776878
 20
1.174384
 30
0.0
 11
4.838878
 21
1.258384
 31
0.0
  0
LINE
  5
276
330
18
100
AcDbEntity
  8
0
100
AcDbLine
 10
4.802878
 20
1.141384
 30
0.0
 11
4.911878
 21
1.260384
 31
0.0
  0
LINE
  5
277
330
18
100
AcDbEntity
  8
0
100
AcDbLine
 10
4.710878
 20
1.066384
 30
0.0
 11
4.802878
 21
1.141384
 31
0.0
  0
LINE
  5
278
330
18
100
AcDbEntity
  8
0
100
AcDbLine
 10
4.613878
 20
1.114384
 30
0.0
 11
4.661878
 21
1.135384
 31
0.0
  0
LINE
  5
279
330
18
100
AcDbEntity
  8
0
100
AcDbLine
 10
4.613878
 20
1.052384
 30
0.0
 11
4.694878
 21
1.103384
 31
0.0
  0
LINE
  5
27A
330
18
100
AcDbEntity
  8
0
100
AcDbLine
 10
4.613878
 20
0.992384
 30
0.0
 11
4.710878
 21
1.066384
 31
0.0
  0
LINE
  5
27B
330
18
100
AcDbEntity
  8
0
100
AcDbLine
 10
4.613878
 20
1.155384
 30
0.0
 11
4.614878
 21
0.961384
 31
0.0
  0
LINE
  5
27C
330
18
100
AcDbEntity
  8
0
100
AcDbLine
 10
4.661878
 20
1.135384
 30
0.0
 11
4.732878
 21
1.189384
 31
0.0
  0
LINE
  5
27D
330
18
100
AcDbEntity
  8
0
100
AcDbLine
 10
4.694878
 20
1.103384
 30
0.0
 11
4.776878
 21
1.174384
 31
0.0
  0
LINE
  5
27E
330
18
100
AcDbEntity
  8
0
100
AcDbLine
 10
4.783878
 20
1.060384
 30
0.0
 11
4.881878
 21
1.149384
 31
0.0
  0
LINE
  5
27F
330
18
100
AcDbEntity
  8
0
100
AcDbLine
 10
5.135878
 20
1.463384
 30
0.0
 11
4.530878
 21
1.830384
 31
0.0
  0
TEXT
  5
280
330
18
100
AcDbEntity
  8
0
100
AcDbText
 10
4.908878
 20
2.962384
 30
0.0
 40
0.175
  1
JOIST
 41
0.8
100
AcDbText
  0
LINE
  5
281
330
18
100
AcDbEntity
  8
0
100
AcDbLine
 10
5.018878
 20
1.205384
 30
0.0
 11
5.116878
 21
1.336384
 31
0.0
  0
LINE
  5
282
330
18
100
AcDbEntity
  8
0
100
AcDbLine
 10
5.083878
 20
1.378384
 30
0.0
 11
5.135878
 21
1.458384
 31
0.0
  0
LINE
  5
283
330
18
100
AcDbEntity
  8
0
100
AcDbLine
 10
4.530878
 20
1.830384
 30
0.0
 11
4.529878
 21
2.834384
 31
0.0
  0
LINE
  5
284
330
18
100
AcDbEntity
  8
0
100
AcDbLine
 10
4.017878
 20
2.536384
 30
0.0
 11
4.001878
 21
1.910384
 31
0.0
  0
LINE
  5
285
330
18
100
AcDbEntity
  8
0
100
AcDbLine
 10
4.530878
 20
1.830384
 30
0.0
 11
4.173878
 21
1.626384
 31
0.0
  0
LINE
  5
286
330
18
100
AcDbEntity
  8
0
100
AcDbLine
 10
4.101878
 20
1.821384
 30
0.0
 11
4.186878
 21
1.919384
 31
0.0
  0
LINE
  5
287
330
18
100
AcDbEntity
  8
0
100
AcDbLine
 10
3.924878
 20
1.843384
 30
0.0
 11
3.859878
 21
1.792384
 31
0.0
  0
LINE
  5
288
330
18
100
AcDbEntity
  8
0
100
AcDbLine
 10
4.144878
 20
1.538384
 30
0.0
 11
4.277878
 21
1.562384
 31
0.0
  0
LINE
  5
289
330
18
100
AcDbEntity
  8
0
100
AcDbLine
 10
4.099878
 20
1.582384
 30
0.0
 11
4.173878
 21
1.626384
 31
0.0
  0
LINE
  5
28A
330
18
100
AcDbEntity
  8
0
100
AcDbLine
 10
4.173878
 20
1.696384
 30
0.0
 11
4.106878
 21
1.735384
 31
0.0
  0
LINE
  5
28B
330
18
100
AcDbEntity
  8
0
100
AcDbLine
 10
4.004878
 20
1.517384
 30
0.0
 11
4.169878
 21
1.419384
 31
0.0
  0
ARC
  5
28C
330
18
100
AcDbEntity
  8
0
100
AcDbCircle
 10
4.156878
 20
1.473384
 30
0.0
 40
0.019
100
AcDbArc
 50
269.532
 51
288.288
  0
ARC
  5
28D
330
18
100
AcDbEntity
  8
0
100
AcDbCircle
 10
4.160878
 20
1.462384
 30
0.0
 40
0.019
100
AcDbArc
 50
89.53200000000001
 51
108.288
  0
LINE
  5
28E
330
18
100
AcDbEntity
  8
0
100
AcDbLine
 10
4.000878
 20
1.391384
 30
0.0
 11
4.004878
 21
1.517384
 31
0.0
  0
ARC
  5
28F
330
18
100
AcDbEntity
  8
0
100
AcDbCircle
 10
3.987878
 20
1.391384
 30
0.0
 40
0.013
100
AcDbArc
 50
240.139
 51
358.0530000000001
  0
LINE
  5
290
330
18
100
AcDbEntity
  8
0
100
AcDbLine
 10
3.921878
 20
1.415384
 30
0.0
 11
3.981878
 21
1.381384
 31
0.0
  0
LINE
  5
291
330
18
100
AcDbEntity
  8
0
100
AcDbLine
 10
3.921878
 20
1.415384
 30
0.0
 11
3.926878
 21
1.462384
 31
0.0
  0
ARC
  5
292
330
18
100
AcDbEntity
  8
0
100
AcDbCircle
 10
3.913878
 20
1.465384
 30
0.0
 40
0.013
100
AcDbArc
 50
349.895
 51
53.53999999999999
  0
ARC
  5
293
330
18
100
AcDbEntity
  8
0
100
AcDbCircle
 10
3.966878
 20
1.504384
 30
0.0
 40
0.008
100
AcDbArc
 50
85.27500000000001
 51
116.464
  0
ARC
  5
294
330
18
100
AcDbEntity
  8
0
100
AcDbCircle
 10
3.968878
 20
1.499384
 30
0.0
 40
0.013
100
AcDbArc
 50
116.464
 51
140.893
  0
ARC
  5
295
330
18
100
AcDbEntity
  8
0
100
AcDbCircle
 10
3.972878
 20
1.496384
 30
0.0
 40
0.017
100
AcDbArc
 50
140.893
 51
159.451
  0
ARC
  5
296
330
18
100
AcDbEntity
  8
0
100
AcDbCircle
 10
3.978878
 20
1.494384
 30
0.0
 40
0.024
100
AcDbArc
 50
159.451
 51
175.275
  0
ARC
  5
297
330
18
100
AcDbEntity
  8
0
100
AcDbCircle
 10
3.978878
 20
1.494384
 30
0.0
 40
0.024
100
AcDbArc
 50
175.275
 51
191.099
  0
ARC
  5
298
330
18
100
AcDbEntity
  8
0
100
AcDbCircle
 10
3.972878
 20
1.493384
 30
0.0
 40
0.017
100
AcDbArc
 50
191.099
 51
209.657
  0
ARC
  5
299
330
18
100
AcDbEntity
  8
0
100
AcDbCircle
 10
3.968878
 20
1.490384
 30
0.0
 40
0.013
100
AcDbArc
 50
209.657
 51
234.0870000000001
  0
ARC
  5
29A
330
18
100
AcDbEntity
  8
0
100
AcDbCircle
 10
3.965878
 20
1.487384
 30
0.0
 40
0.008
100
AcDbArc
 50
234.0870000000001
 51
265.275
  0
ARC
  5
29B
330
18
100
AcDbEntity
  8
0
100
AcDbCircle
 10
3.965878
 20
1.487384
 30
0.0
 40
0.008
100
AcDbArc
 50
265.275
 51
296.464
  0
ARC
  5
29C
330
18
100
AcDbEntity
  8
0
100
AcDbCircle
 10
3.963878
 20
1.491384
 30
0.0
 40
0.013
100
AcDbArc
 50
296.464
 51
320.893
  0
ARC
  5
29D
330
18
100
AcDbEntity
  8
0
100
AcDbCircle
 10
3.959878
 20
1.494384
 30
0.0
 40
0.017
100
AcDbArc
 50
320.893
 51
339.451
  0
ARC
  5
29E
330
18
100
AcDbEntity
  8
0
100
AcDbCircle
 10
3.953878
 20
1.496384
 30
0.0
 40
0.024
100
AcDbArc
 50
339.451
 51
355.275
  0
ARC
  5
29F
330
18
100
AcDbEntity
  8
0
100
AcDbCircle
 10
3.953878
 20
1.496384
 30
0.0
 40
0.024
100
AcDbArc
 50
355.275
 51
11.099
  0
ARC
  5
2A0
330
18
100
AcDbEntity
  8
0
100
AcDbCircle
 10
3.959878
 20
1.497384
 30
0.0
 40
0.017
100
AcDbArc
 50
11.099
 51
29.657
  0
ARC
  5
2A1
330
18
100
AcDbEntity
  8
0
100
AcDbCircle
 10
3.963878
 20
1.500384
 30
0.0
 40
0.013
100
AcDbArc
 50
29.657
 51
54.087
  0
ARC
  5
2A2
330
18
100
AcDbEntity
  8
0
100
AcDbCircle
 10
3.966878
 20
1.504384
 30
0.0
 40
0.008
100
AcDbArc
 50
54.087
 51
85.27500000000001
  0
ARC
  5
2A3
330
18
100
AcDbEntity
  8
0
100
AcDbCircle
 10
3.968878
 20
1.437384
 30
0.0
 40
0.008
100
AcDbArc
 50
85.27500000000001
 51
116.464
  0
ARC
  5
2A4
330
18
100
AcDbEntity
  8
0
100
AcDbCircle
 10
3.970878
 20
1.432384
 30
0.0
 40
0.013
100
AcDbArc
 50
116.464
 51
140.893
  0
ARC
  5
2A5
330
18
100
AcDbEntity
  8
0
100
AcDbCircle
 10
3.974878
 20
1.429384
 30
0.0
 40
0.017
100
AcDbArc
 50
140.893
 51
159.451
  0
ARC
  5
2A6
330
18
100
AcDbEntity
  8
0
100
AcDbCircle
 10
3.980878
 20
1.427384
 30
0.0
 40
0.024
100
AcDbArc
 50
159.451
 51
175.275
  0
ARC
  5
2A7
330
18
100
AcDbEntity
  8
0
100
AcDbCircle
 10
3.980878
 20
1.427384
 30
0.0
 40
0.024
100
AcDbArc
 50
175.275
 51
191.099
  0
ARC
  5
2A8
330
18
100
AcDbEntity
  8
0
100
AcDbCircle
 10
3.974878
 20
1.426384
 30
0.0
 40
0.017
100
AcDbArc
 50
191.099
 51
209.657
  0
ARC
  5
2A9
330
18
100
AcDbEntity
  8
0
100
AcDbCircle
 10
3.970878
 20
1.424384
 30
0.0
 40
0.013
100
AcDbArc
 50
209.657
 51
234.0870000000001
  0
ARC
  5
2AA
330
18
100
AcDbEntity
  8
0
100
AcDbCircle
 10
3.967878
 20
1.420384
 30
0.0
 40
0.008
100
AcDbArc
 50
234.0870000000001
 51
265.275
  0
ARC
  5
2AB
330
18
100
AcDbEntity
  8
0
100
AcDbCircle
 10
3.967878
 20
1.420384
 30
0.0
 40
0.008
100
AcDbArc
 50
265.275
 51
296.464
  0
ARC
  5
2AC
330
18
100
AcDbEntity
  8
0
100
AcDbCircle
 10
3.965878
 20
1.424384
 30
0.0
 40
0.013
100
AcDbArc
 50
296.464
 51
320.893
  0
ARC
  5
2AD
330
18
100
AcDbEntity
  8
0
100
AcDbCircle
 10
3.961878
 20
1.427384
 30
0.0
 40
0.017
100
AcDbArc
 50
320.893
 51
339.451
  0
ARC
  5
2AE
330
18
100
AcDbEntity
  8
0
100
AcDbCircle
 10
3.955878
 20
1.429384
 30
0.0
 40
0.024
100
AcDbArc
 50
339.451
 51
355.275
  0
ARC
  5
2AF
330
18
100
AcDbEntity
  8
0
100
AcDbCircle
 10
3.955878
 20
1.429384
 30
0.0
 40
0.024
100
AcDbArc
 50
355.275
 51
11.099
  0
ARC
  5
2B0
330
18
100
AcDbEntity
  8
0
100
AcDbCircle
 10
3.961878
 20
1.430384
 30
0.0
 40
0.017
100
AcDbArc
 50
11.099
 51
29.657
  0
ARC
  5
2B1
330
18
100
AcDbEntity
  8
0
100
AcDbCircle
 10
3.965878
 20
1.433384
 30
0.0
 40
0.013
100
AcDbArc
 50
29.657
 51
54.087
  0
ARC
  5
2B2
330
18
100
AcDbEntity
  8
0
100
AcDbCircle
 10
3.968878
 20
1.437384
 30
0.0
 40
0.008
100
AcDbArc
 50
54.087
 51
85.27500000000001
  0
ARC
  5
2B3
330
18
100
AcDbEntity
  8
0
100
AcDbCircle
 10
4.153878
 20
1.466384
 30
0.0
 40
0.01
100
AcDbArc
 50
198.288
 51
225.093
  0
ARC
  5
2B4
330
18
100
AcDbEntity
  8
0
100
AcDbCircle
 10
4.155878
 20
1.468384
 30
0.0
 40
0.013
100
AcDbArc
 50
225.093
 51
248.942
  0
ARC
  5
2B5
330
18
100
AcDbEntity
  8
0
100
AcDbCircle
 10
4.156878
 20
1.470384
 30
0.0
 40
0.016
100
AcDbArc
 50
248.942
 51
269.532
  0
ARC
  5
2B6
330
18
100
AcDbEntity
  8
0
100
AcDbCircle
 10
4.160878
 20
1.462384
 30
0.0
 40
0.019
100
AcDbArc
 50
108.288
 51
127.045
  0
ARC
  5
2B7
330
18
100
AcDbEntity
  8
0
100
AcDbCircle
 10
4.158878
 20
1.464384
 30
0.0
 40
0.016
100
AcDbArc
 50
127.045
 51
147.635
  0
ARC
  5
2B8
330
18
100
AcDbEntity
  8
0
100
AcDbCircle
 10
4.156878
 20
1.466384
 30
0.0
 40
0.013
100
AcDbArc
 50
147.635
 51
171.484
  0
ARC
  5
2B9
330
18
100
AcDbEntity
  8
0
100
AcDbCircle
 10
4.153878
 20
1.466384
 30
0.0
 40
0.01
100
AcDbArc
 50
171.484
 51
198.288
  0
LINE
  5
2BA
330
18
100
AcDbEntity
  8
0
100
AcDbLine
 10
3.857878
 20
1.720384
 30
0.0
 11
3.930878
 21
1.654384
 31
0.0
  0
ARC
  5
2BB
330
18
100
AcDbEntity
  8
0
100
AcDbCircle
 10
3.912878
 20
1.577384
 30
0.0
 40
0.013
100
AcDbArc
 50
236.937
 51
351.885
  0
ARC
  5
2BC
330
18
100
AcDbEntity
  8
0
100
AcDbCircle
 10
3.876878
 20
1.564384
 30
0.0
 40
0.008
100
AcDbArc
 50
85.27500000000001
 51
116.464
  0
ARC
  5
2BD
330
18
100
AcDbEntity
  8
0
100
AcDbCircle
 10
3.878878
 20
1.559384
 30
0.0
 40
0.013
100
AcDbArc
 50
116.464
 51
140.893
  0
ARC
  5
2BE
330
18
100
AcDbEntity
  8
0
100
AcDbCircle
 10
3.882878
 20
1.556384
 30
0.0
 40
0.017
100
AcDbArc
 50
140.893
 51
159.451
  0
ARC
  5
2BF
330
18
100
AcDbEntity
  8
0
100
AcDbCircle
 10
3.888878
 20
1.554384
 30
0.0
 40
0.024
100
AcDbArc
 50
159.451
 51
175.275
  0
ARC
  5
2C0
330
18
100
AcDbEntity
  8
0
100
AcDbCircle
 10
3.888878
 20
1.554384
 30
0.0
 40
0.024
100
AcDbArc
 50
175.275
 51
191.099
  0
ARC
  5
2C1
330
18
100
AcDbEntity
  8
0
100
AcDbCircle
 10
3.881878
 20
1.553384
 30
0.0
 40
0.017
100
AcDbArc
 50
191.099
 51
209.657
  0
ARC
  5
2C2
330
18
100
AcDbEntity
  8
0
100
AcDbCircle
 10
3.877878
 20
1.550384
 30
0.0
 40
0.013
100
AcDbArc
 50
209.657
 51
234.0870000000001
  0
ARC
  5
2C3
330
18
100
AcDbEntity
  8
0
100
AcDbCircle
 10
3.874878
 20
1.547384
 30
0.0
 40
0.008
100
AcDbArc
 50
234.0870000000001
 51
265.275
  0
ARC
  5
2C4
330
18
100
AcDbEntity
  8
0
100
AcDbCircle
 10
3.874878
 20
1.547384
 30
0.0
 40
0.008
100
AcDbArc
 50
265.275
 51
296.464
  0
ARC
  5
2C5
330
18
100
AcDbEntity
  8
0
100
AcDbCircle
 10
3.872878
 20
1.551384
 30
0.0
 40
0.013
100
AcDbArc
 50
296.464
 51
320.893
  0
ARC
  5
2C6
330
18
100
AcDbEntity
  8
0
100
AcDbCircle
 10
3.869878
 20
1.554384
 30
0.0
 40
0.017
100
AcDbArc
 50
320.893
 51
339.451
  0
ARC
  5
2C7
330
18
100
AcDbEntity
  8
0
100
AcDbCircle
 10
3.863878
 20
1.556384
 30
0.0
 40
0.024
100
AcDbArc
 50
339.451
 51
355.275
  0
ARC
  5
2C8
330
18
100
AcDbEntity
  8
0
100
AcDbCircle
 10
3.863878
 20
1.556384
 30
0.0
 40
0.024
100
AcDbArc
 50
355.275
 51
11.099
  0
ARC
  5
2C9
330
18
100
AcDbEntity
  8
0
100
AcDbCircle
 10
3.869878
 20
1.557384
 30
0.0
 40
0.017
100
AcDbArc
 50
11.099
 51
29.657
  0
ARC
  5
2CA
330
18
100
AcDbEntity
  8
0
100
AcDbCircle
 10
3.873878
 20
1.560384
 30
0.0
 40
0.013
100
AcDbArc
 50
29.657
 51
54.087
  0
ARC
  5
2CB
330
18
100
AcDbEntity
  8
0
100
AcDbCircle
 10
3.876878
 20
1.564384
 30
0.0
 40
0.008
100
AcDbArc
 50
54.087
 51
85.27500000000001
  0
LINE
  5
2CC
330
18
100
AcDbEntity
  8
0
100
AcDbLine
 10
3.924878
 20
1.576384
 30
0.0
 11
3.934878
 21
1.643384
 31
0.0
  0
ARC
  5
2CD
330
18
100
AcDbEntity
  8
0
100
AcDbCircle
 10
3.921878
 20
1.645384
 30
0.0
 40
0.013
100
AcDbArc
 50
351.885
 51
47.47399999999999
  0
ARC
  5
2CE
330
18
100
AcDbEntity
  8
0
100
AcDbCircle
 10
3.948878
 20
1.608384
 30
0.0
 40
0.008
100
AcDbArc
 50
85.27500000000001
 51
116.464
  0
ARC
  5
2CF
330
18
100
AcDbEntity
  8
0
100
AcDbCircle
 10
3.950878
 20
1.603384
 30
0.0
 40
0.013
100
AcDbArc
 50
116.464
 51
140.893
  0
ARC
  5
2D0
330
18
100
AcDbEntity
  8
0
100
AcDbCircle
 10
3.954878
 20
1.600384
 30
0.0
 40
0.017
100
AcDbArc
 50
140.893
 51
159.451
  0
ARC
  5
2D1
330
18
100
AcDbEntity
  8
0
100
AcDbCircle
 10
3.960878
 20
1.598384
 30
0.0
 40
0.024
100
AcDbArc
 50
159.451
 51
175.275
  0
ARC
  5
2D2
330
18
100
AcDbEntity
  8
0
100
AcDbCircle
 10
3.960878
 20
1.598384
 30
0.0
 40
0.024
100
AcDbArc
 50
175.275
 51
191.099
  0
ARC
  5
2D3
330
18
100
AcDbEntity
  8
0
100
AcDbCircle
 10
3.953878
 20
1.597384
 30
0.0
 40
0.017
100
AcDbArc
 50
191.099
 51
209.657
  0
ARC
  5
2D4
330
18
100
AcDbEntity
  8
0
100
AcDbCircle
 10
3.949878
 20
1.595384
 30
0.0
 40
0.013
100
AcDbArc
 50
209.657
 51
234.0870000000001
  0
ARC
  5
2D5
330
18
100
AcDbEntity
  8
0
100
AcDbCircle
 10
3.946878
 20
1.591384
 30
0.0
 40
0.008
100
AcDbArc
 50
234.0870000000001
 51
265.275
  0
ARC
  5
2D6
330
18
100
AcDbEntity
  8
0
100
AcDbCircle
 10
3.946878
 20
1.591384
 30
0.0
 40
0.008
100
AcDbArc
 50
265.275
 51
296.464
  0
ARC
  5
2D7
330
18
100
AcDbEntity
  8
0
100
AcDbCircle
 10
3.944878
 20
1.595384
 30
0.0
 40
0.013
100
AcDbArc
 50
296.464
 51
320.893
  0
ARC
  5
2D8
330
18
100
AcDbEntity
  8
0
100
AcDbCircle
 10
3.940878
 20
1.598384
 30
0.0
 40
0.017
100
AcDbArc
 50
320.893
 51
339.451
  0
ARC
  5
2D9
330
18
100
AcDbEntity
  8
0
100
AcDbCircle
 10
3.934878
 20
1.600384
 30
0.0
 40
0.024
100
AcDbArc
 50
339.451
 51
355.275
  0
ARC
  5
2DA
330
18
100
AcDbEntity
  8
0
100
AcDbCircle
 10
3.934878
 20
1.600384
 30
0.0
 40
0.024
100
AcDbArc
 50
355.275
 51
11.099
  0
ARC
  5
2DB
330
18
100
AcDbEntity
  8
0
100
AcDbCircle
 10
3.941878
 20
1.601384
 30
0.0
 40
0.017
100
AcDbArc
 50
11.099
 51
29.657
  0
ARC
  5
2DC
330
18
100
AcDbEntity
  8
0
100
AcDbCircle
 10
3.945878
 20
1.604384
 30
0.0
 40
0.013
100
AcDbArc
 50
29.657
 51
54.087
  0
ARC
  5
2DD
330
18
100
AcDbEntity
  8
0
100
AcDbCircle
 10
3.948878
 20
1.608384
 30
0.0
 40
0.008
100
AcDbArc
 50
54.087
 51
85.27500000000001
  0
LINE
  5
2DE
330
18
100
AcDbEntity
  8
0
100
AcDbLine
 10
3.859878
 20
1.792384
 30
0.0
 11
3.857878
 21
1.720384
 31
0.0
  0
ARC
  5
2DF
330
18
100
AcDbEntity
  8
0
100
AcDbCircle
 10
3.884878
 20
1.762384
 30
0.0
 40
0.008
100
AcDbArc
 50
85.27500000000001
 51
116.464
  0
ARC
  5
2E0
330
18
100
AcDbEntity
  8
0
100
AcDbCircle
 10
3.886878
 20
1.758384
 30
0.0
 40
0.013
100
AcDbArc
 50
116.464
 51
140.893
  0
ARC
  5
2E1
330
18
100
AcDbEntity
  8
0
100
AcDbCircle
 10
3.890878
 20
1.755384
 30
0.0
 40
0.017
100
AcDbArc
 50
140.893
 51
159.451
  0
ARC
  5
2E2
330
18
100
AcDbEntity
  8
0
100
AcDbCircle
 10
3.896878
 20
1.753384
 30
0.0
 40
0.024
100
AcDbArc
 50
159.451
 51
175.275
  0
ARC
  5
2E3
330
18
100
AcDbEntity
  8
0
100
AcDbCircle
 10
3.896878
 20
1.753384
 30
0.0
 40
0.024
100
AcDbArc
 50
175.275
 51
191.099
  0
ARC
  5
2E4
330
18
100
AcDbEntity
  8
0
100
AcDbCircle
 10
3.889878
 20
1.752384
 30
0.0
 40
0.017
100
AcDbArc
 50
191.099
 51
209.657
  0
ARC
  5
2E5
330
18
100
AcDbEntity
  8
0
100
AcDbCircle
 10
3.885878
 20
1.749384
 30
0.0
 40
0.013
100
AcDbArc
 50
209.657
 51
234.0870000000001
  0
ARC
  5
2E6
330
18
100
AcDbEntity
  8
0
100
AcDbCircle
 10
3.882878
 20
1.745384
 30
0.0
 40
0.008
100
AcDbArc
 50
234.0870000000001
 51
265.275
  0
ARC
  5
2E7
330
18
100
AcDbEntity
  8
0
100
AcDbCircle
 10
3.882878
 20
1.745384
 30
0.0
 40
0.008
100
AcDbArc
 50
265.275
 51
296.464
  0
ARC
  5
2E8
330
18
100
AcDbEntity
  8
0
100
AcDbCircle
 10
3.880878
 20
1.750384
 30
0.0
 40
0.013
100
AcDbArc
 50
296.464
 51
320.893
  0
ARC
  5
2E9
330
18
100
AcDbEntity
  8
0
100
AcDbCircle
 10
3.877878
 20
1.753384
 30
0.0
 40
0.017
100
AcDbArc
 50
320.893
 51
339.451
  0
ARC
  5
2EA
330
18
100
AcDbEntity
  8
0
100
AcDbCircle
 10
3.871878
 20
1.755384
 30
0.0
 40
0.024
100
AcDbArc
 50
339.451
 51
355.275
  0
ARC
  5
2EB
330
18
100
AcDbEntity
  8
0
100
AcDbCircle
 10
3.871878
 20
1.755384
 30
0.0
 40
0.024
100
AcDbArc
 50
355.275
 51
11.099
  0
ARC
  5
2EC
330
18
100
AcDbEntity
  8
0
100
AcDbCircle
 10
3.877878
 20
1.756384
 30
0.0
 40
0.017
100
AcDbArc
 50
11.099
 51
29.657
  0
ARC
  5
2ED
330
18
100
AcDbEntity
  8
0
100
AcDbCircle
 10
3.881878
 20
1.758384
 30
0.0
 40
0.013
100
AcDbArc
 50
29.657
 51
54.087
  0
ARC
  5
2EE
330
18
100
AcDbEntity
  8
0
100
AcDbCircle
 10
3.884878
 20
1.762384
 30
0.0
 40
0.008
100
AcDbArc
 50
54.087
 51
85.27500000000001
  0
LINE
  5
2EF
330
18
100
AcDbEntity
  8
0
100
AcDbLine
 10
4.047878
 20
1.639384
 30
0.0
 11
4.046878
 21
1.719384
 31
0.0
  0
LINE
  5
2F0
330
18
100
AcDbEntity
  8
0
100
AcDbLine
 10
4.072878
 20
1.651384
 30
0.0
 11
4.072878
 21
1.723384
 31
0.0
  0
ARC
  5
2F1
330
18
100
AcDbEntity
  8
0
100
AcDbCircle
 10
4.143878
 20
1.669384
 30
0.0
 40
0.007
100
AcDbArc
 50
97.56600000000002
 51
130.39
  0
ARC
  5
2F2
330
18
100
AcDbEntity
  8
0
100
AcDbCircle
 10
4.140878
 20
1.664384
 30
0.0
 40
0.013
100
AcDbArc
 50
40.274
 51
64.743
  0
ARC
  5
2F3
330
18
100
AcDbEntity
  8
0
100
AcDbCircle
 10
4.085878
 20
1.549384
 30
0.0
 40
0.016
100
AcDbArc
 50
248.942
 51
269.532
  0
ARC
  5
2F4
330
18
100
AcDbEntity
  8
0
100
AcDbCircle
 10
4.089878
 20
1.540384
 30
0.0
 40
0.019
100
AcDbArc
 50
108.288
 51
127.045
  0
ARC
  5
2F5
330
18
100
AcDbEntity
  8
0
100
AcDbCircle
 10
4.082878
 20
1.544384
 30
0.0
 40
0.01
100
AcDbArc
 50
198.288
 51
225.093
  0
ARC
  5
2F6
330
18
100
AcDbEntity
  8
0
100
AcDbCircle
 10
4.084878
 20
1.546384
 30
0.0
 40
0.013
100
AcDbArc
 50
225.093
 51
248.942
  0
ARC
  5
2F7
330
18
100
AcDbEntity
  8
0
100
AcDbCircle
 10
4.087878
 20
1.543384
 30
0.0
 40
0.016
100
AcDbArc
 50
127.045
 51
147.635
  0
ARC
  5
2F8
330
18
100
AcDbEntity
  8
0
100
AcDbCircle
 10
4.085878
 20
1.544384
 30
0.0
 40
0.013
100
AcDbArc
 50
147.635
 51
171.484
  0
ARC
  5
2F9
330
18
100
AcDbEntity
  8
0
100
AcDbCircle
 10
4.082878
 20
1.544384
 30
0.0
 40
0.01
100
AcDbArc
 50
171.484
 51
198.288
  0
LINE
  5
2FA
330
18
100
AcDbEntity
  8
0
100
AcDbLine
 10
4.132878
 20
1.543384
 30
0.0
 11
4.099878
 21
1.582384
 31
0.0
  0
ARC
  5
2FB
330
18
100
AcDbEntity
  8
0
100
AcDbCircle
 10
4.141878
 20
1.551384
 30
0.0
 40
0.013
100
AcDbArc
 50
219.895
 51
279.914
  0
ARC
  5
2FC
330
18
100
AcDbEntity
  8
0
100
AcDbCircle
 10
4.147878
 20
1.665384
 30
0.0
 40
0.013
100
AcDbArc
 50
130.39
 51
154.859
  0
ARC
  5
2FD
330
18
100
AcDbEntity
  8
0
100
AcDbCircle
 10
4.152878
 20
1.662384
 30
0.0
 40
0.019
100
AcDbArc
 50
154.859
 51
172.671
  0
ARC
  5
2FE
330
18
100
AcDbEntity
  8
0
100
AcDbCircle
 10
4.160878
 20
1.661384
 30
0.0
 40
0.027
100
AcDbArc
 50
172.671
 51
187.566
  0
ARC
  5
2FF
330
18
100
AcDbEntity
  8
0
100
AcDbCircle
 10
4.160878
 20
1.661384
 30
0.0
 40
0.027
100
AcDbArc
 50
187.566
 51
202.462
  0
ARC
  5
300
330
18
100
AcDbEntity
  8
0
100
AcDbCircle
 10
4.152878
 20
1.658384
 30
0.0
 40
0.019
100
AcDbArc
 50
202.462
 51
220.274
  0
ARC
  5
301
330
18
100
AcDbEntity
  8
0
100
AcDbCircle
 10
4.148878
 20
1.655384
 30
0.0
 40
0.013
100
AcDbArc
 50
220.274
 51
244.743
  0
ARC
  5
302
330
18
100
AcDbEntity
  8
0
100
AcDbCircle
 10
4.146878
 20
1.649384
 30
0.0
 40
0.007
100
AcDbArc
 50
244.743
 51
277.566
  0
ARC
  5
303
330
18
100
AcDbEntity
  8
0
100
AcDbCircle
 10
4.146878
 20
1.649384
 30
0.0
 40
0.007
100
AcDbArc
 50
277.566
 51
310.39
  0
ARC
  5
304
330
18
100
AcDbEntity
  8
0
100
AcDbCircle
 10
4.142878
 20
1.654384
 30
0.0
 40
0.013
100
AcDbArc
 50
310.39
 51
334.859
  0
ARC
  5
305
330
18
100
AcDbEntity
  8
0
100
AcDbCircle
 10
4.137878
 20
1.656384
 30
0.0
 40
0.019
100
AcDbArc
 50
334.859
 51
352.671
  0
ARC
  5
306
330
18
100
AcDbEntity
  8
0
100
AcDbCircle
 10
4.129878
 20
1.657384
 30
0.0
 40
0.027
100
AcDbArc
 50
352.671
 51
7.565999999999999
  0
ARC
  5
307
330
18
100
AcDbEntity
  8
0
100
AcDbCircle
 10
4.129878
 20
1.657384
 30
0.0
 40
0.027
100
AcDbArc
 50
7.565999999999999
 51
22.462
  0
ARC
  5
308
330
18
100
AcDbEntity
  8
0
100
AcDbCircle
 10
4.136878
 20
1.660384
 30
0.0
 40
0.019
100
AcDbArc
 50
22.462
 51
40.274
  0
ARC
  5
309
330
18
100
AcDbEntity
  8
0
100
AcDbCircle
 10
4.085878
 20
1.552384
 30
0.0
 40
0.019
100
AcDbArc
 50
269.532
 51
288.288
  0
ARC
  5
30A
330
18
100
AcDbEntity
  8
0
100
AcDbCircle
 10
4.085878
 20
1.552384
 30
0.0
 40
0.019
100
AcDbArc
 50
288.288
 51
307.045
  0
ARC
  5
30B
330
18
100
AcDbEntity
  8
0
100
AcDbCircle
 10
4.087878
 20
1.549384
 30
0.0
 40
0.016
100
AcDbArc
 50
307.045
 51
327.635
  0
ARC
  5
30C
330
18
100
AcDbEntity
  8
0
100
AcDbCircle
 10
4.089878
 20
1.548384
 30
0.0
 40
0.013
100
AcDbArc
 50
327.635
 51
351.484
  0
ARC
  5
30D
330
18
100
AcDbEntity
  8
0
100
AcDbCircle
 10
4.092878
 20
1.547384
 30
0.0
 40
0.01
100
AcDbArc
 50
351.484
 51
18.288
  0
ARC
  5
30E
330
18
100
AcDbEntity
  8
0
100
AcDbCircle
 10
4.092878
 20
1.547384
 30
0.0
 40
0.01
100
AcDbArc
 50
18.288
 51
45.09300000000001
  0
ARC
  5
30F
330
18
100
AcDbEntity
  8
0
100
AcDbCircle
 10
4.090878
 20
1.546384
 30
0.0
 40
0.013
100
AcDbArc
 50
45.09300000000001
 51
68.94199999999999
  0
ARC
  5
310
330
18
100
AcDbEntity
  8
0
100
AcDbCircle
 10
4.089878
 20
1.543384
 30
0.0
 40
0.016
100
AcDbArc
 50
68.94199999999999
 51
89.53200000000001
  0
ARC
  5
311
330
18
100
AcDbEntity
  8
0
100
AcDbCircle
 10
4.089878
 20
1.540384
 30
0.0
 40
0.019
100
AcDbArc
 50
89.53200000000001
 51
108.288
  0
ARC
  5
312
330
18
100
AcDbEntity
  8
0
100
AcDbCircle
 10
4.070878
 20
1.750384
 30
0.0
 40
0.013
100
AcDbArc
 50
310.39
 51
334.859
  0
ARC
  5
313
330
18
100
AcDbEntity
  8
0
100
AcDbCircle
 10
4.059878
 20
1.723384
 30
0.0
 40
0.014
100
AcDbArc
 50
359.142
 51
197.519
  0
ARC
  5
314
330
18
100
AcDbEntity
  8
0
100
AcDbCircle
 10
4.071878
 20
1.766384
 30
0.0
 40
0.007
100
AcDbArc
 50
97.56600000000002
 51
130.39
  0
ARC
  5
315
330
18
100
AcDbEntity
  8
0
100
AcDbCircle
 10
4.075877999999999
 20
1.761384
 30
0.0
 40
0.013
100
AcDbArc
 50
130.39
 51
154.859
  0
ARC
  5
316
330
18
100
AcDbEntity
  8
0
100
AcDbCircle
 10
4.080878
 20
1.759384
 30
0.0
 40
0.019
100
AcDbArc
 50
154.859
 51
172.671
  0
ARC
  5
317
330
18
100
AcDbEntity
  8
0
100
AcDbCircle
 10
4.088878
 20
1.758384
 30
0.0
 40
0.027
100
AcDbArc
 50
172.671
 51
187.566
  0
ARC
  5
318
330
18
100
AcDbEntity
  8
0
100
AcDbCircle
 10
4.088878
 20
1.758384
 30
0.0
 40
0.027
100
AcDbArc
 50
187.566
 51
202.462
  0
ARC
  5
319
330
18
100
AcDbEntity
  8
0
100
AcDbCircle
 10
4.081878
 20
1.755384
 30
0.0
 40
0.019
100
AcDbArc
 50
202.462
 51
220.274
  0
ARC
  5
31A
330
18
100
AcDbEntity
  8
0
100
AcDbCircle
 10
4.076878
 20
1.751384
 30
0.0
 40
0.013
100
AcDbArc
 50
220.274
 51
244.743
  0
ARC
  5
31B
330
18
100
AcDbEntity
  8
0
100
AcDbCircle
 10
4.074878
 20
1.746384
 30
0.0
 40
0.007
100
AcDbArc
 50
244.743
 51
277.566
  0
ARC
  5
31C
330
18
100
AcDbEntity
  8
0
100
AcDbCircle
 10
4.074878
 20
1.746384
 30
0.0
 40
0.007
100
AcDbArc
 50
277.566
 51
310.39
  0
ARC
  5
31D
330
18
100
AcDbEntity
  8
0
100
AcDbCircle
 10
4.069878
 20
1.760384
 30
0.0
 40
0.013
100
AcDbArc
 50
40.274
 51
64.743
  0
ARC
  5
31E
330
18
100
AcDbEntity
  8
0
100
AcDbCircle
 10
4.071878
 20
1.766384
 30
0.0
 40
0.007
100
AcDbArc
 50
64.743
 51
97.56600000000002
  0
LINE
  5
31F
330
18
100
AcDbEntity
  8
0
100
AcDbLine
 10
4.106878
 20
1.735384
 30
0.0
 11
4.101878
 21
1.821384
 31
0.0
  0
ARC
  5
320
330
18
100
AcDbEntity
  8
0
100
AcDbCircle
 10
4.143878
 20
1.669384
 30
0.0
 40
0.007
100
AcDbArc
 50
64.743
 51
97.56600000000002
  0
ARC
  5
321
330
18
100
AcDbEntity
  8
0
100
AcDbCircle
 10
4.065878
 20
1.753384
 30
0.0
 40
0.019
100
AcDbArc
 50
334.859
 51
352.671
  0
ARC
  5
322
330
18
100
AcDbEntity
  8
0
100
AcDbCircle
 10
4.057878
 20
1.754384
 30
0.0
 40
0.027
100
AcDbArc
 50
352.671
 51
7.565999999999999
  0
ARC
  5
323
330
18
100
AcDbEntity
  8
0
100
AcDbCircle
 10
4.057878
 20
1.754384
 30
0.0
 40
0.027
100
AcDbArc
 50
7.565999999999999
 51
22.462
  0
ARC
  5
324
330
18
100
AcDbEntity
  8
0
100
AcDbCircle
 10
4.065878
 20
1.757384
 30
0.0
 40
0.019
100
AcDbArc
 50
22.462
 51
40.274
  0
LINE
  5
325
330
18
100
AcDbEntity
  8
0
100
AcDbLine
 10
4.169878
 20
1.419384
 30
0.0
 11
4.329878
 21
1.517384
 31
0.0
  0
ARC
  5
326
330
18
100
AcDbEntity
  8
0
100
AcDbCircle
 10
4.156878
 20
1.473384
 30
0.0
 40
0.019
100
AcDbArc
 50
288.288
 51
307.045
  0
ARC
  5
327
330
18
100
AcDbEntity
  8
0
100
AcDbCircle
 10
4.158878
 20
1.471384
 30
0.0
 40
0.016
100
AcDbArc
 50
307.045
 51
327.635
  0
ARC
  5
328
330
18
100
AcDbEntity
  8
0
100
AcDbCircle
 10
4.160878
 20
1.470384
 30
0.0
 40
0.013
100
AcDbArc
 50
327.635
 51
351.484
  0
ARC
  5
329
330
18
100
AcDbEntity
  8
0
100
AcDbCircle
 10
4.162878
 20
1.469384
 30
0.0
 40
0.01
100
AcDbArc
 50
351.484
 51
18.288
  0
ARC
  5
32A
330
18
100
AcDbEntity
  8
0
100
AcDbCircle
 10
4.162878
 20
1.469384
 30
0.0
 40
0.01
100
AcDbArc
 50
18.288
 51
45.09300000000001
  0
ARC
  5
32B
330
18
100
AcDbEntity
  8
0
100
AcDbCircle
 10
4.161878
 20
1.467384
 30
0.0
 40
0.013
100
AcDbArc
 50
45.09300000000001
 51
68.94199999999999
  0
ARC
  5
32C
330
18
100
AcDbEntity
  8
0
100
AcDbCircle
 10
4.160878
 20
1.465384
 30
0.0
 40
0.016
100
AcDbArc
 50
68.94199999999999
 51
89.53200000000001
  0
LINE
  5
32D
330
18
100
AcDbEntity
  8
0
100
AcDbLine
 10
4.329878
 20
1.517384
 30
0.0
 11
4.288878
 21
1.558384
 31
0.0
  0
LINE
  5
32E
330
18
100
AcDbEntity
  8
0
100
AcDbLine
 10
4.173878
 20
1.626384
 30
0.0
 11
4.173878
 21
1.696384
 31
0.0
  0
ARC
  5
32F
330
18
100
AcDbEntity
  8
0
100
AcDbCircle
 10
4.279878
 20
1.549384
 30
0.0
 40
0.013
100
AcDbArc
 50
44.404
 51
99.914
  0
ARC
  5
330
330
18
100
AcDbEntity
  8
0
100
AcDbCircle
 10
4.261878
 20
1.532384
 30
0.0
 40
0.01
100
AcDbArc
 50
198.288
 51
225.093
  0
ARC
  5
331
330
18
100
AcDbEntity
  8
0
100
AcDbCircle
 10
4.263878
 20
1.534384
 30
0.0
 40
0.013
100
AcDbArc
 50
225.093
 51
248.942
  0
ARC
  5
332
330
18
100
AcDbEntity
  8
0
100
AcDbCircle
 10
4.264878
 20
1.536384
 30
0.0
 40
0.016
100
AcDbArc
 50
248.942
 51
269.532
  0
ARC
  5
333
330
18
100
AcDbEntity
  8
0
100
AcDbCircle
 10
4.264878
 20
1.540384
 30
0.0
 40
0.019
100
AcDbArc
 50
269.532
 51
288.288
  0
ARC
  5
334
330
18
100
AcDbEntity
  8
0
100
AcDbCircle
 10
4.264878
 20
1.540384
 30
0.0
 40
0.019
100
AcDbArc
 50
288.288
 51
307.045
  0
ARC
  5
335
330
18
100
AcDbEntity
  8
0
100
AcDbCircle
 10
4.266878
 20
1.537384
 30
0.0
 40
0.016
100
AcDbArc
 50
307.045
 51
327.635
  0
ARC
  5
336
330
18
100
AcDbEntity
  8
0
100
AcDbCircle
 10
4.268878
 20
1.536384
 30
0.0
 40
0.013
100
AcDbArc
 50
327.635
 51
351.484
  0
ARC
  5
337
330
18
100
AcDbEntity
  8
0
100
AcDbCircle
 10
4.270878
 20
1.535384
 30
0.0
 40
0.01
100
AcDbArc
 50
351.484
 51
18.288
  0
ARC
  5
338
330
18
100
AcDbEntity
  8
0
100
AcDbCircle
 10
4.270878
 20
1.535384
 30
0.0
 40
0.01
100
AcDbArc
 50
18.288
 51
45.09300000000001
  0
ARC
  5
339
330
18
100
AcDbEntity
  8
0
100
AcDbCircle
 10
4.268878
 20
1.533384
 30
0.0
 40
0.013
100
AcDbArc
 50
45.09300000000001
 51
68.94199999999999
  0
ARC
  5
33A
330
18
100
AcDbEntity
  8
0
100
AcDbCircle
 10
4.268878
 20
1.531384
 30
0.0
 40
0.016
100
AcDbArc
 50
68.94199999999999
 51
89.53200000000001
  0
ARC
  5
33B
330
18
100
AcDbEntity
  8
0
100
AcDbCircle
 10
4.268878
 20
1.528384
 30
0.0
 40
0.019
100
AcDbArc
 50
89.53200000000001
 51
108.288
  0
ARC
  5
33C
330
18
100
AcDbEntity
  8
0
100
AcDbCircle
 10
4.268878
 20
1.528384
 30
0.0
 40
0.019
100
AcDbArc
 50
108.288
 51
127.045
  0
ARC
  5
33D
330
18
100
AcDbEntity
  8
0
100
AcDbCircle
 10
4.266878
 20
1.530384
 30
0.0
 40
0.016
100
AcDbArc
 50
127.045
 51
147.635
  0
ARC
  5
33E
330
18
100
AcDbEntity
  8
0
100
AcDbCircle
 10
4.264878
 20
1.532384
 30
0.0
 40
0.013
100
AcDbArc
 50
147.635
 51
171.484
  0
ARC
  5
33F
330
18
100
AcDbEntity
  8
0
100
AcDbCircle
 10
4.261878
 20
1.532384
 30
0.0
 40
0.01
100
AcDbArc
 50
171.484
 51
198.288
  0
LINE
  5
340
330
18
100
AcDbEntity
  8
0
100
AcDbLine
 10
4.178878
 20
1.994384
 30
0.0
 11
4.007878
 21
1.903384
 31
0.0
  0
ARC
  5
341
330
18
100
AcDbEntity
  8
0
100
AcDbCircle
 10
4.156878
 20
1.934384
 30
0.0
 40
0.007
100
AcDbArc
 50
277.566
 51
310.39
  0
ARC
  5
342
330
18
100
AcDbEntity
  8
0
100
AcDbCircle
 10
4.151878
 20
1.949384
 30
0.0
 40
0.013
100
AcDbArc
 50
40.274
 51
64.743
  0
LINE
  5
343
330
18
100
AcDbEntity
  8
0
100
AcDbLine
 10
4.007878
 20
1.903384
 30
0.0
 11
3.919878
 21
1.946384
 31
0.0
  0
LINE
  5
344
330
18
100
AcDbEntity
  8
0
100
AcDbLine
 10
3.919878
 20
1.946384
 30
0.0
 11
3.929878
 21
1.854384
 31
0.0
  0
ARC
  5
345
330
18
100
AcDbEntity
  8
0
100
AcDbCircle
 10
3.916878
 20
1.853384
 30
0.0
 40
0.013
100
AcDbArc
 50
308.482
 51
6.066
  0
ARC
  5
346
330
18
100
AcDbEntity
  8
0
100
AcDbCircle
 10
3.958878
 20
1.903384
 30
0.0
 40
0.008
100
AcDbArc
 50
85.27500000000001
 51
116.464
  0
ARC
  5
347
330
18
100
AcDbEntity
  8
0
100
AcDbCircle
 10
3.961878
 20
1.899384
 30
0.0
 40
0.013
100
AcDbArc
 50
116.464
 51
140.893
  0
ARC
  5
348
330
18
100
AcDbEntity
  8
0
100
AcDbCircle
 10
3.964878
 20
1.896384
 30
0.0
 40
0.017
100
AcDbArc
 50
140.893
 51
159.451
  0
ARC
  5
349
330
18
100
AcDbEntity
  8
0
100
AcDbCircle
 10
3.970878
 20
1.893384
 30
0.0
 40
0.024
100
AcDbArc
 50
159.451
 51
175.275
  0
ARC
  5
34A
330
18
100
AcDbEntity
  8
0
100
AcDbCircle
 10
3.970878
 20
1.893384
 30
0.0
 40
0.024
100
AcDbArc
 50
175.275
 51
191.099
  0
ARC
  5
34B
330
18
100
AcDbEntity
  8
0
100
AcDbCircle
 10
3.964878
 20
1.892384
 30
0.0
 40
0.017
100
AcDbArc
 50
191.099
 51
209.657
  0
ARC
  5
34C
330
18
100
AcDbEntity
  8
0
100
AcDbCircle
 10
3.960878
 20
1.890384
 30
0.0
 40
0.013
100
AcDbArc
 50
209.657
 51
234.0870000000001
  0
ARC
  5
34D
330
18
100
AcDbEntity
  8
0
100
AcDbCircle
 10
3.957878
 20
1.886384
 30
0.0
 40
0.008
100
AcDbArc
 50
234.0870000000001
 51
265.275
  0
ARC
  5
34E
330
18
100
AcDbEntity
  8
0
100
AcDbCircle
 10
3.957878
 20
1.886384
 30
0.0
 40
0.008
100
AcDbArc
 50
265.275
 51
296.464
  0
ARC
  5
34F
330
18
100
AcDbEntity
  8
0
100
AcDbCircle
 10
3.955878
 20
1.890384
 30
0.0
 40
0.013
100
AcDbArc
 50
296.464
 51
320.893
  0
ARC
  5
350
330
18
100
AcDbEntity
  8
0
100
AcDbCircle
 10
3.951878
 20
1.893384
 30
0.0
 40
0.017
100
AcDbArc
 50
320.893
 51
339.451
  0
ARC
  5
351
330
18
100
AcDbEntity
  8
0
100
AcDbCircle
 10
3.945878
 20
1.896384
 30
0.0
 40
0.024
100
AcDbArc
 50
339.451
 51
355.275
  0
ARC
  5
352
330
18
100
AcDbEntity
  8
0
100
AcDbCircle
 10
3.945878
 20
1.896384
 30
0.0
 40
0.024
100
AcDbArc
 50
355.275
 51
11.099
  0
ARC
  5
353
330
18
100
AcDbEntity
  8
0
100
AcDbCircle
 10
3.951878
 20
1.897384
 30
0.0
 40
0.017
100
AcDbArc
 50
11.099
 51
29.657
  0
ARC
  5
354
330
18
100
AcDbEntity
  8
0
100
AcDbCircle
 10
3.956878
 20
1.899384
 30
0.0
 40
0.013
100
AcDbArc
 50
29.657
 51
54.087
  0
ARC
  5
355
330
18
100
AcDbEntity
  8
0
100
AcDbCircle
 10
3.958878
 20
1.903384
 30
0.0
 40
0.008
100
AcDbArc
 50
54.087
 51
85.27500000000001
  0
ARC
  5
356
330
18
100
AcDbEntity
  8
0
100
AcDbCircle
 10
4.154878
 20
1.954384
 30
0.0
 40
0.007
100
AcDbArc
 50
97.56600000000002
 51
130.39
  0
ARC
  5
357
330
18
100
AcDbEntity
  8
0
100
AcDbCircle
 10
4.157878
 20
1.950384
 30
0.0
 40
0.013
100
AcDbArc
 50
130.39
 51
154.859
  0
ARC
  5
358
330
18
100
AcDbEntity
  8
0
100
AcDbCircle
 10
4.163878
 20
1.947384
 30
0.0
 40
0.019
100
AcDbArc
 50
154.859
 51
172.671
  0
ARC
  5
359
330
18
100
AcDbEntity
  8
0
100
AcDbCircle
 10
4.171878
 20
1.946384
 30
0.0
 40
0.027
100
AcDbArc
 50
172.671
 51
187.566
  0
ARC
  5
35A
330
18
100
AcDbEntity
  8
0
100
AcDbCircle
 10
4.171878
 20
1.946384
 30
0.0
 40
0.027
100
AcDbArc
 50
187.566
 51
202.462
  0
ARC
  5
35B
330
18
100
AcDbEntity
  8
0
100
AcDbCircle
 10
4.163878
 20
1.943384
 30
0.0
 40
0.019
100
AcDbArc
 50
202.462
 51
220.274
  0
ARC
  5
35C
330
18
100
AcDbEntity
  8
0
100
AcDbCircle
 10
4.159878
 20
1.940384
 30
0.0
 40
0.013
100
AcDbArc
 50
220.274
 51
244.743
  0
ARC
  5
35D
330
18
100
AcDbEntity
  8
0
100
AcDbCircle
 10
4.156878
 20
1.934384
 30
0.0
 40
0.007
100
AcDbArc
 50
244.743
 51
277.566
  0
ARC
  5
35E
330
18
100
AcDbEntity
  8
0
100
AcDbCircle
 10
4.154878
 20
1.954384
 30
0.0
 40
0.007
100
AcDbArc
 50
64.743
 51
97.56600000000002
  0
LINE
  5
35F
330
18
100
AcDbEntity
  8
0
100
AcDbLine
 10
4.188878
 20
1.929384
 30
0.0
 11
4.178878
 21
1.994384
 31
0.0
  0
ARC
  5
360
330
18
100
AcDbEntity
  8
0
100
AcDbCircle
 10
4.176878
 20
1.927384
 30
0.0
 40
0.013
100
AcDbArc
 50
319.379
 51
8.908999999999999
  0
ARC
  5
361
330
18
100
AcDbEntity
  8
0
100
AcDbCircle
 10
4.153878
 20
1.939384
 30
0.0
 40
0.013
100
AcDbArc
 50
310.39
 51
334.859
  0
ARC
  5
362
330
18
100
AcDbEntity
  8
0
100
AcDbCircle
 10
4.147878
 20
1.941384
 30
0.0
 40
0.019
100
AcDbArc
 50
334.859
 51
352.671
  0
ARC
  5
363
330
18
100
AcDbEntity
  8
0
100
AcDbCircle
 10
4.139878
 20
1.942384
 30
0.0
 40
0.027
100
AcDbArc
 50
352.671
 51
7.565999999999999
  0
ARC
  5
364
330
18
100
AcDbEntity
  8
0
100
AcDbCircle
 10
4.139878
 20
1.942384
 30
0.0
 40
0.027
100
AcDbArc
 50
7.565999999999999
 51
22.462
  0
ARC
  5
365
330
18
100
AcDbEntity
  8
0
100
AcDbCircle
 10
4.147878
 20
1.945384
 30
0.0
 40
0.019
100
AcDbArc
 50
22.462
 51
40.274
  0
LINE
  5
366
330
18
100
AcDbEntity
  8
0
100
AcDbLine
 10
4.911878
 20
1.260384
 30
0.0
 11
4.976878
 21
1.365384
 31
0.0
  0
LINE
  5
367
330
18
100
AcDbEntity
  8
0
100
AcDbLine
 10
4.838878
 20
1.258384
 30
0.0
 11
4.863878
 21
1.302384
 31
0.0
  0
LINE
  5
368
330
18
100
AcDbEntity
  8
0
100
AcDbLine
 10
5.008878
 20
1.280384
 30
0.0
 11
5.083878
 21
1.378384
 31
0.0
  0
LINE
  5
369
330
18
100
AcDbEntity
  8
0
100
AcDbLine
 10
4.976878
 20
1.365384
 30
0.0
 11
4.979878
 21
1.371384
 31
0.0
  0
LINE
  5
36A
330
18
100
AcDbEntity
  8
0
100
AcDbLine
 10
4.529878
 20
2.834384
 30
0.0
 11
4.355878
 21
2.939384
 31
0.0
  0
LINE
  5
36B
330
18
100
AcDbEntity
  8
0
100
AcDbLine
 10
4.372878
 20
2.742384
 30
0.0
 11
4.529878
 21
2.834384
 31
0.0
  0
ARC
  5
36C
330
18
100
AcDbEntity
  8
0
100
AcDbCircle
 10
4.864878
 20
2.489384
 30
0.0
 40
0.583
100
AcDbArc
 50
88.81
 51
135.764
  0
SOLID
  5
36D
330
18
100
AcDbEntity
  8
0
100
AcDbTrace
 10
4.556878
 20
2.958384
 30
0.0
 11
4.530878
 21
2.990384
 31
0.0
 12
4.446878
 22
2.896384
 32
0.0
 13
4.446878
 23
2.896384
 33
0.0
  0
LINE
  5
36E
330
18
100
AcDbEntity
  8
0
100
AcDbLine
 10
4.154878
 20
2.616384
 30
0.0
 11
4.228878
 21
2.763384
 31
0.0
  0
LINE
  5
36F
330
18
100
AcDbEntity
  8
0
100
AcDbLine
 10
4.228878
 20
2.763384
 30
0.0
 11
4.047878
 21
2.864384
 31
0.0
  0
LINE
  5
370
330
18
100
AcDbEntity
  8
0
100
AcDbLine
 10
4.135878
 20
2.627384
 30
0.0
 11
4.204878
 21
2.777384
 31
0.0
  0
LINE
  5
371
330
18
100
AcDbEntity
  8
0
100
AcDbLine
 10
3.973878
 20
2.717384
 30
0.0
 11
4.047878
 21
2.864384
 31
0.0
  0
LINE
  5
372
330
18
100
AcDbEntity
  8
0
100
AcDbLine
 10
4.087878
 20
2.654384
 30
0.0
 11
4.153878
 21
2.805384
 31
0.0
  0
LINE
  5
373
330
18
100
AcDbEntity
  8
0
100
AcDbLine
 10
4.046878
 20
2.676384
 30
0.0
 11
4.102878
 21
2.833384
 31
0.0
  0
LINE
  5
374
330
18
100
AcDbEntity
  8
0
100
AcDbLine
 10
4.004878
 20
2.700384
 30
0.0
 11
4.062878
 21
2.856384
 31
0.0
  0
LINE
  5
375
330
18
100
AcDbEntity
  8
0
100
AcDbLine
 10
3.973878
 20
2.717384
 30
0.0
 11
4.154878
 21
2.616384
 31
0.0
  0
LINE
  5
376
330
18
100
AcDbEntity
  8
0
100
AcDbLine
 10
3.978878
 20
2.557384
 30
0.0
 11
4.068878
 21
2.627384
 31
0.0
  0
LINE
  5
377
330
18
100
AcDbEntity
  8
0
100
AcDbLine
 10
3.988878
 20
2.626384
 30
0.0
 11
4.037878
 21
2.664384
 31
0.0
  0
LINE
  5
378
330
18
100
AcDbEntity
  8
0
100
AcDbLine
 10
3.993878
 20
2.684384
 30
0.0
 11
4.004878
 21
2.700384
 31
0.0
  0
LINE
  5
379
330
18
100
AcDbEntity
  8
0
100
AcDbLine
 10
3.875878
 20
2.612384
 30
0.0
 11
3.942878
 21
2.651384
 31
0.0
  0
LINE
  5
37A
330
18
100
AcDbEntity
  8
0
100
AcDbLine
 10
3.920878
 20
2.588384
 30
0.0
 11
3.988878
 21
2.626384
 31
0.0
  0
LINE
  5
37B
330
18
100
AcDbEntity
  8
0
100
AcDbLine
 10
3.942878
 20
2.651384
 30
0.0
 11
3.993878
 21
2.684384
 31
0.0
  0
LINE
  5
37C
330
18
100
AcDbEntity
  8
0
100
AcDbLine
 10
4.068878
 20
2.627384
 30
0.0
 11
4.087878
 21
2.654384
 31
0.0
  0
LINE
  5
37D
330
18
100
AcDbEntity
  8
0
100
AcDbLine
 10
4.017878
 20
2.536384
 30
0.0
 11
4.154878
 21
2.616384
 31
0.0
  0
LINE
  5
37E
330
18
100
AcDbEntity
  8
0
100
AcDbLine
 10
4.135878
 20
2.627384
 30
0.0
 11
4.095878
 21
2.582384
 31
0.0
  0
LINE
  5
37F
330
18
100
AcDbEntity
  8
0
100
AcDbLine
 10
4.037878
 20
2.664384
 30
0.0
 11
4.046878
 21
2.676384
 31
0.0
  0
LINE
  5
380
330
18
100
AcDbEntity
  8
0
100
AcDbLine
 10
4.170878
 20
2.795384
 30
0.0
 11
4.191878
 21
2.844384
 31
0.0
  0
LINE
  5
381
330
18
100
AcDbEntity
  8
0
100
AcDbLine
 10
4.191878
 20
2.844384
 30
0.0
 11
4.372878
 21
2.742384
 31
0.0
  0
LINE
  5
382
330
18
100
AcDbEntity
  8
0
100
AcDbLine
 10
4.255878
 20
2.808384
 30
0.0
 11
4.227878
 21
2.764384
 31
0.0
  0
LINE
  5
383
330
18
100
AcDbEntity
  8
0
100
AcDbLine
 10
4.210878
 20
2.833384
 30
0.0
 11
4.191878
 21
2.784384
 31
0.0
  0
LINE
  5
384
330
18
100
AcDbEntity
  8
0
100
AcDbLine
 10
4.343878
 20
2.758384
 30
0.0
 11
4.382878
 21
2.818384
 31
0.0
  0
LINE
  5
385
330
18
100
AcDbEntity
  8
0
100
AcDbLine
 10
4.293878
 20
2.786384
 30
0.0
 11
4.337878
 21
2.876384
 31
0.0
  0
LINE
  5
386
330
18
100
AcDbEntity
  8
0
100
AcDbLine
 10
4.400878
 20
2.759384
 30
0.0
 11
4.420878
 21
2.800384
 31
0.0
  0
LINE
  5
387
330
18
100
AcDbEntity
  8
0
100
AcDbLine
 10
4.228878
 20
2.763384
 30
0.0
 11
4.331878
 21
2.646384
 31
0.0
  0
LINE
  5
388
330
18
100
AcDbEntity
  8
0
100
AcDbLine
 10
4.343878
 20
2.758384
 30
0.0
 11
4.306878
 21
2.674384
 31
0.0
  0
LINE
  5
389
330
18
100
AcDbEntity
  8
0
100
AcDbLine
 10
4.293878
 20
2.786384
 30
0.0
 11
4.263878
 21
2.723384
 31
0.0
  0
LINE
  5
38A
330
18
100
AcDbEntity
  8
0
100
AcDbLine
 10
4.331878
 20
2.646384
 30
0.0
 11
4.372878
 21
2.742384
 31
0.0
  0
LINE
  5
38B
330
18
100
AcDbEntity
  8
0
100
AcDbLine
 10
4.355878
 20
2.939384
 30
0.0
 11
4.191878
 21
2.844384
 31
0.0
  0
LINE
  5
38C
330
18
100
AcDbEntity
  8
0
100
AcDbLine
 10
4.215878
 20
2.830384
 30
0.0
 11
4.224878
 21
2.863384
 31
0.0
  0
LINE
  5
38D
330
18
100
AcDbEntity
  8
0
100
AcDbLine
 10
4.255878
 20
2.808384
 30
0.0
 11
4.281878
 21
2.896384
 31
0.0
  0
LINE
  5
38E
330
18
100
AcDbEntity
  8
0
100
AcDbLine
 10
4.382878
 20
2.818384
 30
0.0
 11
4.412878
 21
2.905384
 31
0.0
  0
LINE
  5
38F
330
18
100
AcDbEntity
  8
0
100
AcDbLine
 10
4.337878
 20
2.876384
 30
0.0
 11
4.364878
 21
2.934384
 31
0.0
  0
LINE
  5
390
330
18
100
AcDbEntity
  8
0
100
AcDbLine
 10
4.420878
 20
2.800384
 30
0.0
 11
4.450877999999999
 21
2.882384
 31
0.0
  0
LINE
  5
391
330
18
100
AcDbEntity
  8
0
100
AcDbLine
 10
5.148878
 20
1.271384
 30
0.0
 11
5.135878
 21
1.463384
 31
0.0
  0
LINE
  5
392
330
18
100
AcDbEntity
  8
0
100
AcDbLine
 10
5.116878
 20
1.336384
 30
0.0
 11
5.140878
 21
1.384384
 31
0.0
  0
ENDSEC
  0
SECTION
  2
OBJECTS
  0
DICTIONARY
  5
C
330
0
100
AcDbDictionary
281
     1
  3
ACAD_COLOR
350
398
  3
ACAD_GROUP
350
D
  3
ACAD_LAYOUT
350
15
  3
ACAD_MATERIAL
350
39A
  3
ACAD_MLINESTYLE
350
12
  3
ACAD_PLOTSETTINGS
350
14
  3
ACAD_PLOTSTYLENAME
350
E
  3
ACDBHEADERROUNDTRIPXREC
350
397
  0
DICTIONARY
  5
398
102
{ACAD_REACTORS
330
C
102
}
330
C
100
AcDbDictionary
281
     1
  0
DICTIONARY
  5
D
102
{ACAD_REACTORS
330
C
102
}
330
C
100
AcDbDictionary
281
     1
  0
DICTIONARY
  5
15
102
{ACAD_REACTORS
330
C
102
}
330
C
100
AcDbDictionary
281
     1
  3
Layout1
350
17
  3
Model
350
19
  0
DICTIONARY
  5
39A
102
{ACAD_REACTORS
330
C
102
}
330
C
100
AcDbDictionary
281
     1
  0
DICTIONARY
  5
12
102
{ACAD_REACTORS
330
C
102
}
330
C
100
AcDbDictionary
281
     1
  3
Standard
350
13
  0
DICTIONARY
  5
14
102
{ACAD_REACTORS
330
C
102
}
330
C
100
AcDbDictionary
281
     1
  0
ACDBDICTIONARYWDFLT
  5
E
102
{ACAD_REACTORS
330
C
102
}
330
C
100
AcDbDictionary
281
     1
  3
Normal
350
F
100
AcDbDictionaryWithDefault
340
F
  0
DICTIONARY
  5
397
102
{ACAD_REACTORS
330
C
102
}
330
C
100
AcDbDictionary
281
     1
  3
COLORDICT
350
399
  3
MATERIALDICT
350
39B
  0
LAYOUT
  5
17
102
{ACAD_REACTORS
330
15
102
}
102
{ACAD_XDICTIONARY
360
39C
102
}
330
15
100
AcDbPlotSettings
  1

  2

  4

  6

 40
0.0
 41
0.0
 42
0.0
 43
0.0
 44
0.0
 45
0.0
 46
0.0
 47
0.0
 48
0.0
 49
0.0
140
0.0
141
0.0
142
1.0
143
1.0
 70
   688
 72
     0
 73
     0
 74
     5
  7

 75
    16
147
1.0
148
0.0
149
0.0
100
AcDbLayout
  1
Layout1
 70
     1
 71
     1
 10
0.0
 20
0.0
 11
12.0
 21
9.0
 12
0.0
 22
0.0
 32
0.0
 14
1.000000000000000E+20
 24
1.000000000000000E+20
 34
1.000000000000000E+20
 15
-1.000000000000000E+20
 25
-1.000000000000000E+20
 35
-1.000000000000000E+20
146
0.0
 13
0.0
 23
0.0
 33
0.0
 16
1.0
 26
0.0
 36
0.0
 17
0.0
 27
1.0
 37
0.0
 76
     0
330
16
  0
LAYOUT
  5
19
102
{ACAD_REACTORS
330
15
102
}
102
{ACAD_XDICTIONARY
360
39E
102
}
330
15
100
AcDbPlotSettings
  1

  2

  4

  6

 40
0.0
 41
0.0
 42
0.0
 43
0.0
 44
0.0
 45
0.0
 46
0.0
 47
0.0
 48
0.0
 49
0.0
140
0.0
141
0.0
142
1.0
143
1.0
 70
  1712
 72
     0
 73
     0
 74
     0
  7

 75
     0
147
1.0
148
0.0
149
0.0
100
AcDbLayout
  1
Model
 70
     1
 71
     0
 10
0.0
 20
0.0
 11
0.0
 21
0.0
 12
0.0
 22
0.0
 32
0.0
 14
0.0
 24
0.0
 34
0.0
 15
0.0
 25
0.0
 35
0.0
146
0.0
 13
0.0
 23
0.0
 33
0.0
 16
1.0
 26
0.0
 36
0.0
 17
0.0
 27
1.0
 37
0.0
 76
     0
330
18
  0
MLINESTYLE
  5
13
102
{ACAD_REACTORS
330
12
102
}
330
12
100
AcDbMlineStyle
  2
Standard
 70
     0
  3

 62
   256
 51
90.0
 52
90.0
 71
     2
 49
0.5
 62
   256
  6
BYLAYER
 49
-0.5
 62
   256
  6
BYLAYER
  0
ACDBPLACEHOLDER
  5
F
102
{ACAD_REACTORS
330
E
102
}
330
E
  0
XRECORD
  5
399
102
{ACAD_REACTORS
330
397
102
}
330
397
100
AcDbXrecord
340
398
  0
XRECORD
  5
39B
102
{ACAD_REACTORS
330
397
102
}
330
397
100
AcDbXrecord
340
39A
  0
DICTIONARY
  5
39C
330
17
100
AcDbDictionary
280
     1
281
     1
  3
ACAD_XREC_ROUNDTRIP
360
39D
  0
DICTIONARY
  5
39E
330
19
100
AcDbDictionary
280
     1
281
     1
  3
ACAD_XREC_ROUNDTRIP
360
39F
  0
XRECORD
  5
39D
102
{ACAD_REACTORS
330
39C
102
}
330
39C
100
AcDbXrecord
102
SHADEPLOT
 70
-25416
102
SHADEPLOTRESLEVEL
 70
 -2880
102
SHADEPLOTCUSTOMDPI
 70
 20968
  0
XRECORD
  5
39F
102
{ACAD_REACTORS
330
39E
102
}
330
39E
100
AcDbXrecord
102
SHADEPLOT
 70
     0
102
SHADEPLOTRESLEVEL
 70
     0
102
SHADEPLOTCUSTOMDPI
 70
     0
  0
ENDSEC
  0
EOF
