  0
SECTION
  2
HEADER
  9
$ACADVER
  1
AC1015
  9
$ACADMAINTVER
 70
     6
  9
$DWGCODEPAGE
  3
ASCII
  9
$INSBASE
 10
0.0
 20
0.0
 30
0.0
  9
$EXTMIN
 10
0.291231
 20
0.3188603333333328
 30
0.0
  9
$EXTMAX
 10
7.672233
 20
6.160702
 30
0.0
  9
$LIMMIN
 10
0.0
 20
0.0
  9
$LIMMAX
 10
12.0
 20
9.0
  9
$ORTHOMODE
 70
     1
  9
$REGENMODE
 70
     0
  9
$FILLMODE
 70
     1
  9
$QTEXTMODE
 70
     0
  9
$MIRRTEXT
 70
     1
  9
$LTSCALE
 40
0.25
  9
$ATTMODE
 70
     1
  9
$TEXTSIZE
 40
0.2
  9
$TRACEWID
 40
0.05
  9
$TEXTSTYLE
  7
STANDARD
  9
$CLAYER
  8
0
  9
$CELTYPE
  6
ByLayer
  9
$CECOLOR
 62
   256
  9
$CELTSCALE
 40
1.0
  9
$DISPSILH
 70
     0
  9
$DIMSCALE
 40
1.0
  9
$DIMASZ
 40
0.125
  9
$DIMEXO
 40
0.0625
  9
$DIMDLI
 40
0.38
  9
$DIMRND
 40
0.0
  9
$DIMDLE
 40
0.0
  9
$DIMEXE
 40
0.03125
  9
$DIMTP
 40
0.0
  9
$DIMTM
 40
0.0
  9
$DIMTXT
 40
0.1
  9
$DIMCEN
 40
0.09
  9
$DIMTSZ
 40
0.0
  9
$DIMTOL
 70
     0
  9
$DIMLIM
 70
     0
  9
$DIMTIH
 70
     0
  9
$DIMTOH
 70
     0
  9
$DIMSE1
 70
     0
  9
$DIMSE2
 70
     0
  9
$DIMTAD
 70
     0
  9
$DIMZIN
 70
     0
  9
$DIMBLK
  1

  9
$DIMASO
 70
     1
  9
$DIMSHO
 70
     1
  9
$DIMPOST
  1

  9
$DIMAPOST
  1

  9
$DIMALT
 70
     0
  9
$DIMALTD
 70
     2
  9
$DIMALTF
 40
25.4
  9
$DIMLFAC
 40
1.0
  9
$DIMTOFL
 70
     0
  9
$DIMTVP
 40
0.0
  9
$DIMTIX
 70
     0
  9
$DIMSOXD
 70
     0
  9
$DIMSAH
 70
     0
  9
$DIMBLK1
  1

  9
$DIMBLK2
  1

  9
$DIMSTYLE
  2
Standard
  9
$DIMCLRD
 70
     0
  9
$DIMCLRE
 70
     0
  9
$DIMCLRT
 70
     0
  9
$DIMTFAC
 40
1.0
  9
$DIMGAP
 40
0.09
  9
$DIMJUST
 70
     0
  9
$DIMSD1
 70
     0
  9
$DIMSD2
 70
     0
  9
$DIMTOLJ
 70
     1
  9
$DIMTZIN
 70
     0
  9
$DIMALTZ
 70
     0
  9
$DIMALTTZ
 70
     0
  9
$DIMUPT
 70
     0
  9
$DIMDEC
 70
     4
  9
$DIMTDEC
 70
     4
  9
$DIMALTU
 70
     2
  9
$DIMALTTD
 70
     2
  9
$DIMTXSTY
  7
STANDARD
  9
$DIMAUNIT
 70
     0
  9
$DIMADEC
 70
     0
  9
$DIMALTRND
 40
0.0
  9
$DIMAZIN
 70
     0
  9
$DIMDSEP
 70
    46
  9
$DIMATFIT
 70
     3
  9
$DIMFRAC
 70
     0
  9
$DIMLDRBLK
  1

  9
$DIMLUNIT
 70
     2
  9
$DIMLWD
 70
    -2
  9
$DIMLWE
 70
    -2
  9
$DIMTMOVE
 70
     0
  9
$LUNITS
 70
     4
  9
$LUPREC
 70
     4
  9
$SKETCHINC
 40
0.1
  9
$FILLETRAD
 40
0.0
  9
$AUNITS
 70
     0
  9
$AUPREC
 70
     3
  9
$MENU
  1
acad
  9
$ELEVATION
 40
0.0
  9
$PELEVATION
 40
0.0
  9
$THICKNESS
 40
0.0
  9
$LIMCHECK
 70
     0
  9
$CHAMFERA
 40
0.0
  9
$CHAMFERB
 40
0.0
  9
$CHAMFERC
 40
1.0
  9
$CHAMFERD
 40
0.0
  9
$SKPOLY
 70
     0
  9
$TDCREATE
 40
2453955.562621111
  9
$TDUCREATE
 40
2453955.895954445
  9
$TDUPDATE
 40
2453955.604287789
  9
$TDUUPDATE
 40
2453955.895954456
  9
$TDINDWG
 40
0.0000000116
  9
$TDUSRTIMER
 40
0.0000000116
  9
$USRTIMER
 70
     1
  9
$ANGBASE
 50
0.0
  9
$ANGDIR
 70
     0
  9
$PDMODE
 70
     0
  9
$PDSIZE
 40
0.0
  9
$PLINEWID
 40
0.0
  9
$SPLFRAME
 70
     0
  9
$SPLINETYPE
 70
     6
  9
$SPLINESEGS
 70
     8
  9
$HANDSEED
  5
6BB
  9
$SURFTAB1
 70
     6
  9
$SURFTAB2
 70
     6
  9
$SURFTYPE
 70
     6
  9
$SURFU
 70
     6
  9
$SURFV
 70
     6
  9
$UCSBASE
  2

  9
$UCSNAME
  2

  9
$UCSORG
 10
0.0
 20
0.0
 30
0.0
  9
$UCSXDIR
 10
1.0
 20
0.0
 30
0.0
  9
$UCSYDIR
 10
0.0
 20
1.0
 30
0.0
  9
$UCSORTHOREF
  2

  9
$UCSORTHOVIEW
 70
     0
  9
$UCSORGTOP
 10
0.0
 20
0.0
 30
0.0
  9
$UCSORGBOTTOM
 10
0.0
 20
0.0
 30
0.0
  9
$UCSORGLEFT
 10
0.0
 20
0.0
 30
0.0
  9
$UCSORGRIGHT
 10
0.0
 20
0.0
 30
0.0
  9
$UCSORGFRONT
 10
0.0
 20
0.0
 30
0.0
  9
$UCSORGBACK
 10
0.0
 20
0.0
 30
0.0
  9
$PUCSBASE
  2

  9
$PUCSNAME
  2

  9
$PUCSORG
 10
0.0
 20
0.0
 30
0.0
  9
$PUCSXDIR
 10
1.0
 20
0.0
 30
0.0
  9
$PUCSYDIR
 10
0.0
 20
1.0
 30
0.0
  9
$PUCSORTHOREF
  2

  9
$PUCSORTHOVIEW
 70
     0
  9
$PUCSORGTOP
 10
0.0
 20
0.0
 30
0.0
  9
$PUCSORGBOTTOM
 10
0.0
 20
0.0
 30
0.0
  9
$PUCSORGLEFT
 10
0.0
 20
0.0
 30
0.0
  9
$PUCSORGRIGHT
 10
0.0
 20
0.0
 30
0.0
  9
$PUCSORGFRONT
 10
0.0
 20
0.0
 30
0.0
  9
$PUCSORGBACK
 10
0.0
 20
0.0
 30
0.0
  9
$USERI1
 70
     0
  9
$USERI2
 70
     0
  9
$USERI3
 70
     0
  9
$USERI4
 70
     0
  9
$USERI5
 70
     0
  9
$USERR1
 40
0.0
  9
$USERR2
 40
0.0
  9
$USERR3
 40
0.0
  9
$USERR4
 40
0.0
  9
$USERR5
 40
0.0
  9
$WORLDVIEW
 70
     1
  9
$SHADEDGE
 70
     3
  9
$SHADEDIF
 70
    70
  9
$TILEMODE
 70
     1
  9
$MAXACTVP
 70
    16
  9
$PINSBASE
 10
0.0
 20
0.0
 30
0.0
  9
$PLIMCHECK
 70
     0
  9
$PEXTMIN
 10
1.000000000000000E+20
 20
1.000000000000000E+20
 30
1.000000000000000E+20
  9
$PEXTMAX
 10
-1.000000000000000E+20
 20
-1.000000000000000E+20
 30
-1.000000000000000E+20
  9
$PLIMMIN
 10
0.0
 20
0.0
  9
$PLIMMAX
 10
12.0
 20
9.0
  9
$UNITMODE
 70
     0
  9
$VISRETAIN
 70
     0
  9
$PLINEGEN
 70
     0
  9
$PSLTSCALE
 70
     1
  9
$TREEDEPTH
 70
  3020
  9
$CMLSTYLE
  2
Standard
  9
$CMLJUST
 70
     0
  9
$CMLSCALE
 40
1.0
  9
$PROXYGRAPHICS
 70
     1
  9
$MEASUREMENT
 70
     0
  9
$CELWEIGHT
370
    -1
  9
$ENDCAPS
280
     0
  9
$JOINSTYLE
280
     0
  9
$LWDISPLAY
290
     0
  9
$INSUNITS
 70
     1
  9
$HYPERLINKBASE
  1

  9
$STYLESHEET
  1

  9
$XEDIT
290
     1
  9
$CEPSNTYPE
380
     0
  9
$PSTYLEMODE
290
     0
  9
$FINGERPRINTGUID
  2
{FAEB1C30-E019-11D5-929B-00C0DF256EC4}
  9
$VERSIONGUID
  2
{FAEB1C32-E019-11D5-929B-00C0DF256EC4}
  9
$EXTNAMES
290
     1
  9
$PSVPSCALE
 40
0.0
  9
$OLESTARTUP
290
     0
  0
ENDSEC
  0
SECTION
  2
CLASSES
  0
CLASS
  1
ACDBDICTIONARYWDFLT
  2
AcDbDictionaryWithDefault
  3
AutoCAD 2000
 90
        0
280
     0
281
     0
  0
CLASS
  1
ACDBPLACEHOLDER
  2
AcDbPlaceHolder
  3
ObjectDBX Classes
 90
        0
280
     0
281
     0
  0
CLASS
  1
LAYOUT
  2
AcDbLayout
  3
ObjectDBX Classes
 90
        0
280
     0
281
     0
  0
ENDSEC
  0
SECTION
  2
TABLES
  0
TABLE
  2
VPORT
  5
67B
330
0
100
AcDbSymbolTable
 70
     2
  0
VPORT
  5
691
330
67B
100
AcDbSymbolTableRecord
100
AcDbViewportTableRecord
  2
*ACTIVE
 70
     0
 10
0.0
 20
0.0
 11
1.0
 21
1.0
 12
6.243341404358354
 22
4.5
 13
0.0
 23
0.0
 14
1.0
 24
1.0
 15
0.0
 25
0.0
 16
0.0
 26
0.0
 36
1.0
 17
0.0
 27
0.0
 37
0.0
 40
9.0
 41
0.7207678883071553
 42
50.0
 43
0.0
 44
0.0
 50
0.0
 51
0.0
 71
     0
 72
  2000
 73
     1
 74
     0
 75
     0
 76
     0
 77
     0
 78
     0
281
     0
 65
     1
110
0.0
120
0.0
130
0.0
111
1.0
121
0.0
131
0.0
112
0.0
122
1.0
132
0.0
 79
     0
146
0.0
  0
ENDTAB
  0
TABLE
  2
LTYPE
  5
678
330
0
100
AcDbSymbolTable
 70
     1
  0
LTYPE
  5
683
330
678
100
AcDbSymbolTableRecord
100
AcDbLinetypeTableRecord
  2
ByBlock
 70
     0
  3

 72
    65
 73
     0
 40
0.0
  0
LTYPE
  5
684
330
678
100
AcDbSymbolTableRecord
100
AcDbLinetypeTableRecord
  2
ByLayer
 70
     0
  3

 72
    65
 73
     0
 40
0.0
  0
LTYPE
  5
68E
330
678
100
AcDbSymbolTableRecord
100
AcDbLinetypeTableRecord
  2
CONTINUOUS
 70
     0
  3
Solid line
 72
    65
 73
     0
 40
0.0
  0
ENDTAB
  0
TABLE
  2
LAYER
  5
675
330
0
100
AcDbSymbolTable
 70
     1
  0
LAYER
  5
68F
330
675
100
AcDbSymbolTableRecord
100
AcDbLayerTableRecord
  2
0
 70
     0
 62
     7
  6
CONTINUOUS
370
    -3
390
682
  0
ENDTAB
  0
TABLE
  2
STYLE
  5
676
330
0
100
AcDbSymbolTable
 70
     1
  0
STYLE
  5
694
330
676
100
AcDbSymbolTableRecord
100
AcDbTextStyleTableRecord
  2
STANDARD
 70
     0
 40
0.0
 41
1.0
 50
0.0
 71
     0
 42
0.2
  3
ROMANS.SHX
  4

  0
ENDTAB
  0
TABLE
  2
VIEW
  5
679
330
0
100
AcDbSymbolTable
 70
     1
  0
VIEW
  5
693
330
679
100
AcDbSymbolTableRecord
100
AcDbViewTableRecord
  2
1
 70
     0
 40
9.538729
 10
4.254411
 20
-1.080409
 41
12.360225
 11
0.0
 21
0.0
 31
1.0
 12
0.0
 22
0.0
 32
0.0
 42
50.0
 43
0.0
 44
0.0
 50
0.0
 71
     0
281
     0
 72
     0
  0
ENDTAB
  0
TABLE
  2
UCS
  5
67A
330
0
100
AcDbSymbolTable
 70
     0
  0
ENDTAB
  0
TABLE
  2
APPID
  5
67C
330
0
100
AcDbSymbolTable
 70
     1
  0
APPID
  5
692
330
67C
100
AcDbSymbolTableRecord
100
AcDbRegAppTableRecord
  2
ACAD
 70
     0
  0
ENDTAB
  0
TABLE
  2
DIMSTYLE
  5
67D
330
0
100
AcDbSymbolTable
 70
     1
100
AcDbDimStyleTable
  0
DIMSTYLE
105
695
330
67D
100
AcDbSymbolTableRecord
100
AcDbDimStyleTableRecord
  2
Standard
 70
     0
  3

  4

340
694
  0
ENDTAB
  0
TABLE
  2
BLOCK_RECORD
  5
674
330
0
100
AcDbSymbolTable
 70
     0
  0
BLOCK_RECORD
  5
68B
330
674
100
AcDbSymbolTableRecord
100
AcDbBlockTableRecord
  2
*Model_Space
340
68C
  0
BLOCK_RECORD
  5
689
330
674
100
AcDbSymbolTableRecord
100
AcDbBlockTableRecord
  2
*Paper_Space
340
68A
  0
ENDTAB
  0
ENDSEC
  0
SECTION
  2
BLOCKS
  0
BLOCK
  5
6B0
330
68B
100
AcDbEntity
  8
0
100
AcDbBlockBegin
  2
*Model_Space
 70
     0
 10
0.0
 20
0.0
 30
0.0
  3
*Model_Space
  1

  4

  0
ENDBLK
  5
6B1
330
68B
100
AcDbEntity
  8
0
100
AcDbBlockEnd
  0
BLOCK
  5
6AE
330
689
100
AcDbEntity
 67
     1
  8
0
100
AcDbBlockBegin
  2
*Paper_Space
 70
     0
 10
0.0
 20
0.0
 30
0.0
  3
*Paper_Space
  1

  4

  0
ENDBLK
  5
6AF
330
689
100
AcDbEntity
 67
     1
  8
0
100
AcDbBlockEnd
  0
ENDSEC
  0
SECTION
  2
ENTITIES
  0
LINE
  5
5
330
68B
100
AcDbEntity
  8
0
100
AcDbLine
 10
3.8456
 20
6.160702
 30
0.0
 11
7.615847000000001
 21
3.867345
 31
0.0
  0
LINE
  5
6
330
68B
100
AcDbEntity
  8
0
100
AcDbLine
 10
7.615847000000001
 20
3.867345
 30
0.0
 11
7.615847000000001
 21
3.738081
 31
0.0
  0
LINE
  5
7
330
68B
100
AcDbEntity
  8
0
100
AcDbLine
 10
7.615847000000001
 20
3.37934
 30
0.0
 11
7.442916
 21
3.282348
 31
0.0
  0
LINE
  5
8
330
68B
100
AcDbEntity
  8
0
100
AcDbLine
 10
7.442916
 20
3.282348
 30
0.0
 11
7.442916
 21
3.430644
 31
0.0
  0
LINE
  5
9
330
68B
100
AcDbEntity
  8
0
100
AcDbLine
 10
7.442916
 20
3.784351
 30
0.0
 11
7.615847000000001
 21
3.867345
 31
0.0
  0
LINE
  5
A
330
68B
100
AcDbEntity
  8
0
100
AcDbLine
 10
3.672669
 20
6.077708
 30
0.0
 11
3.8456
 21
6.160702
 31
0.0
  0
LINE
  5
B
330
68B
100
AcDbEntity
  8
0
100
AcDbLine
 10
3.672669
 20
6.077708
 30
0.0
 11
7.442916
 21
3.784351
 31
0.0
  0
LINE
  5
C
330
68B
100
AcDbEntity
  8
0
100
AcDbLine
 10
7.442916
 20
3.784351
 30
0.0
 11
7.429397
 21
3.790377
 31
0.0
  0
LINE
  5
E
330
68B
100
AcDbEntity
  8
0
100
AcDbLine
 10
3.672669
 20
5.782806
 30
0.0
 11
3.672669
 21
6.077708
 31
0.0
  0
LINE
  5
F
330
68B
100
AcDbEntity
  8
0
100
AcDbLine
 10
7.442916
 20
3.282348
 30
0.0
 11
6.477702
 21
3.869466000000001
 31
0.0
  0
LINE
  5
10
330
68B
100
AcDbEntity
  8
0
100
AcDbLine
 10
6.477702
 20
4.371469
 30
0.0
 11
6.477702
 21
3.869466000000001
 31
0.0
  0
LINE
  5
11
330
68B
100
AcDbEntity
  8
0
100
AcDbLine
 10
6.477702
 20
3.869466000000001
 30
0.0
 11
3.147343
 21
2.051145
 31
0.0
  0
LINE
  5
12
330
68B
100
AcDbEntity
  8
0
100
AcDbLine
 10
0.701867
 20
0.715956
 30
0.0
 11
0.409472
 21
0.8898879999999999
 31
0.0
  0
LINE
  5
14
330
68B
100
AcDbEntity
  8
0
100
AcDbLine
 10
0.701867
 20
1.21796
 30
0.0
 11
0.701867
 21
1.083038
 31
0.0
  0
LINE
  5
15
330
68B
100
AcDbEntity
  8
0
100
AcDbLine
 10
6.477702
 20
4.371469
 30
0.0
 11
0.701867
 21
1.21796
 31
0.0
  0
LINE
  5
16
330
68B
100
AcDbEntity
  8
0
100
AcDbLine
 10
6.318308
 20
4.468425
 30
0.0
 11
0.542473
 21
1.314915
 31
0.0
  0
LINE
  5
17
330
68B
100
AcDbEntity
  8
0
100
AcDbLine
 10
6.188708
 20
4.547258
 30
0.0
 11
0.409472
 21
1.391892
 31
0.0
  0
LINE
  5
18
330
68B
100
AcDbEntity
  8
0
100
AcDbLine
 10
0.701867
 20
1.21796
 30
0.0
 11
0.409472
 21
1.391892
 31
0.0
  0
LINE
  5
19
330
68B
100
AcDbEntity
  8
0
100
AcDbLine
 10
0.409472
 20
1.391892
 30
0.0
 11
0.409472
 21
1.25697
 31
0.0
  0
LINE
  5
1A
330
68B
100
AcDbEntity
  8
0
100
AcDbLine
 10
0.542473
 20
1.314915
 30
0.0
 11
0.542473
 21
1.177853
 31
0.0
  0
LINE
  5
1B
330
68B
100
AcDbEntity
  8
0
100
AcDbLine
 10
5.753794
 20
4.309803
 30
0.0
 11
5.591594000000001
 21
4.408465000000001
 31
0.0
  0
LINE
  5
1C
330
68B
100
AcDbEntity
  8
0
100
AcDbLine
 10
1.692896
 20
1.759045
 30
0.0
 11
1.692896
 21
1.257041
 31
0.0
  0
LINE
  5
1D
330
68B
100
AcDbEntity
  8
0
100
AcDbLine
 10
1.801059
 20
1.708843
 30
0.0
 11
1.801059
 21
1.206839
 31
0.0
  0
LINE
  5
1E
330
68B
100
AcDbEntity
  8
0
100
AcDbLine
 10
1.692896
 20
1.759045
 30
0.0
 11
1.801059
 21
1.708843
 31
0.0
  0
LINE
  5
1F
330
68B
100
AcDbEntity
  8
0
100
AcDbLine
 10
1.692896
 20
1.257041
 30
0.0
 11
1.801059
 21
1.206839
 31
0.0
  0
LINE
  5
20
330
68B
100
AcDbEntity
  8
0
100
AcDbLine
 10
1.692896
 20
1.257041
 30
0.0
 11
0.701867
 21
0.715956
 31
0.0
  0
LINE
  5
21
330
68B
100
AcDbEntity
  8
0
100
AcDbLine
 10
1.801059
 20
1.206839
 30
0.0
 11
6.905267
 21
1.708738
 31
0.0
  0
LINE
  5
24
330
68B
100
AcDbEntity
  8
0
100
AcDbLine
 10
6.905267
 20
2.391074
 30
0.0
 11
6.905267
 21
2.218768
 31
0.0
  0
LINE
  5
25
330
68B
100
AcDbEntity
  8
0
100
AcDbLine
 10
2.094562
 20
1.869937
 30
0.0
 11
6.905267
 21
2.391074
 31
0.0
  0
LINE
  5
26
330
68B
100
AcDbEntity
  8
0
100
AcDbLine
 10
1.801059
 20
1.708843
 30
0.0
 11
2.094562
 21
1.869937
 31
0.0
  0
LINE
  5
27
330
68B
100
AcDbEntity
  8
0
100
AcDbLine
 10
1.986399
 20
1.92014
 30
0.0
 11
2.094562
 21
1.869937
 31
0.0
  0
LINE
  5
28
330
68B
100
AcDbEntity
  8
0
100
AcDbLine
 10
1.986399
 20
1.92014
 30
0.0
 11
6.759457
 21
2.45875
 31
0.0
  0
LINE
  5
2A
330
68B
100
AcDbEntity
  8
0
100
AcDbLine
 10
6.759457
 20
2.45875
 30
0.0
 11
6.905267
 21
2.391074
 31
0.0
  0
LINE
  5
2B
330
68B
100
AcDbEntity
  8
0
100
AcDbLine
 10
4.16922
 20
5.775666999999999
 30
0.0
 11
0.688593
 21
3.853155
 31
0.0
  0
LINE
  5
2D
330
68B
100
AcDbEntity
  8
0
100
AcDbLine
 10
4.141639
 20
5.290441
 30
0.0
 11
3.583987000000001
 21
4.972589
 31
0.0
  0
LINE
  5
2E
330
68B
100
AcDbEntity
  8
0
100
AcDbLine
 10
4.038288
 20
5.85531
 30
0.0
 11
0.5478029999999999
 21
3.949564
 31
0.0
  0
LINE
  5
2F
330
68B
100
AcDbEntity
  8
0
100
AcDbLine
 10
3.928159
 20
5.922299
 30
0.0
 11
0.44693
 21
4.021605999999999
 31
0.0
  0
LINE
  5
37
330
68B
100
AcDbEntity
  8
0
100
AcDbLine
 10
0.44693
 20
4.021605999999999
 30
0.0
 11
0.688593
 21
3.853155
 31
0.0
  0
LINE
  5
3A
330
68B
100
AcDbEntity
  8
0
100
AcDbLine
 10
0.44693
 20
4.021605999999999
 30
0.0
 11
0.44693
 21
3.910497
 31
0.0
  0
LINE
  5
3B
330
68B
100
AcDbEntity
  8
0
100
AcDbLine
 10
0.5478029999999999
 20
3.949564
 30
0.0
 11
0.5478029999999999
 21
3.840183
 31
0.0
  0
LINE
  5
3C
330
68B
100
AcDbEntity
  8
0
100
AcDbLine
 10
4.709569
 20
5.446985
 30
0.0
 11
3.703748000000001
 21
4.897824
 31
0.0
  0
LINE
  5
3D
330
68B
100
AcDbEntity
  8
0
100
AcDbLine
 10
4.868963
 20
5.350029
 30
0.0
 11
3.860962
 21
4.799677
 31
0.0
  0
LINE
  5
3E
330
68B
100
AcDbEntity
  8
0
100
AcDbLine
 10
4.868963
 20
5.350029
 30
0.0
 11
4.868963
 21
4.848026
 31
0.0
  0
LINE
  5
3F
330
68B
100
AcDbEntity
  8
0
100
AcDbLine
 10
4.868963
 20
4.848026
 30
0.0
 11
4.289927
 21
4.531880999999999
 31
0.0
  0
LINE
  5
40
330
68B
100
AcDbEntity
  8
0
100
AcDbLine
 10
5.591594000000001
 20
4.408465000000001
 30
0.0
 11
5.002673000000001
 21
4.086924
 31
0.0
  0
LINE
  5
41
330
68B
100
AcDbEntity
  8
0
100
AcDbLine
 10
5.591594000000001
 20
4.910469
 30
0.0
 11
4.573709
 21
4.35472
 31
0.0
  0
LINE
  5
42
330
68B
100
AcDbEntity
  8
0
100
AcDbLine
 10
5.4322
 20
5.007425
 30
0.0
 11
4.416494999999999
 21
4.452866
 31
0.0
  0
LINE
  5
43
330
68B
100
AcDbEntity
  8
0
100
AcDbLine
 10
5.591594000000001
 20
4.910469
 30
0.0
 11
5.591594000000001
 21
4.408465000000001
 31
0.0
  0
LINE
  5
44
330
68B
100
AcDbEntity
  8
0
100
AcDbLine
 10
4.274655999999999
 20
5.209529
 30
0.0
 11
4.141639
 21
5.290441
 31
0.0
  0
LINE
  5
45
330
68B
100
AcDbEntity
  8
0
100
AcDbLine
 10
4.997287
 20
4.769969000000001
 30
0.0
 11
4.868963
 21
4.848026
 31
0.0
  0
LINE
  5
47
330
68B
100
AcDbEntity
  8
0
100
AcDbLine
 10
4.141639
 20
5.290441
 30
0.0
 11
4.16922
 21
5.775666999999999
 31
0.0
  0
LINE
  5
49
330
68B
100
AcDbEntity
  8
0
100
AcDbLine
 10
0.688593
 20
3.853155
 30
0.0
 11
0.688593
 21
3.742045
 31
0.0
  0
LINE
  5
4A
330
68B
100
AcDbEntity
  8
0
100
AcDbLine
 10
0.44693
 20
3.490713
 30
0.0
 11
0.688593
 21
3.338672
 31
0.0
  0
LINE
  5
4B
330
68B
100
AcDbEntity
  8
0
100
AcDbLine
 10
3.17619
 20
5.22717
 30
0.0
 11
5.162655
 21
3.98705
 31
0.0
  0
LINE
  5
4C
330
68B
100
AcDbEntity
  8
0
100
AcDbLine
 10
2.926988
 20
5.089524
 30
0.0
 11
4.921141
 21
3.855188
 31
0.0
  0
LINE
  5
4D
330
68B
100
AcDbEntity
  8
0
100
AcDbLine
 10
3.061592
 20
5.163873000000001
 30
0.0
 11
5.035137000000001
 21
3.917428
 31
0.0
  0
LINE
  5
4E
330
68B
100
AcDbEntity
  8
0
100
AcDbLine
 10
2.926988
 20
5.089524
 30
0.0
 11
2.926988
 21
4.59811
 31
0.0
  0
LINE
  5
4F
330
68B
100
AcDbEntity
  8
0
100
AcDbLine
 10
2.926988
 20
4.59811
 30
0.0
 11
4.511786
 21
3.631687
 31
0.0
  0
LINE
  5
50
330
68B
100
AcDbEntity
  8
0
100
AcDbLine
 10
2.926988
 20
4.59811
 30
0.0
 11
2.253214
 21
4.21407
 31
0.0
  0
LINE
  5
51
330
68B
100
AcDbEntity
  8
0
100
AcDbLine
 10
1.576267
 20
3.828221
 30
0.0
 11
1.653686
 21
3.779464
 31
0.0
  0
LINE
  5
52
330
68B
100
AcDbEntity
  8
0
100
AcDbLine
 10
1.576267
 20
4.343458
 30
0.0
 11
1.576267
 21
3.828221
 31
0.0
  0
LINE
  5
53
330
68B
100
AcDbEntity
  8
0
100
AcDbLine
 10
1.576267
 20
4.343458
 30
0.0
 11
3.57042
 21
3.109122
 31
0.0
  0
LINE
  5
54
330
68B
100
AcDbEntity
  8
0
100
AcDbLine
 10
1.710871
 20
4.417807
 30
0.0
 11
3.684416
 21
3.171362
 31
0.0
  0
LINE
  5
55
330
68B
100
AcDbEntity
  8
0
100
AcDbLine
 10
1.825469
 20
4.481104
 30
0.0
 11
3.811934
 21
3.240984
 31
0.0
  0
LINE
  5
56
330
68B
100
AcDbEntity
  8
0
100
AcDbLine
 10
1.576267
 20
3.828221
 30
0.0
 11
0.688593
 21
3.338672
 31
0.0
  0
LINE
  5
59
330
68B
100
AcDbEntity
  8
0
100
AcDbLine
 10
2.238629
 20
3.933471
 30
0.0
 11
0.680016
 21
3.068361
 31
0.0
  0
LINE
  5
5A
330
68B
100
AcDbEntity
  8
0
100
AcDbLine
 10
2.092992
 20
4.023617
 30
0.0
 11
0.505911
 21
3.145976
 31
0.0
  0
LINE
  5
5C
330
68B
100
AcDbEntity
  8
0
100
AcDbLine
 10
2.237646
 20
3.411701
 30
0.0
 11
1.694637
 21
3.114643
 31
0.0
  0
LINE
  5
5D
330
68B
100
AcDbEntity
  8
0
100
AcDbLine
 10
2.238629
 20
3.933471
 30
0.0
 11
2.237646
 21
3.411701
 31
0.0
  0
LINE
  5
5F
330
68B
100
AcDbEntity
  8
0
100
AcDbLine
 10
3.014075
 20
2.936103
 30
0.0
 11
3.106581
 21
2.864468
 31
0.0
  0
LINE
  5
60
330
68B
100
AcDbEntity
  8
0
100
AcDbLine
 10
2.237646
 20
3.411701
 30
0.0
 11
2.373163
 21
3.326356
 31
0.0
  0
LINE
  5
72
330
68B
100
AcDbEntity
  8
0
100
AcDbLine
 10
2.819082
 20
3.574183
 30
0.0
 11
0.392101
 21
2.225342
 31
0.0
  0
LINE
  5
73
330
68B
100
AcDbEntity
  8
0
100
AcDbLine
 10
3.014075
 20
3.453488
 30
0.0
 11
0.5829409999999999
 21
2.102338
 31
0.0
  0
LINE
  5
75
330
68B
100
AcDbEntity
  8
0
100
AcDbLine
 10
3.014075
 20
2.936103
 30
0.0
 11
2.032604
 21
2.401871
 31
0.0
  0
LINE
  5
76
330
68B
100
AcDbEntity
  8
0
100
AcDbLine
 10
0.8113590000000001
 20
2.101247
 30
0.0
 11
1.015885
 21
2.217274
 31
0.0
  0
LINE
  5
77
330
68B
100
AcDbEntity
  8
0
100
AcDbLine
 10
0.90754
 20
2.282741
 30
0.0
 11
1.015885
 21
2.217274
 31
0.0
  0
LINE
  5
78
330
68B
100
AcDbEntity
  8
0
100
AcDbLine
 10
0.7009810000000001
 20
2.167942
 30
0.0
 11
0.8113590000000001
 21
2.101247
 31
0.0
  0
LINE
  5
79
330
68B
100
AcDbEntity
  8
0
100
AcDbLine
 10
0.8113590000000001
 20
2.101247
 30
0.0
 11
0.8113590000000001
 21
1.611701
 31
0.0
  0
LINE
  5
7A
330
68B
100
AcDbEntity
  8
0
100
AcDbLine
 10
0.392101
 20
2.225342
 30
0.0
 11
0.5829409999999999
 21
2.102338
 31
0.0
  0
LINE
  5
7B
330
68B
100
AcDbEntity
  8
0
100
AcDbLine
 10
0.5829409999999999
 20
2.102338
 30
0.0
 11
0.5829409999999999
 21
1.993639
 31
0.0
  0
LINE
  5
7E
330
68B
100
AcDbEntity
  8
0
100
AcDbLine
 10
0.7009810000000001
 20
1.678396
 30
0.0
 11
0.8113590000000001
 21
1.611701
 31
0.0
  0
LINE
  5
7F
330
68B
100
AcDbEntity
  8
0
100
AcDbLine
 10
0.702158
 20
1.677685
 30
0.0
 11
0.5829409999999999
 21
1.612793
 31
0.0
  0
LINE
  5
80
330
68B
100
AcDbEntity
  8
0
100
AcDbLine
 10
0.7009810000000001
 20
2.167942
 30
0.0
 11
0.702158
 21
1.677685
 31
0.0
  0
LINE
  5
81
330
68B
100
AcDbEntity
  8
0
100
AcDbLine
 10
1.015885
 20
2.217274
 30
0.0
 11
2.139029
 21
2.336201
 31
0.0
  0
LINE
  5
82
330
68B
100
AcDbEntity
  8
0
100
AcDbLine
 10
0.90754
 20
2.282741
 30
0.0
 11
2.313852
 21
2.431651
 31
0.0
  0
LINE
  5
85
330
68B
100
AcDbEntity
  8
0
100
AcDbLine
 10
4.212481
 20
2.632693
 30
0.0
 11
5.635609
 21
2.783384
 31
0.0
  0
LINE
  5
86
330
68B
100
AcDbEntity
  8
0
100
AcDbLine
 10
4.037659
 20
2.537243
 30
0.0
 11
5.743953
 21
2.717918
 31
0.0
  0
LINE
  5
87
330
68B
100
AcDbEntity
  8
0
100
AcDbLine
 10
5.635609
 20
2.783384
 30
0.0
 11
5.743953
 21
2.717918
 31
0.0
  0
LINE
  5
88
330
68B
100
AcDbEntity
  8
0
100
AcDbLine
 10
5.743953
 20
2.717918
 30
0.0
 11
5.743953
 21
2.581638
 31
0.0
  0
LINE
  5
89
330
68B
100
AcDbEntity
  8
0
100
AcDbLine
 10
0.680016
 20
3.022434
 30
0.0
 11
2.050402
 21
3.146975
 31
0.0
  0
LINE
  5
8A
330
68B
100
AcDbEntity
  8
0
100
AcDbLine
 10
0.8688229999999999
 20
2.938265
 30
0.0
 11
1.854151
 21
3.037904
 31
0.0
  0
LINE
  5
99
330
68B
100
AcDbEntity
  8
0
100
AcDbLine
 10
0.505911
 20
3.145976
 30
0.0
 11
0.505979
 21
2.974225
 31
0.0
  0
LINE
  5
9A
330
68B
100
AcDbEntity
  8
0
100
AcDbLine
 10
0.680016
 20
3.068361
 30
0.0
 11
0.680016
 21
2.896641
 31
0.0
  0
LINE
  5
9B
330
68B
100
AcDbEntity
  8
0
100
AcDbLine
 10
0.505911
 20
3.145976
 30
0.0
 11
0.680016
 21
3.068361
 31
0.0
  0
LINE
  5
9C
330
68B
100
AcDbEntity
  8
0
100
AcDbLine
 10
0.680016
 20
3.022434
 30
0.0
 11
0.8688229999999999
 21
2.938265
 31
0.0
  0
LINE
  5
9D
330
68B
100
AcDbEntity
  8
0
100
AcDbLine
 10
0.8688229999999999
 20
2.938265
 30
0.0
 11
0.8688229999999999
 21
2.812472
 31
0.0
  0
LINE
  5
9E
330
68B
100
AcDbEntity
  8
0
100
AcDbLine
 10
0.505911
 20
2.637199
 30
0.0
 11
0.680016
 21
2.559584
 31
0.0
  0
LWPOLYLINE
  5
124
330
68B
100
AcDbEntity
  8
0
100
AcDbPolyline
 90
       16
 70
     1
 43
0.0
 10
1.472568
 20
4.17058
 42
0.103301
 10
1.475804
 20
4.171256
 42
0.100355
 10
1.478588
 20
4.173209
 42
0.096452
 10
1.480427
 20
4.176099
 42
0.093862
 10
1.481082
 20
4.179556
 42
0.093862
 10
1.480427
 20
4.183012000000001
 42
0.096452
 10
1.478588
 20
4.185902
 42
0.100355
 10
1.475804
 20
4.187856
 42
0.103301
 10
1.472568
 20
4.188530999999999
 42
0.103301
 10
1.469332
 20
4.187856
 42
0.100355
 10
1.466549
 20
4.185902
 42
0.096452
 10
1.46471
 20
4.183012000000001
 42
0.093862
 10
1.464055
 20
4.179556
 42
0.093862
 10
1.46471
 20
4.176099
 42
0.096452
 10
1.466549
 20
4.173209
 42
0.100355
 10
1.469332
 20
4.171256
 42
0.103301
  0
LWPOLYLINE
  5
136
330
68B
100
AcDbEntity
  8
0
100
AcDbPolyline
 90
       16
 70
     1
 43
0.0
 10
1.472568
 20
4.034148
 42
0.103301
 10
1.475804
 20
4.034824
 42
0.100355
 10
1.478588
 20
4.036777
 42
0.096452
 10
1.480427
 20
4.039667
 42
0.093862
 10
1.481082
 20
4.043124
 42
0.093862
 10
1.480427
 20
4.046581
 42
0.096452
 10
1.478588
 20
4.049471
 42
0.100355
 10
1.475804
 20
4.051424
 42
0.103301
 10
1.472568
 20
4.0521
 42
0.103301
 10
1.469332
 20
4.051424
 42
0.100355
 10
1.466549
 20
4.049471
 42
0.096452
 10
1.46471
 20
4.046581
 42
0.093862
 10
1.464055
 20
4.043124
 42
0.093862
 10
1.46471
 20
4.039667
 42
0.096452
 10
1.466549
 20
4.036777
 42
0.100355
 10
1.469332
 20
4.034824
 42
0.103301
  0
LWPOLYLINE
  5
148
330
68B
100
AcDbEntity
  8
0
100
AcDbPolyline
 90
       16
 70
     1
 43
0.0
 10
1.451964
 20
3.861813
 42
0.103301
 10
1.4552
 20
3.862489
 42
0.100355
 10
1.457984
 20
3.864442
 42
0.096452
 10
1.459823
 20
3.867332
 42
0.093862
 10
1.460478
 20
3.870789
 42
0.093862
 10
1.459823
 20
3.874246
 42
0.096452
 10
1.457984
 20
3.877136
 42
0.100355
 10
1.4552
 20
3.879089
 42
0.103301
 10
1.451964
 20
3.879765
 42
0.103301
 10
1.448728
 20
3.879089
 42
0.100355
 10
1.445944
 20
3.877136
 42
0.096452
 10
1.444106
 20
3.874246
 42
0.093862
 10
1.443451
 20
3.870789
 42
0.093862
 10
1.444106
 20
3.867332
 42
0.096452
 10
1.445944
 20
3.864442
 42
0.100355
 10
1.448728
 20
3.862489
 42
0.103301
  0
LWPOLYLINE
  5
17E
330
68B
100
AcDbEntity
  8
0
100
AcDbPolyline
 90
       16
 70
     1
 43
0.0
 10
1.697228
 20
4.086174
 42
0.103301
 10
1.700464
 20
4.086849
 42
0.100355
 10
1.703248
 20
4.088801999999999
 42
0.096452
 10
1.705087
 20
4.091692
 42
0.093862
 10
1.705741
 20
4.095149
 42
0.093862
 10
1.705087
 20
4.098606
 42
0.096452
 10
1.703248
 20
4.101496
 42
0.100355
 10
1.700464
 20
4.103449
 42
0.103301
 10
1.697228
 20
4.104125
 42
0.103301
 10
1.693992
 20
4.103449
 42
0.100355
 10
1.691208
 20
4.101496
 42
0.096452
 10
1.689369
 20
4.098606
 42
0.093862
 10
1.688715
 20
4.095149
 42
0.093862
 10
1.689369
 20
4.091692
 42
0.096452
 10
1.691208
 20
4.088801999999999
 42
0.100355
 10
1.693992
 20
4.086849
 42
0.103301
  0
LINE
  5
2D4
330
68B
100
AcDbEntity
  8
0
100
AcDbLine
 10
5.743953
 20
2.581638
 30
0.0
 11
5.907119000000001
 21
2.557434
 31
0.0
  0
LINE
  5
2D5
330
68B
100
AcDbEntity
  8
0
100
AcDbLine
 10
5.907119000000001
 20
2.557434
 30
0.0
 11
5.754017
 21
2.345292
 31
0.0
  0
LINE
  5
2D6
330
68B
100
AcDbEntity
  8
0
100
AcDbLine
 10
6.905267
 20
2.218768
 30
0.0
 11
7.050046000000001
 21
2.198573
 31
0.0
  0
LINE
  5
2D7
330
68B
100
AcDbEntity
  8
0
100
AcDbLine
 10
7.050046000000001
 20
2.198573
 30
0.0
 11
6.796325
 21
1.984399
 31
0.0
  0
LINE
  5
2D8
330
68B
100
AcDbEntity
  8
0
100
AcDbLine
 10
6.796325
 20
1.984399
 30
0.0
 11
6.905267
 21
1.928201
 31
0.0
  0
LINE
  5
2D9
330
68B
100
AcDbEntity
  8
0
100
AcDbLine
 10
6.905267
 20
1.928201
 30
0.0
 11
6.905267
 21
1.708738
 31
0.0
  0
LINE
  5
2DA
330
68B
100
AcDbEntity
  8
0
100
AcDbLine
 10
7.442916
 20
3.430644
 30
0.0
 11
7.499302
 21
3.555838
 31
0.0
  0
LINE
  5
2DB
330
68B
100
AcDbEntity
  8
0
100
AcDbLine
 10
7.499302
 20
3.555838
 30
0.0
 11
7.379111999999999
 21
3.606059
 31
0.0
  0
LINE
  5
2DC
330
68B
100
AcDbEntity
  8
0
100
AcDbLine
 10
7.379111999999999
 20
3.606059
 30
0.0
 11
7.442916
 21
3.655087
 31
0.0
  0
LINE
  5
2DD
330
68B
100
AcDbEntity
  8
0
100
AcDbLine
 10
7.442916
 20
3.655087
 30
0.0
 11
7.615847000000001
 21
3.738081
 31
0.0
  0
LINE
  5
2DE
330
68B
100
AcDbEntity
  8
0
100
AcDbLine
 10
7.615847000000001
 20
3.527637
 30
0.0
 11
7.442916
 21
3.430644
 31
0.0
  0
LINE
  5
2DF
330
68B
100
AcDbEntity
  8
0
100
AcDbLine
 10
7.672233
 20
3.652831
 30
0.0
 11
7.499302
 21
3.555838
 31
0.0
  0
LINE
  5
2E0
330
68B
100
AcDbEntity
  8
0
100
AcDbLine
 10
7.442916
 20
3.655087
 30
0.0
 11
7.442916
 21
3.784351
 31
0.0
  0
LINE
  5
2E1
330
68B
100
AcDbEntity
  8
0
100
AcDbLine
 10
7.615847000000001
 20
3.527637
 30
0.0
 11
7.615847000000001
 21
3.37934
 31
0.0
  0
LINE
  5
2E2
330
68B
100
AcDbEntity
  8
0
100
AcDbLine
 10
7.615847000000001
 20
3.527637
 30
0.0
 11
7.672233
 21
3.652831
 31
0.0
  0
LINE
  5
2E3
330
68B
100
AcDbEntity
  8
0
100
AcDbLine
 10
7.672233
 20
3.652831
 30
0.0
 11
7.566692999999999
 21
3.696930000000001
 31
0.0
  0
LINE
  5
2E4
330
68B
100
AcDbEntity
  8
0
100
AcDbLine
 10
7.615847000000001
 20
3.738081
 30
0.0
 11
7.566692999999999
 21
3.696930000000001
 31
0.0
  0
LINE
  5
2E5
330
68B
100
AcDbEntity
  8
0
100
AcDbLine
 10
7.379111999999999
 20
3.606059
 30
0.0
 11
7.566692999999999
 21
3.696930000000001
 31
0.0
  0
LINE
  5
2E7
330
68B
100
AcDbEntity
  8
0
100
AcDbLine
 10
0.688593
 20
3.742045
 30
0.0
 11
0.779977
 21
3.669786
 31
0.0
  0
LINE
  5
2E8
330
68B
100
AcDbEntity
  8
0
100
AcDbLine
 10
0.779977
 20
3.669786
 30
0.0
 11
0.5955010000000001
 21
3.562756
 31
0.0
  0
LINE
  5
2EA
330
68B
100
AcDbEntity
  8
0
100
AcDbLine
 10
0.5955010000000001
 20
3.562756
 30
0.0
 11
0.688593
 21
3.472502
 31
0.0
  0
LINE
  5
2EB
330
68B
100
AcDbEntity
  8
0
100
AcDbLine
 10
0.44693
 20
3.910497
 30
0.0
 11
0.688593
 21
3.742045
 31
0.0
  0
LINE
  5
2EC
330
68B
100
AcDbEntity
  8
0
100
AcDbLine
 10
0.353839
 20
3.731208
 30
0.0
 11
0.5955010000000001
 21
3.562756
 31
0.0
  0
LINE
  5
2ED
330
68B
100
AcDbEntity
  8
0
100
AcDbLine
 10
0.44693
 20
3.640953
 30
0.0
 11
0.688593
 21
3.472502
 31
0.0
  0
LINE
  5
2EE
330
68B
100
AcDbEntity
  8
0
100
AcDbLine
 10
0.353839
 20
3.731208
 30
0.0
 11
0.44693
 21
3.640953
 31
0.0
  0
LINE
  5
2EF
330
68B
100
AcDbEntity
  8
0
100
AcDbLine
 10
0.538315
 20
3.838237
 30
0.0
 11
0.353839
 21
3.731208
 31
0.0
  0
LINE
  5
2F0
330
68B
100
AcDbEntity
  8
0
100
AcDbLine
 10
0.44693
 20
3.640953
 30
0.0
 11
0.44693
 21
3.490713
 31
0.0
  0
LINE
  5
2F1
330
68B
100
AcDbEntity
  8
0
100
AcDbLine
 10
0.5478029999999999
 20
3.570639
 30
0.0
 11
0.5478029999999999
 21
3.427249
 31
0.0
  0
LINE
  5
2F2
330
68B
100
AcDbEntity
  8
0
100
AcDbLine
 10
0.47467
 20
3.646982
 30
0.0
 11
0.654169
 21
3.766041
 31
0.0
  0
LINE
  5
2F3
330
68B
100
AcDbEntity
  8
0
100
AcDbLine
 10
0.47467
 20
3.646982
 30
0.0
 11
0.5478029999999999
 21
3.570639
 31
0.0
  0
LINE
  5
2F4
330
68B
100
AcDbEntity
  8
0
100
AcDbLine
 10
0.688593
 20
3.472502
 30
0.0
 11
0.688593
 21
3.338672
 31
0.0
  0
LINE
  5
2FC
330
68B
100
AcDbEntity
  8
0
100
AcDbLine
 10
0.5829409999999999
 20
1.766178
 30
0.0
 11
0.5829409999999999
 21
1.612793
 31
0.0
  0
LINE
  5
2FE
330
68B
100
AcDbEntity
  8
0
100
AcDbLine
 10
0.392101
 20
2.116643
 30
0.0
 11
0.392101
 21
2.225342
 31
0.0
  0
LINE
  5
301
330
68B
100
AcDbEntity
  8
0
100
AcDbLine
 10
0.392101
 20
1.853843
 30
0.0
 11
0.392101
 21
1.735796
 31
0.0
  0
LINE
  5
303
330
68B
100
AcDbEntity
  8
0
100
AcDbLine
 10
0.5829409999999999
 20
1.993639
 30
0.0
 11
0.648137
 21
1.949559
 31
0.0
  0
LINE
  5
304
330
68B
100
AcDbEntity
  8
0
100
AcDbLine
 10
0.648137
 20
1.949559
 30
0.0
 11
0.48207
 21
1.803789
 31
0.0
  0
LINE
  5
305
330
68B
100
AcDbEntity
  8
0
100
AcDbLine
 10
0.48207
 20
1.803789
 30
0.0
 11
0.5829409999999999
 21
1.766178
 31
0.0
  0
LINE
  5
306
330
68B
100
AcDbEntity
  8
0
100
AcDbLine
 10
0.392101
 20
2.116643
 30
0.0
 11
0.5829409999999999
 21
1.993639
 31
0.0
  0
LINE
  5
307
330
68B
100
AcDbEntity
  8
0
100
AcDbLine
 10
0.291231
 20
1.926793
 30
0.0
 11
0.48207
 21
1.803789
 31
0.0
  0
LINE
  5
308
330
68B
100
AcDbEntity
  8
0
100
AcDbLine
 10
0.457298
 20
2.072563
 30
0.0
 11
0.291231
 21
1.926793
 31
0.0
  0
LINE
  5
309
330
68B
100
AcDbEntity
  8
0
100
AcDbLine
 10
0.701867
 20
1.083038
 30
0.0
 11
0.793952
 21
1.034448
 31
0.0
  0
LINE
  5
30A
330
68B
100
AcDbEntity
  8
0
100
AcDbLine
 10
0.793952
 20
1.034448
 30
0.0
 11
0.627885
 21
0.904874
 31
0.0
  0
LINE
  5
30B
330
68B
100
AcDbEntity
  8
0
100
AcDbLine
 10
0.627885
 20
0.904874
 30
0.0
 11
0.700793
 21
0.860334
 31
0.0
  0
LINE
  5
30C
330
68B
100
AcDbEntity
  8
0
100
AcDbLine
 10
0.700793
 20
0.860334
 30
0.0
 11
0.701867
 21
0.715956
 31
0.0
  0
LINE
  5
30D
330
68B
100
AcDbEntity
  8
0
100
AcDbLine
 10
0.701867
 20
1.083038
 30
0.0
 11
0.409472
 21
1.25697
 31
0.0
  0
LINE
  5
30E
330
68B
100
AcDbEntity
  8
0
100
AcDbLine
 10
0.627885
 20
0.904874
 30
0.0
 11
0.33549
 21
1.078806
 31
0.0
  0
LINE
  5
30F
330
68B
100
AcDbEntity
  8
0
100
AcDbLine
 10
0.497057
 20
1.204869
 30
0.0
 11
0.33549
 21
1.078806
 31
0.0
  0
LINE
  5
310
330
68B
100
AcDbEntity
  8
0
100
AcDbLine
 10
0.409472
 20
1.034798
 30
0.0
 11
0.409472
 21
0.8898879999999999
 31
0.0
  0
LINE
  5
311
330
68B
100
AcDbEntity
  8
0
100
AcDbLine
 10
0.542473
 20
0.9556819999999999
 30
0.0
 11
0.542473
 21
0.8107720000000001
 31
0.0
  0
LINE
  5
312
330
68B
100
AcDbEntity
  8
0
100
AcDbLine
 10
0.481687
 20
0.9918399999999999
 30
0.0
 11
0.6306430000000001
 21
1.125405
 31
0.0
  0
LINE
  5
313
330
68B
100
AcDbEntity
  8
0
100
AcDbLine
 10
0.8688229999999999
 20
2.812472
 30
0.0
 11
0.935091
 21
2.679648
 31
0.0
  0
LINE
  5
314
330
68B
100
AcDbEntity
  8
0
100
AcDbLine
 10
0.935091
 20
2.679648
 30
0.0
 11
0.7828500000000001
 21
2.577263
 31
0.0
  0
LINE
  5
315
330
68B
100
AcDbEntity
  8
0
100
AcDbLine
 10
0.7828500000000001
 20
2.577263
 30
0.0
 11
0.868658
 21
2.519152
 31
0.0
  0
LINE
  5
317
330
68B
100
AcDbEntity
  8
0
100
AcDbLine
 10
0.868658
 20
2.519152
 30
0.0
 11
0.868658
 21
2.490198
 31
0.0
  0
LINE
  5
318
330
68B
100
AcDbEntity
  8
0
100
AcDbLine
 10
0.680016
 20
2.896641
 30
0.0
 11
0.8688229999999999
 21
2.812472
 31
0.0
  0
LINE
  5
319
330
68B
100
AcDbEntity
  8
0
100
AcDbLine
 10
0.605115
 20
2.65313
 30
0.0
 11
0.793922
 21
2.568961
 31
0.0
  0
LINE
  5
321
330
68B
100
AcDbEntity
  8
0
100
AcDbLine
 10
0.680016
 20
2.61974
 30
0.0
 11
0.680016
 21
2.385356
 31
0.0
  0
LINE
  5
322
330
68B
100
AcDbEntity
  8
0
100
AcDbLine
 10
0.506038
 20
2.787571
 30
0.0
 11
0.505911
 21
2.637199
 31
0.0
  0
LINE
  5
323
330
68B
100
AcDbEntity
  8
0
100
AcDbLine
 10
0.7462840000000001
 20
2.763817
 30
0.0
 11
0.935091
 21
2.679648
 31
0.0
  0
LINE
  5
324
330
68B
100
AcDbEntity
  8
0
100
AcDbLine
 10
0.605115
 20
2.65313
 30
0.0
 11
0.7462840000000001
 21
2.763817
 31
0.0
  0
LINE
  5
325
330
68B
100
AcDbEntity
  8
0
100
AcDbLine
 10
0.573815
 20
2.840702
 30
0.0
 11
0.7462840000000001
 21
2.763817
 31
0.0
  0
LINE
  5
326
330
68B
100
AcDbEntity
  8
0
100
AcDbLine
 10
0.680016
 20
2.896641
 30
0.0
 11
0.7462840000000001
 21
2.763817
 31
0.0
  0
LINE
  5
327
330
68B
100
AcDbEntity
  8
0
100
AcDbLine
 10
0.505979
 20
2.974225
 30
0.0
 11
0.680016
 21
2.896641
 31
0.0
  0
LINE
  5
329
330
68B
100
AcDbEntity
  8
0
100
AcDbLine
 10
0.680016
 20
2.711858
 30
0.0
 11
0.506038
 21
2.787571
 31
0.0
  0
LINE
  5
32A
330
68B
100
AcDbEntity
  8
0
100
AcDbLine
 10
0.5060479999999999
 20
2.787567
 30
0.0
 11
0.573815
 21
2.840702
 31
0.0
  0
LINE
  5
32B
330
68B
100
AcDbEntity
  8
0
100
AcDbLine
 10
0.505979
 20
2.974225
 30
0.0
 11
0.573815
 21
2.840702
 31
0.0
  0
LINE
  5
32C
330
68B
100
AcDbEntity
  8
0
100
AcDbLine
 10
0.392101
 20
1.735796
 30
0.0
 11
0.5829409999999999
 21
1.612793
 31
0.0
  0
LINE
  5
32D
330
68B
100
AcDbEntity
  8
0
100
AcDbLine
 10
7.466956
 20
3.295831
 30
0.0
 11
7.480086
 21
3.378503
 31
0.0
  0
LINE
  5
32E
330
68B
100
AcDbEntity
  8
0
100
AcDbLine
 10
7.480086
 20
3.378503
 30
0.0
 11
7.464119999999999
 21
3.443649
 31
0.0
  0
LINE
  5
32F
330
68B
100
AcDbEntity
  8
0
100
AcDbLine
 10
7.464119999999999
 20
3.443649
 30
0.0
 11
7.540405000000001
 21
3.576839
 31
0.0
  0
LINE
  5
330
330
68B
100
AcDbEntity
  8
0
100
AcDbLine
 10
7.540405000000001
 20
3.576839
 30
0.0
 11
7.413198
 21
3.624061
 31
0.0
  0
LINE
  5
331
330
68B
100
AcDbEntity
  8
0
100
AcDbLine
 10
7.413198
 20
3.624061
 30
0.0
 11
7.465342999999999
 21
3.665091
 31
0.0
  0
LINE
  5
332
330
68B
100
AcDbEntity
  8
0
100
AcDbLine
 10
7.506327000000001
 20
3.317913
 30
0.0
 11
7.516191
 21
3.410531
 31
0.0
  0
LINE
  5
333
330
68B
100
AcDbEntity
  8
0
100
AcDbLine
 10
7.516191
 20
3.410531
 30
0.0
 11
7.497203999999999
 21
3.461652
 31
0.0
  0
LINE
  5
334
330
68B
100
AcDbEntity
  8
0
100
AcDbLine
 10
7.497203999999999
 20
3.461652
 30
0.0
 11
7.54738
 21
3.537754
 31
0.0
  0
LINE
  5
335
330
68B
100
AcDbEntity
  8
0
100
AcDbLine
 10
7.54738
 20
3.537754
 30
0.0
 11
7.561462
 21
3.591848
 31
0.0
  0
LINE
  5
336
330
68B
100
AcDbEntity
  8
0
100
AcDbLine
 10
7.561462
 20
3.591848
 30
0.0
 11
7.514385000000001
 21
3.60893
 31
0.0
  0
LINE
  5
337
330
68B
100
AcDbEntity
  8
0
100
AcDbLine
 10
7.514385000000001
 20
3.60893
 30
0.0
 11
7.45029
 21
3.64206
 31
0.0
  0
LINE
  5
338
330
68B
100
AcDbEntity
  8
0
100
AcDbLine
 10
7.45029
 20
3.64206
 30
0.0
 11
7.478375
 21
3.67109
 31
0.0
  0
LINE
  5
339
330
68B
100
AcDbEntity
  8
0
100
AcDbLine
 10
7.543507000000001
 20
3.338767
 30
0.0
 11
7.558278
 21
3.413495
 31
0.0
  0
LINE
  5
33A
330
68B
100
AcDbEntity
  8
0
100
AcDbLine
 10
7.558278
 20
3.413495
 30
0.0
 11
7.549475999999999
 21
3.490411
 31
0.0
  0
LINE
  5
33B
330
68B
100
AcDbEntity
  8
0
100
AcDbLine
 10
7.549475999999999
 20
3.490411
 30
0.0
 11
7.590466999999999
 21
3.606971
 31
0.0
  0
LINE
  5
33C
330
68B
100
AcDbEntity
  8
0
100
AcDbLine
 10
7.590466999999999
 20
3.606971
 30
0.0
 11
7.515428
 21
3.649009
 31
0.0
  0
LINE
  5
33D
330
68B
100
AcDbEntity
  8
0
100
AcDbLine
 10
7.515428
 20
3.649009
 30
0.0
 11
7.484398
 21
3.657064
 31
0.0
  0
LINE
  5
33E
330
68B
100
AcDbEntity
  8
0
100
AcDbLine
 10
7.484398
 20
3.657064
 30
0.0
 11
7.527659
 21
3.695757
 31
0.0
  0
LINE
  5
33F
330
68B
100
AcDbEntity
  8
0
100
AcDbLine
 10
7.591542
 20
3.365708
 30
0.0
 11
7.588374000000001
 21
3.449537
 31
0.0
  0
LINE
  5
340
330
68B
100
AcDbEntity
  8
0
100
AcDbLine
 10
7.588374000000001
 20
3.449537
 30
0.0
 11
7.600442
 21
3.493613
 31
0.0
  0
LINE
  5
341
330
68B
100
AcDbEntity
  8
0
100
AcDbLine
 10
7.600442
 20
3.493613
 30
0.0
 11
7.593447
 21
3.512658
 31
0.0
  0
LINE
  5
342
330
68B
100
AcDbEntity
  8
0
100
AcDbLine
 10
7.593447
 20
3.512658
 30
0.0
 11
7.618564999999999
 21
3.579767
 31
0.0
  0
LINE
  5
343
330
68B
100
AcDbEntity
  8
0
100
AcDbLine
 10
7.618564999999999
 20
3.579767
 30
0.0
 11
7.627075
 21
3.627503
 31
0.0
  0
LINE
  5
344
330
68B
100
AcDbEntity
  8
0
100
AcDbLine
 10
7.627075
 20
3.627503
 30
0.0
 11
7.553114
 21
3.690352
 31
0.0
  0
LINE
  5
345
330
68B
100
AcDbEntity
  8
0
100
AcDbLine
 10
7.553114
 20
3.690352
 30
0.0
 11
7.571700999999999
 21
3.716894
 31
0.0
  0
LINE
  5
346
330
68B
100
AcDbEntity
  8
0
100
AcDbLine
 10
7.475671000000001
 20
3.800071
 30
0.0
 11
7.508528
 21
3.763244
 31
0.0
  0
LINE
  5
347
330
68B
100
AcDbEntity
  8
0
100
AcDbLine
 10
7.508528
 20
3.763244
 30
0.0
 11
7.481627000000001
 21
3.673666
 31
0.0
  0
LINE
  5
348
330
68B
100
AcDbEntity
  8
0
100
AcDbLine
 10
7.442916
 20
3.753289
 30
0.0
 11
7.45938
 21
3.662988
 31
0.0
  0
LINE
  5
349
330
68B
100
AcDbEntity
  8
0
100
AcDbLine
 10
7.520481
 20
3.69209
 30
0.0
 11
7.540586
 21
3.7572
 31
0.0
  0
LINE
  5
34A
330
68B
100
AcDbEntity
  8
0
100
AcDbLine
 10
7.540586
 20
3.7572
 30
0.0
 11
7.529609
 21
3.802301
 31
0.0
  0
LINE
  5
34B
330
68B
100
AcDbEntity
  8
0
100
AcDbLine
 10
7.529609
 20
3.802301
 30
0.0
 11
7.525803
 21
3.824131
 31
0.0
  0
LINE
  5
34C
330
68B
100
AcDbEntity
  8
0
100
AcDbLine
 10
7.562489
 20
3.841737
 30
0.0
 11
7.576631
 21
3.73011
 31
0.0
  0
LINE
  5
34D
330
68B
100
AcDbEntity
  8
0
100
AcDbLine
 10
7.576631
 20
3.73011
 30
0.0
 11
7.572907000000001
 21
3.717473000000001
 31
0.0
  0
LINE
  5
34E
330
68B
100
AcDbEntity
  8
0
100
AcDbLine
 10
7.572907000000001
 20
3.717473000000001
 30
0.0
 11
7.569603
 21
3.716089
 31
0.0
  0
LINE
  5
34F
330
68B
100
AcDbEntity
  8
0
100
AcDbLine
 10
7.569603
 20
3.716089
 30
0.0
 11
7.570603
 21
3.714084
 31
0.0
  0
LINE
  5
350
330
68B
100
AcDbEntity
  8
0
100
AcDbLine
 10
0.468297
 20
4.006713
 30
0.0
 11
0.47253
 21
3.892652
 31
0.0
  0
LINE
  5
351
330
68B
100
AcDbEntity
  8
0
100
AcDbLine
 10
0.49655
 20
3.987019
 30
0.0
 11
0.491557
 21
3.960193
 31
0.0
  0
LINE
  5
352
330
68B
100
AcDbEntity
  8
0
100
AcDbLine
 10
0.491557
 20
3.960193
 30
0.0
 11
0.496859
 21
3.931926
 31
0.0
  0
LINE
  5
353
330
68B
100
AcDbEntity
  8
0
100
AcDbLine
 10
0.496859
 20
3.931926
 30
0.0
 11
0.495092
 21
3.912493
 31
0.0
  0
LINE
  5
354
330
68B
100
AcDbEntity
  8
0
100
AcDbLine
 10
0.495092
 20
3.912493
 30
0.0
 11
0.489396
 21
3.880896
 31
0.0
  0
LINE
  5
355
330
68B
100
AcDbEntity
  8
0
100
AcDbLine
 10
0.521489
 20
3.969635
 30
0.0
 11
0.525135
 21
3.947826
 31
0.0
  0
LINE
  5
356
330
68B
100
AcDbEntity
  8
0
100
AcDbLine
 10
0.525135
 20
3.947826
 30
0.0
 11
0.5145310000000001
 21
3.930159
 31
0.0
  0
LINE
  5
357
330
68B
100
AcDbEntity
  8
0
100
AcDbLine
 10
0.5145310000000001
 20
3.930159
 30
0.0
 11
0.5145310000000001
 21
3.912493
 31
0.0
  0
LINE
  5
358
330
68B
100
AcDbEntity
  8
0
100
AcDbLine
 10
0.5145310000000001
 20
3.912493
 30
0.0
 11
0.5216
 21
3.882458999999999
 31
0.0
  0
LINE
  5
359
330
68B
100
AcDbEntity
  8
0
100
AcDbLine
 10
0.5216
 20
3.882458999999999
 30
0.0
 11
0.5138659999999999
 21
3.863839
 31
0.0
  0
LINE
  5
35A
330
68B
100
AcDbEntity
  8
0
100
AcDbLine
 10
0.576952
 20
3.930974
 30
0.0
 11
0.564013
 21
3.887759
 31
0.0
  0
LINE
  5
35B
330
68B
100
AcDbEntity
  8
0
100
AcDbLine
 10
0.564013
 20
3.887759
 30
0.0
 11
0.5657810000000001
 21
3.829459
 31
0.0
  0
LINE
  5
35C
330
68B
100
AcDbEntity
  8
0
100
AcDbLine
 10
0.581799
 20
3.816486
 30
0.0
 11
0.594056
 21
3.836526
 31
0.0
  0
LINE
  5
35D
330
68B
100
AcDbEntity
  8
0
100
AcDbLine
 10
0.594056
 20
3.836526
 30
0.0
 11
0.590522
 21
3.864793
 31
0.0
  0
LINE
  5
35E
330
68B
100
AcDbEntity
  8
0
100
AcDbLine
 10
0.590522
 20
3.864793
 30
0.0
 11
0.6043770000000001
 21
3.911858
 31
0.0
  0
LINE
  5
35F
330
68B
100
AcDbEntity
  8
0
100
AcDbLine
 10
0.6312260000000001
 20
3.893143
 30
0.0
 11
0.61703
 21
3.861259
 31
0.0
  0
LINE
  5
360
330
68B
100
AcDbEntity
  8
0
100
AcDbLine
 10
0.61703
 20
3.861259
 30
0.0
 11
0.620564
 21
3.843593
 31
0.0
  0
LINE
  5
361
330
68B
100
AcDbEntity
  8
0
100
AcDbLine
 10
0.620564
 20
3.843593
 30
0.0
 11
0.615263
 21
3.817093
 31
0.0
  0
LINE
  5
362
330
68B
100
AcDbEntity
  8
0
100
AcDbLine
 10
0.615263
 20
3.817093
 30
0.0
 11
0.61326
 21
3.794556
 31
0.0
  0
LINE
  5
363
330
68B
100
AcDbEntity
  8
0
100
AcDbLine
 10
0.661029
 20
3.872368
 30
0.0
 11
0.64884
 21
3.838293
 31
0.0
  0
LINE
  5
364
330
68B
100
AcDbEntity
  8
0
100
AcDbLine
 10
0.64884
 20
3.838293
 30
0.0
 11
0.659443
 21
3.813559
 31
0.0
  0
LINE
  5
365
330
68B
100
AcDbEntity
  8
0
100
AcDbLine
 10
0.659443
 20
3.813559
 30
0.0
 11
0.659443
 21
3.778226
 31
0.0
  0
LINE
  5
366
330
68B
100
AcDbEntity
  8
0
100
AcDbLine
 10
0.659443
 20
3.778226
 30
0.0
 11
0.654066
 21
3.765972
 31
0.0
  0
LINE
  5
367
330
68B
100
AcDbEntity
  8
0
100
AcDbLine
 10
0.374509
 20
3.716799
 30
0.0
 11
0.424403
 21
3.749959
 31
0.0
  0
LINE
  5
368
330
68B
100
AcDbEntity
  8
0
100
AcDbLine
 10
0.424403
 20
3.749959
 30
0.0
 11
0.482721
 21
3.781759
 31
0.0
  0
LINE
  5
369
330
68B
100
AcDbEntity
  8
0
100
AcDbLine
 10
0.482721
 20
3.781759
 30
0.0
 11
0.505695
 21
3.787059
 31
0.0
  0
LINE
  5
36A
330
68B
100
AcDbEntity
  8
0
100
AcDbLine
 10
0.505695
 20
3.787059
 30
0.0
 11
0.530436
 21
3.808259
 31
0.0
  0
LINE
  5
36B
330
68B
100
AcDbEntity
  8
0
100
AcDbLine
 10
0.530436
 20
3.808259
 30
0.0
 11
0.549876
 21
3.818859
 31
0.0
  0
LINE
  5
36C
330
68B
100
AcDbEntity
  8
0
100
AcDbLine
 10
0.549876
 20
3.818859
 30
0.0
 11
0.561833
 21
3.830404
 31
0.0
  0
LINE
  5
36D
330
68B
100
AcDbEntity
  8
0
100
AcDbLine
 10
0.403844
 20
3.696351
 30
0.0
 11
0.427937
 21
3.718159
 31
0.0
  0
LINE
  5
36E
330
68B
100
AcDbEntity
  8
0
100
AcDbLine
 10
0.427937
 20
3.718159
 30
0.0
 11
0.447377
 21
3.723459
 31
0.0
  0
LINE
  5
36F
330
68B
100
AcDbEntity
  8
0
100
AcDbLine
 10
0.447377
 20
3.723459
 30
0.0
 11
0.461515
 21
3.741126
 31
0.0
  0
LINE
  5
370
330
68B
100
AcDbEntity
  8
0
100
AcDbLine
 10
0.461515
 20
3.741126
 30
0.0
 11
0.480954
 21
3.746426
 31
0.0
  0
LINE
  5
371
330
68B
100
AcDbEntity
  8
0
100
AcDbLine
 10
0.480954
 20
3.746426
 30
0.0
 11
0.505695
 21
3.746426
 31
0.0
  0
LINE
  5
372
330
68B
100
AcDbEntity
  8
0
100
AcDbLine
 10
0.505695
 20
3.746426
 30
0.0
 11
0.523367
 21
3.762326
 31
0.0
  0
LINE
  5
373
330
68B
100
AcDbEntity
  8
0
100
AcDbLine
 10
0.523367
 20
3.762326
 30
0.0
 11
0.548108
 21
3.769392
 31
0.0
  0
LINE
  5
374
330
68B
100
AcDbEntity
  8
0
100
AcDbLine
 10
0.548108
 20
3.769392
 30
0.0
 11
0.556944
 21
3.790592
 31
0.0
  0
LINE
  5
375
330
68B
100
AcDbEntity
  8
0
100
AcDbLine
 10
0.556944
 20
3.790592
 30
0.0
 11
0.5657810000000001
 21
3.795892
 31
0.0
  0
LINE
  5
376
330
68B
100
AcDbEntity
  8
0
100
AcDbLine
 10
0.5657810000000001
 20
3.795892
 30
0.0
 11
0.591168
 21
3.809955
 31
0.0
  0
LINE
  5
377
330
68B
100
AcDbEntity
  8
0
100
AcDbLine
 10
0.43199
 20
3.676732
 30
0.0
 11
0.443842
 21
3.700492
 31
0.0
  0
LINE
  5
378
330
68B
100
AcDbEntity
  8
0
100
AcDbLine
 10
0.443842
 20
3.700492
 30
0.0
 11
0.461515
 21
3.705792
 31
0.0
  0
LINE
  5
379
330
68B
100
AcDbEntity
  8
0
100
AcDbLine
 10
0.461515
 20
3.705792
 30
0.0
 11
0.48979
 21
3.712859
 31
0.0
  0
LINE
  5
37A
330
68B
100
AcDbEntity
  8
0
100
AcDbLine
 10
0.48979
 20
3.712859
 30
0.0
 11
0.510997
 21
3.719926
 31
0.0
  0
LINE
  5
37B
330
68B
100
AcDbEntity
  8
0
100
AcDbLine
 10
0.510997
 20
3.719926
 30
0.0
 11
0.537505
 21
3.739358999999999
 31
0.0
  0
LINE
  5
37C
330
68B
100
AcDbEntity
  8
0
100
AcDbLine
 10
0.537505
 20
3.739358999999999
 30
0.0
 11
0.5410390000000001
 21
3.749959
 31
0.0
  0
LINE
  5
37D
330
68B
100
AcDbEntity
  8
0
100
AcDbLine
 10
0.5410390000000001
 20
3.749959
 30
0.0
 11
0.571082
 21
3.757026
 31
0.0
  0
LINE
  5
37E
330
68B
100
AcDbEntity
  8
0
100
AcDbLine
 10
0.571082
 20
3.757026
 30
0.0
 11
0.599358
 21
3.764092
 31
0.0
  0
LINE
  5
37F
330
68B
100
AcDbEntity
  8
0
100
AcDbLine
 10
0.599358
 20
3.764092
 30
0.0
 11
0.6117279999999999
 21
3.785292
 31
0.0
  0
LINE
  5
380
330
68B
100
AcDbEntity
  8
0
100
AcDbLine
 10
0.6117279999999999
 20
3.785292
 30
0.0
 11
0.620503
 21
3.789507
 31
0.0
  0
LINE
  5
381
330
68B
100
AcDbEntity
  8
0
100
AcDbLine
 10
0.451703
 20
3.662991
 30
0.0
 11
0.472118
 21
3.691659
 31
0.0
  0
LINE
  5
382
330
68B
100
AcDbEntity
  8
0
100
AcDbLine
 10
0.472118
 20
3.691659
 30
0.0
 11
0.5039279999999999
 21
3.688125
 31
0.0
  0
LINE
  5
383
330
68B
100
AcDbEntity
  8
0
100
AcDbLine
 10
0.5039279999999999
 20
3.688125
 30
0.0
 11
0.539272
 21
3.707559
 31
0.0
  0
LINE
  5
384
330
68B
100
AcDbEntity
  8
0
100
AcDbLine
 10
0.539272
 20
3.707559
 30
0.0
 11
0.576384
 21
3.714626
 31
0.0
  0
LINE
  5
385
330
68B
100
AcDbEntity
  8
0
100
AcDbLine
 10
0.50003
 20
3.629304
 30
0.0
 11
0.510997
 21
3.659859
 31
0.0
  0
LINE
  5
386
330
68B
100
AcDbEntity
  8
0
100
AcDbLine
 10
0.510997
 20
3.659859
 30
0.0
 11
0.5410390000000001
 21
3.666925
 31
0.0
  0
LINE
  5
387
330
68B
100
AcDbEntity
  8
0
100
AcDbLine
 10
0.5410390000000001
 20
3.666925
 30
0.0
 11
0.5728489999999999
 21
3.661625
 31
0.0
  0
LINE
  5
388
330
68B
100
AcDbEntity
  8
0
100
AcDbLine
 10
0.5728489999999999
 20
3.661625
 30
0.0
 11
0.581685
 21
3.688125
 31
0.0
  0
LINE
  5
389
330
68B
100
AcDbEntity
  8
0
100
AcDbLine
 10
0.581685
 20
3.688125
 30
0.0
 11
0.594056
 21
3.700492
 31
0.0
  0
LINE
  5
38A
330
68B
100
AcDbEntity
  8
0
100
AcDbLine
 10
0.594056
 20
3.700492
 30
0.0
 11
0.609961
 21
3.712859
 31
0.0
  0
LINE
  5
38B
330
68B
100
AcDbEntity
  8
0
100
AcDbLine
 10
0.609961
 20
3.712859
 30
0.0
 11
0.627633
 21
3.725226
 31
0.0
  0
LINE
  5
38C
330
68B
100
AcDbEntity
  8
0
100
AcDbLine
 10
0.627633
 20
3.725226
 30
0.0
 11
0.632935
 21
3.741126
 31
0.0
  0
LINE
  5
38D
330
68B
100
AcDbEntity
  8
0
100
AcDbLine
 10
0.632935
 20
3.741126
 30
0.0
 11
0.647073
 21
3.741126
 31
0.0
  0
LINE
  5
38E
330
68B
100
AcDbEntity
  8
0
100
AcDbLine
 10
0.647073
 20
3.741126
 30
0.0
 11
0.655909
 21
3.744659
 31
0.0
  0
LINE
  5
38F
330
68B
100
AcDbEntity
  8
0
100
AcDbLine
 10
0.655909
 20
3.744659
 30
0.0
 11
0.670381
 21
3.75474
 31
0.0
  0
LINE
  5
390
330
68B
100
AcDbEntity
  8
0
100
AcDbLine
 10
0.5228430000000001
 20
3.613403
 30
0.0
 11
0.5728489999999999
 21
3.638659
 31
0.0
  0
LINE
  5
391
330
68B
100
AcDbEntity
  8
0
100
AcDbLine
 10
0.5728489999999999
 20
3.638659
 30
0.0
 11
0.58522
 21
3.642192
 31
0.0
  0
LINE
  5
392
330
68B
100
AcDbEntity
  8
0
100
AcDbLine
 10
0.58522
 20
3.642192
 30
0.0
 11
0.6046590000000001
 21
3.668692
 31
0.0
  0
LINE
  5
393
330
68B
100
AcDbEntity
  8
0
100
AcDbLine
 10
0.6046590000000001
 20
3.668692
 30
0.0
 11
0.624099
 21
3.679292
 31
0.0
  0
LINE
  5
394
330
68B
100
AcDbEntity
  8
0
100
AcDbLine
 10
0.624099
 20
3.679292
 30
0.0
 11
0.6506069999999999
 21
3.679292
 31
0.0
  0
LINE
  5
395
330
68B
100
AcDbEntity
  8
0
100
AcDbLine
 10
0.6506069999999999
 20
3.679292
 30
0.0
 11
0.664745
 21
3.712859
 31
0.0
  0
LINE
  5
396
330
68B
100
AcDbEntity
  8
0
100
AcDbLine
 10
0.664745
 20
3.712859
 30
0.0
 11
0.68065
 21
3.718159
 31
0.0
  0
LINE
  5
397
330
68B
100
AcDbEntity
  8
0
100
AcDbLine
 10
0.68065
 20
3.718159
 30
0.0
 11
0.698237
 21
3.73442
 31
0.0
  0
LINE
  5
398
330
68B
100
AcDbEntity
  8
0
100
AcDbLine
 10
0.553944
 20
3.591724
 30
0.0
 11
0.59759
 21
3.610392
 31
0.0
  0
LINE
  5
399
330
68B
100
AcDbEntity
  8
0
100
AcDbLine
 10
0.59759
 20
3.610392
 30
0.0
 11
0.6117279999999999
 21
3.620992
 31
0.0
  0
LINE
  5
39A
330
68B
100
AcDbEntity
  8
0
100
AcDbLine
 10
0.6117279999999999
 20
3.620992
 30
0.0
 11
0.632935
 21
3.626292
 31
0.0
  0
LINE
  5
39B
330
68B
100
AcDbEntity
  8
0
100
AcDbLine
 10
0.632935
 20
3.626292
 30
0.0
 11
0.655909
 21
3.624525
 31
0.0
  0
LINE
  5
39C
330
68B
100
AcDbEntity
  8
0
100
AcDbLine
 10
0.655909
 20
3.624525
 30
0.0
 11
0.671814
 21
3.649259
 31
0.0
  0
LINE
  5
39D
330
68B
100
AcDbEntity
  8
0
100
AcDbLine
 10
0.671814
 20
3.649259
 30
0.0
 11
0.6894859999999999
 21
3.681059
 31
0.0
  0
LINE
  5
39E
330
68B
100
AcDbEntity
  8
0
100
AcDbLine
 10
0.6894859999999999
 20
3.681059
 30
0.0
 11
0.701856
 21
3.688125
 31
0.0
  0
LINE
  5
39F
330
68B
100
AcDbEntity
  8
0
100
AcDbLine
 10
0.701856
 20
3.688125
 30
0.0
 11
0.719529
 21
3.686359
 31
0.0
  0
LINE
  5
3A0
330
68B
100
AcDbEntity
  8
0
100
AcDbLine
 10
0.719529
 20
3.686359
 30
0.0
 11
0.7339640000000001
 21
3.706169
 31
0.0
  0
LINE
  5
3A1
330
68B
100
AcDbEntity
  8
0
100
AcDbLine
 10
0.557512
 20
3.589237
 30
0.0
 11
0.5728489999999999
 21
3.567992
 31
0.0
  0
LINE
  5
3A2
330
68B
100
AcDbEntity
  8
0
100
AcDbLine
 10
0.5728489999999999
 20
3.567992
 30
0.0
 11
0.590522
 21
3.555625
 31
0.0
  0
LINE
  5
3A3
330
68B
100
AcDbEntity
  8
0
100
AcDbLine
 10
0.590522
 20
3.555625
 30
0.0
 11
0.602892
 21
3.546792
 31
0.0
  0
LINE
  5
3A4
330
68B
100
AcDbEntity
  8
0
100
AcDbLine
 10
0.602892
 20
3.546792
 30
0.0
 11
0.624099
 21
3.523825
 31
0.0
  0
LINE
  5
3A5
330
68B
100
AcDbEntity
  8
0
100
AcDbLine
 10
0.624099
 20
3.523825
 30
0.0
 11
0.636469
 21
3.514992
 31
0.0
  0
LINE
  5
3A6
330
68B
100
AcDbEntity
  8
0
100
AcDbLine
 10
0.636469
 20
3.514992
 30
0.0
 11
0.6441399999999999
 21
3.503488
 31
0.0
  0
LINE
  5
3A7
330
68B
100
AcDbEntity
  8
0
100
AcDbLine
 10
0.6441399999999999
 20
3.503488
 30
0.0
 11
0.64884
 21
3.472592
 31
0.0
  0
LINE
  5
3A8
330
68B
100
AcDbEntity
  8
0
100
AcDbLine
 10
0.64884
 20
3.472592
 30
0.0
 11
0.636469
 21
3.447858
 31
0.0
  0
LINE
  5
3A9
330
68B
100
AcDbEntity
  8
0
100
AcDbLine
 10
0.636469
 20
3.447858
 30
0.0
 11
0.652374
 21
3.423125
 31
0.0
  0
LINE
  5
3AA
330
68B
100
AcDbEntity
  8
0
100
AcDbLine
 10
0.652374
 20
3.423125
 30
0.0
 11
0.655909
 21
3.393091000000001
 31
0.0
  0
LINE
  5
3AB
330
68B
100
AcDbEntity
  8
0
100
AcDbLine
 10
0.655909
 20
3.393091000000001
 30
0.0
 11
0.6382359999999999
 21
3.387791
 31
0.0
  0
LINE
  5
3AC
330
68B
100
AcDbEntity
  8
0
100
AcDbLine
 10
0.6382359999999999
 20
3.387791
 30
0.0
 11
0.641771
 21
3.371891
 31
0.0
  0
LINE
  5
3AD
330
68B
100
AcDbEntity
  8
0
100
AcDbLine
 10
0.641771
 20
3.371891
 30
0.0
 11
0.640729
 21
3.368786
 31
0.0
  0
LINE
  5
3AE
330
68B
100
AcDbEntity
  8
0
100
AcDbLine
 10
0.526987
 20
3.610514
 30
0.0
 11
0.5428069999999999
 21
3.582125
 31
0.0
  0
LINE
  5
3AF
330
68B
100
AcDbEntity
  8
0
100
AcDbLine
 10
0.5428069999999999
 20
3.582125
 30
0.0
 11
0.555177
 21
3.569758
 31
0.0
  0
LINE
  5
3B0
330
68B
100
AcDbEntity
  8
0
100
AcDbLine
 10
0.555177
 20
3.569758
 30
0.0
 11
0.569315
 21
3.562692
 31
0.0
  0
LINE
  5
3B1
330
68B
100
AcDbEntity
  8
0
100
AcDbLine
 10
0.569315
 20
3.562692
 30
0.0
 11
0.583453
 21
3.555625
 31
0.0
  0
LINE
  5
3B2
330
68B
100
AcDbEntity
  8
0
100
AcDbLine
 10
0.583453
 20
3.555625
 30
0.0
 11
0.595823
 21
3.548558
 31
0.0
  0
LINE
  5
3B3
330
68B
100
AcDbEntity
  8
0
100
AcDbLine
 10
0.595823
 20
3.548558
 30
0.0
 11
0.601125
 21
3.537958
 31
0.0
  0
LINE
  5
3B4
330
68B
100
AcDbEntity
  8
0
100
AcDbLine
 10
0.601125
 20
3.537958
 30
0.0
 11
0.6064270000000001
 21
3.523825
 31
0.0
  0
LINE
  5
3B5
330
68B
100
AcDbEntity
  8
0
100
AcDbLine
 10
0.6064270000000001
 20
3.523825
 30
0.0
 11
0.618797
 21
3.504392
 31
0.0
  0
LINE
  5
3B6
330
68B
100
AcDbEntity
  8
0
100
AcDbLine
 10
0.618797
 20
3.504392
 30
0.0
 11
0.609961
 21
3.499092
 31
0.0
  0
LINE
  5
3B7
330
68B
100
AcDbEntity
  8
0
100
AcDbLine
 10
0.609961
 20
3.499092
 30
0.0
 11
0.622332
 21
3.470825
 31
0.0
  0
LINE
  5
3B8
330
68B
100
AcDbEntity
  8
0
100
AcDbLine
 10
0.622332
 20
3.470825
 30
0.0
 11
0.6046590000000001
 21
3.456691
 31
0.0
  0
LINE
  5
3B9
330
68B
100
AcDbEntity
  8
0
100
AcDbLine
 10
0.6046590000000001
 20
3.456691
 30
0.0
 11
0.6046590000000001
 21
3.410758
 31
0.0
  0
LINE
  5
3BA
330
68B
100
AcDbEntity
  8
0
100
AcDbLine
 10
0.6046590000000001
 20
3.410758
 30
0.0
 11
0.6087100000000001
 21
3.38893
 31
0.0
  0
LINE
  5
3BB
330
68B
100
AcDbEntity
  8
0
100
AcDbLine
 10
0.562868
 20
3.417771
 30
0.0
 11
0.576384
 21
3.408991
 31
0.0
  0
LINE
  5
3BC
330
68B
100
AcDbEntity
  8
0
100
AcDbLine
 10
0.576384
 20
3.408991
 30
0.0
 11
0.578151
 21
3.456691
 31
0.0
  0
LINE
  5
3BD
330
68B
100
AcDbEntity
  8
0
100
AcDbLine
 10
0.578151
 20
3.456691
 30
0.0
 11
0.571082
 21
3.506158
 31
0.0
  0
LINE
  5
3BE
330
68B
100
AcDbEntity
  8
0
100
AcDbLine
 10
0.571082
 20
3.506158
 30
0.0
 11
0.581685
 21
3.514992
 31
0.0
  0
LINE
  5
3BF
330
68B
100
AcDbEntity
  8
0
100
AcDbLine
 10
0.581685
 20
3.514992
 30
0.0
 11
0.574617
 21
3.537958
 31
0.0
  0
LINE
  5
3C0
330
68B
100
AcDbEntity
  8
0
100
AcDbLine
 10
0.574617
 20
3.537958
 30
0.0
 11
0.566117
 21
3.557874
 31
0.0
  0
LINE
  5
3C1
330
68B
100
AcDbEntity
  8
0
100
AcDbLine
 10
0.524662
 20
3.441808
 30
0.0
 11
0.510997
 21
3.476125
 31
0.0
  0
LINE
  5
3C2
330
68B
100
AcDbEntity
  8
0
100
AcDbLine
 10
0.510997
 20
3.476125
 30
0.0
 11
0.519833
 21
3.500858
 31
0.0
  0
LINE
  5
3C3
330
68B
100
AcDbEntity
  8
0
100
AcDbLine
 10
0.519833
 20
3.500858
 30
0.0
 11
0.523367
 21
3.529125
 31
0.0
  0
LINE
  5
3C4
330
68B
100
AcDbEntity
  8
0
100
AcDbLine
 10
0.523367
 20
3.529125
 30
0.0
 11
0.5145310000000001
 21
3.560925
 31
0.0
  0
LINE
  5
3C5
330
68B
100
AcDbEntity
  8
0
100
AcDbLine
 10
0.5145310000000001
 20
3.560925
 30
0.0
 11
0.5269020000000001
 21
3.582125
 31
0.0
  0
LINE
  5
3C6
330
68B
100
AcDbEntity
  8
0
100
AcDbLine
 10
0.5269020000000001
 20
3.582125
 30
0.0
 11
0.523367
 21
3.592725
 31
0.0
  0
LINE
  5
3C7
330
68B
100
AcDbEntity
  8
0
100
AcDbLine
 10
0.485517
 20
3.466436
 30
0.0
 11
0.484488
 21
3.497325
 31
0.0
  0
LINE
  5
3C8
330
68B
100
AcDbEntity
  8
0
100
AcDbLine
 10
0.484488
 20
3.497325
 30
0.0
 11
0.493325
 21
3.518525
 31
0.0
  0
LINE
  5
3C9
330
68B
100
AcDbEntity
  8
0
100
AcDbLine
 10
0.493325
 20
3.518525
 30
0.0
 11
0.47742
 21
3.555625
 31
0.0
  0
LINE
  5
3CA
330
68B
100
AcDbEntity
  8
0
100
AcDbLine
 10
0.47742
 20
3.555625
 30
0.0
 11
0.48979
 21
3.571525
 31
0.0
  0
LINE
  5
3CB
330
68B
100
AcDbEntity
  8
0
100
AcDbLine
 10
0.48979
 20
3.571525
 30
0.0
 11
0.479187
 21
3.610392
 31
0.0
  0
LINE
  5
3CC
330
68B
100
AcDbEntity
  8
0
100
AcDbLine
 10
0.479187
 20
3.610392
 30
0.0
 11
0.4880229999999999
 21
3.615692
 31
0.0
  0
LINE
  5
3CD
330
68B
100
AcDbEntity
  8
0
100
AcDbLine
 10
0.4880229999999999
 20
3.615692
 30
0.0
 11
0.4738850000000001
 21
3.635125
 31
0.0
  0
LINE
  5
3CE
330
68B
100
AcDbEntity
  8
0
100
AcDbLine
 10
0.4738850000000001
 20
3.635125
 30
0.0
 11
0.452679
 21
3.649259
 31
0.0
  0
LINE
  5
3CF
330
68B
100
AcDbEntity
  8
0
100
AcDbLine
 10
0.452679
 20
3.649259
 30
0.0
 11
0.45365
 21
3.665725
 31
0.0
  0
LINE
  5
3D0
330
68B
100
AcDbEntity
  8
0
100
AcDbLine
 10
0.460626
 20
3.482096
 30
0.0
 11
0.456213
 21
3.511458
 31
0.0
  0
LINE
  5
3D1
330
68B
100
AcDbEntity
  8
0
100
AcDbLine
 10
0.456213
 20
3.511458
 30
0.0
 11
0.459747
 21
3.529125
 31
0.0
  0
LINE
  5
3D2
330
68B
100
AcDbEntity
  8
0
100
AcDbLine
 10
0.459747
 20
3.529125
 30
0.0
 11
0.452679
 21
3.573292
 31
0.0
  0
LINE
  5
3D3
330
68B
100
AcDbEntity
  8
0
100
AcDbLine
 10
0.452679
 20
3.573292
 30
0.0
 11
0.463282
 21
3.585659
 31
0.0
  0
LINE
  5
3D4
330
68B
100
AcDbEntity
  8
0
100
AcDbLine
 10
0.463282
 20
3.585659
 30
0.0
 11
0.454446
 21
3.629825
 31
0.0
  0
LINE
  5
3D5
330
68B
100
AcDbEntity
  8
0
100
AcDbLine
 10
0.454446
 20
3.629825
 30
0.0
 11
0.45798
 21
3.635125
 31
0.0
  0
LINE
  5
3D6
330
68B
100
AcDbEntity
  8
0
100
AcDbLine
 10
0.45798
 20
3.635125
 30
0.0
 11
0.443842
 21
3.652792
 31
0.0
  0
LINE
  5
3D7
330
68B
100
AcDbEntity
  8
0
100
AcDbLine
 10
0.443842
 20
3.652792
 30
0.0
 11
0.427937
 21
3.682825
 31
0.0
  0
LINE
  5
3D8
330
68B
100
AcDbEntity
  8
0
100
AcDbLine
 10
0.427937
 20
3.682825
 30
0.0
 11
0.427937
 21
3.682825
 31
0.0
  0
LINE
  5
3D9
330
68B
100
AcDbEntity
  8
0
100
AcDbLine
 10
0.6638729999999999
 20
3.075558
 30
0.0
 11
0.653068
 21
3.013494
 31
0.0
  0
LINE
  5
3DA
330
68B
100
AcDbEntity
  8
0
100
AcDbLine
 10
0.653068
 20
3.013494
 30
0.0
 11
0.661162
 21
2.962249
 31
0.0
  0
LINE
  5
3DB
330
68B
100
AcDbEntity
  8
0
100
AcDbLine
 10
0.661162
 20
2.962249
 30
0.0
 11
0.6449739999999999
 21
2.929883
 31
0.0
  0
LINE
  5
3DC
330
68B
100
AcDbEntity
  8
0
100
AcDbLine
 10
0.6449739999999999
 20
2.929883
 30
0.0
 11
0.6449739999999999
 21
2.913701
 31
0.0
  0
LINE
  5
3DD
330
68B
100
AcDbEntity
  8
0
100
AcDbLine
 10
0.6449739999999999
 20
2.913701
 30
0.0
 11
0.661162
 21
2.878638
 31
0.0
  0
LINE
  5
3DE
330
68B
100
AcDbEntity
  8
0
100
AcDbLine
 10
0.661162
 20
2.878638
 30
0.0
 11
0.66386
 21
2.84897
 31
0.0
  0
LINE
  5
3DF
330
68B
100
AcDbEntity
  8
0
100
AcDbLine
 10
0.66386
 20
2.84897
 30
0.0
 11
0.6719540000000001
 21
2.821999
 31
0.0
  0
LINE
  5
3E0
330
68B
100
AcDbEntity
  8
0
100
AcDbLine
 10
0.6719540000000001
 20
2.821999
 30
0.0
 11
0.698933
 21
2.795028
 31
0.0
  0
LINE
  5
3E1
330
68B
100
AcDbEntity
  8
0
100
AcDbLine
 10
0.698933
 20
2.795028
 30
0.0
 11
0.704329
 21
2.773451
 31
0.0
  0
LINE
  5
3E2
330
68B
100
AcDbEntity
  8
0
100
AcDbLine
 10
0.704329
 20
2.773451
 30
0.0
 11
0.6692560000000001
 21
2.757268
 31
0.0
  0
LINE
  5
3E3
330
68B
100
AcDbEntity
  8
0
100
AcDbLine
 10
0.6692560000000001
 20
2.757268
 30
0.0
 11
0.674652
 21
2.724903
 31
0.0
  0
LINE
  5
3E4
330
68B
100
AcDbEntity
  8
0
100
AcDbLine
 10
0.674652
 20
2.724903
 30
0.0
 11
0.6422760000000001
 21
2.722206
 31
0.0
  0
LINE
  5
3E5
330
68B
100
AcDbEntity
  8
0
100
AcDbLine
 10
0.6422760000000001
 20
2.722206
 30
0.0
 11
0.63688
 21
2.695235
 31
0.0
  0
LINE
  5
3E6
330
68B
100
AcDbEntity
  8
0
100
AcDbLine
 10
0.63688
 20
2.695235
 30
0.0
 11
0.638096
 21
2.67899
 31
0.0
  0
LINE
  5
3E7
330
68B
100
AcDbEntity
  8
0
100
AcDbLine
 10
0.624095
 20
3.09329
 30
0.0
 11
0.6206930000000001
 21
3.024282
 31
0.0
  0
LINE
  5
3E8
330
68B
100
AcDbEntity
  8
0
100
AcDbLine
 10
0.6206930000000001
 20
3.024282
 30
0.0
 11
0.617995
 21
2.994614
 31
0.0
  0
LINE
  5
3E9
330
68B
100
AcDbEntity
  8
0
100
AcDbLine
 10
0.617995
 20
2.994614
 30
0.0
 11
0.623391
 21
2.962249
 31
0.0
  0
LINE
  5
3EA
330
68B
100
AcDbEntity
  8
0
100
AcDbLine
 10
0.623391
 20
2.962249
 30
0.0
 11
0.63688
 21
2.927186
 31
0.0
  0
LINE
  5
3EB
330
68B
100
AcDbEntity
  8
0
100
AcDbLine
 10
0.63688
 20
2.927186
 30
0.0
 11
0.615297
 21
2.921792
 31
0.0
  0
LINE
  5
3EC
330
68B
100
AcDbEntity
  8
0
100
AcDbLine
 10
0.615297
 20
2.921792
 30
0.0
 11
0.623391
 21
2.892124
 31
0.0
  0
LINE
  5
3ED
330
68B
100
AcDbEntity
  8
0
100
AcDbLine
 10
0.623391
 20
2.892124
 30
0.0
 11
0.6422760000000001
 21
2.86785
 31
0.0
  0
LINE
  5
3EE
330
68B
100
AcDbEntity
  8
0
100
AcDbLine
 10
0.6422760000000001
 20
2.86785
 30
0.0
 11
0.6314850000000001
 21
2.84897
 31
0.0
  0
LINE
  5
3EF
330
68B
100
AcDbEntity
  8
0
100
AcDbLine
 10
0.6314850000000001
 20
2.84897
 30
0.0
 11
0.639578
 21
2.819302
 31
0.0
  0
LINE
  5
3F0
330
68B
100
AcDbEntity
  8
0
100
AcDbLine
 10
0.639578
 20
2.819302
 30
0.0
 11
0.647672
 21
2.800422
 31
0.0
  0
LINE
  5
3F1
330
68B
100
AcDbEntity
  8
0
100
AcDbLine
 10
0.647672
 20
2.800422
 30
0.0
 11
0.626089
 21
2.78424
 31
0.0
  0
LINE
  5
3F2
330
68B
100
AcDbEntity
  8
0
100
AcDbLine
 10
0.626089
 20
2.78424
 30
0.0
 11
0.6314850000000001
 21
2.757268
 31
0.0
  0
LINE
  5
3F3
330
68B
100
AcDbEntity
  8
0
100
AcDbLine
 10
0.6314850000000001
 20
2.757268
 30
0.0
 11
0.63688
 21
2.730297
 31
0.0
  0
LINE
  5
3F4
330
68B
100
AcDbEntity
  8
0
100
AcDbLine
 10
0.63688
 20
2.730297
 30
0.0
 11
0.6045050000000001
 21
2.711418
 31
0.0
  0
LINE
  5
3F5
330
68B
100
AcDbEntity
  8
0
100
AcDbLine
 10
0.6045050000000001
 20
2.711418
 30
0.0
 11
0.609901
 21
2.673658
 31
0.0
  0
LINE
  5
3F6
330
68B
100
AcDbEntity
  8
0
100
AcDbLine
 10
0.609901
 20
2.673658
 30
0.0
 11
0.5964109999999999
 21
2.649384
 31
0.0
  0
LINE
  5
3F7
330
68B
100
AcDbEntity
  8
0
100
AcDbLine
 10
0.5964109999999999
 20
2.649384
 30
0.0
 11
0.601807
 21
2.62511
 31
0.0
  0
LINE
  5
3F8
330
68B
100
AcDbEntity
  8
0
100
AcDbLine
 10
0.601807
 20
2.62511
 30
0.0
 11
0.599109
 21
2.600836
 31
0.0
  0
LINE
  5
3F9
330
68B
100
AcDbEntity
  8
0
100
AcDbLine
 10
0.599109
 20
2.600836
 30
0.0
 11
0.601952
 21
2.594385
 31
0.0
  0
LINE
  5
3FA
330
68B
100
AcDbEntity
  8
0
100
AcDbLine
 10
0.596329
 20
3.105669
 30
0.0
 11
0.5829220000000001
 21
3.059345
 31
0.0
  0
LINE
  5
3FB
330
68B
100
AcDbEntity
  8
0
100
AcDbLine
 10
0.5829220000000001
 20
3.059345
 30
0.0
 11
0.5937130000000001
 21
3.021585
 31
0.0
  0
LINE
  5
3FC
330
68B
100
AcDbEntity
  8
0
100
AcDbLine
 10
0.5937130000000001
 20
3.021585
 30
0.0
 11
0.5829220000000001
 21
2.978431
 31
0.0
  0
LINE
  5
3FD
330
68B
100
AcDbEntity
  8
0
100
AcDbLine
 10
0.5829220000000001
 20
2.978431
 30
0.0
 11
0.5829220000000001
 21
2.940672
 31
0.0
  0
LINE
  5
3FE
330
68B
100
AcDbEntity
  8
0
100
AcDbLine
 10
0.5829220000000001
 20
2.940672
 30
0.0
 11
0.5829220000000001
 21
2.902912
 31
0.0
  0
LINE
  5
3FF
330
68B
100
AcDbEntity
  8
0
100
AcDbLine
 10
0.5829220000000001
 20
2.902912
 30
0.0
 11
0.591015
 21
2.873244
 31
0.0
  0
LINE
  5
400
330
68B
100
AcDbEntity
  8
0
100
AcDbLine
 10
0.591015
 20
2.873244
 30
0.0
 11
0.599109
 21
2.84897
 31
0.0
  0
LINE
  5
401
330
68B
100
AcDbEntity
  8
0
100
AcDbLine
 10
0.599109
 20
2.84897
 30
0.0
 11
0.6045050000000001
 21
2.824696
 31
0.0
  0
LINE
  5
402
330
68B
100
AcDbEntity
  8
0
100
AcDbLine
 10
0.6045050000000001
 20
2.824696
 30
0.0
 11
0.599109
 21
2.805816
 31
0.0
  0
LINE
  5
403
330
68B
100
AcDbEntity
  8
0
100
AcDbLine
 10
0.599109
 20
2.805816
 30
0.0
 11
0.580224
 21
2.789634
 31
0.0
  0
LINE
  5
404
330
68B
100
AcDbEntity
  8
0
100
AcDbLine
 10
0.580224
 20
2.789634
 30
0.0
 11
0.577526
 21
2.754571
 31
0.0
  0
LINE
  5
405
330
68B
100
AcDbEntity
  8
0
100
AcDbLine
 10
0.577526
 20
2.754571
 30
0.0
 11
0.574828
 21
2.735692
 31
0.0
  0
LINE
  5
406
330
68B
100
AcDbEntity
  8
0
100
AcDbLine
 10
0.574828
 20
2.735692
 30
0.0
 11
0.561338
 21
2.714115
 31
0.0
  0
LINE
  5
407
330
68B
100
AcDbEntity
  8
0
100
AcDbLine
 10
0.561338
 20
2.714115
 30
0.0
 11
0.564036
 21
2.673658
 31
0.0
  0
LINE
  5
408
330
68B
100
AcDbEntity
  8
0
100
AcDbLine
 10
0.564036
 20
2.673658
 30
0.0
 11
0.57213
 21
2.641293
 31
0.0
  0
LINE
  5
409
330
68B
100
AcDbEntity
  8
0
100
AcDbLine
 10
0.57213
 20
2.641293
 30
0.0
 11
0.5498930000000001
 21
2.617592
 31
0.0
  0
LINE
  5
40A
330
68B
100
AcDbEntity
  8
0
100
AcDbLine
 10
0.521882
 20
2.630079
 30
0.0
 11
0.523567
 21
2.665567
 31
0.0
  0
LINE
  5
40B
330
68B
100
AcDbEntity
  8
0
100
AcDbLine
 10
0.523567
 20
2.665567
 30
0.0
 11
0.526265
 21
2.714115
 31
0.0
  0
LINE
  5
40C
330
68B
100
AcDbEntity
  8
0
100
AcDbLine
 10
0.526265
 20
2.714115
 30
0.0
 11
0.506008
 21
2.751873
 31
0.0
  0
LINE
  5
40D
330
68B
100
AcDbEntity
  8
0
100
AcDbLine
 10
0.542813
 20
2.901725
 30
0.0
 11
0.5559420000000001
 21
2.911004
 31
0.0
  0
LINE
  5
40E
330
68B
100
AcDbEntity
  8
0
100
AcDbLine
 10
0.5559420000000001
 20
2.911004
 30
0.0
 11
0.550546
 21
2.932581
 31
0.0
  0
LINE
  5
40F
330
68B
100
AcDbEntity
  8
0
100
AcDbLine
 10
0.550546
 20
2.932581
 30
0.0
 11
0.556125
 21
2.95187
 31
0.0
  0
LINE
  5
410
330
68B
100
AcDbEntity
  8
0
100
AcDbLine
 10
0.556125
 20
2.95187
 30
0.0
 11
0.553244
 21
2.948763
 31
0.0
  0
LINE
  5
411
330
68B
100
AcDbEntity
  8
0
100
AcDbLine
 10
0.556001
 20
2.951443
 30
0.0
 11
0.539755
 21
2.986523
 31
0.0
  0
LINE
  5
412
330
68B
100
AcDbEntity
  8
0
100
AcDbLine
 10
0.539755
 20
2.986523
 30
0.0
 11
0.550546
 21
3.018888
 31
0.0
  0
LINE
  5
413
330
68B
100
AcDbEntity
  8
0
100
AcDbLine
 10
0.550546
 20
3.018888
 30
0.0
 11
0.526265
 21
3.056648
 31
0.0
  0
LINE
  5
414
330
68B
100
AcDbEntity
  8
0
100
AcDbLine
 10
0.526265
 20
3.056648
 30
0.0
 11
0.539755
 21
3.126772
 31
0.0
  0
LINE
  5
415
330
68B
100
AcDbEntity
  8
0
100
AcDbLine
 10
0.539755
 20
3.126772
 30
0.0
 11
0.539755
 21
3.126772
 31
0.0
  0
LINE
  5
416
330
68B
100
AcDbEntity
  8
0
100
AcDbLine
 10
0.71539
 20
3.006664
 30
0.0
 11
0.7232149999999999
 21
2.937975
 31
0.0
  0
LINE
  5
417
330
68B
100
AcDbEntity
  8
0
100
AcDbLine
 10
0.7232149999999999
 20
2.937975
 30
0.0
 11
0.704329
 21
2.88673
 31
0.0
  0
LINE
  5
418
330
68B
100
AcDbEntity
  8
0
100
AcDbLine
 10
0.704329
 20
2.88673
 30
0.0
 11
0.7421
 21
2.832787
 31
0.0
  0
LINE
  5
419
330
68B
100
AcDbEntity
  8
0
100
AcDbLine
 10
0.7421
 20
2.832787
 30
0.0
 11
0.763684
 21
2.800422
 31
0.0
  0
LINE
  5
41A
330
68B
100
AcDbEntity
  8
0
100
AcDbLine
 10
0.763684
 20
2.800422
 30
0.0
 11
0.763684
 21
2.754571
 31
0.0
  0
LINE
  5
41B
330
68B
100
AcDbEntity
  8
0
100
AcDbLine
 10
0.763684
 20
2.754571
 30
0.0
 11
0.739402
 21
2.706023
 31
0.0
  0
LINE
  5
41C
330
68B
100
AcDbEntity
  8
0
100
AcDbLine
 10
0.739402
 20
2.706023
 30
0.0
 11
0.693537
 21
2.679052
 31
0.0
  0
LINE
  5
41D
330
68B
100
AcDbEntity
  8
0
100
AcDbLine
 10
0.693537
 20
2.679052
 30
0.0
 11
0.655766
 21
2.657475
 31
0.0
  0
LINE
  5
41E
330
68B
100
AcDbEntity
  8
0
100
AcDbLine
 10
0.655766
 20
2.657475
 30
0.0
 11
0.6445300000000001
 21
2.635559
 31
0.0
  0
LINE
  5
41F
330
68B
100
AcDbEntity
  8
0
100
AcDbLine
 10
0.680016
 20
2.614322
 30
0.0
 11
0.7124229999999999
 21
2.657475
 31
0.0
  0
LINE
  5
420
330
68B
100
AcDbEntity
  8
0
100
AcDbLine
 10
0.7124229999999999
 20
2.657475
 30
0.0
 11
0.75559
 21
2.670961
 31
0.0
  0
LINE
  5
421
330
68B
100
AcDbEntity
  8
0
100
AcDbLine
 10
0.75559
 20
2.670961
 30
0.0
 11
0.7744760000000001
 21
2.724903
 31
0.0
  0
LINE
  5
422
330
68B
100
AcDbEntity
  8
0
100
AcDbLine
 10
0.7744760000000001
 20
2.724903
 30
0.0
 11
0.7987569999999999
 21
2.732994
 31
0.0
  0
LINE
  5
423
330
68B
100
AcDbEntity
  8
0
100
AcDbLine
 10
0.7987569999999999
 20
2.732994
 30
0.0
 11
0.796059
 21
2.778845
 31
0.0
  0
LINE
  5
424
330
68B
100
AcDbEntity
  8
0
100
AcDbLine
 10
0.796059
 20
2.778845
 30
0.0
 11
0.790663
 21
2.821999
 31
0.0
  0
LINE
  5
425
330
68B
100
AcDbEntity
  8
0
100
AcDbLine
 10
0.790663
 20
2.821999
 30
0.0
 11
0.763684
 21
2.843576
 31
0.0
  0
LINE
  5
426
330
68B
100
AcDbEntity
  8
0
100
AcDbLine
 10
0.763684
 20
2.843576
 30
0.0
 11
0.766382
 21
2.86785
 31
0.0
  0
LINE
  5
427
330
68B
100
AcDbEntity
  8
0
100
AcDbLine
 10
0.766382
 20
2.86785
 30
0.0
 11
0.790663
 21
2.902912
 31
0.0
  0
LINE
  5
428
330
68B
100
AcDbEntity
  8
0
100
AcDbLine
 10
0.790663
 20
2.902912
 30
0.0
 11
0.766382
 21
2.921792
 31
0.0
  0
LINE
  5
429
330
68B
100
AcDbEntity
  8
0
100
AcDbLine
 10
0.766382
 20
2.921792
 30
0.0
 11
0.765418
 21
2.984362
 31
0.0
  0
LINE
  5
42A
330
68B
100
AcDbEntity
  8
0
100
AcDbLine
 10
0.828434
 20
2.954157
 30
0.0
 11
0.83383
 21
2.916398
 31
0.0
  0
LINE
  5
42B
330
68B
100
AcDbEntity
  8
0
100
AcDbLine
 10
0.83383
 20
2.916398
 30
0.0
 11
0.814945
 21
2.88673
 31
0.0
  0
LINE
  5
42C
330
68B
100
AcDbEntity
  8
0
100
AcDbLine
 10
0.814945
 20
2.88673
 30
0.0
 11
0.83383
 21
2.86785
 31
0.0
  0
LINE
  5
42D
330
68B
100
AcDbEntity
  8
0
100
AcDbLine
 10
0.83383
 20
2.86785
 30
0.0
 11
0.828434
 21
2.824696
 31
0.0
  0
LINE
  5
42E
330
68B
100
AcDbEntity
  8
0
100
AcDbLine
 10
0.828434
 20
2.824696
 30
0.0
 11
0.825736
 21
2.795028
 31
0.0
  0
LINE
  5
42F
330
68B
100
AcDbEntity
  8
0
100
AcDbLine
 10
0.825736
 20
2.795028
 30
0.0
 11
0.841924
 21
2.759966
 31
0.0
  0
LINE
  5
430
330
68B
100
AcDbEntity
  8
0
100
AcDbLine
 10
0.841924
 20
2.759966
 30
0.0
 11
0.8662059999999999
 21
2.722206
 31
0.0
  0
LINE
  5
431
330
68B
100
AcDbEntity
  8
0
100
AcDbLine
 10
0.8662059999999999
 20
2.722206
 30
0.0
 11
0.8581120000000001
 21
2.706023
 31
0.0
  0
LINE
  5
432
330
68B
100
AcDbEntity
  8
0
100
AcDbLine
 10
0.8581120000000001
 20
2.706023
 30
0.0
 11
0.83383
 21
2.689841
 31
0.0
  0
LINE
  5
433
330
68B
100
AcDbEntity
  8
0
100
AcDbLine
 10
0.83383
 20
2.689841
 30
0.0
 11
0.814945
 21
2.638596
 31
0.0
  0
LINE
  5
434
330
68B
100
AcDbEntity
  8
0
100
AcDbLine
 10
0.814945
 20
2.638596
 30
0.0
 11
0.7744760000000001
 21
2.62511
 31
0.0
  0
LINE
  5
435
330
68B
100
AcDbEntity
  8
0
100
AcDbLine
 10
0.7744760000000001
 20
2.62511
 30
0.0
 11
0.717579
 21
2.602994
 31
0.0
  0
LINE
  5
436
330
68B
100
AcDbEntity
  8
0
100
AcDbLine
 10
0.760366
 20
2.58392
 30
0.0
 11
0.782569
 21
2.517226
 31
0.0
  0
LINE
  5
437
330
68B
100
AcDbEntity
  8
0
100
AcDbLine
 10
0.782569
 20
2.517226
 30
0.0
 11
0.8122470000000001
 21
2.517226
 31
0.0
  0
LINE
  5
438
330
68B
100
AcDbEntity
  8
0
100
AcDbLine
 10
0.8122470000000001
 20
2.517226
 30
0.0
 11
0.806851
 21
2.490255
 31
0.0
  0
LINE
  5
439
330
68B
100
AcDbEntity
  8
0
100
AcDbLine
 10
0.806851
 20
2.490255
 30
0.0
 11
0.7744760000000001
 21
2.460586
 31
0.0
  0
LINE
  5
43A
330
68B
100
AcDbEntity
  8
0
100
AcDbLine
 10
0.7744760000000001
 20
2.460586
 30
0.0
 11
0.7749659999999999
 21
2.438127
 31
0.0
  0
LINE
  5
43B
330
68B
100
AcDbEntity
  8
0
100
AcDbLine
 10
0.7749659999999999
 20
2.438127
 30
0.0
 11
0.777174
 21
2.43901
 31
0.0
  0
LINE
  5
43C
330
68B
100
AcDbEntity
  8
0
100
AcDbLine
 10
0.73374
 20
2.415215
 30
0.0
 11
0.736704
 21
2.490255
 31
0.0
  0
LINE
  5
43D
330
68B
100
AcDbEntity
  8
0
100
AcDbLine
 10
0.736704
 20
2.490255
 30
0.0
 11
0.725913
 21
2.514529
 31
0.0
  0
LINE
  5
43E
330
68B
100
AcDbEntity
  8
0
100
AcDbLine
 10
0.725913
 20
2.514529
 30
0.0
 11
0.7340060000000001
 21
2.546894
 31
0.0
  0
LINE
  5
43F
330
68B
100
AcDbEntity
  8
0
100
AcDbLine
 10
0.7340060000000001
 20
2.546894
 30
0.0
 11
0.728611
 21
2.600836
 31
0.0
  0
LINE
  5
440
330
68B
100
AcDbEntity
  8
0
100
AcDbLine
 10
0.728611
 20
2.600836
 30
0.0
 11
0.728587
 21
2.598087
 31
0.0
  0
LINE
  5
441
330
68B
100
AcDbEntity
  8
0
100
AcDbLine
 10
0.680016
 20
2.422827
 30
0.0
 11
0.701631
 21
2.465981
 31
0.0
  0
LINE
  5
442
330
68B
100
AcDbEntity
  8
0
100
AcDbLine
 10
0.701631
 20
2.465981
 30
0.0
 11
0.7070270000000001
 21
2.487558
 31
0.0
  0
LINE
  5
443
330
68B
100
AcDbEntity
  8
0
100
AcDbLine
 10
0.7070270000000001
 20
2.487558
 30
0.0
 11
0.680016
 21
2.5415
 31
0.0
  0
LINE
  5
444
330
68B
100
AcDbEntity
  8
0
100
AcDbLine
 10
0.423951
 20
2.204814
 30
0.0
 11
0.417746
 21
2.158764
 31
0.0
  0
LINE
  5
445
330
68B
100
AcDbEntity
  8
0
100
AcDbLine
 10
0.417746
 20
2.158764
 30
0.0
 11
0.422459
 21
2.097076
 31
0.0
  0
LINE
  5
446
330
68B
100
AcDbEntity
  8
0
100
AcDbLine
 10
0.450703
 20
2.187571
 30
0.0
 11
0.448911
 21
2.152734
 31
0.0
  0
LINE
  5
447
330
68B
100
AcDbEntity
  8
0
100
AcDbLine
 10
0.448911
 20
2.152734
 30
0.0
 11
0.458964
 21
2.125599
 31
0.0
  0
LINE
  5
448
330
68B
100
AcDbEntity
  8
0
100
AcDbLine
 10
0.458964
 20
2.125599
 30
0.0
 11
0.443782
 21
2.083333
 31
0.0
  0
LINE
  5
449
330
68B
100
AcDbEntity
  8
0
100
AcDbLine
 10
0.466525
 20
2.068674
 30
0.0
 11
0.489124
 21
2.115548
 31
0.0
  0
LINE
  5
44A
330
68B
100
AcDbEntity
  8
0
100
AcDbLine
 10
0.489124
 20
2.115548
 30
0.0
 11
0.492181
 21
2.160837
 31
0.0
  0
LINE
  5
44B
330
68B
100
AcDbEntity
  8
0
100
AcDbLine
 10
0.497286
 20
2.048847
 30
0.0
 11
0.493146
 21
2.070322
 31
0.0
  0
LINE
  5
44C
330
68B
100
AcDbEntity
  8
0
100
AcDbLine
 10
0.493146
 20
2.070322
 30
0.0
 11
0.511241
 21
2.091428
 31
0.0
  0
LINE
  5
44D
330
68B
100
AcDbEntity
  8
0
100
AcDbLine
 10
0.511241
 20
2.091428
 30
0.0
 11
0.525278
 21
2.139504
 31
0.0
  0
LINE
  5
44E
330
68B
100
AcDbEntity
  8
0
100
AcDbLine
 10
0.553355
 20
2.121407
 30
0.0
 11
0.547433
 21
2.091428
 31
0.0
  0
LINE
  5
44F
330
68B
100
AcDbEntity
  8
0
100
AcDbLine
 10
0.547433
 20
2.091428
 30
0.0
 11
0.5544710000000001
 21
2.072333
 31
0.0
  0
LINE
  5
450
330
68B
100
AcDbEntity
  8
0
100
AcDbLine
 10
0.5544710000000001
 20
2.072333
 30
0.0
 11
0.540389
 21
2.021066
 31
0.0
  0
LINE
  5
451
330
68B
100
AcDbEntity
  8
0
100
AcDbLine
 10
0.414814
 20
1.721157
 30
0.0
 11
0.433831
 21
1.772836
 31
0.0
  0
LINE
  5
452
330
68B
100
AcDbEntity
  8
0
100
AcDbLine
 10
0.433831
 20
1.772836
 30
0.0
 11
0.420762
 21
1.794947
 31
0.0
  0
LINE
  5
453
330
68B
100
AcDbEntity
  8
0
100
AcDbLine
 10
0.420762
 20
1.794947
 30
0.0
 11
0.432036
 21
1.836038
 31
0.0
  0
LINE
  5
454
330
68B
100
AcDbEntity
  8
0
100
AcDbLine
 10
0.458833
 20
1.692785
 30
0.0
 11
0.471028
 21
1.736656
 31
0.0
  0
LINE
  5
455
330
68B
100
AcDbEntity
  8
0
100
AcDbLine
 10
0.471028
 20
1.736656
 30
0.0
 11
0.468012
 21
1.772836
 31
0.0
  0
LINE
  5
456
330
68B
100
AcDbEntity
  8
0
100
AcDbLine
 10
0.468012
 20
1.772836
 30
0.0
 11
0.477775
 21
1.806557
 31
0.0
  0
LINE
  5
457
330
68B
100
AcDbEntity
  8
0
100
AcDbLine
 10
0.518623
 20
1.790159
 30
0.0
 11
0.5052100000000001
 21
1.769821
 31
0.0
  0
LINE
  5
458
330
68B
100
AcDbEntity
  8
0
100
AcDbLine
 10
0.5052100000000001
 20
1.769821
 30
0.0
 11
0.514257
 21
1.743691
 31
0.0
  0
LINE
  5
459
330
68B
100
AcDbEntity
  8
0
100
AcDbLine
 10
0.514257
 20
1.743691
 30
0.0
 11
0.506215
 21
1.702485
 31
0.0
  0
LINE
  5
45A
330
68B
100
AcDbEntity
  8
0
100
AcDbLine
 10
0.506215
 20
1.702485
 30
0.0
 11
0.509231
 21
1.67736
 31
0.0
  0
LINE
  5
45B
330
68B
100
AcDbEntity
  8
0
100
AcDbLine
 10
0.509231
 20
1.67736
 30
0.0
 11
0.5052100000000001
 21
1.661279
 31
0.0
  0
LINE
  5
45C
330
68B
100
AcDbEntity
  8
0
100
AcDbLine
 10
0.5052100000000001
 20
1.661279
 30
0.0
 11
0.5052100000000001
 21
1.661279
 31
0.0
  0
LINE
  5
45D
330
68B
100
AcDbEntity
  8
0
100
AcDbLine
 10
0.5402100000000001
 20
1.640335
 30
0.0
 11
0.546428
 21
1.688415
 31
0.0
  0
LINE
  5
45E
330
68B
100
AcDbEntity
  8
0
100
AcDbLine
 10
0.546428
 20
1.688415
 30
0.0
 11
0.5363750000000001
 21
1.7055
 31
0.0
  0
LINE
  5
45F
330
68B
100
AcDbEntity
  8
0
100
AcDbLine
 10
0.5363750000000001
 20
1.7055
 30
0.0
 11
0.550449
 21
1.728616
 31
0.0
  0
LINE
  5
460
330
68B
100
AcDbEntity
  8
0
100
AcDbLine
 10
0.550449
 20
1.728616
 30
0.0
 11
0.554675
 21
1.776717
 31
0.0
  0
LINE
  5
461
330
68B
100
AcDbEntity
  8
0
100
AcDbLine
 10
0.60798
 20
1.97671
 30
0.0
 11
0.563519
 21
1.93163
 31
0.0
  0
LINE
  5
462
330
68B
100
AcDbEntity
  8
0
100
AcDbLine
 10
0.563519
 20
1.93163
 30
0.0
 11
0.521295
 21
1.895449
 31
0.0
  0
LINE
  5
463
330
68B
100
AcDbEntity
  8
0
100
AcDbLine
 10
0.521295
 20
1.895449
 30
0.0
 11
0.520289
 21
1.875349
 31
0.0
  0
LINE
  5
464
330
68B
100
AcDbEntity
  8
0
100
AcDbLine
 10
0.520289
 20
1.875349
 30
0.0
 11
0.4871140000000001
 21
1.873338
 31
0.0
  0
LINE
  5
465
330
68B
100
AcDbEntity
  8
0
100
AcDbLine
 10
0.4871140000000001
 20
1.873338
 30
0.0
 11
0.460004
 21
1.818011
 31
0.0
  0
LINE
  5
466
330
68B
100
AcDbEntity
  8
0
100
AcDbLine
 10
0.421067
 20
1.843108
 30
0.0
 11
0.437852
 21
1.883389
 31
0.0
  0
LINE
  5
467
330
68B
100
AcDbEntity
  8
0
100
AcDbLine
 10
0.437852
 20
1.883389
 30
0.0
 11
0.455948
 21
1.906504
 31
0.0
  0
LINE
  5
468
330
68B
100
AcDbEntity
  8
0
100
AcDbLine
 10
0.455948
 20
1.906504
 30
0.0
 11
0.468012
 21
1.942685
 31
0.0
  0
LINE
  5
469
330
68B
100
AcDbEntity
  8
0
100
AcDbLine
 10
0.468012
 20
1.942685
 30
0.0
 11
0.506215
 21
1.958765
 31
0.0
  0
LINE
  5
46A
330
68B
100
AcDbEntity
  8
0
100
AcDbLine
 10
0.506215
 20
1.958765
 30
0.0
 11
0.528332
 21
1.954745
 31
0.0
  0
LINE
  5
46B
330
68B
100
AcDbEntity
  8
0
100
AcDbLine
 10
0.528332
 20
1.954745
 30
0.0
 11
0.544417
 21
1.986906
 31
0.0
  0
LINE
  5
46C
330
68B
100
AcDbEntity
  8
0
100
AcDbLine
 10
0.544417
 20
1.986906
 30
0.0
 11
0.557487
 21
2.002986
 31
0.0
  0
LINE
  5
46D
330
68B
100
AcDbEntity
  8
0
100
AcDbLine
 10
0.557487
 20
2.002986
 30
0.0
 11
0.561459
 21
2.007485
 31
0.0
  0
LINE
  5
46E
330
68B
100
AcDbEntity
  8
0
100
AcDbLine
 10
0.368984
 20
1.876678
 30
0.0
 11
0.394623
 21
1.917559
 31
0.0
  0
LINE
  5
46F
330
68B
100
AcDbEntity
  8
0
100
AcDbLine
 10
0.394623
 20
1.917559
 30
0.0
 11
0.426794
 21
1.952735
 31
0.0
  0
LINE
  5
470
330
68B
100
AcDbEntity
  8
0
100
AcDbLine
 10
0.426794
 20
1.952735
 30
0.0
 11
0.441874
 21
1.987911
 31
0.0
  0
LINE
  5
471
330
68B
100
AcDbEntity
  8
0
100
AcDbLine
 10
0.441874
 20
1.987911
 30
0.0
 11
0.49013
 21
2.009016
 31
0.0
  0
LINE
  5
472
330
68B
100
AcDbEntity
  8
0
100
AcDbLine
 10
0.49013
 20
2.009016
 30
0.0
 11
0.515057
 21
2.037393
 31
0.0
  0
LINE
  5
473
330
68B
100
AcDbEntity
  8
0
100
AcDbLine
 10
0.33898
 20
1.896016
 30
0.0
 11
0.342346
 21
1.95374
 31
0.0
  0
LINE
  5
474
330
68B
100
AcDbEntity
  8
0
100
AcDbLine
 10
0.342346
 20
1.95374
 30
0.0
 11
0.398644
 21
2.004996
 31
0.0
  0
LINE
  5
475
330
68B
100
AcDbEntity
  8
0
100
AcDbLine
 10
0.398644
 20
2.004996
 30
0.0
 11
0.409305
 21
2.030435
 31
0.0
  0
LINE
  5
476
330
68B
100
AcDbEntity
  8
0
100
AcDbLine
 10
0.43904
 20
1.374303
 30
0.0
 11
0.435787
 21
1.317984
 31
0.0
  0
LINE
  5
477
330
68B
100
AcDbEntity
  8
0
100
AcDbLine
 10
0.435787
 20
1.317984
 30
0.0
 11
0.4396060000000001
 21
1.258805
 31
0.0
  0
LINE
  5
478
330
68B
100
AcDbEntity
  8
0
100
AcDbLine
 10
0.4396060000000001
 20
1.258805
 30
0.0
 11
0.431153
 21
1.244072
 31
0.0
  0
LINE
  5
479
330
68B
100
AcDbEntity
  8
0
100
AcDbLine
 10
0.464354
 20
1.359245
 30
0.0
 11
0.464431
 21
1.314166
 31
0.0
  0
LINE
  5
47A
330
68B
100
AcDbEntity
  8
0
100
AcDbLine
 10
0.464431
 20
1.314166
 30
0.0
 11
0.4777979999999999
 21
1.275986
 31
0.0
  0
LINE
  5
47B
330
68B
100
AcDbEntity
  8
0
100
AcDbLine
 10
0.4777979999999999
 20
1.275986
 30
0.0
 11
0.4587020000000001
 21
1.262623
 31
0.0
  0
LINE
  5
47C
330
68B
100
AcDbEntity
  8
0
100
AcDbLine
 10
0.4587020000000001
 20
1.262623
 30
0.0
 11
0.450291
 21
1.232688
 31
0.0
  0
LINE
  5
47D
330
68B
100
AcDbEntity
  8
0
100
AcDbLine
 10
0.498804
 20
1.337074
 30
0.0
 11
0.494984
 21
1.25117
 31
0.0
  0
LINE
  5
47E
330
68B
100
AcDbEntity
  8
0
100
AcDbLine
 10
0.494984
 20
1.25117
 30
0.0
 11
0.4714100000000001
 21
1.220125
 31
0.0
  0
LINE
  5
47F
330
68B
100
AcDbEntity
  8
0
100
AcDbLine
 10
0.510791
 20
1.1967
 30
0.0
 11
0.5217189999999999
 21
1.23208
 31
0.0
  0
LINE
  5
480
330
68B
100
AcDbEntity
  8
0
100
AcDbLine
 10
0.5217189999999999
 20
1.23208
 30
0.0
 11
0.533176
 21
1.256897
 31
0.0
  0
LINE
  5
481
330
68B
100
AcDbEntity
  8
0
100
AcDbLine
 10
0.533176
 20
1.256897
 30
0.0
 11
0.527447
 21
1.291258
 31
0.0
  0
LINE
  5
482
330
68B
100
AcDbEntity
  8
0
100
AcDbLine
 10
0.527447
 20
1.291258
 30
0.0
 11
0.535834
 21
1.316725
 31
0.0
  0
LINE
  5
483
330
68B
100
AcDbEntity
  8
0
100
AcDbLine
 10
0.566522
 20
1.29847
 30
0.0
 11
0.573277
 21
1.226353
 31
0.0
  0
LINE
  5
484
330
68B
100
AcDbEntity
  8
0
100
AcDbLine
 10
0.573277
 20
1.226353
 30
0.0
 11
0.555547
 21
1.170077
 31
0.0
  0
LINE
  5
485
330
68B
100
AcDbEntity
  8
0
100
AcDbLine
 10
0.583681
 20
1.153341
 30
0.0
 11
0.594283
 21
1.182446
 31
0.0
  0
LINE
  5
486
330
68B
100
AcDbEntity
  8
0
100
AcDbLine
 10
0.594283
 20
1.182446
 30
0.0
 11
0.598102
 21
1.218717
 31
0.0
  0
LINE
  5
487
330
68B
100
AcDbEntity
  8
0
100
AcDbLine
 10
0.598102
 20
1.218717
 30
0.0
 11
0.601921
 21
1.239716
 31
0.0
  0
LINE
  5
488
330
68B
100
AcDbEntity
  8
0
100
AcDbLine
 10
0.601921
 20
1.239716
 30
0.0
 11
0.60312
 21
1.2767
 31
0.0
  0
LINE
  5
489
330
68B
100
AcDbEntity
  8
0
100
AcDbLine
 10
0.60564
 20
1.140279
 30
0.0
 11
0.628655
 21
1.169083
 31
0.0
  0
LINE
  5
48A
330
68B
100
AcDbEntity
  8
0
100
AcDbLine
 10
0.628655
 20
1.169083
 30
0.0
 11
0.628655
 21
1.207263
 31
0.0
  0
LINE
  5
48B
330
68B
100
AcDbEntity
  8
0
100
AcDbLine
 10
0.628655
 20
1.207263
 30
0.0
 11
0.641662
 21
1.253773
 31
0.0
  0
LINE
  5
48C
330
68B
100
AcDbEntity
  8
0
100
AcDbLine
 10
0.672083
 20
1.235677
 30
0.0
 11
0.670666
 21
1.180537
 31
0.0
  0
LINE
  5
48D
330
68B
100
AcDbEntity
  8
0
100
AcDbLine
 10
0.670666
 20
1.180537
 30
0.0
 11
0.670666
 21
1.13663
 31
0.0
  0
LINE
  5
48E
330
68B
100
AcDbEntity
  8
0
100
AcDbLine
 10
0.670666
 20
1.13663
 30
0.0
 11
0.648985
 21
1.114495
 31
0.0
  0
LINE
  5
48F
330
68B
100
AcDbEntity
  8
0
100
AcDbLine
 10
0.366101
 20
1.060597
 30
0.0
 11
0.407144
 21
1.115631
 31
0.0
  0
LINE
  5
490
330
68B
100
AcDbEntity
  8
0
100
AcDbLine
 10
0.407144
 20
1.115631
 30
0.0
 11
0.449154
 21
1.130903
 31
0.0
  0
LINE
  5
491
330
68B
100
AcDbEntity
  8
0
100
AcDbLine
 10
0.449154
 20
1.130903
 30
0.0
 11
0.489256
 21
1.176719
 31
0.0
  0
LINE
  5
492
330
68B
100
AcDbEntity
  8
0
100
AcDbLine
 10
0.489256
 20
1.176719
 30
0.0
 11
0.524287
 21
1.188672
 31
0.0
  0
LINE
  5
493
330
68B
100
AcDbEntity
  8
0
100
AcDbLine
 10
0.390309
 20
1.046197
 30
0.0
 11
0.433878
 21
1.104177
 31
0.0
  0
LINE
  5
494
330
68B
100
AcDbEntity
  8
0
100
AcDbLine
 10
0.433878
 20
1.104177
 30
0.0
 11
0.496894
 21
1.113722
 31
0.0
  0
LINE
  5
495
330
68B
100
AcDbEntity
  8
0
100
AcDbLine
 10
0.496894
 20
1.113722
 30
0.0
 11
0.531266
 21
1.15572
 31
0.0
  0
LINE
  5
496
330
68B
100
AcDbEntity
  8
0
100
AcDbLine
 10
0.531266
 20
1.15572
 30
0.0
 11
0.542473
 21
1.180537
 31
0.0
  0
LINE
  5
497
330
68B
100
AcDbEntity
  8
0
100
AcDbLine
 10
0.572435
 20
1.160031
 30
0.0
 11
0.558001
 21
1.111813
 31
0.0
  0
LINE
  5
498
330
68B
100
AcDbEntity
  8
0
100
AcDbLine
 10
0.558001
 20
1.111813
 30
0.0
 11
0.536995
 21
1.11754
 31
0.0
  0
LINE
  5
499
330
68B
100
AcDbEntity
  8
0
100
AcDbLine
 10
0.536995
 20
1.11754
 30
0.0
 11
0.512171
 21
1.069815
 31
0.0
  0
LINE
  5
49A
330
68B
100
AcDbEntity
  8
0
100
AcDbLine
 10
0.512171
 20
1.069815
 30
0.0
 11
0.473979
 21
1.062179
 31
0.0
  0
LINE
  5
49B
330
68B
100
AcDbEntity
  8
0
100
AcDbLine
 10
0.473979
 20
1.062179
 30
0.0
 11
0.4434899999999999
 21
1.014562
 31
0.0
  0
LINE
  5
49C
330
68B
100
AcDbEntity
  8
0
100
AcDbLine
 10
0.428088
 20
0.878814
 30
0.0
 11
0.430059
 21
0.924732
 31
0.0
  0
LINE
  5
49D
330
68B
100
AcDbEntity
  8
0
100
AcDbLine
 10
0.430059
 20
0.924732
 30
0.0
 11
0.426239
 21
0.9629120000000001
 31
0.0
  0
LINE
  5
49E
330
68B
100
AcDbEntity
  8
0
100
AcDbLine
 10
0.426239
 20
0.9629120000000001
 30
0.0
 11
0.438991
 21
1.017238
 31
0.0
  0
LINE
  5
49F
330
68B
100
AcDbEntity
  8
0
100
AcDbLine
 10
0.468803
 20
0.999505
 30
0.0
 11
0.46825
 21
0.949549
 31
0.0
  0
LINE
  5
4A0
330
68B
100
AcDbEntity
  8
0
100
AcDbLine
 10
0.46825
 20
0.949549
 30
0.0
 11
0.456793
 21
0.9056420000000001
 31
0.0
  0
LINE
  5
4A1
330
68B
100
AcDbEntity
  8
0
100
AcDbLine
 10
0.456793
 20
0.9056420000000001
 30
0.0
 11
0.466341
 21
0.877007
 31
0.0
  0
LINE
  5
4A2
330
68B
100
AcDbEntity
  8
0
100
AcDbLine
 10
0.466341
 20
0.877007
 30
0.0
 11
0.4528680000000001
 21
0.864074
 31
0.0
  0
LINE
  5
4A3
330
68B
100
AcDbEntity
  8
0
100
AcDbLine
 10
0.481269
 20
0.8471790000000001
 30
0.0
 11
0.500713
 21
0.882734
 31
0.0
  0
LINE
  5
4A4
330
68B
100
AcDbEntity
  8
0
100
AcDbLine
 10
0.500713
 20
0.882734
 30
0.0
 11
0.504532
 21
0.9380950000000001
 31
0.0
  0
LINE
  5
4A5
330
68B
100
AcDbEntity
  8
0
100
AcDbLine
 10
0.504532
 20
0.9380950000000001
 30
0.0
 11
0.513292
 21
0.97304
 31
0.0
  0
LINE
  5
4A6
330
68B
100
AcDbEntity
  8
0
100
AcDbLine
 10
0.5102800000000001
 20
0.8299219999999999
 30
0.0
 11
0.527447
 21
0.861735
 31
0.0
  0
LINE
  5
4A7
330
68B
100
AcDbEntity
  8
0
100
AcDbLine
 10
0.527447
 20
0.861735
 30
0.0
 11
0.542473
 21
0.8693709999999999
 31
0.0
  0
LINE
  5
4A8
330
68B
100
AcDbEntity
  8
0
100
AcDbLine
 10
0.578075
 20
1.078269
 30
0.0
 11
0.5770960000000001
 21
1.115631
 31
0.0
  0
LINE
  5
4A9
330
68B
100
AcDbEntity
  8
0
100
AcDbLine
 10
0.5770960000000001
 20
1.115631
 30
0.0
 11
0.602247
 21
1.142297
 31
0.0
  0
LINE
  5
4AA
330
68B
100
AcDbEntity
  8
0
100
AcDbLine
 10
0.651234
 20
1.113157
 30
0.0
 11
0.613379
 21
1.046907
 31
0.0
  0
LINE
  5
4AB
330
68B
100
AcDbEntity
  8
0
100
AcDbLine
 10
0.613379
 20
1.046907
 30
0.0
 11
0.571368
 21
1.016363
 31
0.0
  0
LINE
  5
4AC
330
68B
100
AcDbEntity
  8
0
100
AcDbLine
 10
0.571368
 20
1.016363
 30
0.0
 11
0.550362
 21
0.9839110000000001
 31
0.0
  0
LINE
  5
4AD
330
68B
100
AcDbEntity
  8
0
100
AcDbLine
 10
0.550362
 20
0.9839110000000001
 30
0.0
 11
0.523432
 21
0.967008
 31
0.0
  0
LINE
  5
4AE
330
68B
100
AcDbEntity
  8
0
100
AcDbLine
 10
0.55991
 20
0.9476399999999999
 30
0.0
 11
0.594283
 21
1.001091
 31
0.0
  0
LINE
  5
4AF
330
68B
100
AcDbEntity
  8
0
100
AcDbLine
 10
0.594283
 20
1.001091
 30
0.0
 11
0.6305649999999999
 21
1.016363
 31
0.0
  0
LINE
  5
4B0
330
68B
100
AcDbEntity
  8
0
100
AcDbLine
 10
0.6305649999999999
 20
1.016363
 30
0.0
 11
0.6534800000000001
 21
1.077451
 31
0.0
  0
LINE
  5
4B1
330
68B
100
AcDbEntity
  8
0
100
AcDbLine
 10
0.6534800000000001
 20
1.077451
 30
0.0
 11
0.6816180000000001
 21
1.095083
 31
0.0
  0
LINE
  5
4B2
330
68B
100
AcDbEntity
  8
0
100
AcDbLine
 10
0.590414
 20
0.927165
 30
0.0
 11
0.624836
 21
0.9610030000000001
 31
0.0
  0
LINE
  5
4B3
330
68B
100
AcDbEntity
  8
0
100
AcDbLine
 10
0.624836
 20
0.9610030000000001
 30
0.0
 11
0.668756
 21
0.9839110000000001
 31
0.0
  0
LINE
  5
4B4
330
68B
100
AcDbEntity
  8
0
100
AcDbLine
 10
0.668756
 20
0.9839110000000001
 30
0.0
 11
0.674485
 21
1.035453
 31
0.0
  0
LINE
  5
4B5
330
68B
100
AcDbEntity
  8
0
100
AcDbLine
 10
0.674485
 20
1.035453
 30
0.0
 11
0.716496
 21
1.062179
 31
0.0
  0
LINE
  5
4B6
330
68B
100
AcDbEntity
  8
0
100
AcDbLine
 10
0.716496
 20
1.062179
 30
0.0
 11
0.723954
 21
1.071383
 31
0.0
  0
LINE
  5
4B7
330
68B
100
AcDbEntity
  8
0
100
AcDbLine
 10
0.704916
 20
0.9649770000000001
 30
0.0
 11
0.710767
 21
1.003
 31
0.0
  0
LINE
  5
4B8
330
68B
100
AcDbEntity
  8
0
100
AcDbLine
 10
0.710767
 20
1.003
 30
0.0
 11
0.729863
 21
1.014454
 31
0.0
  0
LINE
  5
4B9
330
68B
100
AcDbEntity
  8
0
100
AcDbLine
 10
0.729863
 20
1.014454
 30
0.0
 11
0.733682
 21
1.044998
 31
0.0
  0
LINE
  5
4BA
330
68B
100
AcDbEntity
  8
0
100
AcDbLine
 10
0.733682
 20
1.044998
 30
0.0
 11
0.756521
 21
1.054199
 31
0.0
  0
LINE
  5
4BB
330
68B
100
AcDbEntity
  8
0
100
AcDbLine
 10
0.568531
 20
0.795271
 30
0.0
 11
0.590464
 21
0.8426450000000001
 31
0.0
  0
LINE
  5
4BC
330
68B
100
AcDbEntity
  8
0
100
AcDbLine
 10
0.590464
 20
0.8426450000000001
 30
0.0
 11
0.581112
 21
0.9326979999999999
 31
0.0
  0
LINE
  5
4BD
330
68B
100
AcDbEntity
  8
0
100
AcDbLine
 10
0.6114689999999999
 20
0.773921
 30
0.0
 11
0.619107
 21
0.800647
 31
0.0
  0
LINE
  5
4BE
330
68B
100
AcDbEntity
  8
0
100
AcDbLine
 10
0.619107
 20
0.800647
 30
0.0
 11
0.624836
 21
0.838827
 31
0.0
  0
LINE
  5
4BF
330
68B
100
AcDbEntity
  8
0
100
AcDbLine
 10
0.624836
 20
0.838827
 30
0.0
 11
0.613379
 21
0.8750979999999999
 31
0.0
  0
LINE
  5
4C0
330
68B
100
AcDbEntity
  8
0
100
AcDbLine
 10
0.613379
 20
0.8750979999999999
 30
0.0
 11
0.6362939999999999
 21
0.907551
 31
0.0
  0
LINE
  5
4C1
330
68B
100
AcDbEntity
  8
0
100
AcDbLine
 10
0.6362939999999999
 20
0.907551
 30
0.0
 11
0.6343840000000001
 21
0.901824
 31
0.0
  0
LINE
  5
4C2
330
68B
100
AcDbEntity
  8
0
100
AcDbLine
 10
0.6422600000000001
 20
0.751413
 30
0.0
 11
0.657299
 21
0.808283
 31
0.0
  0
LINE
  5
4C3
330
68B
100
AcDbEntity
  8
0
100
AcDbLine
 10
0.657299
 20
0.808283
 30
0.0
 11
0.642022
 21
0.8483719999999999
 31
0.0
  0
LINE
  5
4C4
330
68B
100
AcDbEntity
  8
0
100
AcDbLine
 10
0.642022
 20
0.8483719999999999
 30
0.0
 11
0.6714359999999999
 21
0.8782680000000001
 31
0.0
  0
LWPOLYLINE
  5
4DA
330
68B
100
AcDbEntity
  8
0
100
AcDbPolyline
 90
       16
 70
     1
 43
0.0
 10
1.697228
 20
3.905954
 42
0.103301
 10
1.700464
 20
3.90663
 42
0.100355
 10
1.703248
 20
3.908583
 42
0.096452
 10
1.705087
 20
3.911473
 42
0.093862
 10
1.705741
 20
3.914930000000001
 42
0.093862
 10
1.705087
 20
3.918387
 42
0.096452
 10
1.703248
 20
3.921277
 42
0.100355
 10
1.700464
 20
3.92323
 42
0.103301
 10
1.697228
 20
3.923906
 42
0.103301
 10
1.693992
 20
3.92323
 42
0.100355
 10
1.691208
 20
3.921277
 42
0.096452
 10
1.689369
 20
3.918387
 42
0.093862
 10
1.688715
 20
3.914930000000001
 42
0.093862
 10
1.689369
 20
3.911473
 42
0.096452
 10
1.691208
 20
3.908583
 42
0.100355
 10
1.693992
 20
3.90663
 42
0.103301
  0
LWPOLYLINE
  5
4EC
330
68B
100
AcDbEntity
  8
0
100
AcDbPolyline
 90
       26
 70
     1
 43
0.0
 10
1.619611
 20
3.98972
 10
1.619611
 20
3.839062
 10
1.668565
 20
3.806389
 10
1.668565
 20
3.855857
 10
1.726431
 20
3.881771
 10
1.726431
 20
3.94628
 10
1.668565
 20
3.969602
 10
1.668565
 20
4.025736
 10
1.726431
 20
4.047115
 10
1.726431
 20
4.129961
 10
1.668565
 20
4.172718
 10
1.668565
 20
4.23463
 10
1.576267
 20
4.274205
 10
1.423914
 20
4.211982
 10
1.423914
 20
4.154879
 10
1.48315
 20
4.14297
 10
1.48315
 20
4.116169
 10
1.423914
 20
4.066148
 10
1.423914
 20
4.001273
 10
1.48315
 20
3.995289
 10
1.48315
 20
3.943006
 10
1.423914
 20
3.905509
 10
1.423914
 20
3.790772
 10
1.525458
 20
3.842816000000001
 10
1.525458
 20
3.982601
 10
1.576267
 20
4.031061
  0
LWPOLYLINE
  5
508
330
68B
100
AcDbEntity
  8
0
100
AcDbPolyline
 90
       26
 70
     1
 43
0.0
 10
2.281839
 20
3.577697
 10
2.281839
 20
3.427039
 10
2.330793
 20
3.399129
 10
2.330793
 20
3.443834
 10
2.38866
 20
3.469747
 10
2.38866
 20
3.534256
 10
2.330793
 20
3.557579
 10
2.330793
 20
3.613713
 10
2.38866
 20
3.635091000000001
 10
2.38866
 20
3.717938
 10
2.330793
 20
3.760695
 10
2.330793
 20
3.822607
 10
2.238495
 20
3.862182
 10
2.086142
 20
3.799959
 10
2.086142
 20
3.742856
 10
2.145378
 20
3.730947
 10
2.145378
 20
3.704146
 10
2.086142
 20
3.654124
 10
2.086142
 20
3.58925
 10
2.145378
 20
3.583266000000001
 10
2.145378
 20
3.530983
 10
2.086142
 20
3.493486
 10
2.086142
 20
3.380145
 10
2.187686
 20
3.430793
 10
2.187686
 20
3.570577
 10
2.238495
 20
3.619038
  0
LWPOLYLINE
  5
524
330
68B
100
AcDbEntity
  8
0
100
AcDbPolyline
 90
       16
 70
     1
 43
0.0
 10
2.114192
 20
3.44979
 42
0.103301
 10
2.117428
 20
3.450466000000001
 42
0.100355
 10
2.120212
 20
3.452419
 42
0.096452
 10
2.122051
 20
3.455309
 42
0.093862
 10
2.122706
 20
3.458766
 42
0.093862
 10
2.122051
 20
3.462223
 42
0.096452
 10
2.120212
 20
3.465113
 42
0.100355
 10
2.117428
 20
3.467066
 42
0.103301
 10
2.114192
 20
3.467742
 42
0.103301
 10
2.110957
 20
3.467066
 42
0.100355
 10
2.108173
 20
3.465113
 42
0.096452
 10
2.106334
 20
3.462223
 42
0.093862
 10
2.105679
 20
3.458766
 42
0.093862
 10
2.106334
 20
3.455309
 42
0.096452
 10
2.108173
 20
3.452419
 42
0.100355
 10
2.110957
 20
3.450466000000001
 42
0.103301
  0
LWPOLYLINE
  5
536
330
68B
100
AcDbEntity
  8
0
100
AcDbPolyline
 90
       16
 70
     1
 43
0.0
 10
2.134797
 20
3.622125
 42
0.103301
 10
2.138033
 20
3.622801
 42
0.100355
 10
2.140816
 20
3.624754
 42
0.096452
 10
2.142655
 20
3.627644
 42
0.093862
 10
2.14331
 20
3.631101
 42
0.093862
 10
2.142655
 20
3.634557
 42
0.096452
 10
2.140816
 20
3.637447
 42
0.100355
 10
2.138033
 20
3.639401
 42
0.103301
 10
2.134797
 20
3.640076
 42
0.103301
 10
2.131561
 20
3.639401
 42
0.100355
 10
2.128777
 20
3.637447
 42
0.096452
 10
2.126938
 20
3.634557
 42
0.093862
 10
2.126283
 20
3.631101
 42
0.093862
 10
2.126938
 20
3.627644
 42
0.096452
 10
2.128777
 20
3.624754
 42
0.100355
 10
2.131561
 20
3.622801
 42
0.103301
  0
LWPOLYLINE
  5
548
330
68B
100
AcDbEntity
  8
0
100
AcDbPolyline
 90
       16
 70
     1
 43
0.0
 10
2.134797
 20
3.758556
 42
0.103301
 10
2.138033
 20
3.759232
 42
0.100355
 10
2.140816
 20
3.761185
 42
0.096452
 10
2.142655
 20
3.764075
 42
0.093862
 10
2.14331
 20
3.767532
 42
0.093862
 10
2.142655
 20
3.770989
 42
0.096452
 10
2.140816
 20
3.773879
 42
0.100355
 10
2.138033
 20
3.775832
 42
0.103301
 10
2.134797
 20
3.776508
 42
0.103301
 10
2.131561
 20
3.775832
 42
0.100355
 10
2.128777
 20
3.773879
 42
0.096452
 10
2.126938
 20
3.770989
 42
0.093862
 10
2.126283
 20
3.767532
 42
0.093862
 10
2.126938
 20
3.764075
 42
0.096452
 10
2.128777
 20
3.761185
 42
0.100355
 10
2.131561
 20
3.759232
 42
0.103301
  0
LWPOLYLINE
  5
55A
330
68B
100
AcDbEntity
  8
0
100
AcDbPolyline
 90
       16
 70
     1
 43
0.0
 10
2.359456
 20
3.493931
 42
0.103301
 10
2.362692
 20
3.494606
 42
0.100355
 10
2.365476
 20
3.49656
 42
0.096452
 10
2.367315
 20
3.49945
 42
0.093862
 10
2.36797
 20
3.502906
 42
0.093862
 10
2.367315
 20
3.506363
 42
0.096452
 10
2.365476
 20
3.509253
 42
0.100355
 10
2.362692
 20
3.511206
 42
0.103301
 10
2.359456
 20
3.511882
 42
0.103301
 10
2.35622
 20
3.511206
 42
0.100355
 10
2.353436
 20
3.509253
 42
0.096452
 10
2.351597
 20
3.506363
 42
0.093862
 10
2.350943
 20
3.502906
 42
0.093862
 10
2.351597
 20
3.49945
 42
0.096452
 10
2.353436
 20
3.49656
 42
0.100355
 10
2.35622
 20
3.494606
 42
0.103301
  0
LWPOLYLINE
  5
56C
330
68B
100
AcDbEntity
  8
0
100
AcDbPolyline
 90
       16
 70
     1
 43
0.0
 10
2.359456
 20
3.67415
 42
0.103301
 10
2.362692
 20
3.674826
 42
0.100355
 10
2.365476
 20
3.676779
 42
0.096452
 10
2.367315
 20
3.679669
 42
0.093862
 10
2.36797
 20
3.683126
 42
0.093862
 10
2.367315
 20
3.686583
 42
0.096452
 10
2.365476
 20
3.689473
 42
0.100355
 10
2.362692
 20
3.691426
 42
0.103301
 10
2.359456
 20
3.692102
 42
0.103301
 10
2.35622
 20
3.691426
 42
0.100355
 10
2.353436
 20
3.689473
 42
0.096452
 10
2.351597
 20
3.686583
 42
0.093862
 10
2.350943
 20
3.683126
 42
0.093862
 10
2.351597
 20
3.679669
 42
0.096452
 10
2.353436
 20
3.676779
 42
0.100355
 10
2.35622
 20
3.674826
 42
0.103301
  0
LWPOLYLINE
  5
57F
330
68B
100
AcDbEntity
  8
0
100
AcDbPolyline
 90
       26
 70
     1
 43
0.0
 10
3.055797
 20
3.092971
 10
3.055797
 20
2.942313
 10
3.104752
 20
2.90478
 10
3.104752
 20
2.959108
 10
3.162618
 20
2.985021
 10
3.162618
 20
3.04953
 10
3.104752
 20
3.072853
 10
3.104752
 20
3.128987
 10
3.162618
 20
3.150365
 10
3.162618
 20
3.233212
 10
3.104752
 20
3.275969
 10
3.104752
 20
3.337881
 10
3.012453
 20
3.377456
 10
2.8601
 20
3.315233
 10
2.8601
 20
3.25813
 10
2.919336
 20
3.246221
 10
2.919336
 20
3.21942
 10
2.8601
 20
3.169398
 10
2.8601
 20
3.104524
 10
2.919336
 20
3.09854
 10
2.919336
 20
3.046257
 10
2.8601
 20
3.00876
 10
2.8601
 20
2.8975
 10
2.961644
 20
2.946067
 10
2.961644
 20
3.085851
 10
3.012453
 20
3.134312
  0
LWPOLYLINE
  5
59B
330
68B
100
AcDbEntity
  8
0
100
AcDbPolyline
 90
       16
 70
     1
 43
0.0
 10
2.888151
 20
2.965064
 42
0.103301
 10
2.891387
 20
2.96574
 42
0.100355
 10
2.894171
 20
2.967693
 42
0.096452
 10
2.89601
 20
2.970583
 42
0.093862
 10
2.896664
 20
2.97404
 42
0.093862
 10
2.89601
 20
2.977497
 42
0.096452
 10
2.894171
 20
2.980387
 42
0.100355
 10
2.891387
 20
2.98234
 42
0.103301
 10
2.888151
 20
2.983016
 42
0.103301
 10
2.884915
 20
2.98234
 42
0.100355
 10
2.882131
 20
2.980387
 42
0.096452
 10
2.880292
 20
2.977497
 42
0.093862
 10
2.879637
 20
2.97404
 42
0.093862
 10
2.880292
 20
2.970583
 42
0.096452
 10
2.882131
 20
2.967693
 42
0.100355
 10
2.884915
 20
2.96574
 42
0.103301
  0
LWPOLYLINE
  5
5AD
330
68B
100
AcDbEntity
  8
0
100
AcDbPolyline
 90
       16
 70
     1
 43
0.0
 10
2.908755
 20
3.137399
 42
0.103301
 10
2.911991
 20
3.138075
 42
0.100355
 10
2.914775
 20
3.140028
 42
0.096452
 10
2.916614
 20
3.142918
 42
0.093862
 10
2.917268
 20
3.146375
 42
0.093862
 10
2.916614
 20
3.149831
 42
0.096452
 10
2.914775
 20
3.152721
 42
0.100355
 10
2.911991
 20
3.154675
 42
0.103301
 10
2.908755
 20
3.15535
 42
0.103301
 10
2.905519
 20
3.154675
 42
0.100355
 10
2.902735
 20
3.152721
 42
0.096452
 10
2.900896
 20
3.149831
 42
0.093862
 10
2.900241
 20
3.146375
 42
0.093862
 10
2.900896
 20
3.142918
 42
0.096452
 10
2.902735
 20
3.140028
 42
0.100355
 10
2.905519
 20
3.138075
 42
0.103301
  0
LWPOLYLINE
  5
5BF
330
68B
100
AcDbEntity
  8
0
100
AcDbPolyline
 90
       16
 70
     1
 43
0.0
 10
3.133414
 20
3.189424
 42
0.103301
 10
3.13665
 20
3.1901
 42
0.100355
 10
3.139434
 20
3.192053
 42
0.096452
 10
3.141273
 20
3.194943
 42
0.093862
 10
3.141928
 20
3.1984
 42
0.093862
 10
3.141273
 20
3.201857
 42
0.096452
 10
3.139434
 20
3.204747
 42
0.100355
 10
3.13665
 20
3.2067
 42
0.103301
 10
3.133414
 20
3.207376
 42
0.103301
 10
3.130178
 20
3.2067
 42
0.100355
 10
3.127395
 20
3.204747
 42
0.096452
 10
3.125556
 20
3.201857
 42
0.093862
 10
3.124901
 20
3.1984
 42
0.093862
 10
3.125556
 20
3.194943
 42
0.096452
 10
3.127395
 20
3.192053
 42
0.100355
 10
3.130178
 20
3.1901
 42
0.103301
  0
LWPOLYLINE
  5
5D1
330
68B
100
AcDbEntity
  8
0
100
AcDbPolyline
 90
       16
 70
     1
 43
0.0
 10
3.133414
 20
3.009205
 42
0.103301
 10
3.13665
 20
3.00988
 42
0.100355
 10
3.139434
 20
3.011834
 42
0.096452
 10
3.141273
 20
3.014724
 42
0.093862
 10
3.141928
 20
3.01818
 42
0.093862
 10
3.141273
 20
3.021637
 42
0.096452
 10
3.139434
 20
3.024527
 42
0.100355
 10
3.13665
 20
3.02648
 42
0.103301
 10
3.133414
 20
3.027156
 42
0.103301
 10
3.130178
 20
3.02648
 42
0.100355
 10
3.127395
 20
3.024527
 42
0.096452
 10
3.125556
 20
3.021637
 42
0.093862
 10
3.124901
 20
3.01818
 42
0.093862
 10
3.125556
 20
3.014724
 42
0.096452
 10
3.127395
 20
3.011834
 42
0.100355
 10
3.130178
 20
3.00988
 42
0.103301
  0
LWPOLYLINE
  5
5E3
330
68B
100
AcDbEntity
  8
0
100
AcDbPolyline
 90
       16
 70
     1
 43
0.0
 10
2.908755
 20
3.27383
 42
0.103301
 10
2.911991
 20
3.274506
 42
0.100355
 10
2.914775
 20
3.276459
 42
0.096452
 10
2.916614
 20
3.279349
 42
0.093862
 10
2.917268
 20
3.282806
 42
0.093862
 10
2.916614
 20
3.286263
 42
0.096452
 10
2.914775
 20
3.289153
 42
0.100355
 10
2.911991
 20
3.291106
 42
0.103301
 10
2.908755
 20
3.291782
 42
0.103301
 10
2.905519
 20
3.291106
 42
0.100355
 10
2.902735
 20
3.289153
 42
0.096452
 10
2.900896
 20
3.286263
 42
0.093862
 10
2.900241
 20
3.282806
 42
0.093862
 10
2.900896
 20
3.279349
 42
0.096452
 10
2.902735
 20
3.276459
 42
0.100355
 10
2.905519
 20
3.274506
 42
0.103301
  0
LINE
  5
5F6
330
68B
100
AcDbEntity
  8
0
100
AcDbLine
 10
2.87108
 20
2.902354
 30
0.0
 11
2.8601
 21
2.8975
 31
0.0
  0
LINE
  5
5F8
330
68B
100
AcDbEntity
  8
0
100
AcDbLine
 10
3.014075
 20
3.453488
 30
0.0
 11
3.014075
 21
2.936103
 31
0.0
  0
LWPOLYLINE
  5
5FA
330
68B
100
AcDbEntity
  8
0
100
AcDbPolyline
 90
       26
 70
     1
 43
0.0
 10
2.970332
 20
4.748592
 10
2.970332
 20
4.597934
 10
3.019286
 20
4.565261000000001
 10
3.019286
 20
4.614729000000001
 10
3.077153
 20
4.640643
 10
3.077153
 20
4.705152
 10
3.019286
 20
4.728473999999999
 10
3.019286
 20
4.784608
 10
3.077153
 20
4.805987
 10
3.077153
 20
4.888833
 10
3.019286
 20
4.931591
 10
3.019286
 20
4.993501999999999
 10
2.926988
 20
5.033078
 10
2.777331
 20
4.956491000000001
 10
2.774635
 20
4.913752
 10
2.833871
 20
4.901843
 10
2.833871
 20
4.875041
 10
2.774635
 20
4.825019999999999
 10
2.774635
 20
4.760145
 10
2.833871
 20
4.754162
 10
2.833871
 20
4.701879
 10
2.774635
 20
4.664382
 10
2.774635
 20
4.549644
 10
2.876179
 20
4.601687999999999
 10
2.876179
 20
4.741473
 10
2.926988
 20
4.789933
  0
LWPOLYLINE
  5
616
330
68B
100
AcDbEntity
  8
0
100
AcDbPolyline
 90
       16
 70
     1
 43
0.0
 10
2.802685
 20
4.620686
 42
0.103301
 10
2.805921
 20
4.621361
 42
0.100355
 10
2.808705
 20
4.623315
 42
0.096452
 10
2.810544
 20
4.626205000000001
 42
0.093862
 10
2.811199
 20
4.629661000000001
 42
0.093862
 10
2.810544
 20
4.633118
 42
0.096452
 10
2.808705
 20
4.636008
 42
0.100355
 10
2.805921
 20
4.637961
 42
0.103301
 10
2.802685
 20
4.638637
 42
0.103301
 10
2.799449
 20
4.637961
 42
0.100355
 10
2.796665
 20
4.636008
 42
0.096452
 10
2.794827
 20
4.633118
 42
0.093862
 10
2.794172
 20
4.629661000000001
 42
0.093862
 10
2.794827
 20
4.626205000000001
 42
0.096452
 10
2.796665
 20
4.623315
 42
0.100355
 10
2.799449
 20
4.621361
 42
0.103301
  0
LWPOLYLINE
  5
628
330
68B
100
AcDbEntity
  8
0
100
AcDbPolyline
 90
       16
 70
     1
 43
0.0
 10
2.823289
 20
4.793019999999999
 42
0.103301
 10
2.826525
 20
4.793696
 42
0.100355
 10
2.829309
 20
4.795649
 42
0.096452
 10
2.831148
 20
4.798539
 42
0.093862
 10
2.831803
 20
4.801996
 42
0.093862
 10
2.831148
 20
4.805453
 42
0.096452
 10
2.829309
 20
4.808343
 42
0.100355
 10
2.826525
 20
4.810296
 42
0.103301
 10
2.823289
 20
4.810972000000001
 42
0.103301
 10
2.820054
 20
4.810296
 42
0.100355
 10
2.81727
 20
4.808343
 42
0.096452
 10
2.815431
 20
4.805453
 42
0.093862
 10
2.814776
 20
4.801996
 42
0.093862
 10
2.815431
 20
4.798539
 42
0.096452
 10
2.81727
 20
4.795649
 42
0.100355
 10
2.820054
 20
4.793696
 42
0.103301
  0
LWPOLYLINE
  5
63A
330
68B
100
AcDbEntity
  8
0
100
AcDbPolyline
 90
       16
 70
     1
 43
0.0
 10
2.823289
 20
4.929452
 42
0.103301
 10
2.826525
 20
4.930128
 42
0.100355
 10
2.829309
 20
4.932081
 42
0.096452
 10
2.831148
 20
4.934971
 42
0.093862
 10
2.831803
 20
4.938428
 42
0.093862
 10
2.831148
 20
4.941885
 42
0.096452
 10
2.829309
 20
4.944775
 42
0.100355
 10
2.826525
 20
4.946728
 42
0.103301
 10
2.823289
 20
4.947404
 42
0.103301
 10
2.820054
 20
4.946728
 42
0.100355
 10
2.81727
 20
4.944775
 42
0.096452
 10
2.815431
 20
4.941885
 42
0.093862
 10
2.814776
 20
4.938428
 42
0.093862
 10
2.815431
 20
4.934971
 42
0.096452
 10
2.81727
 20
4.932081
 42
0.100355
 10
2.820054
 20
4.930128
 42
0.103301
  0
LWPOLYLINE
  5
64D
330
68B
100
AcDbEntity
  8
0
100
AcDbPolyline
 90
       16
 70
     1
 43
0.0
 10
3.047949
 20
4.664826000000001
 42
0.103301
 10
3.051185
 20
4.665502
 42
0.100355
 10
3.053969
 20
4.667455
 42
0.096452
 10
3.055808
 20
4.670344999999999
 42
0.093862
 10
3.056462
 20
4.673801999999999
 42
0.093862
 10
3.055808
 20
4.677258999999999
 42
0.096452
 10
3.053969
 20
4.680149
 42
0.100355
 10
3.051185
 20
4.682102
 42
0.103301
 10
3.047949
 20
4.682778
 42
0.103301
 10
3.044713
 20
4.682102
 42
0.100355
 10
3.041929
 20
4.680149
 42
0.096452
 10
3.04009
 20
4.677258999999999
 42
0.093862
 10
3.039436
 20
4.673801999999999
 42
0.093862
 10
3.04009
 20
4.670344999999999
 42
0.096452
 10
3.041929
 20
4.667455
 42
0.100355
 10
3.044713
 20
4.665502
 42
0.103301
  0
LWPOLYLINE
  5
65F
330
68B
100
AcDbEntity
  8
0
100
AcDbPolyline
 90
       16
 70
     1
 43
0.0
 10
3.047949
 20
4.845046
 42
0.103301
 10
3.051185
 20
4.845722
 42
0.100355
 10
3.053969
 20
4.847675
 42
0.096452
 10
3.055808
 20
4.850565000000001
 42
0.093862
 10
3.056462
 20
4.854022000000001
 42
0.093862
 10
3.055808
 20
4.857478
 42
0.096452
 10
3.053969
 20
4.860368
 42
0.100355
 10
3.051185
 20
4.862322
 42
0.103301
 10
3.047949
 20
4.862997
 42
0.103301
 10
3.044713
 20
4.862322
 42
0.100355
 10
3.041929
 20
4.860368
 42
0.096452
 10
3.04009
 20
4.857478
 42
0.093862
 10
3.039436
 20
4.854022000000001
 42
0.093862
 10
3.04009
 20
4.850565000000001
 42
0.096452
 10
3.041929
 20
4.847675
 42
0.100355
 10
3.044713
 20
4.845722
 42
0.103301
  0
TEXT
  5
671
330
68B
100
AcDbEntity
  8
0
100
AcDbText
 10
3.836011
 20
0.709336
 30
0.0
 40
0.2
  1
Simpson Strong-Tie
100
AcDbText
  0
TEXT
  5
672
330
68B
100
AcDbEntity
  8
0
100
AcDbText
 10
3.836011
 20
0.385527
 30
0.0
 40
0.2
  1
A35- Chimney Framing
100
AcDbText
  0
ENDSEC
  0
SECTION
  2
OBJECTS
  0
DICTIONARY
  5
67F
330
0
100
AcDbDictionary
281
     1
  3
ACAD_COLOR
350
6B3
  3
ACAD_GROUP
350
680
  3
ACAD_LAYOUT
350
688
  3
ACAD_MATERIAL
350
6B5
  3
ACAD_MLINESTYLE
350
685
  3
ACAD_PLOTSETTINGS
350
687
  3
ACAD_PLOTSTYLENAME
350
681
  3
ACDBHEADERROUNDTRIPXREC
350
6B2
  0
DICTIONARY
  5
6B3
102
{ACAD_REACTORS
330
67F
102
}
330
67F
100
AcDbDictionary
281
     1
  0
DICTIONARY
  5
680
102
{ACAD_REACTORS
330
67F
102
}
330
67F
100
AcDbDictionary
281
     1
  0
DICTIONARY
  5
688
102
{ACAD_REACTORS
330
67F
102
}
330
67F
100
AcDbDictionary
281
     1
  3
Layout1
350
68A
  3
Model
350
68C
  0
DICTIONARY
  5
6B5
102
{ACAD_REACTORS
330
67F
102
}
330
67F
100
AcDbDictionary
281
     1
  0
DICTIONARY
  5
685
102
{ACAD_REACTORS
330
67F
102
}
330
67F
100
AcDbDictionary
281
     1
  3
Standard
350
686
  0
DICTIONARY
  5
687
102
{ACAD_REACTORS
330
67F
102
}
330
67F
100
AcDbDictionary
281
     1
  0
ACDBDICTIONARYWDFLT
  5
681
102
{ACAD_REACTORS
330
67F
102
}
330
67F
100
AcDbDictionary
281
     1
  3
Normal
350
682
100
AcDbDictionaryWithDefault
340
682
  0
DICTIONARY
  5
6B2
102
{ACAD_REACTORS
330
67F
102
}
330
67F
100
AcDbDictionary
281
     1
  3
COLORDICT
350
6B4
  3
MATERIALDICT
350
6B6
  0
LAYOUT
  5
68A
102
{ACAD_REACTORS
330
688
102
}
102
{ACAD_XDICTIONARY
360
6B7
102
}
330
688
100
AcDbPlotSettings
  1

  2

  4

  6

 40
0.0
 41
0.0
 42
0.0
 43
0.0
 44
0.0
 45
0.0
 46
0.0
 47
0.0
 48
0.0
 49
0.0
140
0.0
141
0.0
142
1.0
143
1.0
 70
   688
 72
     0
 73
     0
 74
     5
  7

 75
    16
147
1.0
148
0.0
149
0.0
100
AcDbLayout
  1
Layout1
 70
     1
 71
     1
 10
0.0
 20
0.0
 11
12.0
 21
9.0
 12
0.0
 22
0.0
 32
0.0
 14
1.000000000000000E+20
 24
1.000000000000000E+20
 34
1.000000000000000E+20
 15
-1.000000000000000E+20
 25
-1.000000000000000E+20
 35
-1.000000000000000E+20
146
0.0
 13
0.0
 23
0.0
 33
0.0
 16
1.0
 26
0.0
 36
0.0
 17
0.0
 27
1.0
 37
0.0
 76
     0
330
689
  0
LAYOUT
  5
68C
102
{ACAD_REACTORS
330
688
102
}
102
{ACAD_XDICTIONARY
360
6B9
102
}
330
688
100
AcDbPlotSettings
  1

  2

  4

  6

 40
0.0
 41
0.0
 42
0.0
 43
0.0
 44
0.0
 45
0.0
 46
0.0
 47
0.0
 48
0.0
 49
0.0
140
0.0
141
0.0
142
1.0
143
1.0
 70
  1712
 72
     0
 73
     0
 74
     0
  7

 75
     0
147
1.0
148
0.0
149
0.0
100
AcDbLayout
  1
Model
 70
     1
 71
     0
 10
0.0
 20
0.0
 11
0.0
 21
0.0
 12
0.0
 22
0.0
 32
0.0
 14
0.0
 24
0.0
 34
0.0
 15
0.0
 25
0.0
 35
0.0
146
0.0
 13
0.0
 23
0.0
 33
0.0
 16
1.0
 26
0.0
 36
0.0
 17
0.0
 27
1.0
 37
0.0
 76
     0
330
68B
  0
MLINESTYLE
  5
686
102
{ACAD_REACTORS
330
685
102
}
330
685
100
AcDbMlineStyle
  2
Standard
 70
     0
  3

 62
   256
 51
90.0
 52
90.0
 71
     2
 49
0.5
 62
   256
  6
BYLAYER
 49
-0.5
 62
   256
  6
BYLAYER
  0
ACDBPLACEHOLDER
  5
682
102
{ACAD_REACTORS
330
681
102
}
330
681
  0
XRECORD
  5
6B4
102
{ACAD_REACTORS
330
6B2
102
}
330
6B2
100
AcDbXrecord
340
6B3
  0
XRECORD
  5
6B6
102
{ACAD_REACTORS
330
6B2
102
}
330
6B2
100
AcDbXrecord
340
6B5
  0
DICTIONARY
  5
6B7
330
68A
100
AcDbDictionary
280
     1
281
     1
  3
ACAD_XREC_ROUNDTRIP
360
6B8
  0
DICTIONARY
  5
6B9
330
68C
100
AcDbDictionary
280
     1
281
     1
  3
ACAD_XREC_ROUNDTRIP
360
6BA
  0
XRECORD
  5
6B8
102
{ACAD_REACTORS
330
6B7
102
}
330
6B7
100
AcDbXrecord
102
SHADEPLOT
 70
     0
102
SHADEPLOTRESLEVEL
 70
     0
102
SHADEPLOTCUSTOMDPI
 70
     0
  0
XRECORD
  5
6BA
102
{ACAD_REACTORS
330
6B9
102
}
330
6B9
100
AcDbXrecord
102
SHADEPLOT
 70
-25416
102
SHADEPLOTRESLEVEL
 70
 -2880
102
SHADEPLOTCUSTOMDPI
 70
 20968
  0
ENDSEC
  0
EOF
