  0
SECTION
  2
HEADER
  9
$ACADVER
  1
AC1015
  9
$ACADMAINTVER
 70
     6
  9
$DWGCODEPAGE
  3
ANSI_1252
  9
$INSBASE
 10
0.0
 20
0.0
 30
0.0
  9
$EXTMIN
 10
53.69317471481353
 20
68.20160343762844
 30
-0.0015258207003612
  9
$EXTMAX
 10
159.6576273748513
 20
144.3750512870919
 30
0.0000000349246008
  9
$LIMMIN
 10
53.56675618489583
 20
68.07508680555554
  9
$LIMMAX
 10
159.7840454101562
 20
144.8471449110243
  9
$ORTHOMODE
 70
     0
  9
$REGENMODE
 70
     1
  9
$FILLMODE
 70
     1
  9
$QTEXTMODE
 70
     0
  9
$MIRRTEXT
 70
     1
  9
$LTSCALE
 40
1.0
  9
$ATTMODE
 70
     1
  9
$TEXTSIZE
 40
0.2
  9
$TRACEWID
 40
0.05
  9
$TEXTSTYLE
  7
STANDARD
  9
$CLAYER
  8
0
  9
$CELTYPE
  6
CONTINUOUS
  9
$CECOLOR
 62
   256
  9
$CELTSCALE
 40
1.0
  9
$DISPSILH
 70
     0
  9
$DIMSCALE
 40
1.0
  9
$DIMASZ
 40
0.18
  9
$DIMEXO
 40
0.0625
  9
$DIMDLI
 40
0.38
  9
$DIMRND
 40
0.0
  9
$DIMDLE
 40
0.0
  9
$DIMEXE
 40
0.18
  9
$DIMTP
 40
0.0
  9
$DIMTM
 40
0.0
  9
$DIMTXT
 40
0.18
  9
$DIMCEN
 40
0.09
  9
$DIMTSZ
 40
0.0
  9
$DIMTOL
 70
     0
  9
$DIMLIM
 70
     0
  9
$DIMTIH
 70
     1
  9
$DIMTOH
 70
     1
  9
$DIMSE1
 70
     0
  9
$DIMSE2
 70
     0
  9
$DIMTAD
 70
     0
  9
$DIMZIN
 70
     0
  9
$DIMBLK
  1

  9
$DIMASO
 70
     1
  9
$DIMSHO
 70
     1
  9
$DIMPOST
  1

  9
$DIMAPOST
  1

  9
$DIMALT
 70
     0
  9
$DIMALTD
 70
     2
  9
$DIMALTF
 40
25.4
  9
$DIMLFAC
 40
1.0
  9
$DIMTOFL
 70
     0
  9
$DIMTVP
 40
0.0
  9
$DIMTIX
 70
     0
  9
$DIMSOXD
 70
     0
  9
$DIMSAH
 70
     0
  9
$DIMBLK1
  1

  9
$DIMBLK2
  1

  9
$DIMSTYLE
  2
STANDARD
  9
$DIMCLRD
 70
     0
  9
$DIMCLRE
 70
     0
  9
$DIMCLRT
 70
     0
  9
$DIMTFAC
 40
1.0
  9
$DIMGAP
 40
0.09
  9
$DIMJUST
 70
     0
  9
$DIMSD1
 70
     0
  9
$DIMSD2
 70
     0
  9
$DIMTOLJ
 70
     1
  9
$DIMTZIN
 70
     0
  9
$DIMALTZ
 70
     0
  9
$DIMALTTZ
 70
     0
  9
$DIMUPT
 70
     0
  9
$DIMDEC
 70
     4
  9
$DIMTDEC
 70
     4
  9
$DIMALTU
 70
     2
  9
$DIMALTTD
 70
     2
  9
$DIMTXSTY
  7
STANDARD
  9
$DIMAUNIT
 70
     0
  9
$DIMADEC
 70
     0
  9
$DIMALTRND
 40
0.0
  9
$DIMAZIN
 70
     0
  9
$DIMDSEP
 70
    46
  9
$DIMATFIT
 70
     3
  9
$DIMFRAC
 70
     0
  9
$DIMLDRBLK
  1

  9
$DIMLUNIT
 70
     2
  9
$DIMLWD
 70
    -2
  9
$DIMLWE
 70
    -2
  9
$DIMTMOVE
 70
     0
  9
$LUNITS
 70
     2
  9
$LUPREC
 70
     4
  9
$SKETCHINC
 40
0.1
  9
$FILLETRAD
 40
0.0
  9
$AUNITS
 70
     0
  9
$AUPREC
 70
     0
  9
$MENU
  1
acad
  9
$ELEVATION
 40
0.0
  9
$PELEVATION
 40
0.0
  9
$THICKNESS
 40
0.0
  9
$LIMCHECK
 70
     0
  9
$CHAMFERA
 40
0.0
  9
$CHAMFERB
 40
0.0
  9
$CHAMFERC
 40
0.0
  9
$CHAMFERD
 40
0.0
  9
$SKPOLY
 70
     0
  9
$TDCREATE
 40
2444971.666666667
  9
$TDUCREATE
 40
2444972.0
  9
$TDUPDATE
 40
2452215.423053356
  9
$TDUUPDATE
 40
2452215.75638669
  9
$TDINDWG
 40
0.0000762731
  9
$TDUSRTIMER
 40
0.0000762731
  9
$USRTIMER
 70
     1
  9
$ANGBASE
 50
0.0
  9
$ANGDIR
 70
     0
  9
$PDMODE
 70
     0
  9
$PDSIZE
 40
0.0
  9
$PLINEWID
 40
0.0
  9
$SPLFRAME
 70
     0
  9
$SPLINETYPE
 70
     6
  9
$SPLINESEGS
 70
     8
  9
$HANDSEED
  5
1F6
  9
$SURFTAB1
 70
     6
  9
$SURFTAB2
 70
     6
  9
$SURFTYPE
 70
     6
  9
$SURFU
 70
     6
  9
$SURFV
 70
     6
  9
$UCSBASE
  2

  9
$UCSNAME
  2

  9
$UCSORG
 10
0.0
 20
0.0
 30
0.0
  9
$UCSXDIR
 10
1.0
 20
0.0
 30
0.0
  9
$UCSYDIR
 10
0.0
 20
1.0
 30
0.0
  9
$UCSORTHOREF
  2

  9
$UCSORTHOVIEW
 70
     0
  9
$UCSORGTOP
 10
0.0
 20
0.0
 30
0.0
  9
$UCSORGBOTTOM
 10
0.0
 20
0.0
 30
0.0
  9
$UCSORGLEFT
 10
0.0
 20
0.0
 30
0.0
  9
$UCSORGRIGHT
 10
0.0
 20
0.0
 30
0.0
  9
$UCSORGFRONT
 10
0.0
 20
0.0
 30
0.0
  9
$UCSORGBACK
 10
0.0
 20
0.0
 30
0.0
  9
$PUCSBASE
  2

  9
$PUCSNAME
  2

  9
$PUCSORG
 10
0.0
 20
0.0
 30
0.0
  9
$PUCSXDIR
 10
1.0
 20
0.0
 30
0.0
  9
$PUCSYDIR
 10
0.0
 20
1.0
 30
0.0
  9
$PUCSORTHOREF
  2

  9
$PUCSORTHOVIEW
 70
     0
  9
$PUCSORGTOP
 10
0.0
 20
0.0
 30
0.0
  9
$PUCSORGBOTTOM
 10
0.0
 20
0.0
 30
0.0
  9
$PUCSORGLEFT
 10
0.0
 20
0.0
 30
0.0
  9
$PUCSORGRIGHT
 10
0.0
 20
0.0
 30
0.0
  9
$PUCSORGFRONT
 10
0.0
 20
0.0
 30
0.0
  9
$PUCSORGBACK
 10
0.0
 20
0.0
 30
0.0
  9
$USERI1
 70
     0
  9
$USERI2
 70
     0
  9
$USERI3
 70
     0
  9
$USERI4
 70
     0
  9
$USERI5
 70
     0
  9
$USERR1
 40
0.0
  9
$USERR2
 40
0.0
  9
$USERR3
 40
0.0
  9
$USERR4
 40
0.0
  9
$USERR5
 40
0.0
  9
$WORLDVIEW
 70
     1
  9
$SHADEDGE
 70
     3
  9
$SHADEDIF
 70
    70
  9
$TILEMODE
 70
     1
  9
$MAXACTVP
 70
    16
  9
$PINSBASE
 10
0.0
 20
0.0
 30
0.0
  9
$PLIMCHECK
 70
     0
  9
$PEXTMIN
 10
1.000000000000000E+20
 20
1.000000000000000E+20
 30
1.000000000000000E+20
  9
$PEXTMAX
 10
-1.000000000000000E+20
 20
-1.000000000000000E+20
 30
-1.000000000000000E+20
  9
$PLIMMIN
 10
0.0
 20
0.0
  9
$PLIMMAX
 10
12.0
 20
9.0
  9
$UNITMODE
 70
     0
  9
$VISRETAIN
 70
     0
  9
$PLINEGEN
 70
     1
  9
$PSLTSCALE
 70
     0
  9
$TREEDEPTH
 70
  3020
  9
$CMLSTYLE
  2
STANDARD
  9
$CMLJUST
 70
     0
  9
$CMLSCALE
 40
1.0
  9
$PROXYGRAPHICS
 70
     0
  9
$MEASUREMENT
 70
     0
  9
$CELWEIGHT
370
    -1
  9
$ENDCAPS
280
     0
  9
$JOINSTYLE
280
     0
  9
$LWDISPLAY
290
     0
  9
$INSUNITS
 70
     0
  9
$HYPERLINKBASE
  1

  9
$STYLESHEET
  1

  9
$XEDIT
290
     1
  9
$CEPSNTYPE
380
     0
  9
$PSTYLEMODE
290
     1
  9
$FINGERPRINTGUID
  2
{87DE94EB-CEA3-11D5-923F-00805F198AD5}
  9
$VERSIONGUID
  2
{87DE94ED-CEA3-11D5-923F-00805F198AD5}
  9
$EXTNAMES
290
     1
  9
$PSVPSCALE
 40
0.0
  9
$OLESTARTUP
290
     0
  0
ENDSEC
  0
SECTION
  2
CLASSES
  0
CLASS
  1
LWPOLYLINE
  2
AcDbPolyline
  3
AutoCAD 2000
 90
        0
280
     0
281
     1
  0
CLASS
  1
IMAGE
  2
AcDbRasterImage
  3
ISM
 90
      127
280
     0
281
     1
  0
CLASS
  1
OLE2FRAME
  2
AcDbOle2Frame
  3
AutoCAD 2000
 90
        0
280
     0
281
     1
  0
CLASS
  1
HATCH
  2
AcDbHatch
  3
AutoCAD 2000
 90
        0
280
     0
281
     1
  0
CLASS
  1
DICTIONARYVAR
  2
AcDbDictionaryVar
  3
AutoCAD 2000
 90
        0
280
     0
281
     0
  0
CLASS
  1
RASTERVARIABLES
  2
AcDbRasterVariables
  3
ISM
 90
        0
280
     0
281
     0
  0
CLASS
  1
IMAGEDEF
  2
AcDbRasterImageDef
  3
ISM
 90
        0
280
     0
281
     0
  0
CLASS
  1
IMAGEDEF_REACTOR
  2
AcDbRasterImageDefReactor
  3
ISM
 90
        1
280
     0
281
     0
  0
CLASS
  1
IDBUFFER
  2
AcDbIdBuffer
  3
AutoCAD 2000
 90
        0
280
     0
281
     0
  0
CLASS
  1
SPATIAL_FILTER
  2
AcDbSpatialFilter
  3
AutoCAD 2000
 90
        0
280
     0
281
     0
  0
CLASS
  1
XRECORD
  2
AcDbXrecord
  3
AutoCAD 2000
 90
        0
280
     0
281
     0
  0
CLASS
  1
SORTENTSTABLE
  2
AcDbSortentsTable
  3
AutoCAD 2000
 90
        0
280
     0
281
     0
  0
CLASS
  1
LAYER_INDEX
  2
AcDbLayerIndex
  3
AutoCAD 2000
 90
        0
280
     0
281
     0
  0
CLASS
  1
SPATIAL_INDEX
  2
AcDbSpatialIndex
  3
AutoCAD 2000
 90
        0
280
     0
281
     0
  0
CLASS
  1
OBJECT_PTR
  2
CAseDLPNTableRecord
  3
ASE-LPNTableRecord
 90
        1
280
     1
281
     0
  0
CLASS
  1
LAYOUT
  2
AcDbLayout
  3
ObjectDBX Classes
 90
        0
280
     0
281
     0
  0
CLASS
  1
PLOTSETTINGS
  2
AcDbPlotSettings
  3
AutoCAD 2000
 90
        0
280
     0
281
     0
  0
CLASS
  1
ACDBDICTIONARYWDFLT
  2
AcDbDictionaryWithDefault
  3
AutoCAD 2000
 90
        0
280
     0
281
     0
  0
CLASS
  1
ACDBPLACEHOLDER
  2
AcDbPlaceHolder
  3
ObjectDBX Classes
 90
        0
280
     0
281
     0
  0
CLASS
  1
VBAPROJECT
  2
AcDbVbaProject
  3
ObjectDBX Classes
 90
        0
280
     0
281
     0
  0
CLASS
  1
WIPEOUT
  2
AcDbWipeout
  3
WipeOut|AutoCAD Express Tool|expresstools@autodesk.com
 90
      127
280
     0
281
     1
  0
CLASS
  1
WIPEOUTVARIABLES
  2
AcDbWipeoutVariables
  3
WipeOut|AutoCAD Express Tool|expresstools@autodesk.com
 90
        0
280
     0
281
     0
  0
CLASS
  1
RTEXT
  2
RText
  3
RText|AutoCAD Express Tool|expresstools@autodesk.com
 90
        0
280
     0
281
     1
  0
CLASS
  1
ARCALIGNEDTEXT
  2
AcDbArcAlignedText
  3
ATEXT|AutoCAD Express Tool|expresstools@autodesk.com
 90
        0
280
     0
281
     1
  0
CLASS
  1
LONG_TRANSACTION
  2
AcDbLongTransaction
  3
AutoCAD 2000
 90
        0
280
     1
281
     0
  0
CLASS
  1
LWPOLYLINE
  2
AcDbPolyline
  3
AutoCAD 2000
 90
        0
280
     0
281
     1
  0
CLASS
  1
HATCH
  2
AcDbHatch
  3
AutoCAD 2000
 90
        0
280
     0
281
     1
  0
CLASS
  1
XRECORD
  2
AcDbXrecord
  3
AutoCAD 2000
 90
        0
280
     0
281
     0
  0
ENDSEC
  0
SECTION
  2
TABLES
  0
TABLE
  2
VPORT
  5
7
330
0
100
AcDbSymbolTable
 70
     2
  0
VPORT
  5
1C2
330
7
100
AcDbSymbolTableRecord
100
AcDbViewportTableRecord
  2
*Active
 70
     0
 10
0.0
 20
0.0
 11
1.0
 21
1.0
 12
106.6754010448324
 22
106.2883273623602
 13
0.0
 23
0.0
 14
1.0
 24
1.0
 15
0.0
 25
0.0
 16
0.0
 26
0.0
 36
1.0
 17
0.0
 27
0.0
 37
0.0
 40
77.37302970536048
 41
1.836842105263158
 42
50.0
 43
0.0
 44
0.0
 50
0.0
 51
0.0
 71
     0
 72
   100
 73
     1
 74
     1
 75
     0
 76
     0
 77
     0
 78
     0
281
     0
 65
     1
110
0.0
120
0.0
130
0.0
111
1.0
121
0.0
131
0.0
112
0.0
122
1.0
132
0.0
 79
     0
146
0.0
  0
ENDTAB
  0
TABLE
  2
LTYPE
  5
4
330
0
100
AcDbSymbolTable
 70
     1
  0
LTYPE
  5
11
330
4
100
AcDbSymbolTableRecord
100
AcDbLinetypeTableRecord
  2
BYBLOCK
 70
     0
  3

 72
    65
 73
     0
 40
0.0
  0
LTYPE
  5
12
330
4
100
AcDbSymbolTableRecord
100
AcDbLinetypeTableRecord
  2
BYLAYER
 70
     0
  3

 72
    65
 73
     0
 40
0.0
  0
LTYPE
  5
13
330
4
100
AcDbSymbolTableRecord
100
AcDbLinetypeTableRecord
  2
CONTINUOUS
 70
     0
  3
Solid line
 72
    65
 73
     0
 40
0.0
  0
ENDTAB
  0
TABLE
  2
LAYER
  5
2
330
0
100
AcDbSymbolTable
 70
     2
  0
LAYER
  5
14
330
2
100
AcDbSymbolTableRecord
100
AcDbLayerTableRecord
  2
0
 70
     0
 62
     7
  6
CONTINUOUS
370
    -3
390
0
  0
LAYER
  5
21
330
2
100
AcDbSymbolTableRecord
100
AcDbLayerTableRecord
  2
LAYER_1
 70
     0
 62
     5
  6
CONTINUOUS
370
    -3
390
0
  0
ENDTAB
  0
TABLE
  2
STYLE
  5
3
330
0
100
AcDbSymbolTable
 70
     5
  0
STYLE
  5
17
330
3
100
AcDbSymbolTableRecord
100
AcDbTextStyleTableRecord
  2
STANDARD
 70
     0
 40
0.0
 41
1.0
 50
0.0
 71
     0
 42
0.2
  3
txt
  4

  0
STYLE
  5
1D
330
3
100
AcDbSymbolTableRecord
100
AcDbTextStyleTableRecord
  2
STD
 70
     0
 40
0.0
 41
1.0
 50
0.0
 71
     0
 42
0.2
  3
txt
  4

  0
STYLE
  5
1E
330
3
100
AcDbSymbolTableRecord
100
AcDbTextStyleTableRecord
  2
TATESTD
 70
     4
 40
0.0
 41
1.0
 50
0.0
 71
     0
 42
0.2
  3
txt
  4

  0
STYLE
  5
1F
330
3
100
AcDbSymbolTableRecord
100
AcDbTextStyleTableRecord
  2
KANJISTD
 70
     0
 40
0.0
 41
1.0
 50
0.0
 71
     0
 42
0.2
  3
txt
  4
extfont
  0
STYLE
  5
20
330
3
100
AcDbSymbolTableRecord
100
AcDbTextStyleTableRecord
  2
KANJITATE
 70
     4
 40
0.0
 41
1.0
 50
0.0
 71
     0
 42
0.2
  3
txt
  4
extfont
  0
ENDTAB
  0
TABLE
  2
VIEW
  5
5
330
0
100
AcDbSymbolTable
 70
     0
  0
ENDTAB
  0
TABLE
  2
UCS
  5
6
330
0
100
AcDbSymbolTable
 70
     0
  0
ENDTAB
  0
TABLE
  2
APPID
  5
8
330
0
100
AcDbSymbolTable
 70
     1
  0
APPID
  5
16
330
8
100
AcDbSymbolTableRecord
100
AcDbRegAppTableRecord
  2
ACAD
 70
     0
  0
ENDTAB
  0
TABLE
  2
DIMSTYLE
  5
9
330
0
100
AcDbSymbolTable
 70
     1
100
AcDbDimStyleTable
  0
DIMSTYLE
105
18
330
9
100
AcDbSymbolTableRecord
100
AcDbDimStyleTableRecord
  2
STANDARD
 70
     0
  3

  4

289
     0
340
17
  0
ENDTAB
  0
TABLE
  2
BLOCK_RECORD
  5
1
330
0
100
AcDbSymbolTable
 70
    15
  0
BLOCK_RECORD
  5
A
330
1
100
AcDbSymbolTableRecord
100
AcDbBlockTableRecord
  2
*MODEL_SPACE
340
1BD
  0
BLOCK_RECORD
  5
B
330
1
100
AcDbSymbolTableRecord
100
AcDbBlockTableRecord
  2
*PAPER_SPACE
340
1BE
  0
BLOCK_RECORD
  5
6C
330
1
100
AcDbSymbolTableRecord
100
AcDbBlockTableRecord
  2
AI9-BLK1
340
0
102
{BLKREFS
331
6D
102
}
  0
BLOCK_RECORD
  5
6F
330
1
100
AcDbSymbolTableRecord
100
AcDbBlockTableRecord
  2
AI9-BLK2
340
0
102
{BLKREFS
331
70
102
}
  0
BLOCK_RECORD
  5
75
330
1
100
AcDbSymbolTableRecord
100
AcDbBlockTableRecord
  2
AI9-BLK3
340
0
102
{BLKREFS
331
76
102
}
  0
BLOCK_RECORD
  5
7B
330
1
100
AcDbSymbolTableRecord
100
AcDbBlockTableRecord
  2
AI9-BLK4
340
0
102
{BLKREFS
331
7C
102
}
  0
BLOCK_RECORD
  5
81
330
1
100
AcDbSymbolTableRecord
100
AcDbBlockTableRecord
  2
AI9-BLK5
340
0
102
{BLKREFS
331
82
102
}
  0
BLOCK_RECORD
  5
87
330
1
100
AcDbSymbolTableRecord
100
AcDbBlockTableRecord
  2
AI9-BLK6
340
0
102
{BLKREFS
331
88
102
}
  0
BLOCK_RECORD
  5
8D
330
1
100
AcDbSymbolTableRecord
100
AcDbBlockTableRecord
  2
AI9-BLK7
340
0
102
{BLKREFS
331
8E
102
}
  0
BLOCK_RECORD
  5
93
330
1
100
AcDbSymbolTableRecord
100
AcDbBlockTableRecord
  2
AI9-BLK8
340
0
102
{BLKREFS
331
94
102
}
  0
BLOCK_RECORD
  5
99
330
1
100
AcDbSymbolTableRecord
100
AcDbBlockTableRecord
  2
AI9-BLK9
340
0
102
{BLKREFS
331
9A
102
}
  0
BLOCK_RECORD
  5
9F
330
1
100
AcDbSymbolTableRecord
100
AcDbBlockTableRecord
  2
AI9-BLK10
340
0
102
{BLKREFS
331
A0
102
}
  0
BLOCK_RECORD
  5
A5
330
1
100
AcDbSymbolTableRecord
100
AcDbBlockTableRecord
  2
AI9-BLK11
340
0
102
{BLKREFS
331
A6
102
}
  0
BLOCK_RECORD
  5
AB
330
1
100
AcDbSymbolTableRecord
100
AcDbBlockTableRecord
  2
AI9-BLK12
340
0
102
{BLKREFS
331
AC
102
}
  0
BLOCK_RECORD
  5
B1
330
1
100
AcDbSymbolTableRecord
100
AcDbBlockTableRecord
  2
AI9-BLK13
340
0
102
{BLKREFS
331
B2
102
}
  0
BLOCK_RECORD
  5
B7
330
1
100
AcDbSymbolTableRecord
100
AcDbBlockTableRecord
  2
AI9-BLK14
340
0
102
{BLKREFS
331
B8
102
}
  0
BLOCK_RECORD
  5
BB
330
1
100
AcDbSymbolTableRecord
100
AcDbBlockTableRecord
  2
AI9-BLK15
340
0
102
{BLKREFS
331
BC
102
}
  0
ENDTAB
  0
ENDSEC
  0
SECTION
  2
BLOCKS
  0
BLOCK
  5
D
330
A
100
AcDbEntity
  8
0
100
AcDbBlockBegin
  2
*MODEL_SPACE
 70
     0
 10
0.0
 20
0.0
 30
0.0
  3
*MODEL_SPACE
  1

  4

  0
ENDBLK
  5
E
330
A
100
AcDbEntity
  8
0
100
AcDbBlockEnd
  0
BLOCK
  5
F
330
B
100
AcDbEntity
 67
     1
  8
0
100
AcDbBlockBegin
  2
*PAPER_SPACE
 70
     0
 10
0.0
 20
0.0
 30
0.0
  3
*PAPER_SPACE
  1

  4

  0
ENDBLK
  5
10
330
B
100
AcDbEntity
 67
     1
  8
0
100
AcDbBlockEnd
  0
BLOCK
  5
6E
330
6C
100
AcDbEntity
  8
LAYER_1
 62
     7
100
AcDbBlockBegin
  2
AI9-BLK1
 70
     0
 10
0.0
 20
0.0
 30
0.0
  3
AI9-BLK1
  1

  4

  0
INSERT
  5
B8
330
6C
100
AcDbEntity
  8
LAYER_1
 62
     7
100
AcDbBlockReference
  2
AI9-BLK14
 10
0.0
 20
0.0
 30
0.0
  0
INSERT
  5
B2
330
6C
100
AcDbEntity
  8
LAYER_1
 62
     7
100
AcDbBlockReference
  2
AI9-BLK13
 10
-5.174188910590277
 20
9.216405571831597
 30
0.0
  0
INSERT
  5
AC
330
6C
100
AcDbEntity
  8
LAYER_1
 62
     7
100
AcDbBlockReference
  2
AI9-BLK12
 10
-2.763483344184027
 20
4.865336100260416
 30
0.0
  0
INSERT
  5
A6
330
6C
100
AcDbEntity
  8
LAYER_1
 62
     7
100
AcDbBlockReference
  2
AI9-BLK11
 10
-5.056538899739583
 20
-2.719386121961805
 30
0.0
  0
INSERT
  5
A0
330
6C
100
AcDbEntity
  8
LAYER_1
 62
     7
100
AcDbBlockReference
  2
AI9-BLK10
 10
-2.704744466145833
 20
-8.363744439019097
 30
0.0
  0
INSERT
  5
9A
330
6C
100
AcDbEntity
  8
LAYER_1
 62
     7
100
AcDbBlockReference
  2
AI9-BLK9
 10
-1.999188910590278
 20
-10.71571112738715
 30
0.0
  0
INSERT
  5
94
330
6C
100
AcDbEntity
  8
LAYER_1
 62
     7
100
AcDbBlockReference
  2
AI9-BLK8
 10
2.998438856336805
 20
-11.12740003797743
 30
0.0
  0
INSERT
  5
8E
330
6C
100
AcDbEntity
  8
LAYER_1
 62
     7
100
AcDbBlockReference
  2
AI9-BLK7
 10
2.998438856336805
 20
-8.599216715494791
 30
0.0
  0
INSERT
  5
88
330
6C
100
AcDbEntity
  8
LAYER_1
 62
     7
100
AcDbBlockReference
  2
AI9-BLK6
 10
5.526622178819444
 20
-7.952227783203124
 30
0.0
  0
INSERT
  5
82
330
6C
100
AcDbEntity
  8
LAYER_1
 62
     7
100
AcDbBlockReference
  2
AI9-BLK5
 10
2.645661078559027
 20
-1.955177815755208
 30
0.0
  0
INSERT
  5
7C
330
6C
100
AcDbEntity
  8
LAYER_1
 62
     7
100
AcDbBlockReference
  2
AI9-BLK4
 10
5.29149441189236
 20
4.218433295355903
 30
0.0
  0
INSERT
  5
76
330
6C
100
AcDbEntity
  8
LAYER_1
 62
     7
100
AcDbBlockReference
  2
AI9-BLK3
 10
2.057755533854166
 20
10.86264444986979
 30
0.0
  0
INSERT
  5
70
330
6C
100
AcDbEntity
  8
LAYER_1
 62
     7
100
AcDbBlockReference
  2
AI9-BLK2
 10
-4.703761121961805
 20
-12.71464165581597
 30
0.0
  0
ENDBLK
  5
F2
330
6C
100
AcDbEntity
  8
LAYER_1
100
AcDbBlockEnd
  0
BLOCK
  5
71
330
6F
100
AcDbEntity
  8
LAYER_1
 62
     7
100
AcDbBlockBegin
  2
AI9-BLK2
 70
     0
 10
0.0
 20
0.0
 30
0.0
  3
AI9-BLK2
  1

  4

  0
SPLINE
  5
73
330
6F
100
AcDbEntity
  8
LAYER_1
 62
     7
100
AcDbSpline
210
0.0
220
0.0
230
1.0
 70
     8
 71
     3
 72
    14
 73
    10
 74
     0
 42
0.0000000001
 43
0.0000000001
 40
0.0
 40
0.0
 40
0.0
 40
0.0
 40
1.0
 40
1.0
 40
1.0
 40
2.0
 40
2.0
 40
2.0
 40
3.0
 40
3.0
 40
3.0
 40
3.0
 10
-0.0617533365885417
 20
-0.4879977756076389
 30
0.0
 10
-0.070538330078125
 20
-0.4886867947048611
 30
0.0
 10
-0.0793233235677083
 20
-0.4890313042534722
 30
0.0
 10
-0.0881083170572917
 20
-0.4890313042534722
 30
0.0
 10
-0.3580315483940972
 20
-0.4890313042534722
 30
0.0
 10
-0.5771396213107638
 20
-0.2699232313368055
 30
0.0
 10
-0.5771396213107638
 20
0.0001722547743056
 30
0.0
 10
-0.5771396213107638
 20
0.2700954861111111
 30
0.0
 10
-0.3580315483940972
 20
0.4890313042534722
 30
0.0
 10
-0.0881083170572917
 20
0.4890313042534722
 30
0.0
  0
CIRCLE
  5
72
330
6F
100
AcDbEntity
  8
LAYER_1
 62
     7
100
AcDbCircle
 10
0.0881083170572917
 20
0.0001722547743056
 30
0.0
 40
0.4890313042534722
  0
ENDBLK
  5
74
330
6F
100
AcDbEntity
  8
LAYER_1
100
AcDbBlockEnd
  0
BLOCK
  5
77
330
75
100
AcDbEntity
  8
LAYER_1
 62
     7
100
AcDbBlockBegin
  2
AI9-BLK3
 70
     0
 10
0.0
 20
0.0
 30
0.0
  3
AI9-BLK3
  1

  4

  0
SPLINE
  5
79
330
75
100
AcDbEntity
  8
LAYER_1
 62
     7
100
AcDbSpline
210
0.0
220
0.0
230
1.0
 70
     8
 71
     3
 72
    14
 73
    10
 74
     0
 42
0.0000000001
 43
0.0000000001
 40
0.0
 40
0.0
 40
0.0
 40
0.0
 40
1.0
 40
1.0
 40
1.0
 40
2.0
 40
2.0
 40
2.0
 40
3.0
 40
3.0
 40
3.0
 40
3.0
 10
0.0686435275607639
 20
0.5423441569010417
 30
0.0
 10
0.078289794921875
 20
0.5430331759982638
 30
0.0
 10
0.0881083170572917
 20
0.5433776855468749
 30
0.0
 10
0.0979268391927083
 20
0.5433776855468749
 30
0.0
 10
0.3978224012586805
 20
0.5433776855468749
 30
0.0
 10
0.6412183973524305
 20
0.299981689453125
 30
0.0
 10
0.6412183973524305
 20
-0.0000861273871528
 30
0.0
 10
0.6412183973524305
 20
-0.299981689453125
 30
0.0
 10
0.3978224012586805
 20
-0.5433776855468749
 30
0.0
 10
0.0979268391927083
 20
-0.5433776855468749
 30
0.0
  0
CIRCLE
  5
78
330
75
100
AcDbEntity
  8
LAYER_1
 62
     7
100
AcDbCircle
 10
-0.0978407118055556
 20
-0.0000861273871528
 30
0.0
 40
0.5433776855468749
  0
ENDBLK
  5
7A
330
75
100
AcDbEntity
  8
LAYER_1
100
AcDbBlockEnd
  0
BLOCK
  5
7D
330
7B
100
AcDbEntity
  8
LAYER_1
 62
     7
100
AcDbBlockBegin
  2
AI9-BLK4
 70
     0
 10
0.0
 20
0.0
 30
0.0
  3
AI9-BLK4
  1

  4

  0
SPLINE
  5
7F
330
7B
100
AcDbEntity
  8
LAYER_1
 62
     7
100
AcDbSpline
210
0.0
220
0.0
230
1.0
 70
     8
 71
     3
 72
    14
 73
    10
 74
     0
 42
0.0000000001
 43
0.0000000001
 40
0.0
 40
0.0
 40
0.0
 40
0.0
 40
1.0
 40
1.0
 40
1.0
 40
2.0
 40
2.0
 40
2.0
 40
3.0
 40
3.0
 40
3.0
 40
3.0
 10
0.0686435275607639
 20
0.5425164116753471
 30
0.0
 10
0.078289794921875
 20
0.5432054307725694
 30
0.0
 10
0.0881083170572917
 20
0.5433776855468749
 30
0.0
 10
0.0979268391927083
 20
0.5433776855468749
 30
0.0
 10
0.3978224012586805
 20
0.5433776855468749
 30
0.0
 10
0.6412183973524305
 20
0.299981689453125
 30
0.0
 10
0.6412183973524305
 20
0.0000861273871528
 30
0.0
 10
0.6412183973524305
 20
-0.299981689453125
 30
0.0
 10
0.3978224012586805
 20
-0.5433776855468749
 30
0.0
 10
0.0979268391927083
 20
-0.5433776855468749
 30
0.0
  0
CIRCLE
  5
7E
330
7B
100
AcDbEntity
  8
LAYER_1
 62
     7
100
AcDbCircle
 10
-0.0978407118055556
 20
0.0000861273871528
 30
0.0
 40
0.5433776855468749
  0
ENDBLK
  5
80
330
7B
100
AcDbEntity
  8
LAYER_1
100
AcDbBlockEnd
  0
BLOCK
  5
83
330
81
100
AcDbEntity
  8
LAYER_1
 62
     7
100
AcDbBlockBegin
  2
AI9-BLK5
 70
     0
 10
0.0
 20
0.0
 30
0.0
  3
AI9-BLK5
  1

  4

  0
SPLINE
  5
85
330
81
100
AcDbEntity
  8
LAYER_1
 62
     7
100
AcDbSpline
210
0.0
220
0.0
230
1.0
 70
     8
 71
     3
 72
    14
 73
    10
 74
     0
 42
0.0000000001
 43
0.0000000001
 40
0.0
 40
0.0
 40
0.0
 40
0.0
 40
1.0
 40
1.0
 40
1.0
 40
2.0
 40
2.0
 40
2.0
 40
3.0
 40
3.0
 40
3.0
 40
3.0
 10
0.0686435275607639
 20
0.5425164116753471
 30
0.0
 10
0.078289794921875
 20
0.5432054307725694
 30
0.0
 10
0.0881083170572917
 20
0.5433776855468749
 30
0.0
 10
0.0979268391927083
 20
0.5433776855468749
 30
0.0
 10
0.3978224012586805
 20
0.5433776855468749
 30
0.0
 10
0.6412183973524305
 20
0.299981689453125
 30
0.0
 10
0.6412183973524305
 20
0.0000861273871528
 30
0.0
 10
0.6412183973524305
 20
-0.299981689453125
 30
0.0
 10
0.3978224012586805
 20
-0.5433776855468749
 30
0.0
 10
0.0979268391927083
 20
-0.5433776855468749
 30
0.0
  0
CIRCLE
  5
84
330
81
100
AcDbEntity
  8
LAYER_1
 62
     7
100
AcDbCircle
 10
-0.0978407118055556
 20
0.0000861273871528
 30
0.0
 40
0.5433776855468749
  0
ENDBLK
  5
86
330
81
100
AcDbEntity
  8
LAYER_1
100
AcDbBlockEnd
  0
BLOCK
  5
89
330
87
100
AcDbEntity
  8
LAYER_1
 62
     7
100
AcDbBlockBegin
  2
AI9-BLK6
 70
     0
 10
0.0
 20
0.0
 30
0.0
  3
AI9-BLK6
  1

  4

  0
SPLINE
  5
8B
330
87
100
AcDbEntity
  8
LAYER_1
 62
     7
100
AcDbSpline
210
0.0
220
0.0
230
1.0
 70
     8
 71
     3
 72
    14
 73
    10
 74
     0
 42
0.0000000001
 43
0.0000000001
 40
0.0
 40
0.0
 40
0.0
 40
0.0
 40
1.0
 40
1.0
 40
1.0
 40
2.0
 40
2.0
 40
2.0
 40
3.0
 40
3.0
 40
3.0
 40
3.0
 10
0.0686435275607639
 20
0.5423441569010417
 30
0.0
 10
0.078289794921875
 20
0.5430331759982638
 30
0.0
 10
0.0881083170572917
 20
0.5433776855468749
 30
0.0
 10
0.0979268391927083
 20
0.5433776855468749
 30
0.0
 10
0.3978224012586805
 20
0.5433776855468749
 30
0.0
 10
0.6412183973524305
 20
0.299981689453125
 30
0.0
 10
0.6412183973524305
 20
-0.0000861273871528
 30
0.0
 10
0.6412183973524305
 20
-0.299981689453125
 30
0.0
 10
0.3978224012586805
 20
-0.5433776855468749
 30
0.0
 10
0.0979268391927083
 20
-0.5433776855468749
 30
0.0
  0
CIRCLE
  5
8A
330
87
100
AcDbEntity
  8
LAYER_1
 62
     7
100
AcDbCircle
 10
-0.0978407118055556
 20
-0.0000861273871528
 30
0.0
 40
0.5433776855468749
  0
ENDBLK
  5
8C
330
87
100
AcDbEntity
  8
LAYER_1
100
AcDbBlockEnd
  0
BLOCK
  5
8F
330
8D
100
AcDbEntity
  8
LAYER_1
 62
     7
100
AcDbBlockBegin
  2
AI9-BLK7
 70
     0
 10
0.0
 20
0.0
 30
0.0
  3
AI9-BLK7
  1

  4

  0
SPLINE
  5
91
330
8D
100
AcDbEntity
  8
LAYER_1
 62
     7
100
AcDbSpline
210
0.0
220
0.0
230
1.0
 70
     8
 71
     3
 72
    14
 73
    10
 74
     0
 42
0.0000000001
 43
0.0000000001
 40
0.0
 40
0.0
 40
0.0
 40
0.0
 40
1.0
 40
1.0
 40
1.0
 40
2.0
 40
2.0
 40
2.0
 40
3.0
 40
3.0
 40
3.0
 40
3.0
 10
0.0686435275607639
 20
0.5425164116753471
 30
0.0
 10
0.078289794921875
 20
0.5432054307725694
 30
0.0
 10
0.0881083170572917
 20
0.5433776855468749
 30
0.0
 10
0.0979268391927083
 20
0.5433776855468749
 30
0.0
 10
0.3978224012586805
 20
0.5433776855468749
 30
0.0
 10
0.6412183973524305
 20
0.299981689453125
 30
0.0
 10
0.6412183973524305
 20
0.0000861273871528
 30
0.0
 10
0.6412183973524305
 20
-0.299981689453125
 30
0.0
 10
0.3978224012586805
 20
-0.5433776855468749
 30
0.0
 10
0.0979268391927083
 20
-0.5433776855468749
 30
0.0
  0
CIRCLE
  5
90
330
8D
100
AcDbEntity
  8
LAYER_1
 62
     7
100
AcDbCircle
 10
-0.0978407118055556
 20
0.0000861273871528
 30
0.0
 40
0.5433776855468749
  0
ENDBLK
  5
92
330
8D
100
AcDbEntity
  8
LAYER_1
100
AcDbBlockEnd
  0
BLOCK
  5
95
330
93
100
AcDbEntity
  8
LAYER_1
 62
     7
100
AcDbBlockBegin
  2
AI9-BLK8
 70
     0
 10
0.0
 20
0.0
 30
0.0
  3
AI9-BLK8
  1

  4

  0
SPLINE
  5
97
330
93
100
AcDbEntity
  8
LAYER_1
 62
     7
100
AcDbSpline
210
0.0
220
0.0
230
1.0
 70
     8
 71
     3
 72
    14
 73
    10
 74
     0
 42
0.0000000001
 43
0.0000000001
 40
0.0
 40
0.0
 40
0.0
 40
0.0
 40
1.0
 40
1.0
 40
1.0
 40
2.0
 40
2.0
 40
2.0
 40
3.0
 40
3.0
 40
3.0
 40
3.0
 10
0.0686435275607639
 20
0.5425164116753471
 30
0.0
 10
0.078289794921875
 20
0.5432054307725694
 30
0.0
 10
0.0881083170572917
 20
0.5433776855468749
 30
0.0
 10
0.0979268391927083
 20
0.5433776855468749
 30
0.0
 10
0.3978224012586805
 20
0.5433776855468749
 30
0.0
 10
0.6412183973524305
 20
0.299981689453125
 30
0.0
 10
0.6412183973524305
 20
0.0000861273871528
 30
0.0
 10
0.6412183973524305
 20
-0.299981689453125
 30
0.0
 10
0.3978224012586805
 20
-0.5433776855468749
 30
0.0
 10
0.0979268391927083
 20
-0.5433776855468749
 30
0.0
  0
CIRCLE
  5
96
330
93
100
AcDbEntity
  8
LAYER_1
 62
     7
100
AcDbCircle
 10
-0.0978407118055556
 20
0.0000861273871528
 30
0.0
 40
0.5433776855468749
  0
ENDBLK
  5
98
330
93
100
AcDbEntity
  8
LAYER_1
100
AcDbBlockEnd
  0
BLOCK
  5
9B
330
99
100
AcDbEntity
  8
LAYER_1
 62
     7
100
AcDbBlockBegin
  2
AI9-BLK9
 70
     0
 10
0.0
 20
0.0
 30
0.0
  3
AI9-BLK9
  1

  4

  0
SPLINE
  5
9D
330
99
100
AcDbEntity
  8
LAYER_1
 62
     7
100
AcDbSpline
210
0.0
220
0.0
230
1.0
 70
     8
 71
     3
 72
    14
 73
    10
 74
     0
 42
0.0000000001
 43
0.0000000001
 40
0.0
 40
0.0
 40
0.0
 40
0.0
 40
1.0
 40
1.0
 40
1.0
 40
2.0
 40
2.0
 40
2.0
 40
3.0
 40
3.0
 40
3.0
 40
3.0
 10
-0.0617533365885417
 20
-0.4880839029947916
 30
0.0
 10
-0.070538330078125
 20
-0.4887729220920138
 30
0.0
 10
-0.0793233235677083
 20
-0.4891174316406249
 30
0.0
 10
-0.0881083170572917
 20
-0.4891174316406249
 30
0.0
 10
-0.3580315483940972
 20
-0.4891174316406249
 30
0.0
 10
-0.5771396213107638
 20
-0.2700093587239583
 30
0.0
 10
-0.5771396213107638
 20
0.0000861273871528
 30
0.0
 10
-0.5771396213107638
 20
0.2700093587239583
 30
0.0
 10
-0.3580315483940972
 20
0.4891174316406249
 30
0.0
 10
-0.0881083170572917
 20
0.4891174316406249
 30
0.0
  0
CIRCLE
  5
9C
330
99
100
AcDbEntity
  8
LAYER_1
 62
     7
100
AcDbCircle
 10
0.0881083170572917
 20
0.0000861273871528
 30
0.0
 40
0.4890313042534722
  0
ENDBLK
  5
9E
330
99
100
AcDbEntity
  8
LAYER_1
100
AcDbBlockEnd
  0
BLOCK
  5
A1
330
9F
100
AcDbEntity
  8
LAYER_1
 62
     7
100
AcDbBlockBegin
  2
AI9-BLK10
 70
     0
 10
0.0
 20
0.0
 30
0.0
  3
AI9-BLK10
  1

  4

  0
SPLINE
  5
A3
330
9F
100
AcDbEntity
  8
LAYER_1
 62
     7
100
AcDbSpline
210
0.0
220
0.0
230
1.0
 70
     8
 71
     3
 72
    14
 73
    10
 74
     0
 42
0.0000000001
 43
0.0000000001
 40
0.0
 40
0.0
 40
0.0
 40
0.0
 40
1.0
 40
1.0
 40
1.0
 40
2.0
 40
2.0
 40
2.0
 40
3.0
 40
3.0
 40
3.0
 40
3.0
 10
-0.0617533365885417
 20
-0.4880839029947916
 30
0.0
 10
-0.0703660753038194
 20
-0.4887729220920138
 30
0.0
 10
-0.0793233235677083
 20
-0.4891174316406249
 30
0.0
 10
-0.0881083170572917
 20
-0.4891174316406249
 30
0.0
 10
-0.3580315483940972
 20
-0.4891174316406249
 30
0.0
 10
-0.5771396213107638
 20
-0.2700093587239583
 30
0.0
 10
-0.5771396213107638
 20
0.0000861273871528
 30
0.0
 10
-0.5771396213107638
 20
0.2700093587239583
 30
0.0
 10
-0.3580315483940972
 20
0.4891174316406249
 30
0.0
 10
-0.0881083170572917
 20
0.4891174316406249
 30
0.0
  0
CIRCLE
  5
A2
330
9F
100
AcDbEntity
  8
LAYER_1
 62
     7
100
AcDbCircle
 10
0.0881083170572917
 20
0.0000861273871528
 30
0.0
 40
0.4890313042534722
  0
ENDBLK
  5
A4
330
9F
100
AcDbEntity
  8
LAYER_1
100
AcDbBlockEnd
  0
BLOCK
  5
A7
330
A5
100
AcDbEntity
  8
LAYER_1
 62
     7
100
AcDbBlockBegin
  2
AI9-BLK11
 70
     0
 10
0.0
 20
0.0
 30
0.0
  3
AI9-BLK11
  1

  4

  0
SPLINE
  5
A9
330
A5
100
AcDbEntity
  8
LAYER_1
 62
     7
100
AcDbSpline
210
0.0
220
0.0
230
1.0
 70
     8
 71
     3
 72
    14
 73
    10
 74
     0
 42
0.0000000001
 43
0.0000000001
 40
0.0
 40
0.0
 40
0.0
 40
0.0
 40
1.0
 40
1.0
 40
1.0
 40
2.0
 40
2.0
 40
2.0
 40
3.0
 40
3.0
 40
3.0
 40
3.0
 10
-0.0617533365885417
 20
-0.4879977756076389
 30
0.0
 10
-0.0707105848524306
 20
-0.4886867947048611
 30
0.0
 10
-0.0793233235677083
 20
-0.4890313042534722
 30
0.0
 10
-0.0881083170572917
 20
-0.4890313042534722
 30
0.0
 10
-0.3580315483940972
 20
-0.4890313042534722
 30
0.0
 10
-0.5771396213107638
 20
-0.2699232313368055
 30
0.0
 10
-0.5771396213107638
 20
0.0001722547743056
 30
0.0
 10
-0.5771396213107638
 20
0.2700954861111111
 30
0.0
 10
-0.3580315483940972
 20
0.4890313042534722
 30
0.0
 10
-0.0881083170572917
 20
0.4890313042534722
 30
0.0
  0
CIRCLE
  5
A8
330
A5
100
AcDbEntity
  8
LAYER_1
 62
     7
100
AcDbCircle
 10
0.0881083170572917
 20
0.0001722547743056
 30
0.0
 40
0.4890313042534722
  0
ENDBLK
  5
AA
330
A5
100
AcDbEntity
  8
LAYER_1
100
AcDbBlockEnd
  0
BLOCK
  5
AD
330
AB
100
AcDbEntity
  8
LAYER_1
 62
     7
100
AcDbBlockBegin
  2
AI9-BLK12
 70
     0
 10
0.0
 20
0.0
 30
0.0
  3
AI9-BLK12
  1

  4

  0
SPLINE
  5
AF
330
AB
100
AcDbEntity
  8
LAYER_1
 62
     7
100
AcDbSpline
210
0.0
220
0.0
230
1.0
 70
     8
 71
     3
 72
    14
 73
    10
 74
     0
 42
0.0000000001
 43
0.0000000001
 40
0.0
 40
0.0
 40
0.0
 40
0.0
 40
1.0
 40
1.0
 40
1.0
 40
2.0
 40
2.0
 40
2.0
 40
3.0
 40
3.0
 40
3.0
 40
3.0
 10
-0.0617533365885417
 20
-0.4881700303819444
 30
0.0
 10
-0.0707105848524306
 20
-0.4888590494791666
 30
0.0
 10
-0.0793233235677083
 20
-0.4890313042534722
 30
0.0
 10
-0.0881083170572917
 20
-0.4890313042534722
 30
0.0
 10
-0.3580315483940972
 20
-0.4890313042534722
 30
0.0
 10
-0.5771396213107638
 20
-0.2699232313368055
 30
0.0
 10
-0.5771396213107638
 20
0.0
 30
0.0
 10
-0.5771396213107638
 20
0.2700954861111111
 30
0.0
 10
-0.3580315483940972
 20
0.4890313042534722
 30
0.0
 10
-0.0881083170572917
 20
0.4890313042534722
 30
0.0
  0
CIRCLE
  5
AE
330
AB
100
AcDbEntity
  8
LAYER_1
 62
     7
100
AcDbCircle
 10
0.0881083170572917
 20
0.0
 30
0.0
 40
0.4890313042534722
  0
ENDBLK
  5
B0
330
AB
100
AcDbEntity
  8
LAYER_1
100
AcDbBlockEnd
  0
BLOCK
  5
B3
330
B1
100
AcDbEntity
  8
LAYER_1
 62
     7
100
AcDbBlockBegin
  2
AI9-BLK13
 70
     0
 10
0.0
 20
0.0
 30
0.0
  3
AI9-BLK13
  1

  4

  0
SPLINE
  5
B5
330
B1
100
AcDbEntity
  8
LAYER_1
 62
     7
100
AcDbSpline
210
0.0
220
0.0
230
1.0
 70
     8
 71
     3
 72
    14
 73
    10
 74
     0
 42
0.0000000001
 43
0.0000000001
 40
0.0
 40
0.0
 40
0.0
 40
0.0
 40
1.0
 40
1.0
 40
1.0
 40
2.0
 40
2.0
 40
2.0
 40
3.0
 40
3.0
 40
3.0
 40
3.0
 10
-0.0617533365885417
 20
-0.4882561577690972
 30
0.0
 10
-0.0703660753038194
 20
-0.4889451768663194
 30
0.0
 10
-0.0793233235677083
 20
-0.4891174316406249
 30
0.0
 10
-0.0881083170572917
 20
-0.4891174316406249
 30
0.0
 10
-0.3580315483940972
 20
-0.4891174316406249
 30
0.0
 10
-0.5771396213107638
 20
-0.2700093587239583
 30
0.0
 10
-0.5771396213107638
 20
-0.0000861273871528
 30
0.0
 10
-0.5771396213107638
 20
0.2700093587239583
 30
0.0
 10
-0.3580315483940972
 20
0.4891174316406249
 30
0.0
 10
-0.0881083170572917
 20
0.4891174316406249
 30
0.0
  0
CIRCLE
  5
B4
330
B1
100
AcDbEntity
  8
LAYER_1
 62
     7
100
AcDbCircle
 10
0.0881083170572917
 20
-0.0000861273871528
 30
0.0
 40
0.4890313042534722
  0
ENDBLK
  5
B6
330
B1
100
AcDbEntity
  8
LAYER_1
100
AcDbBlockEnd
  0
BLOCK
  5
B9
330
B7
100
AcDbEntity
  8
LAYER_1
 62
     7
100
AcDbBlockBegin
  2
AI9-BLK14
 70
     0
 10
0.0
 20
0.0
 30
0.0
  3
AI9-BLK14
  1

  4

  0
INSERT
  5
BC
330
B7
100
AcDbEntity
  8
LAYER_1
 62
     7
100
AcDbBlockReference
  2
AI9-BLK15
 10
0.0
 20
0.0
 30
0.0
  0
SPLINE
  5
BA
330
B7
100
AcDbEntity
  8
LAYER_1
 62
     7
100
AcDbSpline
210
0.0
220
0.0
230
1.0
 70
     8
 71
     3
 72
     8
 73
     4
 74
     0
 42
0.0000000001
 43
0.0000000001
 40
0.0
 40
0.0
 40
0.0
 40
0.0
 40
1.0
 40
1.0
 40
1.0
 40
1.0
 10
-2.175491672092014
 20
1.367013888888889
 30
0.0
 10
-1.793430582682292
 20
1.602141655815972
 30
0.0
 10
-1.117158338758681
 20
1.072974989149305
 30
0.0
 10
-1.058419460720486
 20
-0.8673027886284721
 30
0.0
  0
ENDBLK
  5
F1
330
B7
100
AcDbEntity
  8
LAYER_1
100
AcDbBlockEnd
  0
BLOCK
  5
BD
330
BB
100
AcDbEntity
  8
LAYER_1
 62
     7
100
AcDbBlockBegin
  2
AI9-BLK15
 70
     0
 10
0.0
 20
0.0
 30
0.0
  3
AI9-BLK15
  1

  4

  0
SPLINE
  5
EF
330
BB
100
AcDbEntity
  8
LAYER_1
 62
     7
100
AcDbSpline
210
0.0
220
0.0
230
1.0
 70
    11
 71
     3
 72
    92
 73
    88
 74
     0
 42
0.0000000001
 43
0.0000000001
 40
0.0
 40
0.0
 40
0.0
 40
0.0
 40
1.0
 40
1.0
 40
1.0
 40
2.0
 40
2.0
 40
2.0
 40
3.0
 40
3.0
 40
3.0
 40
4.0
 40
4.0
 40
4.0
 40
5.0
 40
5.0
 40
5.0
 40
6.0
 40
6.0
 40
6.0
 40
7.0
 40
7.0
 40
7.0
 40
8.0
 40
8.0
 40
8.0
 40
9.0
 40
9.0
 40
9.0
 40
10.0
 40
10.0
 40
10.0
 40
11.0
 40
11.0
 40
11.0
 40
12.0
 40
12.0
 40
12.0
 40
13.0
 40
13.0
 40
13.0
 40
14.0
 40
14.0
 40
14.0
 40
15.0
 40
15.0
 40
15.0
 40
16.0
 40
16.0
 40
16.0
 40
17.0
 40
17.0
 40
17.0
 40
18.0
 40
18.0
 40
18.0
 40
19.0
 40
19.0
 40
19.0
 40
20.0
 40
20.0
 40
20.0
 40
21.0
 40
21.0
 40
21.0
 40
22.0
 40
22.0
 40
22.0
 40
23.0
 40
23.0
 40
23.0
 40
24.0
 40
24.0
 40
24.0
 40
25.0
 40
25.0
 40
25.0
 40
26.0
 40
26.0
 40
26.0
 40
27.0
 40
27.0
 40
27.0
 40
28.0
 40
28.0
 40
28.0
 40
29.0
 40
29.0
 40
29.0
 40
29.0
 10
-0.5935038248697916
 20
-12.13414306640625
 30
0.0
 10
-0.5935038248697916
 20
-12.13414306640625
 30
0.0
 10
-0.5935038248697916
 20
-5.357640245225694
 30
0.0
 10
-0.5935038248697916
 20
-4.829334852430555
 30
0.0
 10
-0.5935038248697916
 20
-4.301201714409721
 30
0.0
 10
-0.1446078830295139
 20
-3.885550944010416
 30
0.0
 10
0.304632568359375
 20
-3.885550944010416
 30
0.0
 10
0.7538730197482638
 20
-3.885550944010416
 30
0.0
 10
1.395349799262153
 20
-4.3253173828125
 30
0.0
 10
1.363482666015625
 20
-5.079965549045139
 30
0.0
 10
1.331271023220486
 20
-5.835130479600694
 30
0.0
 10
1.395349799262153
 20
-11.86990424262153
 30
0.0
 10
1.395349799262153
 20
-11.86990424262153
 30
0.0
 10
1.395349799262153
 20
-11.86990424262153
 30
0.0
 10
4.732097032335069
 20
-13.58004964192708
 30
0.0
 10
4.732097032335069
 20
-13.58004964192708
 30
0.0
 10
4.732097032335069
 20
-13.58004964192708
 30
0.0
 10
5.406129964192708
 20
-13.31581081814236
 30
0.0
 10
5.406129964192708
 20
-13.31581081814236
 30
0.0
 10
5.406129964192708
 20
-13.31581081814236
 30
0.0
 10
5.437997097439236
 20
-10.58522813585069
 30
0.0
 10
5.437997097439236
 20
-10.58522813585069
 30
0.0
 10
5.437997097439236
 20
-10.58522813585069
 30
0.0
 10
7.747933620876736
 20
-9.490549045138888
 30
0.0
 10
7.747933620876736
 20
-9.490549045138888
 30
0.0
 10
7.747933620876736
 20
-9.490549045138888
 30
0.0
 10
7.940686713324652
 20
-6.131408691406249
 30
0.0
 10
7.940686713324652
 20
-6.131408691406249
 30
0.0
 10
7.940686713324652
 20
-6.131408691406249
 30
0.0
 10
5.181681993272569
 20
-4.634686957465277
 30
0.0
 10
5.181681993272569
 20
-4.634686957465277
 30
0.0
 10
5.181681993272569
 20
-4.634686957465277
 30
0.0
 10
5.245760769314236
 20
-0.7005601671006944
 30
0.0
 10
5.245760769314236
 20
-0.7005601671006944
 30
0.0
 10
5.245760769314236
 20
-0.7005601671006944
 30
0.0
 10
7.780145263671875
 20
0.959975857204861
 30
0.0
 10
7.780145263671875
 20
0.959975857204861
 30
0.0
 10
7.780145263671875
 20
0.959975857204861
 30
0.0
 10
7.780145263671875
 20
5.815321180555555
 30
0.0
 10
7.780145263671875
 20
5.815321180555555
 30
0.0
 10
7.780145263671875
 20
5.815321180555555
 30
0.0
 10
5.020968288845486
 20
7.791600206163194
 30
0.0
 10
5.020968288845486
 20
7.791600206163194
 30
0.0
 10
5.020968288845486
 20
7.791600206163194
 30
0.0
 10
4.860599093967013
 20
13.10204264322917
 30
0.0
 10
4.860599093967013
 20
13.10204264322917
 30
0.0
 10
4.860599093967013
 20
13.10204264322917
 30
0.0
 10
0.1854322645399305
 20
15.37873399522569
 30
0.0
 10
0.1854322645399305
 20
15.37873399522569
 30
0.0
 10
0.1854322645399305
 20
15.37873399522569
 30
0.0
 10
-7.908475070529513
 20
10.78676622178819
 30
0.0
 10
-7.908475070529513
 20
10.78676622178819
 30
0.0
 10
-7.908475070529513
 20
10.78676622178819
 30
0.0
 10
-7.940686713324652
 20
7.061584472656249
 30
0.0
 10
-7.940686713324652
 20
7.061584472656249
 30
0.0
 10
-7.940686713324652
 20
7.061584472656249
 30
0.0
 10
-5.14947035047743
 20
5.249981011284722
 30
0.0
 10
-5.14947035047743
 20
5.249981011284722
 30
0.0
 10
-5.14947035047743
 20
5.249981011284722
 30
0.0
 10
-5.117258707682291
 20
1.637970648871528
 30
0.0
 10
-5.117258707682291
 20
1.637970648871528
 30
0.0
 10
-5.117258707682291
 20
1.637970648871528
 30
0.0
 10
-7.683854844835069
 20
-1.7611328125
 30
0.0
 10
-7.683854844835069
 20
-1.7611328125
 30
0.0
 10
-7.683854844835069
 20
-1.7611328125
 30
0.0
 10
-7.587736680772569
 20
-6.465410698784722
 30
0.0
 10
-7.587736680772569
 20
-6.465410698784722
 30
0.0
 10
-7.587736680772569
 20
-6.465410698784722
 30
0.0
 10
-6.593309868706597
 20
-6.955820041232638
 30
0.0
 10
-6.593309868706597
 20
-6.955820041232638
 30
0.0
 10
-6.593309868706597
 20
-6.955820041232638
 30
0.0
 10
-5.181337483723958
 20
-6.201344129774305
 30
0.0
 10
-5.181337483723958
 20
-6.201344129774305
 30
0.0
 10
-5.181337483723958
 20
-6.201344129774305
 30
0.0
 10
-5.181337483723958
 20
-9.013058810763889
 30
0.0
 10
-5.181337483723958
 20
-9.013058810763889
 30
0.0
 10
-5.181337483723958
 20
-9.013058810763889
 30
0.0
 10
-7.362944200303819
 20
-11.85698513454861
 30
0.0
 10
-7.362944200303819
 20
-11.85698513454861
 30
0.0
 10
-7.362944200303819
 20
-11.85698513454861
 30
0.0
 10
-7.331077067057291
 20
-14.85042860243055
 30
0.0
 10
-7.331077067057291
 20
-14.85042860243055
 30
0.0
 10
-7.331077067057291
 20
-14.85042860243055
 30
0.0
 10
-6.272226969401041
 20
-15.37873399522569
 30
0.0
 10
-6.272226969401041
 20
-15.37873399522569
 30
0.0
 10
-6.272226969401041
 20
-15.37873399522569
 30
0.0
 10
-0.5935038248697916
 20
-12.13414306640625
 30
0.0
 10
-0.5935038248697916
 20
-12.13414306640625
 30
0.0
  0
SPLINE
  5
EE
330
BB
100
AcDbEntity
  8
LAYER_1
 62
     7
100
AcDbSpline
210
0.0
220
0.0
230
1.0
 70
     8
 71
     3
 72
    14
 73
    10
 74
     0
 42
0.0000000001
 43
0.0000000001
 40
0.0
 40
0.0
 40
0.0
 40
0.0
 40
1.0
 40
1.0
 40
1.0
 40
2.0
 40
2.0
 40
2.0
 40
3.0
 40
3.0
 40
3.0
 40
3.0
 10
-2.262135823567708
 20
-1.922880045572917
 30
0.0
 10
-2.262135823567708
 20
-1.922880045572917
 30
0.0
 10
-2.164811876085069
 20
1.9626708984375
 30
0.0
 10
-2.164811876085069
 20
1.9626708984375
 30
0.0
 10
-2.116752794053819
 20
2.778125
 30
0.0
 10
-1.090114339192708
 20
3.175689019097222
 30
0.0
 10
-1.118364122178819
 20
1.9626708984375
 30
0.0
 10
-1.118364122178819
 20
1.9626708984375
 30
0.0
 10
-1.074783664279514
 20
-1.343931749131944
 30
0.0
 10
-1.074783664279514
 20
-1.343931749131944
 30
0.0
  0
LINE
  5
ED
330
BB
100
AcDbEntity
  8
LAYER_1
 62
     7
100
AcDbLine
 10
0.1854322645399305
 20
13.01953260633681
 30
0.0
 11
0.5864413791232639
 21
-3.136587185329861
 31
0.0
  0
LWPOLYLINE
  5
E6
330
BB
100
AcDbEntity
  8
LAYER_1
 62
     7
100
AcDbPolyline
 90
        5
 70
     0
 43
0.0
 10
-6.528886583116319
 20
-6.842648654513888
 10
-6.689255777994791
 20
-1.9874755859375
 10
-4.122659640842014
 20
1.373731825086805
 10
-4.251161702473958
 20
4.678611924913194
 10
-5.053007676866319
 20
5.249981011284722
  0
LWPOLYLINE
  5
DF
330
BB
100
AcDbEntity
  8
LAYER_1
 62
     7
100
AcDbPolyline
 90
        5
 70
     0
 43
0.0
 10
-6.30443861219618
 20
-15.34083794487847
 10
-6.365072292751735
 20
-12.14999050564236
 10
-4.251161702473958
 20
-9.277125379774304
 10
-4.359682210286458
 20
-5.638587782118055
 10
-5.181337483723958
 20
-6.238895670572916
  0
LINE
  5
DE
330
BB
100
AcDbEntity
  8
LAYER_1
 62
     7
100
AcDbLine
 10
2.29383070203993
 20
-4.609710015190972
 30
0.0
 11
3.76970960828993
 21
-5.1252685546875
 31
0.0
  0
LINE
  5
DD
330
BB
100
AcDbEntity
  8
LAYER_1
 62
     7
100
AcDbLine
 10
-3.320813666449653
 20
-5.206572808159722
 30
0.0
 11
-1.748816596137153
 21
-4.338581000434028
 31
0.0
  0
LWPOLYLINE
  5
D8
330
BB
100
AcDbEntity
  8
LAYER_1
 62
     7
100
AcDbPolyline
 90
        3
 70
     0
 43
0.0
 10
5.406129964192708
 20
-10.62277967664931
 10
4.764308675130208
 20
-10.93163248697917
 10
4.700402153862846
 20
-13.54215359157986
  0
LWPOLYLINE
  5
D1
330
BB
100
AcDbEntity
  8
LAYER_1
 62
     7
100
AcDbPolyline
 90
        5
 70
     0
 43
0.0
 10
5.181681993272569
 20
-0.7384562174479166
 10
4.475437418619792
 20
-1.356334092881944
 10
4.379319254557291
 20
-4.785754394531249
 10
7.274060736762152
 20
-6.41201171875
 10
7.095949300130208
 20
-9.683646647135415
  0
LWPOLYLINE
  5
C8
330
BB
100
AcDbEntity
  8
LAYER_1
 62
     7
100
AcDbPolyline
 90
        7
 70
     0
 43
0.0
 10
-6.944192843967013
 20
6.518981933593749
 10
-7.001553683810763
 20
10.37025417751736
 10
0.2300462510850694
 20
14.24340277777778
 10
3.980721706814236
 20
12.46022135416667
 10
4.122659640842014
 20
7.301190863715277
 10
7.042205810546874
 20
5.135948350694444
 10
7.074245198567708
 20
0.5827379014756944
  0
LINE
  5
C7
330
BB
100
AcDbEntity
  8
LAYER_1
 62
     7
100
AcDbLine
 10
-7.683854844835069
 20
-1.7611328125
 30
0.0
 11
-6.689255777994791
 21
-1.9874755859375
 31
0.0
  0
LINE
  5
C6
330
BB
100
AcDbEntity
  8
LAYER_1
 62
     7
100
AcDbLine
 10
-5.214410400390625
 20
1.678450520833333
 30
0.0
 11
-4.219811333550346
 21
1.452107747395833
 31
0.0
  0
LINE
  5
C5
330
BB
100
AcDbEntity
  8
LAYER_1
 62
     7
100
AcDbLine
 10
-7.908475070529513
 20
10.78676622178819
 30
0.0
 11
-7.001553683810763
 21
10.37025417751736
 31
0.0
  0
LINE
  5
C4
330
BB
100
AcDbEntity
  8
LAYER_1
 62
     7
100
AcDbLine
 10
3.980721706814236
 20
12.46022135416667
 30
0.0
 11
4.860599093967013
 21
13.10204264322917
 31
0.0
  0
LINE
  5
C3
330
BB
100
AcDbEntity
  8
LAYER_1
 62
     7
100
AcDbLine
 10
7.055469428168403
 20
5.188830566406249
 30
0.0
 11
7.849219428168402
 21
5.717997233072916
 31
0.0
  0
LINE
  5
C2
330
BB
100
AcDbEntity
  8
LAYER_1
 62
     7
100
AcDbLine
 10
4.277344428168402
 20
7.349594455295138
 30
0.0
 11
5.071094428168403
 21
7.878761121961805
 31
0.0
  0
LINE
  5
C1
330
BB
100
AcDbEntity
  8
LAYER_1
 62
     7
100
AcDbLine
 10
4.379319254557291
 20
-4.785754394531249
 30
0.0
 11
5.181681993272569
 21
-4.634686957465277
 31
0.0
  0
LINE
  5
C0
330
BB
100
AcDbEntity
  8
LAYER_1
 62
     7
100
AcDbLine
 10
7.274060736762152
 20
-6.41201171875
 30
0.0
 11
7.940686713324652
 21
-6.131408691406249
 31
0.0
  0
LINE
  5
BF
330
BB
100
AcDbEntity
  8
LAYER_1
 62
     7
100
AcDbLine
 10
-5.14016859266493
 20
-8.861474609375
 30
0.0
 11
-4.251161702473958
 21
-9.277125379774304
 31
0.0
  0
LINE
  5
BE
330
BB
100
AcDbEntity
  8
LAYER_1
 62
     7
100
AcDbLine
 10
-7.362944200303819
 20
-11.85698513454861
 30
0.0
 11
-6.365072292751735
 21
-12.14999050564236
 31
0.0
  0
ENDBLK
  5
F0
330
BB
100
AcDbEntity
  8
LAYER_1
100
AcDbBlockEnd
  0
ENDSEC
  0
SECTION
  2
ENTITIES
  0
LWPOLYLINE
  5
19E
330
A
100
AcDbEntity
  8
LAYER_1
 62
     7
100
AcDbPolyline
 90
       24
 70
     0
 43
0.0
 10
56.57690836588541
 20
107.4421929253472
 10
56.70920003255208
 20
117.0994845920139
 10
101.8206583658854
 20
143.3061537000868
 10
103.1875
 20
143.7569444444444
 10
104.775
 20
143.66875
 10
106.0979166666667
 20
143.7569444444444
 10
108.3027777777778
 20
143.5805555555556
 10
110.8604166666667
 20
143.4041666666666
 10
114.3
 20
144.2861111111111
 10
117.2986111111111
 20
143.5805555555556
 10
119.1506944444444
 20
143.0513888888889
 10
121.9729166666667
 20
143.3159722222222
 10
124.0895833333333
 20
143.1395833333333
 10
125.0597222222222
 20
143.0513888888889
 10
126.5917561848958
 20
143.8885470920139
 10
130.96875
 20
144.3743055555555
 10
134.4083333333333
 20
144.2861111111111
 10
135.3784722222222
 20
143.8451388888889
 10
136.6131944444445
 20
142.875
 10
138.6638875325521
 20
142.6643324110243
 10
141.6402777777778
 20
143.4923611111111
 10
145.9063395182292
 20
143.1609429253472
 10
145.8934204101562
 20
139.4567762586806
 10
149.2136311848958
 20
137.3840345594618
  0
LWPOLYLINE
  5
198
330
A
100
AcDbEntity
  8
LAYER_1
 62
     7
100
AcDbPolyline
 90
        4
 70
     0
 43
0.0
 10
56.57690836588541
 20
107.4421929253472
 10
59.81805419921874
 20
105.4578179253472
 10
53.6990478515625
 20
98.14818657769096
 10
56.24617919921874
 20
96.26354709201388
  0
LINE
  5
197
330
A
100
AcDbEntity
  8
LAYER_1
 62
     7
100
AcDbLine
 10
56.29010416666666
 20
95.97674289279513
 30
0.0
 11
56.11388753255208
 21
84.25756157769096
 31
0.0
  0
SPLINE
  5
196
330
A
100
AcDbEntity
  8
LAYER_1
 62
     7
100
AcDbSpline
210
0.0
220
0.0
230
1.0
 70
     8
 71
     3
 72
    20
 73
    16
 74
     0
 42
0.0000000001
 43
0.0000000001
 40
0.0
 40
0.0
 40
0.0
 40
0.0
 40
1.0
 40
1.0
 40
1.0
 40
2.0
 40
2.0
 40
2.0
 40
3.0
 40
3.0
 40
3.0
 40
4.0
 40
4.0
 40
4.0
 40
5.0
 40
5.0
 40
5.0
 40
5.0
 10
56.11388753255208
 20
84.25756157769096
 30
0.0
 10
56.11388753255208
 20
84.25756157769096
 30
0.0
 10
62.16571451822916
 20
80.02422824435763
 30
0.0
 10
62.16571451822916
 20
80.02422824435763
 30
0.0
 10
62.16571451822916
 20
80.02422824435763
 30
0.0
 10
62.6287353515625
 20
80.25625542534722
 30
0.0
 10
62.99305419921875
 20
79.18758680555555
 30
0.0
 10
62.99305419921875
 20
79.18758680555555
 30
0.0
 10
68.80045166015624
 20
75.30823703342013
 30
0.0
 10
68.80045166015624
 20
75.30823703342013
 30
0.0
 10
68.80045166015624
 20
75.30823703342013
 30
0.0
 10
69.5740478515625
 20
75.42760959201388
 30
0.0
 10
69.45209147135417
 20
74.89844292534721
 30
0.0
 10
69.45209147135417
 20
74.89844292534721
 30
0.0
 10
76.77412516276041
 20
69.90701633029514
 30
0.0
 10
76.77412516276041
 20
69.90701633029514
 30
0.0
  0
LWPOLYLINE
  5
191
330
A
100
AcDbEntity
  8
LAYER_1
 62
     7
100
AcDbPolyline
 90
        3
 70
     0
 43
0.0
 10
76.85008951822915
 20
69.90701633029514
 10
98.49011230468749
 20
82.39565972222222
 10
121.7631103515625
 20
68.28385959201388
  0
LINE
  5
190
330
A
100
AcDbEntity
  8
LAYER_1
 62
     7
100
AcDbLine
 10
121.7631103515625
 20
68.20737847222222
 30
0.0
 11
128.8841227213542
 21
72.52029351128472
 31
0.0
  0
LINE
  5
18F
330
A
100
AcDbEntity
  8
LAYER_1
 62
     7
100
AcDbLine
 10
128.8841227213542
 20
72.59625786675346
 30
0.0
 11
129.0923787434896
 21
85.38204074435762
 31
0.0
  0
LWPOLYLINE
  5
189
330
A
100
AcDbEntity
  8
LAYER_1
 62
     7
100
AcDbPolyline
 90
        4
 70
     0
 43
0.0
 10
128.9404500325521
 20
85.38204074435762
 10
131.7072062174479
 20
87.02483452690971
 10
131.2219645182292
 20
87.63099907769096
 10
125.4114664713542
 20
94.99644097222222
  0
LINE
  5
188
330
A
100
AcDbEntity
  8
LAYER_1
 62
     7
100
AcDbLine
 10
125.4114664713542
 20
94.99644097222222
 30
0.0
 11
129.28203125
 21
97.07900119357637
 31
0.0
  0
LINE
  5
187
330
A
100
AcDbEntity
  8
LAYER_1
 62
     7
100
AcDbLine
 10
129.28203125
 20
97.07900119357637
 30
0.0
 11
129.3698811848958
 21
106.6680799696181
 31
0.0
  0
LINE
  5
186
330
A
100
AcDbEntity
  8
LAYER_1
 62
     7
100
AcDbLine
 10
129.3698811848958
 20
106.6680799696181
 30
0.0
 11
106.5278645833333
 21
120.3184095594618
 31
0.0
  0
LINE
  5
185
330
A
100
AcDbEntity
  8
LAYER_1
 62
     7
100
AcDbLine
 10
128.09140625
 20
96.15295952690971
 30
0.0
 11
148.1454793294271
 21
84.02656792534721
 31
0.0
  0
LINE
  5
184
330
A
100
AcDbEntity
  8
LAYER_1
 62
     7
100
AcDbLine
 10
148.4198811848958
 20
84.22500542534722
 30
0.0
 11
156.3909708658854
 21
88.75547824435763
 31
0.0
  0
LINE
  5
183
330
A
100
AcDbEntity
  8
LAYER_1
 62
     7
100
AcDbLine
 10
156.4669352213542
 20
88.75547824435763
 30
0.0
 11
156.8426228841146
 21
102.1303724500868
 31
0.0
  0
LINE
  5
182
330
A
100
AcDbEntity
  8
LAYER_1
 62
     7
100
AcDbLine
 10
156.8426228841146
 20
102.2063368055556
 30
0.0
 11
159.6517537434896
 21
103.9721204969618
 31
0.0
  0
LWPOLYLINE
  5
17D
330
A
100
AcDbEntity
  8
LAYER_1
 62
     7
100
AcDbPolyline
 90
        3
 70
     0
 43
0.0
 10
159.6517537434896
 20
104.1245659722222
 10
153.2588623046875
 20
111.0600599500868
 10
157.0849853515625
 20
113.1968804253472
  0
LWPOLYLINE
  5
178
330
A
100
AcDbEntity
  8
LAYER_1
 62
     7
100
AcDbPolyline
 90
        3
 70
     0
 43
0.0
 10
157.0849853515625
 20
113.1968804253472
 10
157.2508666992187
 20
123.4158949110243
 10
134.2207478841146
 20
136.3257012261285
  0
LINE
  5
177
330
A
100
AcDbEntity
  8
LAYER_1
 62
     7
100
AcDbLine
 10
145.8184895833333
 20
129.9757012261285
 30
0.0
 11
145.7740478515625
 21
132.0040011935764
 31
0.0
  0
LWPOLYLINE
  5
172
330
A
100
AcDbEntity
  8
LAYER_1
 62
     7
100
AcDbPolyline
 90
        3
 70
     0
 43
0.0
 10
145.7740478515625
 20
132.0040011935764
 10
143.9881103515625
 20
133.5362074110243
 10
149.2136311848958
 20
137.3840345594618
  0
LWPOLYLINE
  5
16D
330
A
100
AcDbEntity
  8
LAYER_1
 62
     7
100
AcDbPolyline
 90
        3
 70
     0
 43
0.0
 10
157.1072062174479
 20
122.8758761935764
 10
149.7427978515625
 20
118.5546929253472
 10
149.6105061848958
 20
109.0736178927951
  0
LWPOLYLINE
  5
168
330
A
100
AcDbEntity
  8
LAYER_1
 62
     7
100
AcDbPolyline
 90
        3
 70
     0
 43
0.0
 10
153.1823811848958
 20
110.9696261935764
 10
146.5238728841146
 20
107.2654595269097
 10
152.7415812174479
 20
99.98941786024305
  0
LWPOLYLINE
  5
163
330
A
100
AcDbEntity
  8
LAYER_1
 62
     7
100
AcDbPolyline
 90
        3
 70
     0
 43
0.0
 10
156.66640625
 20
102.0621595594618
 10
149.3019978841146
 20
97.82882622612847
 10
148.9051228841146
 20
84.73195122612846
  0
LINE
  5
162
330
A
100
AcDbEntity
  8
LAYER_1
 62
     7
100
AcDbLine
 10
149.6105061848958
 20
118.6869845920139
 30
0.0
 11
126.9447062174479
 21
132.1807345920139
 31
0.0
  0
LWPOLYLINE
  5
15D
330
A
100
AcDbEntity
  8
LAYER_1
 62
     7
100
AcDbPolyline
 90
        3
 70
     0
 43
0.0
 10
129.1936645507813
 20
106.3394178602431
 10
122.0938395182292
 20
102.2828179253472
 10
121.9615478515625
 20
93.06632622612847
  0
LWPOLYLINE
  5
158
330
A
100
AcDbEntity
  8
LAYER_1
 62
     7
100
AcDbPolyline
 90
        3
 70
     0
 43
0.0
 10
125.2688395182292
 20
94.87448459201389
 10
118.6542561848958
 20
91.12587619357637
 10
125.1691040039062
 20
83.26485731336805
  0
LWPOLYLINE
  5
153
330
A
100
AcDbEntity
  8
LAYER_1
 62
     7
100
AcDbPolyline
 90
        3
 70
     0
 43
0.0
 10
128.7967895507812
 20
85.26111789279513
 10
121.8736979166667
 20
81.20400119357639
 10
121.8292561848958
 20
68.63629286024305
  0
LINE
  5
152
330
A
100
AcDbEntity
  8
LAYER_1
 62
     7
100
AcDbLine
 10
121.9176228841146
 20
102.4151095920139
 30
0.0
 11
99.25182291666665
 21
116.1734429253472
 31
0.0
  0
LWPOLYLINE
  5
14D
330
A
100
AcDbEntity
  8
LAYER_1
 62
     7
100
AcDbPolyline
 90
        3
 70
     0
 43
0.0
 10
76.62994791666667
 20
70.48837619357639
 10
76.76223958333333
 20
82.04219292534721
 10
56.30095621744791
 20
96.15295952690971
  0
SPLINE
  5
14C
330
A
100
AcDbEntity
  8
LAYER_1
 62
     7
100
AcDbSpline
210
0.0
220
0.0
230
1.0
 70
     8
 71
     3
 72
    14
 73
    10
 74
     0
 42
0.0000000001
 43
0.0000000001
 40
0.0
 40
0.0
 40
0.0
 40
0.0
 40
1.0
 40
1.0
 40
1.0
 40
2.0
 40
2.0
 40
2.0
 40
3.0
 40
3.0
 40
3.0
 40
3.0
 10
61.43811035156249
 20
113.7260470920139
 30
0.0
 10
61.2396728515625
 20
112.6677137586806
 30
0.0
 10
60.97508951822916
 20
111.6093804253472
 30
0.0
 10
60.84279785156249
 20
110.5510470920139
 30
0.0
 10
60.71050618489583
 20
109.8895887586806
 30
0.0
 10
60.77665201822916
 20
109.2281304253472
 30
0.0
 10
60.51206868489583
 20
108.5666720920139
 30
0.0
 10
60.18133951822916
 20
107.5083387586806
 30
0.0
 10
60.2474853515625
 20
106.3838595920139
 30
0.0
 10
59.87283121744791
 20
105.3575656467014
 30
0.0
  0
LWPOLYLINE
  5
147
330
A
100
AcDbEntity
  8
LAYER_1
 62
     7
100
AcDbPolyline
 90
        3
 70
     0
 43
0.0
 10
59.87283121744791
 20
105.3575656467014
 10
79.93723958333332
 20
91.61111789279514
 10
73.71953124999999
 20
84.29115125868054
  0
LWPOLYLINE
  5
142
330
A
100
AcDbEntity
  8
LAYER_1
 62
     7
100
AcDbPolyline
 90
        3
 70
     0
 43
0.0
 10
76.85008951822915
 20
93.90400119357638
 10
77.02682291666666
 20
103.6935845269097
 10
145.5094645182292
 20
142.9842095269097
  0
LINE
  5
141
330
A
100
AcDbEntity
  8
LAYER_1
 62
     7
100
AcDbLine
 10
76.85008951822915
 20
103.6057345920139
 30
0.0
 11
56.94019368489583
 21
116.9010470920139
 31
0.0
  0
LINE
  5
140
330
A
100
AcDbEntity
  8
LAYER_1
 62
     7
100
AcDbLine
 10
63.55477701822916
 20
112.8000054253472
 30
0.0
 11
116.9907918294271
 21
143.4916720920139
 31
0.0
  0
LINE
  5
13F
330
A
100
AcDbEntity
  8
LAYER_1
 62
     7
100
AcDbLine
 10
70.10321451822917
 20
108.2359429253472
 30
0.0
 11
131.9397501627604
 21
144.1427951388889
 31
0.0
  0
LINE
  5
13E
330
A
100
AcDbEntity
  8
LAYER_1
 62
     7
100
AcDbLine
 10
63.15790201822916
 20
112.5354220920139
 30
0.0
 11
62.95946451822916
 21
103.3411512586805
 31
0.0
  0
LINE
  5
13D
330
A
100
AcDbEntity
  8
LAYER_1
 62
     7
100
AcDbLine
 10
69.90477701822915
 20
108.0375054253472
 30
0.0
 11
69.83863118489583
 21
98.71094292534721
 31
0.0
  0
LINE
  5
13C
330
A
100
AcDbEntity
  8
LAYER_1
 62
     7
100
AcDbLine
 10
66.33290201822916
 20
89.45052625868055
 30
0.0
 11
72.41831868489582
 21
96.52813042534721
 31
0.0
  0
LINE
  5
13B
330
A
100
AcDbEntity
  8
LAYER_1
 62
     7
100
AcDbLine
 10
59.71831868489583
 20
93.94844292534721
 30
0.0
 11
65.86988118489583
 21
101.0260470920139
 31
0.0
  0
LINE
  5
13A
330
A
100
AcDbEntity
  8
LAYER_1
 62
     7
100
AcDbLine
 10
62.6287353515625
 20
91.69948459201387
 30
0.0
 11
62.36415201822916
 21
79.99167209201389
 31
0.0
  0
LINE
  5
139
330
A
100
AcDbEntity
  8
LAYER_1
 62
     7
100
AcDbLine
 10
69.44175618489582
 20
86.93698459201389
 30
0.0
 11
69.24331868489583
 21
75.49375542534722
 31
0.0
  0
LINE
  5
138
330
A
100
AcDbEntity
  8
LAYER_1
 62
     7
100
AcDbLine
 10
98.54592285156249
 20
92.62552625868055
 30
0.0
 11
98.47977701822916
 21
82.70365125868055
 31
0.0
  0
LINE
  5
137
330
A
100
AcDbEntity
  8
LAYER_1
 62
     7
100
AcDbLine
 10
98.81050618489583
 20
115.8427137586806
 30
0.0
 11
98.74436035156249
 21
111.0802137586805
 31
0.0
  0
LINE
  5
136
330
A
100
AcDbEntity
  8
LAYER_1
 62
     7
100
AcDbLine
 10
126.5256103515625
 20
131.7838595920139
 30
0.0
 11
126.5256103515625
 21
127.2197970920139
 31
0.0
  0
SPLINE
  5
135
330
A
100
AcDbEntity
  8
LAYER_1
 62
     7
100
AcDbSpline
210
0.0
220
0.0
230
1.0
 70
     8
 71
     3
 72
    14
 73
    10
 74
     0
 42
0.0000000001
 43
0.0000000001
 40
0.0
 40
0.0
 40
0.0
 40
0.0
 40
1.0
 40
1.0
 40
1.0
 40
2.0
 40
2.0
 40
2.0
 40
3.0
 40
3.0
 40
3.0
 40
3.0
 10
58.13081868489583
 20
115.7104220920139
 30
0.0
 10
58.13081868489583
 20
114.4536512586806
 30
0.0
 10
58.19696451822916
 20
113.2630262586805
 30
0.0
 10
58.06467285156249
 20
112.0062554253472
 30
0.0
 10
58.06467285156249
 20
111.8739637586806
 30
0.0
 10
57.86623535156249
 20
111.6755262586806
 30
0.0
 10
57.86623535156249
 20
111.5432345920139
 30
0.0
 10
57.6677978515625
 20
110.3526095920139
 30
0.0
 10
57.60165201822916
 20
109.1619845920139
 30
0.0
 10
56.74175618489583
 20
108.3020887586805
 30
0.0
  0
SPLINE
  5
134
330
A
100
AcDbEntity
  8
LAYER_1
 62
     7
100
AcDbSpline
210
0.0
220
0.0
230
1.0
 70
     8
 71
     3
 72
    14
 73
    10
 74
     0
 42
0.0000000001
 43
0.0000000001
 40
0.0
 40
0.0
 40
0.0
 40
0.0
 40
1.0
 40
1.0
 40
1.0
 40
2.0
 40
2.0
 40
2.0
 40
3.0
 40
3.0
 40
3.0
 40
3.0
 10
59.38758951822916
 20
114.9828179253472
 30
0.0
 10
59.38758951822916
 20
113.2630262586805
 30
0.0
 10
59.51988118489583
 20
111.5432345920139
 30
0.0
 10
59.18915201822916
 20
109.7572970920139
 30
0.0
 10
59.05686035156249
 20
108.8312554253472
 30
0.0
 10
58.72613118489583
 20
107.9713595920139
 30
0.0
 10
58.19696451822916
 20
107.1776095920139
 30
0.0
 10
58.13081868489583
 20
107.0453179253472
 30
0.0
 10
58.06467285156249
 20
106.8468804253472
 30
0.0
 10
58.13081868489583
 20
106.7145887586806
 30
0.0
  0
SPLINE
  5
133
330
A
100
AcDbEntity
  8
LAYER_1
 62
     7
100
AcDbSpline
210
0.0
220
0.0
230
1.0
 70
     8
 71
     3
 72
    17
 73
    13
 74
     0
 42
0.0000000001
 43
0.0000000001
 40
0.0
 40
0.0
 40
0.0
 40
0.0
 40
1.0
 40
1.0
 40
1.0
 40
2.0
 40
2.0
 40
2.0
 40
3.0
 40
3.0
 40
3.0
 40
4.0
 40
4.0
 40
4.0
 40
4.0
 10
63.02561035156249
 20
111.6093804253472
 30
0.0
 10
62.69488118489583
 20
111.6755262586806
 30
0.0
 10
62.6287353515625
 20
111.2786512586805
 30
0.0
 10
62.6287353515625
 20
111.0802137586805
 30
0.0
 10
62.2318603515625
 20
109.3604220920139
 30
0.0
 10
61.70269368489583
 20
107.9052137586806
 30
0.0
 10
61.30581868489583
 20
106.1854220920139
 30
0.0
 10
61.30581868489583
 20
106.0531304253472
 30
0.0
 10
61.17352701822916
 20
105.8546929253472
 30
0.0
 10
61.17352701822916
 20
105.7224012586806
 30
0.0
 10
61.04123535156249
 20
105.4578179253472
 30
0.0
 10
60.97508951822916
 20
105.1270887586805
 30
0.0
 10
60.84279785156249
 20
104.8625054253472
 30
0.0
  0
SPLINE
  5
132
330
A
100
AcDbEntity
  8
LAYER_1
 62
     7
100
AcDbSpline
210
0.0
220
0.0
230
1.0
 70
     8
 71
     3
 72
    11
 73
     7
 74
     0
 42
0.0000000001
 43
0.0000000001
 40
0.0
 40
0.0
 40
0.0
 40
0.0
 40
1.0
 40
1.0
 40
1.0
 40
2.0
 40
2.0
 40
2.0
 40
2.0
 10
63.35633951822916
 20
106.5822970920139
 30
0.0
 10
63.35633951822916
 20
106.3838595920139
 30
0.0
 10
63.29019368489583
 20
106.1854220920139
 30
0.0
 10
63.35633951822916
 20
106.0531304253472
 30
0.0
 10
63.75321451822916
 20
105.0609429253472
 30
0.0
 10
63.75321451822916
 20
104.0026095920139
 30
0.0
 10
63.75321451822916
 20
102.9442762586806
 30
0.0
  0
SPLINE
  5
131
330
A
100
AcDbEntity
  8
LAYER_1
 62
     7
100
AcDbSpline
210
0.0
220
0.0
230
1.0
 70
     8
 71
     3
 72
    14
 73
    10
 74
     0
 42
0.0000000001
 43
0.0000000001
 40
0.0
 40
0.0
 40
0.0
 40
0.0
 40
1.0
 40
1.0
 40
1.0
 40
2.0
 40
2.0
 40
2.0
 40
3.0
 40
3.0
 40
3.0
 40
3.0
 10
63.35633951822916
 20
108.8974012586806
 30
0.0
 10
63.6209228515625
 20
108.4343804253472
 30
0.0
 10
63.95165201822916
 20
108.0375054253472
 30
0.0
 10
64.15008951822917
 20
107.5083387586806
 30
0.0
 10
64.4146728515625
 20
106.9130262586806
 30
0.0
 10
65.07613118489583
 20
106.5161512586806
 30
0.0
 10
65.20842285156249
 20
105.8546929253472
 30
0.0
 10
65.4068603515625
 20
104.4656304253472
 30
0.0
 10
65.20842285156249
 20
103.1427137586805
 30
0.0
 10
65.34071451822916
 20
101.7536512586806
 30
0.0
  0
SPLINE
  5
130
330
A
100
AcDbEntity
  8
LAYER_1
 62
     7
100
AcDbSpline
210
0.0
220
0.0
230
1.0
 70
     8
 71
     3
 72
    23
 73
    19
 74
     0
 42
0.0000000001
 43
0.0000000001
 40
0.0
 40
0.0
 40
0.0
 40
0.0
 40
1.0
 40
1.0
 40
1.0
 40
2.0
 40
2.0
 40
2.0
 40
3.0
 40
3.0
 40
3.0
 40
4.0
 40
4.0
 40
4.0
 40
5.0
 40
5.0
 40
5.0
 40
6.0
 40
6.0
 40
6.0
 40
6.0
 10
64.67925618489583
 20
111.5432345920139
 30
0.0
 10
64.48081868489582
 20
110.0880262586805
 30
0.0
 10
65.00998535156249
 20
108.6989637586806
 30
0.0
 10
65.67144368489583
 20
107.3760470920139
 30
0.0
 10
65.80373535156249
 20
107.1114637586805
 30
0.0
 10
65.86988118489583
 20
106.7145887586806
 30
0.0
 10
66.00217285156249
 20
106.4500054253472
 30
0.0
 10
66.06831868489583
 20
106.3177137586805
 30
0.0
 10
66.26675618489583
 20
106.2515679253472
 30
0.0
 10
66.33290201822916
 20
106.1192762586805
 30
0.0
 10
66.66363118489583
 20
104.9947970920139
 30
0.0
 10
66.66363118489583
 20
103.8041720920139
 30
0.0
 10
66.99436035156249
 20
102.6796929253472
 30
0.0
 10
67.19279785156249
 20
101.9520887586806
 30
0.0
 10
67.19279785156249
 20
101.2906304253472
 30
0.0
 10
67.19279785156249
 20
100.5630262586806
 30
0.0
 10
67.19279785156249
 20
100.4968804253472
 30
0.0
 10
67.06050618489583
 20
100.4968804253472
 30
0.0
 10
67.06050618489583
 20
100.3645887586805
 30
0.0
  0
SPLINE
  5
12F
330
A
100
AcDbEntity
  8
LAYER_1
 62
     7
100
AcDbSpline
210
0.0
220
0.0
230
1.0
 70
     8
 71
     3
 72
    11
 73
     7
 74
     0
 42
0.0000000001
 43
0.0000000001
 40
0.0
 40
0.0
 40
0.0
 40
0.0
 40
1.0
 40
1.0
 40
1.0
 40
2.0
 40
2.0
 40
2.0
 40
2.0
 10
67.85425618489583
 20
109.4265679253472
 30
0.0
 10
67.85425618489583
 20
107.2437554253472
 30
0.0
 10
67.65581868489583
 20
105.1932345920139
 30
0.0
 10
68.11883951822917
 20
102.9442762586806
 30
0.0
 10
68.31727701822916
 20
101.8197970920139
 30
0.0
 10
68.3834228515625
 20
100.6953179253472
 30
0.0
 10
68.3834228515625
 20
99.57083875868055
 30
0.0
  0
SPLINE
  5
12E
330
A
100
AcDbEntity
  8
LAYER_1
 62
     7
100
AcDbSpline
210
0.0
220
0.0
230
1.0
 70
     8
 71
     3
 72
    14
 73
    10
 74
     0
 42
0.0000000001
 43
0.0000000001
 40
0.0
 40
0.0
 40
0.0
 40
0.0
 40
1.0
 40
1.0
 40
1.0
 40
2.0
 40
2.0
 40
2.0
 40
3.0
 40
3.0
 40
3.0
 40
3.0
 10
73.07977701822917
 20
105.7224012586806
 30
0.0
 10
73.01363118489583
 20
105.7224012586806
 30
0.0
 10
72.94748535156249
 20
105.7224012586806
 30
0.0
 10
72.88133951822915
 20
105.7224012586806
 30
0.0
 10
72.02144368489583
 20
104.2010470920139
 30
0.0
 10
72.08758951822917
 20
102.4812554253472
 30
0.0
 10
71.82300618489583
 20
100.7614637586806
 30
0.0
 10
71.75686035156249
 20
99.76927625868055
 30
0.0
 10
71.42613118489582
 20
98.84323459201389
 30
0.0
 10
71.3599853515625
 20
97.85104709201389
 30
0.0
  0
SPLINE
  5
12D
330
A
100
AcDbEntity
  8
LAYER_1
 62
     7
100
AcDbSpline
210
0.0
220
0.0
230
1.0
 70
     8
 71
     3
 72
    17
 73
    13
 74
     0
 42
0.0000000001
 43
0.0000000001
 40
0.0
 40
0.0
 40
0.0
 40
0.0
 40
1.0
 40
1.0
 40
1.0
 40
2.0
 40
2.0
 40
2.0
 40
3.0
 40
3.0
 40
3.0
 40
4.0
 40
4.0
 40
4.0
 40
4.0
 10
74.66727701822916
 20
104.7963595920139
 30
0.0
 10
74.3365478515625
 20
104.2671929253472
 30
0.0
 10
74.13811035156249
 20
103.7380262586806
 30
0.0
 10
73.87352701822915
 20
103.2088595920139
 30
0.0
 10
73.14592285156249
 20
101.8197970920139
 30
0.0
 10
73.21206868489583
 20
100.3645887586805
 30
0.0
 10
72.81519368489583
 20
98.90938042534721
 30
0.0
 10
72.68290201822916
 20
98.44635959201388
 30
0.0
 10
72.61675618489582
 20
97.98333875868055
 30
0.0
 10
72.41831868489582
 20
97.52031792534721
 30
0.0
 10
72.3521728515625
 20
97.32188042534722
 30
0.0
 10
72.41831868489582
 20
97.05729709201388
 30
0.0
 10
72.41831868489582
 20
96.85885959201389
 30
0.0
  0
SPLINE
  5
12C
330
A
100
AcDbEntity
  8
LAYER_1
 62
     7
100
AcDbSpline
210
0.0
220
0.0
230
1.0
 70
     8
 71
     3
 72
    17
 73
    13
 74
     0
 42
0.0000000001
 43
0.0000000001
 40
0.0
 40
0.0
 40
0.0
 40
0.0
 40
1.0
 40
1.0
 40
1.0
 40
2.0
 40
2.0
 40
2.0
 40
3.0
 40
3.0
 40
3.0
 40
4.0
 40
4.0
 40
4.0
 40
4.0
 10
76.5193603515625
 20
103.6057345920139
 30
0.0
 10
75.59331868489582
 20
103.4734429253472
 30
0.0
 10
75.5271728515625
 20
102.2166720920139
 30
0.0
 10
75.19644368489583
 20
101.4890679253472
 30
0.0
 10
75.13029785156249
 20
101.3567762586805
 30
0.0
 10
74.99800618489583
 20
101.2906304253472
 30
0.0
 10
74.93186035156249
 20
101.1583387586805
 30
0.0
 10
74.66727701822916
 20
100.5630262586806
 30
0.0
 10
74.5349853515625
 20
99.96771375868055
 30
0.0
 10
74.40269368489582
 20
99.37240125868054
 30
0.0
 10
74.13811035156249
 20
98.11563042534722
 30
0.0
 10
74.3365478515625
 20
96.85885959201389
 30
0.0
 10
74.00581868489583
 20
95.66823459201387
 30
0.0
  0
SPLINE
  5
12B
330
A
100
AcDbEntity
  8
LAYER_1
 62
     7
100
AcDbSpline
210
0.0
220
0.0
230
1.0
 70
     8
 71
     3
 72
    11
 73
     7
 74
     0
 42
0.0000000001
 43
0.0000000001
 40
0.0
 40
0.0
 40
0.0
 40
0.0
 40
1.0
 40
1.0
 40
1.0
 40
2.0
 40
2.0
 40
2.0
 40
2.0
 10
76.85008951822915
 20
101.1583387586805
 30
0.0
 10
76.3209228515625
 20
100.5630262586806
 30
0.0
 10
75.79175618489583
 20
99.96771375868055
 30
0.0
 10
75.65946451822916
 20
99.17396375868054
 30
0.0
 10
75.39488118489582
 20
97.71875542534721
 30
0.0
 10
75.59331868489582
 20
96.32969292534722
 30
0.0
 10
75.46102701822916
 20
94.94063042534721
 30
0.0
  0
SPLINE
  5
12A
330
A
100
AcDbEntity
  8
LAYER_1
 62
     7
100
AcDbSpline
210
0.0
220
0.0
230
1.0
 70
     8
 71
     3
 72
    23
 73
    19
 74
     0
 42
0.0000000001
 43
0.0000000001
 40
0.0
 40
0.0
 40
0.0
 40
0.0
 40
1.0
 40
1.0
 40
1.0
 40
2.0
 40
2.0
 40
2.0
 40
3.0
 40
3.0
 40
3.0
 40
4.0
 40
4.0
 40
4.0
 40
5.0
 40
5.0
 40
5.0
 40
6.0
 40
6.0
 40
6.0
 40
6.0
 10
60.87638753255208
 20
104.4656304253472
 30
0.0
 10
60.74409586588541
 20
104.2336032443576
 30
0.0
 10
60.47951253255208
 20
104.1674574110243
 30
0.0
 10
60.31363118489583
 20
103.9690199110243
 30
0.0
 10
60.18133951822916
 20
103.7705824110243
 30
0.0
 10
60.01649169921875
 20
103.6382907443576
 30
0.0
 10
59.85061035156249
 20
103.4734429253472
 30
0.0
 10
59.48732503255208
 20
103.2414157443576
 30
0.0
 10
59.12300618489583
 20
103.0765679253472
 30
0.0
 10
58.75972086588541
 20
102.8119845920139
 30
0.0
 10
58.39540201822916
 20
102.5799574110243
 30
0.0
 10
58.13081868489583
 20
102.315374077691
 30
0.0
 10
57.76753336588541
 20
102.0507907443576
 30
0.0
 10
57.6677978515625
 20
101.9846449110243
 30
0.0
 10
57.53550618489583
 20
101.918499077691
 30
0.0
 10
57.43680419921874
 20
101.8859429253472
 30
0.0
 10
57.2709228515625
 20
101.8523532443576
 30
0.0
 10
57.10607503255208
 20
101.918499077691
 30
0.0
 10
56.94019368489583
 20
101.8523532443576
 30
0.0
  0
SPLINE
  5
129
330
A
100
AcDbEntity
  8
LAYER_1
 62
     7
100
AcDbSpline
210
0.0
220
0.0
230
1.0
 70
     8
 71
     3
 72
    14
 73
    10
 74
     0
 42
0.0000000001
 43
0.0000000001
 40
0.0
 40
0.0
 40
0.0
 40
0.0
 40
1.0
 40
1.0
 40
1.0
 40
2.0
 40
2.0
 40
2.0
 40
3.0
 40
3.0
 40
3.0
 40
3.0
 10
61.76883951822916
 20
103.8367282443576
 30
0.0
 10
61.53784586588541
 20
103.4734429253472
 30
0.0
 10
61.50425618489583
 20
102.9768324110243
 30
0.0
 10
61.17352701822916
 20
102.712249077691
 30
0.0
 10
60.31363118489583
 20
101.9846449110243
 30
0.0
 10
59.28888753255208
 20
101.6875054253472
 30
0.0
 10
58.46154785156249
 20
100.9599012586806
 30
0.0
 10
57.07248535156249
 20
99.76927625868055
 30
0.0
 10
55.48498535156249
 20
98.90938042534721
 30
0.0
 10
53.83133951822916
 20
98.34662407769096
 30
0.0
  0
SPLINE
  5
128
330
A
100
AcDbEntity
  8
LAYER_1
 62
     7
100
AcDbSpline
210
0.0
220
0.0
230
1.0
 70
     8
 71
     3
 72
    23
 73
    19
 74
     0
 42
0.0000000001
 43
0.0000000001
 40
0.0
 40
0.0
 40
0.0
 40
0.0
 40
1.0
 40
1.0
 40
1.0
 40
2.0
 40
2.0
 40
2.0
 40
3.0
 40
3.0
 40
3.0
 40
4.0
 40
4.0
 40
4.0
 40
5.0
 40
5.0
 40
5.0
 40
6.0
 40
6.0
 40
6.0
 40
6.0
 10
63.15790201822916
 20
102.910686577691
 30
0.0
 10
62.69488118489583
 20
102.0182345920139
 30
0.0
 10
62.09956868489583
 20
101.2244845920139
 30
0.0
 10
61.40555419921874
 20
100.4632907443576
 30
0.0
 10
60.90894368489582
 20
100.0002699110243
 30
0.0
 10
60.28107503255207
 20
99.76927625868055
 30
0.0
 10
59.75190836588541
 20
99.33881157769096
 30
0.0
 10
59.2552978515625
 20
98.94193657769097
 30
0.0
 10
58.79227701822916
 20
98.57865125868055
 30
0.0
 10
58.2631103515625
 20
98.18177625868054
 30
0.0
 10
57.76753336588541
 20
97.78490125868055
 30
0.0
 10
57.23836669921874
 20
97.45417209201388
 30
0.0
 10
56.57690836588541
 20
97.25573459201388
 30
0.0
 10
56.34488118489583
 20
97.18958875868054
 30
0.0
 10
56.08029785156249
 20
97.02370741102429
 30
0.0
 10
55.88186035156249
 20
96.82526991102429
 30
0.0
 10
55.88186035156249
 20
96.79271375868055
 30
0.0
 10
55.88186035156249
 20
96.75912407769097
 30
0.0
 10
55.88186035156249
 20
96.72656792534721
 30
0.0
  0
SPLINE
  5
127
330
A
100
AcDbEntity
  8
LAYER_1
 62
     7
100
AcDbSpline
210
0.0
220
0.0
230
1.0
 70
     8
 71
     3
 72
    26
 73
    22
 74
     0
 42
0.0000000001
 43
0.0000000001
 40
0.0
 40
0.0
 40
0.0
 40
0.0
 40
1.0
 40
1.0
 40
1.0
 40
2.0
 40
2.0
 40
2.0
 40
3.0
 40
3.0
 40
3.0
 40
4.0
 40
4.0
 40
4.0
 40
5.0
 40
5.0
 40
5.0
 40
6.0
 40
6.0
 40
6.0
 40
7.0
 40
7.0
 40
7.0
 40
7.0
 10
64.51440836588542
 20
102.0843804253472
 30
0.0
 10
64.28238118489583
 20
101.918499077691
 30
0.0
 10
64.15008951822917
 20
101.6539157443576
 30
0.0
 10
63.91909586588541
 20
101.4554782443576
 30
0.0
 10
63.78680419921874
 20
101.2906304253472
 30
0.0
 10
63.68706868489583
 20
101.0921929253472
 30
0.0
 10
63.55477701822916
 20
100.926311577691
 30
0.0
 10
63.09175618489583
 20
100.3971449110243
 30
0.0
 10
62.66232503255208
 20
99.93412407769097
 30
0.0
 10
62.19930419921874
 20
99.4049574110243
 30
0.0
 10
61.60399169921875
 20
98.74349907769097
 30
0.0
 10
60.90894368489582
 20
98.28047824435762
 30
0.0
 10
60.28107503255207
 20
97.68516574435763
 30
0.0
 10
60.11519368489583
 20
97.52031792534721
 30
0.0
 10
60.01649169921875
 20
97.32188042534722
 30
0.0
 10
59.88420003255208
 20
97.15599907769096
 30
0.0
 10
59.35503336588541
 20
96.66042209201387
 30
0.0
 10
58.85842285156249
 20
96.19740125868054
 30
0.0
 10
58.36284586588541
 20
95.6346449110243
 30
0.0
 10
58.23055419921874
 20
95.53594292534721
 30
0.0
 10
58.06467285156249
 20
95.4362074110243
 30
0.0
 10
57.89982503255208
 20
95.33750542534722
 30
0.0
  0
SPLINE
  5
126
330
A
100
AcDbEntity
  8
LAYER_1
 62
     7
100
AcDbSpline
210
0.0
220
0.0
230
1.0
 70
     8
 71
     3
 72
    23
 73
    19
 74
     0
 42
0.0000000001
 43
0.0000000001
 40
0.0
 40
0.0
 40
0.0
 40
0.0
 40
1.0
 40
1.0
 40
1.0
 40
2.0
 40
2.0
 40
2.0
 40
3.0
 40
3.0
 40
3.0
 40
4.0
 40
4.0
 40
4.0
 40
5.0
 40
5.0
 40
5.0
 40
6.0
 40
6.0
 40
6.0
 40
6.0
 10
66.69722086588541
 20
100.4632907443576
 30
0.0
 10
66.26675618489583
 20
100.1000054253472
 30
0.0
 10
65.83732503255207
 20
99.76927625868055
 30
0.0
 10
65.50659586588542
 20
99.30625542534722
 30
0.0
 10
65.14227701822917
 20
98.77708875868055
 30
0.0
 10
64.91128336588541
 20
98.24792209201388
 30
0.0
 10
64.58055419921874
 20
97.68516574435763
 30
0.0
 10
64.38211669921874
 20
97.38802625868054
 30
0.0
 10
64.15008951822917
 20
97.18958875868054
 30
0.0
 10
63.98524169921875
 20
96.89141574435763
 30
0.0
 10
63.58836669921875
 20
96.06510959201388
 30
0.0
 10
63.05920003255208
 20
95.40365125868054
 30
0.0
 10
62.49644368489583
 20
94.67604709201387
 30
0.0
 10
62.26545003255207
 20
94.34531792534722
 30
0.0
 10
62.00086669921875
 20
94.04714491102429
 30
0.0
 10
61.67013753255208
 20
93.84870741102429
 30
0.0
 10
61.30581868489583
 20
93.61771375868055
 30
0.0
 10
61.04123535156249
 20
93.35313042534722
 30
0.0
 10
60.67795003255208
 20
93.18724907769096
 30
0.0
  0
SPLINE
  5
125
330
A
100
AcDbEntity
  8
LAYER_1
 62
     7
100
AcDbSpline
210
0.0
220
0.0
230
1.0
 70
     8
 71
     3
 72
    26
 73
    22
 74
     0
 42
0.0000000001
 43
0.0000000001
 40
0.0
 40
0.0
 40
0.0
 40
0.0
 40
1.0
 40
1.0
 40
1.0
 40
2.0
 40
2.0
 40
2.0
 40
3.0
 40
3.0
 40
3.0
 40
4.0
 40
4.0
 40
4.0
 40
5.0
 40
5.0
 40
5.0
 40
6.0
 40
6.0
 40
6.0
 40
7.0
 40
7.0
 40
7.0
 40
7.0
 10
67.5896728515625
 20
100.0002699110243
 30
0.0
 10
67.42482503255208
 20
99.37240125868054
 30
0.0
 10
67.22638753255208
 20
98.77708875868055
 30
0.0
 10
66.89565836588541
 20
98.2143324110243
 30
0.0
 10
66.86206868489583
 20
98.18177625868054
 30
0.0
 10
66.79592285156249
 20
98.11563042534722
 30
0.0
 10
66.76336669921875
 20
98.04948459201388
 30
0.0
 10
66.56492919921874
 20
97.71875542534721
 30
0.0
 10
66.49878336588542
 20
97.35443657769096
 30
0.0
 10
66.23420003255208
 20
97.05729709201388
 30
0.0
 10
65.70503336588541
 20
96.52813042534721
 30
0.0
 10
65.50659586588542
 20
95.86667209201389
 30
0.0
 10
65.10972086588541
 20
95.27135959201388
 30
0.0
 10
64.71284586588541
 20
94.57631157769096
 30
0.0
 10
64.08394368489583
 20
94.17943657769096
 30
0.0
 10
63.52222086588541
 20
93.61771375868055
 30
0.0
 10
63.45607503255208
 20
93.51797824435764
 30
0.0
 10
63.38992919921874
 20
93.41927625868054
 30
0.0
 10
63.32378336588541
 20
93.31954074435762
 30
0.0
 10
63.12534586588541
 20
93.12110324435763
 30
0.0
 10
62.95946451822916
 20
92.89010959201389
 30
0.0
 10
62.66232503255208
 20
92.79037407769097
 30
0.0
  0
SPLINE
  5
124
330
A
100
AcDbEntity
  8
LAYER_1
 62
     7
100
AcDbSpline
210
0.0
220
0.0
230
1.0
 70
     8
 71
     3
 72
    23
 73
    19
 74
     0
 42
0.0000000001
 43
0.0000000001
 40
0.0
 40
0.0
 40
0.0
 40
0.0
 40
1.0
 40
1.0
 40
1.0
 40
2.0
 40
2.0
 40
2.0
 40
3.0
 40
3.0
 40
3.0
 40
4.0
 40
4.0
 40
4.0
 40
5.0
 40
5.0
 40
5.0
 40
6.0
 40
6.0
 40
6.0
 40
6.0
 10
69.14461669921874
 20
98.90938042534721
 30
0.0
 10
68.78029785156249
 20
98.11563042534722
 30
0.0
 10
68.35086669921874
 20
97.38802625868054
 30
0.0
 10
67.88784586588541
 20
96.6268324110243
 30
0.0
 10
67.82170003255207
 20
96.52813042534721
 30
0.0
 10
67.68940836588541
 20
96.46198459201388
 30
0.0
 10
67.62326253255208
 20
96.32969292534722
 30
0.0
 10
67.2925333658854
 20
95.66823459201387
 30
0.0
 10
66.96180419921875
 20
95.07292209201388
 30
0.0
 10
66.49878336588542
 20
94.47760959201388
 30
0.0
 10
65.90347086588541
 20
93.6502699110243
 30
0.0
 10
65.27456868489583
 20
92.95625542534721
 30
0.0
 10
64.6131103515625
 20
92.19506157769096
 30
0.0
 10
64.4146728515625
 20
91.99662407769097
 30
0.0
 10
64.18367919921874
 20
91.86433241102429
 30
0.0
 10
63.91909586588541
 20
91.69948459201387
 30
0.0
 10
63.75321451822916
 20
91.56719292534721
 30
0.0
 10
63.6209228515625
 20
91.43490125868055
 30
0.0
 10
63.42248535156249
 20
91.36875542534722
 30
0.0
  0
SPLINE
  5
123
330
A
100
AcDbEntity
  8
LAYER_1
 62
     7
100
AcDbSpline
210
0.0
220
0.0
230
1.0
 70
     8
 71
     3
 72
    17
 73
    13
 74
     0
 42
0.0000000001
 43
0.0000000001
 40
0.0
 40
0.0
 40
0.0
 40
0.0
 40
1.0
 40
1.0
 40
1.0
 40
2.0
 40
2.0
 40
2.0
 40
3.0
 40
3.0
 40
3.0
 40
4.0
 40
4.0
 40
4.0
 40
4.0
 10
70.30165201822916
 20
97.94974907769097
 30
0.0
 10
70.07065836588541
 20
97.08985324435763
 30
0.0
 10
69.70633951822916
 20
96.26354709201388
 30
0.0
 10
69.24331868489583
 20
95.46979709201388
 30
0.0
 10
68.88003336588541
 20
94.77474907769097
 30
0.0
 10
68.35086669921874
 20
94.2455824110243
 30
0.0
 10
67.85425618489583
 20
93.58412407769096
 30
0.0
 10
67.32508951822916
 20
92.89010959201389
 30
0.0
 10
66.96180419921875
 20
92.16250542534722
 30
0.0
 10
66.3990478515625
 20
91.53360324435764
 30
0.0
 10
65.96961669921875
 20
91.0705824110243
 30
0.0
 10
65.63888753255208
 20
90.54141574435764
 30
0.0
 10
65.10972086588541
 20
90.21068657769096
 30
0.0
  0
SPLINE
  5
122
330
A
100
AcDbEntity
  8
LAYER_1
 62
     7
100
AcDbSpline
210
0.0
220
0.0
230
1.0
 70
     8
 71
     3
 72
    20
 73
    16
 74
     0
 42
0.0000000001
 43
0.0000000001
 40
0.0
 40
0.0
 40
0.0
 40
0.0
 40
1.0
 40
1.0
 40
1.0
 40
2.0
 40
2.0
 40
2.0
 40
3.0
 40
3.0
 40
3.0
 40
4.0
 40
4.0
 40
4.0
 40
5.0
 40
5.0
 40
5.0
 40
5.0
 10
73.47665201822916
 20
95.66823459201387
 30
0.0
 10
73.07977701822917
 20
95.30391574435762
 30
0.0
 10
72.78263753255207
 20
94.87448459201389
 30
0.0
 10
72.38576253255208
 20
94.47760959201388
 30
0.0
 10
71.92274169921875
 20
93.98099907769097
 30
0.0
 10
71.59201253255208
 20
93.4518324110243
 30
0.0
 10
71.19513753255208
 20
92.85651991102429
 30
0.0
 10
70.43394368489582
 20
91.76563042534721
 30
0.0
 10
69.67378336588541
 20
90.87214491102429
 30
0.0
 10
68.97873535156249
 20
89.74766574435763
 30
0.0
 10
68.71415201822916
 20
89.31823459201388
 30
0.0
 10
68.5818603515625
 20
88.88776991102429
 30
0.0
 10
68.44956868489582
 20
88.39219292534722
 30
0.0
 10
68.44956868489582
 20
88.2924574110243
 30
0.0
 10
68.35086669921874
 20
88.25990125868054
 30
0.0
 10
68.31727701822916
 20
88.19375542534722
 30
0.0
  0
SPLINE
  5
121
330
A
100
AcDbEntity
  8
LAYER_1
 62
     7
100
AcDbSpline
210
0.0
220
0.0
230
1.0
 70
     8
 71
     3
 72
    20
 73
    16
 74
     0
 42
0.0000000001
 43
0.0000000001
 40
0.0
 40
0.0
 40
0.0
 40
0.0
 40
1.0
 40
1.0
 40
1.0
 40
2.0
 40
2.0
 40
2.0
 40
3.0
 40
3.0
 40
3.0
 40
4.0
 40
4.0
 40
4.0
 40
5.0
 40
5.0
 40
5.0
 40
5.0
 10
75.39488118489582
 20
94.4440199110243
 30
0.0
 10
74.86571451822915
 20
93.88229709201389
 30
0.0
 10
74.27040201822916
 20
93.38568657769096
 30
0.0
 10
73.80738118489583
 20
92.72422824435763
 30
0.0
 10
73.3443603515625
 20
91.99662407769097
 30
0.0
 10
72.91492919921875
 20
91.40131157769096
 30
0.0
 10
72.48446451822916
 20
90.70729709201387
 30
0.0
 10
72.15373535156249
 20
90.11198459201388
 30
0.0
 10
71.88915201822915
 20
89.54922824435764
 30
0.0
 10
71.45972086588542
 20
88.98750542534721
 30
0.0
 10
71.09540201822917
 20
88.52448459201388
 30
0.0
 10
70.76467285156249
 20
88.06146375868055
 30
0.0
 10
70.43394368489582
 20
87.53229709201388
 30
0.0
 10
70.2690958658854
 20
87.3002699110243
 30
0.0
 10
70.03706868489583
 20
87.03568657769097
 30
0.0
 10
70.03706868489583
 20
86.7049574110243
 30
0.0
  0
SPLINE
  5
120
330
A
100
AcDbEntity
  8
LAYER_1
 62
     7
100
AcDbSpline
210
0.0
220
0.0
230
1.0
 70
     8
 71
     3
 72
    20
 73
    16
 74
     0
 42
0.0000000001
 43
0.0000000001
 40
0.0
 40
0.0
 40
0.0
 40
0.0
 40
1.0
 40
1.0
 40
1.0
 40
2.0
 40
2.0
 40
2.0
 40
3.0
 40
3.0
 40
3.0
 40
4.0
 40
4.0
 40
4.0
 40
5.0
 40
5.0
 40
5.0
 40
5.0
 10
76.85008951822915
 20
93.2533949110243
 30
0.0
 10
76.61909586588541
 20
92.95625542534721
 30
0.0
 10
76.3209228515625
 20
92.75781792534721
 30
0.0
 10
76.12248535156249
 20
92.4596449110243
 30
0.0
 10
75.39488118489582
 20
91.30260959201388
 30
0.0
 10
74.70086669921875
 20
90.34297824435762
 30
0.0
 10
74.03940836588541
 20
89.18594292534722
 30
0.0
 10
73.77482503255207
 20
88.78906792534721
 30
0.0
 10
73.31180419921874
 20
88.62318657769096
 30
0.0
 10
73.01363118489583
 20
88.25990125868054
 30
0.0
 10
72.81519368489583
 20
88.02787407769097
 30
0.0
 10
72.68290201822916
 20
87.79688042534721
 30
0.0
 10
72.51805419921874
 20
87.53229709201388
 30
0.0
 10
72.08758951822917
 20
86.87083875868055
 30
0.0
 10
71.82300618489583
 20
86.20938042534722
 30
0.0
 10
71.59201253255208
 20
85.48177625868055
 30
0.0
  0
SPLINE
  5
11F
330
A
100
AcDbEntity
  8
LAYER_1
 62
     7
100
AcDbSpline
210
0.0
220
0.0
230
1.0
 70
     8
 71
     3
 72
    23
 73
    19
 74
     0
 42
0.0000000001
 43
0.0000000001
 40
0.0
 40
0.0
 40
0.0
 40
0.0
 40
1.0
 40
1.0
 40
1.0
 40
2.0
 40
2.0
 40
2.0
 40
3.0
 40
3.0
 40
3.0
 40
4.0
 40
4.0
 40
4.0
 40
5.0
 40
5.0
 40
5.0
 40
6.0
 40
6.0
 40
6.0
 40
6.0
 10
78.66961669921874
 20
92.12891574435763
 30
0.0
 10
78.40503336588542
 20
91.73204074435763
 30
0.0
 10
78.00815836588541
 20
91.4674574110243
 30
0.0
 10
77.74357503255207
 20
91.03802625868055
 30
0.0
 10
77.44540201822916
 20
90.64115125868055
 30
0.0
 10
77.08211669921874
 20
90.40912407769096
 30
0.0
 10
76.75138753255207
 20
90.04583875868055
 30
0.0
 10
76.28836669921874
 20
89.4830824110243
 30
0.0
 10
75.82534586588541
 20
89.02006157769097
 30
0.0
 10
75.39488118489582
 20
88.45833875868055
 30
0.0
 10
75.2300333658854
 20
88.22631157769096
 30
0.0
 10
74.99800618489583
 20
88.06146375868055
 30
0.0
 10
74.89930419921875
 20
87.82943657769097
 30
0.0
 10
74.50242919921874
 20
86.73854709201387
 30
0.0
 10
74.00581868489583
 20
85.74635959201387
 30
0.0
 10
73.67508951822916
 20
84.62188042534721
 30
0.0
 10
73.67508951822916
 20
84.5221449110243
 30
0.0
 10
73.67508951822916
 20
84.38985324435762
 30
0.0
 10
73.64253336588541
 20
84.29115125868054
 30
0.0
  0
SPLINE
  5
11E
330
A
100
AcDbEntity
  8
LAYER_1
 62
     7
100
AcDbSpline
210
0.0
220
0.0
230
1.0
 70
     8
 71
     3
 72
    11
 73
     7
 74
     0
 42
0.0000000001
 43
0.0000000001
 40
0.0
 40
0.0
 40
0.0
 40
0.0
 40
1.0
 40
1.0
 40
1.0
 40
2.0
 40
2.0
 40
2.0
 40
2.0
 10
57.53550618489583
 20
94.97318657769097
 30
0.0
 10
57.23836669921874
 20
94.4440199110243
 30
0.0
 10
57.00633951822916
 20
93.88229709201389
 30
0.0
 10
56.70920003255208
 20
93.31954074435762
 30
0.0
 10
56.57690836588541
 20
93.12110324435763
 30
0.0
 10
56.44461669921874
 20
92.89010959201389
 30
0.0
 10
56.21258951822916
 20
92.79037407769097
 30
0.0
  0
SPLINE
  5
11D
330
A
100
AcDbEntity
  8
LAYER_1
 62
     7
100
AcDbSpline
210
0.0
220
0.0
230
1.0
 70
     8
 71
     3
 72
    17
 73
    13
 74
     0
 42
0.0000000001
 43
0.0000000001
 40
0.0
 40
0.0
 40
0.0
 40
0.0
 40
1.0
 40
1.0
 40
1.0
 40
2.0
 40
2.0
 40
2.0
 40
3.0
 40
3.0
 40
3.0
 40
4.0
 40
4.0
 40
4.0
 40
4.0
 10
58.56128336588541
 20
94.21302625868054
 30
0.0
 10
58.2631103515625
 20
93.6502699110243
 30
0.0
 10
58.13081868489583
 20
93.05495741102429
 30
0.0
 10
58.03211669921875
 20
92.4596449110243
 30
0.0
 10
57.96597086588541
 20
91.96406792534721
 30
0.0
 10
57.93238118489583
 20
91.4674574110243
 30
0.0
 10
57.73394368489583
 20
91.03802625868055
 30
0.0
 10
57.46936035156249
 20
90.4752699110243
 30
0.0
 10
57.17222086588541
 20
89.94610324435763
 30
0.0
 10
56.87404785156249
 20
89.38438042534722
 30
0.0
 10
56.77534586588541
 20
89.18594292534722
 30
0.0
 10
56.64305419921875
 20
88.98750542534721
 30
0.0
 10
56.44461669921874
 20
88.82162407769097
 30
0.0
  0
SPLINE
  5
11C
330
A
100
AcDbEntity
  8
LAYER_1
 62
     7
100
AcDbSpline
210
0.0
220
0.0
230
1.0
 70
     8
 71
     3
 72
    20
 73
    16
 74
     0
 42
0.0000000001
 43
0.0000000001
 40
0.0
 40
0.0
 40
0.0
 40
0.0
 40
1.0
 40
1.0
 40
1.0
 40
2.0
 40
2.0
 40
2.0
 40
3.0
 40
3.0
 40
3.0
 40
4.0
 40
4.0
 40
4.0
 40
5.0
 40
5.0
 40
5.0
 40
5.0
 10
59.98290201822916
 20
93.35313042534722
 30
0.0
 10
59.38758951822916
 20
93.02240125868055
 30
0.0
 10
59.45373535156249
 20
92.22865125868054
 30
0.0
 10
59.35503336588541
 20
91.59974907769096
 30
0.0
 10
59.22274169921874
 20
90.87214491102429
 30
0.0
 10
58.95815836588541
 20
90.21068657769096
 30
0.0
 10
58.75972086588541
 20
89.51667209201388
 30
0.0
 10
58.42899169921874
 20
88.42474907769096
 30
0.0
 10
57.89982503255208
 20
87.46615125868055
 30
0.0
 10
57.43680419921874
 20
86.40781792534722
 30
0.0
 10
57.20477701822916
 20
85.87865125868055
 30
0.0
 10
56.94019368489583
 20
85.34948459201388
 30
0.0
 10
56.64305419921875
 20
84.82031792534721
 30
0.0
 10
56.51076253255208
 20
84.65443657769096
 30
0.0
 10
56.34488118489583
 20
84.5221449110243
 30
0.0
 10
56.24617919921874
 20
84.35729709201388
 30
0.0
  0
SPLINE
  5
11B
330
A
100
AcDbEntity
  8
LAYER_1
 62
     7
100
AcDbSpline
210
0.0
220
0.0
230
1.0
 70
     8
 71
     3
 72
    17
 73
    13
 74
     0
 42
0.0000000001
 43
0.0000000001
 40
0.0
 40
0.0
 40
0.0
 40
0.0
 40
1.0
 40
1.0
 40
1.0
 40
2.0
 40
2.0
 40
2.0
 40
3.0
 40
3.0
 40
3.0
 40
4.0
 40
4.0
 40
4.0
 40
4.0
 10
61.37196451822916
 20
92.06276991102429
 30
0.0
 10
60.97508951822916
 20
91.40131157769096
 30
0.0
 10
60.54565836588541
 20
90.80599907769097
 30
0.0
 10
60.37977701822916
 20
90.04583875868055
 30
0.0
 10
60.04904785156249
 20
88.4908949110243
 30
0.0
 10
59.35503336588541
 20
87.23412407769096
 30
0.0
 10
58.6599853515625
 20
85.87865125868055
 30
0.0
 10
58.23055419921874
 20
85.05131157769097
 30
0.0
 10
57.99852701822916
 20
84.19141574435763
 30
0.0
 10
57.56909586588541
 20
83.39766574435762
 30
0.0
 10
57.56909586588541
 20
83.39766574435762
 30
0.0
 10
57.56909586588541
 20
83.43125542534722
 30
0.0
 10
57.56909586588541
 20
83.43125542534722
 30
0.0
  0
SPLINE
  5
11A
330
A
100
AcDbEntity
  8
LAYER_1
 62
     7
100
AcDbSpline
210
0.0
220
0.0
230
1.0
 70
     8
 71
     3
 72
    26
 73
    22
 74
     0
 42
0.0000000001
 43
0.0000000001
 40
0.0
 40
0.0
 40
0.0
 40
0.0
 40
1.0
 40
1.0
 40
1.0
 40
2.0
 40
2.0
 40
2.0
 40
3.0
 40
3.0
 40
3.0
 40
4.0
 40
4.0
 40
4.0
 40
5.0
 40
5.0
 40
5.0
 40
6.0
 40
6.0
 40
6.0
 40
7.0
 40
7.0
 40
7.0
 40
7.0
 10
62.46388753255208
 20
90.21068657769096
 30
0.0
 10
62.39774169921874
 20
90.01224907769097
 30
0.0
 10
62.2318603515625
 20
89.81381157769097
 30
0.0
 10
62.16571451822916
 20
89.61537407769096
 30
0.0
 10
61.96727701822916
 20
89.11979709201388
 30
0.0
 10
61.76883951822916
 20
88.62318657769096
 30
0.0
 10
61.60399169921875
 20
88.12760959201388
 30
0.0
 10
61.50425618489583
 20
87.82943657769097
 30
0.0
 10
61.47170003255208
 20
87.53229709201388
 30
0.0
 10
61.40555419921874
 20
87.23412407769096
 30
0.0
 10
61.27326253255207
 20
86.77110324435763
 30
0.0
 10
61.17352701822916
 20
86.37422824435762
 30
0.0
 10
60.97508951822916
 20
85.94479709201389
 30
0.0
 10
60.77665201822916
 20
85.5143324110243
 30
0.0
 10
60.54565836588541
 20
85.15104709201388
 30
0.0
 10
60.31363118489583
 20
84.7205824110243
 30
0.0
 10
59.95034586588541
 20
84.15885959201388
 30
0.0
 10
59.58602701822916
 20
83.69583875868055
 30
0.0
 10
59.22274169921874
 20
83.10052625868055
 30
0.0
 10
59.05686035156249
 20
82.86849907769097
 30
0.0
 10
58.89201253255208
 20
82.60391574435764
 30
0.0
 10
58.6599853515625
 20
82.40547824435762
 30
0.0
  0
SPLINE
  5
119
330
A
100
AcDbEntity
  8
LAYER_1
 62
     7
100
AcDbSpline
210
0.0
220
0.0
230
1.0
 70
     8
 71
     3
 72
    14
 73
    10
 74
     0
 42
0.0000000001
 43
0.0000000001
 40
0.0
 40
0.0
 40
0.0
 40
0.0
 40
1.0
 40
1.0
 40
1.0
 40
2.0
 40
2.0
 40
2.0
 40
3.0
 40
3.0
 40
3.0
 40
3.0
 10
62.16571451822916
 20
85.01875542534721
 30
0.0
 10
61.80242919921874
 20
84.42344292534722
 30
0.0
 10
61.40555419921874
 20
83.86068657769097
 30
0.0
 10
61.14097086588541
 20
83.23281792534722
 30
0.0
 10
61.00867919921875
 20
82.93464491102429
 30
0.0
 10
60.84279785156249
 20
82.70365125868055
 30
0.0
 10
60.77665201822916
 20
82.37292209201388
 30
0.0
 10
60.67795003255208
 20
82.04219292534721
 30
0.0
 10
60.54565836588541
 20
81.77760959201387
 30
0.0
 10
60.31363118489583
 20
81.5455824110243
 30
0.0
  0
SPLINE
  5
118
330
A
100
AcDbEntity
  8
LAYER_1
 62
     7
100
AcDbSpline
210
0.0
220
0.0
230
1.0
 70
     8
 71
     3
 72
    14
 73
    10
 74
     0
 42
0.0000000001
 43
0.0000000001
 40
0.0
 40
0.0
 40
0.0
 40
0.0
 40
1.0
 40
1.0
 40
1.0
 40
2.0
 40
2.0
 40
2.0
 40
3.0
 40
3.0
 40
3.0
 40
3.0
 10
64.48081868489582
 20
90.2768324110243
 30
0.0
 10
64.44826253255208
 20
89.41693657769096
 30
0.0
 10
64.24982503255208
 20
88.59063042534721
 30
0.0
 10
64.08394368489583
 20
87.73073459201387
 30
0.0
 10
64.01779785156249
 20
87.33385959201388
 30
0.0
 10
64.01779785156249
 20
86.93698459201389
 30
0.0
 10
63.88550618489582
 20
86.57266574435764
 30
0.0
 10
63.58836669921875
 20
85.77891574435763
 30
0.0
 10
63.25763753255207
 20
84.95260959201389
 30
0.0
 10
62.72847086588541
 20
84.29115125868054
 30
0.0
  0
SPLINE
  5
117
330
A
100
AcDbEntity
  8
LAYER_1
 62
     7
100
AcDbSpline
210
0.0
220
0.0
230
1.0
 70
     8
 71
     3
 72
    32
 73
    28
 74
     0
 42
0.0000000001
 43
0.0000000001
 40
0.0
 40
0.0
 40
0.0
 40
0.0
 40
1.0
 40
1.0
 40
1.0
 40
2.0
 40
2.0
 40
2.0
 40
3.0
 40
3.0
 40
3.0
 40
4.0
 40
4.0
 40
4.0
 40
5.0
 40
5.0
 40
5.0
 40
6.0
 40
6.0
 40
6.0
 40
7.0
 40
7.0
 40
7.0
 40
8.0
 40
8.0
 40
8.0
 40
9.0
 40
9.0
 40
9.0
 40
9.0
 10
65.67144368489583
 20
89.54922824435764
 30
0.0
 10
65.53915201822916
 20
89.45052625868055
 30
0.0
 10
65.4068603515625
 20
89.2846449110243
 30
0.0
 10
65.4068603515625
 20
89.11979709201388
 30
0.0
 10
65.34071451822916
 20
88.45833875868055
 30
0.0
 10
65.4068603515625
 20
87.82943657769097
 30
0.0
 10
65.27456868489583
 20
87.13542209201388
 30
0.0
 10
65.24201253255208
 20
87.03568657769097
 30
0.0
 10
65.17586669921874
 20
86.90339491102429
 30
0.0
 10
65.17586669921874
 20
86.80469292534721
 30
0.0
 10
65.17586669921874
 20
86.57266574435764
 30
0.0
 10
65.10972086588541
 20
86.34167209201388
 30
0.0
 10
65.07613118489583
 20
86.1096449110243
 30
0.0
 10
65.04357503255208
 20
85.84506157769097
 30
0.0
 10
64.94383951822915
 20
85.58047824435764
 30
0.0
 10
64.84513753255207
 20
85.3158949110243
 30
0.0
 10
64.67925618489583
 20
84.65443657769096
 30
0.0
 10
64.54696451822916
 20
84.05912407769097
 30
0.0
 10
64.38211669921874
 20
83.39766574435762
 30
0.0
 10
64.11753336588541
 20
82.5377699110243
 30
0.0
 10
63.78680419921874
 20
81.7440199110243
 30
0.0
 10
63.38992919921874
 20
80.91771375868055
 30
0.0
 10
63.25763753255207
 20
80.68568657769096
 30
0.0
 10
63.12534586588541
 20
80.42110324435764
 30
0.0
 10
63.05920003255208
 20
80.1565199110243
 30
0.0
 10
62.99305419921875
 20
79.99167209201389
 30
0.0
 10
62.95946451822916
 20
79.79323459201389
 30
0.0
 10
62.89331868489582
 20
79.62735324435764
 30
0.0
  0
SPLINE
  5
116
330
A
100
AcDbEntity
  8
LAYER_1
 62
     7
100
AcDbSpline
210
0.0
220
0.0
230
1.0
 70
     8
 71
     3
 72
    20
 73
    16
 74
     0
 42
0.0000000001
 43
0.0000000001
 40
0.0
 40
0.0
 40
0.0
 40
0.0
 40
1.0
 40
1.0
 40
1.0
 40
2.0
 40
2.0
 40
2.0
 40
3.0
 40
3.0
 40
3.0
 40
4.0
 40
4.0
 40
4.0
 40
5.0
 40
5.0
 40
5.0
 40
5.0
 10
66.63107503255208
 20
88.98750542534721
 30
0.0
 10
66.63107503255208
 20
88.92135959201389
 30
0.0
 10
66.53133951822916
 20
88.85521375868055
 30
0.0
 10
66.53133951822916
 20
88.78906792534721
 30
0.0
 10
66.49878336588542
 20
87.06927625868055
 30
0.0
 10
66.66363118489583
 20
85.38204074435762
 30
0.0
 10
66.46519368489582
 20
83.66224907769096
 30
0.0
 10
66.36649169921874
 20
82.83594292534721
 30
0.0
 10
66.13446451822917
 20
82.07474907769097
 30
0.0
 10
66.00217285156249
 20
81.24844292534722
 30
0.0
 10
65.90347086588541
 20
80.78542209201389
 30
0.0
 10
65.73758951822916
 20
80.38854709201388
 30
0.0
 10
65.63888753255208
 20
79.89193657769097
 30
0.0
 10
65.50659586588542
 20
79.23047824435763
 30
0.0
 10
65.10972086588541
 20
78.70131157769096
 30
0.0
 10
65.00998535156249
 20
78.03985324435763
 30
0.0
  0
SPLINE
  5
115
330
A
100
AcDbEntity
  8
LAYER_1
 62
     7
100
AcDbSpline
210
0.0
220
0.0
230
1.0
 70
     8
 71
     3
 72
    29
 73
    25
 74
     0
 42
0.0000000001
 43
0.0000000001
 40
0.0
 40
0.0
 40
0.0
 40
0.0
 40
1.0
 40
1.0
 40
1.0
 40
2.0
 40
2.0
 40
2.0
 40
3.0
 40
3.0
 40
3.0
 40
4.0
 40
4.0
 40
4.0
 40
5.0
 40
5.0
 40
5.0
 40
6.0
 40
6.0
 40
6.0
 40
7.0
 40
7.0
 40
7.0
 40
8.0
 40
8.0
 40
8.0
 40
8.0
 10
67.95399169921875
 20
87.92917209201389
 30
0.0
 10
67.95399169921875
 20
87.26771375868054
 30
0.0
 10
67.88784586588541
 20
86.60625542534721
 30
0.0
 10
67.98654785156249
 20
85.94479709201389
 30
0.0
 10
68.18498535156249
 20
84.82031792534721
 30
0.0
 10
68.25113118489583
 20
83.7283949110243
 30
0.0
 10
68.21857503255208
 20
82.63750542534721
 30
0.0
 10
68.18498535156249
 20
82.04219292534721
 30
0.0
 10
68.02013753255207
 20
81.47943657769096
 30
0.0
 10
67.95399169921875
 20
80.88412407769097
 30
0.0
 10
67.92040201822915
 20
80.58698459201388
 30
0.0
 10
67.78811035156249
 20
80.28881157769096
 30
0.0
 10
67.72196451822916
 20
79.99167209201389
 30
0.0
 10
67.65581868489583
 20
79.69349907769096
 30
0.0
 10
67.5896728515625
 20
79.39635959201388
 30
0.0
 10
67.55711669921874
 20
79.09818657769097
 30
0.0
 10
67.52352701822916
 20
78.53646375868055
 30
0.0
 10
67.2925333658854
 20
78.00729709201389
 30
0.0
 10
67.19279785156249
 20
77.41198459201388
 30
0.0
 10
67.12665201822917
 20
77.11381157769097
 30
0.0
 10
67.02795003255208
 20
76.84922824435763
 30
0.0
 10
66.92821451822915
 20
76.5846449110243
 30
0.0
 10
66.92821451822915
 20
76.61823459201388
 30
0.0
 10
66.92821451822915
 20
76.61823459201388
 30
0.0
 10
66.92821451822915
 20
76.65079074435764
 30
0.0
  0
SPLINE
  5
114
330
A
100
AcDbEntity
  8
LAYER_1
 62
     7
100
AcDbSpline
210
0.0
220
0.0
230
1.0
 70
     8
 71
     3
 72
    17
 73
    13
 74
     0
 42
0.0000000001
 43
0.0000000001
 40
0.0
 40
0.0
 40
0.0
 40
0.0
 40
1.0
 40
1.0
 40
1.0
 40
2.0
 40
2.0
 40
2.0
 40
3.0
 40
3.0
 40
3.0
 40
4.0
 40
4.0
 40
4.0
 40
4.0
 10
70.96311035156249
 20
85.91120741102429
 30
0.0
 10
70.89696451822915
 20
85.1174574110243
 30
0.0
 10
70.89696451822915
 20
84.35729709201388
 30
0.0
 10
70.86440836588541
 20
83.56354709201388
 30
0.0
 10
70.79826253255207
 20
80.95026991102429
 30
0.0
 10
70.69852701822916
 20
78.3705824110243
 30
0.0
 10
70.79826253255207
 20
75.75833875868055
 30
0.0
 10
70.79826253255207
 20
75.12943657769097
 30
0.0
 10
71.16154785156249
 20
74.53412407769096
 30
0.0
 10
71.16154785156249
 20
73.90625542534721
 30
0.0
 10
71.16154785156249
 20
73.8065199110243
 30
0.0
 10
71.22769368489583
 20
73.74037407769096
 30
0.0
 10
71.2612833658854
 20
73.67422824435764
 30
0.0
  0
SPLINE
  5
113
330
A
100
AcDbEntity
  8
LAYER_1
 62
     7
100
AcDbSpline
210
0.0
220
0.0
230
1.0
 70
     8
 71
     3
 72
    20
 73
    16
 74
     0
 42
0.0000000001
 43
0.0000000001
 40
0.0
 40
0.0
 40
0.0
 40
0.0
 40
1.0
 40
1.0
 40
1.0
 40
2.0
 40
2.0
 40
2.0
 40
3.0
 40
3.0
 40
3.0
 40
4.0
 40
4.0
 40
4.0
 40
5.0
 40
5.0
 40
5.0
 40
5.0
 10
72.38576253255208
 20
85.05131157769097
 30
0.0
 10
72.41831868489582
 20
84.45599907769096
 30
0.0
 10
72.2534708658854
 20
83.89427625868055
 30
0.0
 10
72.21988118489583
 20
83.29896375868054
 30
0.0
 10
72.12117919921874
 20
82.27318657769096
 30
0.0
 10
72.12117919921874
 20
81.24844292534722
 30
0.0
 10
72.31961669921874
 20
80.19010959201388
 30
0.0
 10
72.48446451822916
 20
79.13177625868055
 30
0.0
 10
72.88133951822915
 20
78.1721449110243
 30
0.0
 10
72.91492919921875
 20
77.11381157769097
 30
0.0
 10
72.98107503255207
 20
76.02292209201389
 30
0.0
 10
72.91492919921875
 20
74.93099907769097
 30
0.0
 10
73.04722086588541
 20
73.8065199110243
 30
0.0
 10
73.11336669921874
 20
73.31094292534722
 30
0.0
 10
73.21206868489583
 20
72.84792209201389
 30
0.0
 10
73.31180419921874
 20
72.38490125868054
 30
0.0
  0
SPLINE
  5
112
330
A
100
AcDbEntity
  8
LAYER_1
 62
     7
100
AcDbSpline
210
0.0
220
0.0
230
1.0
 70
     8
 71
     3
 72
    23
 73
    19
 74
     0
 42
0.0000000001
 43
0.0000000001
 40
0.0
 40
0.0
 40
0.0
 40
0.0
 40
1.0
 40
1.0
 40
1.0
 40
2.0
 40
2.0
 40
2.0
 40
3.0
 40
3.0
 40
3.0
 40
4.0
 40
4.0
 40
4.0
 40
5.0
 40
5.0
 40
5.0
 40
6.0
 40
6.0
 40
6.0
 40
6.0
 10
73.90711669921875
 20
83.7283949110243
 30
0.0
 10
73.87352701822915
 20
83.00079074435763
 30
0.0
 10
73.87352701822915
 20
82.27318657769096
 30
0.0
 10
73.97326253255207
 20
81.51302625868055
 30
0.0
 10
74.10555419921874
 20
80.48724907769096
 30
0.0
 10
74.56857503255208
 20
79.62735324435764
 30
0.0
 10
74.76701253255207
 20
78.60260959201388
 30
0.0
 10
74.96545003255207
 20
77.5768324110243
 30
0.0
 10
75.03159586588541
 20
76.65079074435764
 30
0.0
 10
75.09774169921874
 20
75.65860324435764
 30
0.0
 10
75.09774169921874
 20
75.49375542534722
 30
0.0
 10
75.16388753255208
 20
75.36146375868054
 30
0.0
 10
75.16388753255208
 20
75.1955824110243
 30
0.0
 10
75.16388753255208
 20
74.70000542534721
 30
0.0
 10
75.2300333658854
 20
74.2033949110243
 30
0.0
 10
75.42847086588542
 20
73.74037407769096
 30
0.0
 10
75.72561035156249
 20
73.01276991102429
 30
0.0
 10
75.99019368489583
 20
72.28516574435763
 30
0.0
 10
76.35451253255208
 20
71.59115125868055
 30
0.0
  0
SPLINE
  5
111
330
A
100
AcDbEntity
  8
LAYER_1
 62
     7
100
AcDbSpline
210
0.0
220
0.0
230
1.0
 70
     8
 71
     3
 72
    17
 73
    13
 74
     0
 42
0.0000000001
 43
0.0000000001
 40
0.0
 40
0.0
 40
0.0
 40
0.0
 40
1.0
 40
1.0
 40
1.0
 40
2.0
 40
2.0
 40
2.0
 40
3.0
 40
3.0
 40
3.0
 40
4.0
 40
4.0
 40
4.0
 40
4.0
 10
75.46102701822916
 20
82.86849907769097
 30
0.0
 10
75.46102701822916
 20
82.24063042534722
 30
0.0
 10
75.42847086588542
 20
81.64531792534721
 30
0.0
 10
75.49461669921874
 20
81.01641574435763
 30
0.0
 10
75.56076253255208
 20
80.19010959201388
 30
0.0
 10
75.89149169921875
 20
79.46250542534722
 30
0.0
 10
76.02378336588541
 20
78.63516574435764
 30
0.0
 10
76.08992919921874
 20
78.33802625868054
 30
0.0
 10
76.05633951822917
 20
78.00729709201389
 30
0.0
 10
76.12248535156249
 20
77.70912407769096
 30
0.0
 10
76.18863118489583
 20
77.34583875868054
 30
0.0
 10
76.48680419921874
 20
77.14740125868055
 30
0.0
 10
76.71779785156249
 20
76.84922824435763
 30
0.0
  0
SPLINE
  5
110
330
A
100
AcDbEntity
  8
LAYER_1
 62
     7
100
AcDbSpline
210
0.0
220
0.0
230
1.0
 70
     8
 71
     3
 72
    17
 73
    13
 74
     0
 42
0.0000000001
 43
0.0000000001
 40
0.0
 40
0.0
 40
0.0
 40
0.0
 40
1.0
 40
1.0
 40
1.0
 40
2.0
 40
2.0
 40
2.0
 40
3.0
 40
3.0
 40
3.0
 40
4.0
 40
4.0
 40
4.0
 40
4.0
 10
127.5071180555555
 20
105.2821180555555
 30
0.0
 10
127.5407077365451
 20
105.0836805555556
 30
0.0
 10
127.5513875325521
 20
104.9947970920139
 30
0.0
 10
127.6175333658854
 20
104.8289157443576
 30
0.0
 10
127.8821166992187
 20
104.299749077691
 30
0.0
 10
128.2128458658854
 20
103.8041720920139
 30
0.0
 10
128.4438395182292
 20
103.2750054253472
 30
0.0
 10
128.5099853515625
 20
103.1427137586805
 30
0.0
 10
128.4438395182292
 20
102.9768324110243
 30
0.0
 10
128.5099853515625
 20
102.8445407443576
 30
0.0
 10
128.7420125325521
 20
102.3489637586805
 30
0.0
 10
129.2048611111111
 20
101.5779513888889
 30
0.0
 10
129.2710069444444
 20
101.0487847222222
 30
0.0
  0
SPLINE
  5
10F
330
A
100
AcDbEntity
  8
LAYER_1
 62
     7
100
AcDbSpline
210
0.0
220
0.0
230
1.0
 70
     8
 71
     3
 72
    20
 73
    16
 74
     0
 42
0.0000000001
 43
0.0000000001
 40
0.0
 40
0.0
 40
0.0
 40
0.0
 40
1.0
 40
1.0
 40
1.0
 40
2.0
 40
2.0
 40
2.0
 40
3.0
 40
3.0
 40
3.0
 40
4.0
 40
4.0
 40
4.0
 40
5.0
 40
5.0
 40
5.0
 40
5.0
 10
125.8977416992187
 20
104.299749077691
 30
0.0
 10
126.2610270182292
 20
103.704436577691
 30
0.0
 10
126.4594645182292
 20
103.0429782443576
 30
0.0
 10
126.7576375325521
 20
102.4151095920139
 30
0.0
 10
127.0547770182292
 20
101.8197970920139
 30
0.0
 10
127.2206583658854
 20
101.2244845920139
 30
0.0
 10
127.3529500325521
 20
100.5955824110243
 30
0.0
 10
127.5513875325521
 20
99.6033949110243
 30
0.0
 10
127.6836791992187
 20
98.71094292534721
 30
0.0
 10
128.0805541992187
 20
97.81745741102429
 30
0.0
 10
128.1467000325521
 20
97.65260959201387
 30
0.0
 10
128.2454020182292
 20
97.48672824435764
 30
0.0
 10
128.2789916992188
 20
97.32188042534722
 30
0.0
 10
128.3451375325521
 20
97.12344292534722
 30
0.0
 10
128.4112833658854
 20
96.95756157769097
 30
0.0
 10
128.4112833658854
 20
96.75912407769097
 30
0.0
  0
SPLINE
  5
10E
330
A
100
AcDbEntity
  8
LAYER_1
 62
     7
100
AcDbSpline
210
0.0
220
0.0
230
1.0
 70
     8
 71
     3
 72
    23
 73
    19
 74
     0
 42
0.0000000001
 43
0.0000000001
 40
0.0
 40
0.0
 40
0.0
 40
0.0
 40
1.0
 40
1.0
 40
1.0
 40
2.0
 40
2.0
 40
2.0
 40
3.0
 40
3.0
 40
3.0
 40
4.0
 40
4.0
 40
4.0
 40
5.0
 40
5.0
 40
5.0
 40
6.0
 40
6.0
 40
6.0
 40
6.0
 10
123.7149291992187
 20
103.109124077691
 30
0.0
 10
123.7810750325521
 20
102.6796929253472
 30
0.0
 10
123.9133666992187
 20
102.2492282443576
 30
0.0
 10
124.0782145182292
 20
101.8523532443576
 30
0.0
 10
124.1118041992187
 20
101.7536512586806
 30
0.0
 10
124.1118041992187
 20
101.6213595920139
 30
0.0
 10
124.1443603515625
 20
101.4890679253472
 30
0.0
 10
124.2440958658854
 20
101.1583387586805
 30
0.0
 10
124.4750895182292
 20
100.926311577691
 30
0.0
 10
124.6409708658854
 20
100.6617282443576
 30
0.0
 10
125.0704020182292
 20
99.86797824435763
 30
0.0
 10
125.3685750325521
 20
99.10781792534722
 30
0.0
 10
125.5334228515625
 20
98.2143324110243
 30
0.0
 10
125.5995686848958
 20
97.85104709201389
 30
0.0
 10
125.5995686848958
 20
97.45417209201388
 30
0.0
 10
125.6657145182292
 20
97.08985324435763
 30
0.0
 10
125.7654500325521
 20
96.46198459201388
 30
0.0
 10
125.8315958658854
 20
95.83308241102429
 30
0.0
 10
125.8977416992187
 20
95.20521375868054
 30
0.0
  0
SPLINE
  5
10D
330
A
100
AcDbEntity
  8
LAYER_1
 62
     7
100
AcDbSpline
210
0.0
220
0.0
230
1.0
 70
     8
 71
     3
 72
    20
 73
    16
 74
     0
 42
0.0000000001
 43
0.0000000001
 40
0.0
 40
0.0
 40
0.0
 40
0.0
 40
1.0
 40
1.0
 40
1.0
 40
2.0
 40
2.0
 40
2.0
 40
3.0
 40
3.0
 40
3.0
 40
4.0
 40
4.0
 40
4.0
 40
5.0
 40
5.0
 40
5.0
 40
5.0
 10
122.1935750325521
 20
100.6617282443576
 30
0.0
 10
122.3920125325521
 20
100.4307345920139
 30
0.0
 10
122.5243041992187
 20
100.1661512586805
 30
0.0
 10
122.6891520182292
 20
99.86797824435763
 30
0.0
 10
122.7552978515625
 20
99.80183241102429
 30
0.0
 10
122.8214436848958
 20
99.73568657769097
 30
0.0
 10
122.8875895182292
 20
99.66954074435763
 30
0.0
 10
123.1521728515625
 20
99.24010959201388
 30
0.0
 10
123.3506103515625
 20
98.84323459201389
 30
0.0
 10
123.5826375325521
 20
98.4127699110243
 30
0.0
 10
123.8136311848958
 20
97.88360324435763
 30
0.0
 10
123.9459228515625
 20
97.38802625868054
 30
0.0
 10
124.1118041992187
 20
96.82526991102429
 30
0.0
 10
124.2766520182292
 20
96.16381157769096
 30
0.0
 10
124.4750895182292
 20
95.53594292534721
 30
0.0
 10
124.6073811848958
 20
94.87448459201389
 30
0.0
  0
SPLINE
  5
10C
330
A
100
AcDbEntity
  8
LAYER_1
 62
     7
100
AcDbSpline
210
0.0
220
0.0
230
1.0
 70
     8
 71
     3
 72
    11
 73
     7
 74
     0
 42
0.0000000001
 43
0.0000000001
 40
0.0
 40
0.0
 40
0.0
 40
0.0
 40
1.0
 40
1.0
 40
1.0
 40
2.0
 40
2.0
 40
2.0
 40
2.0
 10
122.1274291992187
 20
97.28829074435762
 30
0.0
 10
122.5904500325521
 20
96.6268324110243
 30
0.0
 10
122.9873250325521
 20
95.89922824435763
 30
0.0
 10
123.2519083658854
 20
95.13906792534722
 30
0.0
 10
123.3842000325521
 20
94.74219292534721
 30
0.0
 10
123.3842000325521
 20
94.31172824435762
 30
0.0
 10
123.4829020182292
 20
93.91485324435763
 30
0.0
  0
SPLINE
  5
10B
330
A
100
AcDbEntity
  8
LAYER_1
 62
     7
100
AcDbSpline
210
0.0
220
0.0
230
1.0
 70
     8
 71
     3
 72
    29
 73
    25
 74
     0
 42
0.0000000001
 43
0.0000000001
 40
0.0
 40
0.0
 40
0.0
 40
0.0
 40
1.0
 40
1.0
 40
1.0
 40
2.0
 40
2.0
 40
2.0
 40
3.0
 40
3.0
 40
3.0
 40
4.0
 40
4.0
 40
4.0
 40
5.0
 40
5.0
 40
5.0
 40
6.0
 40
6.0
 40
6.0
 40
7.0
 40
7.0
 40
7.0
 40
8.0
 40
8.0
 40
8.0
 40
8.0
 10
125.5670125325521
 20
94.60990125868055
 30
0.0
 10
125.5995686848958
 20
94.57631157769096
 30
0.0
 10
125.6657145182292
 20
94.51016574435764
 30
0.0
 10
125.6657145182292
 20
94.4440199110243
 30
0.0
 10
125.6993041992187
 20
93.98099907769097
 30
0.0
 10
125.5995686848958
 20
93.55156792534721
 30
0.0
 10
125.6993041992187
 20
93.08854709201388
 30
0.0
 10
125.8977416992187
 20
92.19506157769096
 30
0.0
 10
126.3933186848958
 20
91.53360324435764
 30
0.0
 10
126.9224853515625
 20
90.77344292534721
 30
0.0
 10
127.0547770182292
 20
90.60756157769096
 30
0.0
 10
127.1209228515625
 20
90.37656792534722
 30
0.0
 10
127.1870686848958
 20
90.14454074435763
 30
0.0
 10
127.3529500325521
 20
89.78125542534721
 30
0.0
 10
127.6175333658854
 20
89.51667209201388
 30
0.0
 10
127.8159708658854
 20
89.18594292534722
 30
0.0
 10
128.0144083658854
 20
88.92135959201389
 30
0.0
 10
128.0805541992187
 20
88.62318657769096
 30
0.0
 10
128.2128458658854
 20
88.32604709201388
 30
0.0
 10
128.3776936848958
 20
88.02787407769097
 30
0.0
 10
128.6097208658854
 20
87.79688042534721
 30
0.0
 10
128.6758666992187
 20
87.46615125868055
 30
0.0
 10
129.2375895182292
 20
87.16797824435763
 30
0.0
 10
129.6344645182292
 20
86.63881157769096
 30
0.0
 10
130.1636311848958
 20
86.3080824110243
 30
0.0
  0
SPLINE
  5
10A
330
A
100
AcDbEntity
  8
LAYER_1
 62
     7
100
AcDbSpline
210
0.0
220
0.0
230
1.0
 70
     8
 71
     3
 72
    23
 73
    19
 74
     0
 42
0.0000000001
 43
0.0000000001
 40
0.0
 40
0.0
 40
0.0
 40
0.0
 40
1.0
 40
1.0
 40
1.0
 40
2.0
 40
2.0
 40
2.0
 40
3.0
 40
3.0
 40
3.0
 40
4.0
 40
4.0
 40
4.0
 40
5.0
 40
5.0
 40
5.0
 40
6.0
 40
6.0
 40
6.0
 40
6.0
 10
123.5826375325521
 20
93.68385959201387
 30
0.0
 10
123.7149291992187
 20
93.4518324110243
 30
0.0
 10
123.8136311848958
 20
93.22083875868054
 30
0.0
 10
123.9459228515625
 20
92.98881157769097
 30
0.0
 10
124.1118041992187
 20
92.6580824110243
 30
0.0
 10
124.2440958658854
 20
92.29479709201388
 30
0.0
 10
124.4750895182292
 20
91.96406792534721
 30
0.0
 10
125.0042561848958
 20
91.2690199110243
 30
0.0
 10
125.4347208658854
 20
90.60756157769096
 30
0.0
 10
125.8641520182292
 20
89.87995741102429
 30
0.0
 10
126.1287353515625
 20
89.41693657769096
 30
0.0
 10
126.1948811848958
 20
88.92135959201389
 30
0.0
 10
126.4930541992187
 20
88.4908949110243
 30
0.0
 10
126.8899291992187
 20
87.86302625868055
 30
0.0
 10
127.4190958658854
 20
87.43256157769096
 30
0.0
 10
127.6500895182292
 20
86.77110324435763
 30
0.0
 10
127.8485270182292
 20
86.1096449110243
 30
0.0
 10
128.1131103515625
 20
85.48177625868055
 30
0.0
 10
128.4112833658854
 20
84.85287407769097
 30
0.0
  0
SPLINE
  5
109
330
A
100
AcDbEntity
  8
LAYER_1
 62
     7
100
AcDbSpline
210
0.0
220
0.0
230
1.0
 70
     8
 71
     3
 72
    29
 73
    25
 74
     0
 42
0.0000000001
 43
0.0000000001
 40
0.0
 40
0.0
 40
0.0
 40
0.0
 40
1.0
 40
1.0
 40
1.0
 40
2.0
 40
2.0
 40
2.0
 40
3.0
 40
3.0
 40
3.0
 40
4.0
 40
4.0
 40
4.0
 40
5.0
 40
5.0
 40
5.0
 40
6.0
 40
6.0
 40
6.0
 40
7.0
 40
7.0
 40
7.0
 40
8.0
 40
8.0
 40
8.0
 40
8.0
 10
122.0612833658854
 20
93.08854709201388
 30
0.0
 10
122.0612833658854
 20
92.72422824435763
 30
0.0
 10
122.0276936848958
 20
92.32735324435762
 30
0.0
 10
122.0612833658854
 20
91.96406792534721
 30
0.0
 10
122.0938395182292
 20
91.69948459201387
 30
0.0
 10
122.2261311848958
 20
91.4674574110243
 30
0.0
 10
122.3920125325521
 20
91.23646375868054
 30
0.0
 10
122.5568603515625
 20
91.00443657769097
 30
0.0
 10
122.7552978515625
 20
90.83958875868055
 30
0.0
 10
122.9211791992187
 20
90.60756157769096
 30
0.0
 10
123.6151936848958
 20
89.54922824435764
 30
0.0
 10
124.3427978515625
 20
88.65677625868055
 30
0.0
 10
125.1701375325521
 20
87.73073459201387
 30
0.0
 10
125.5008666992187
 20
87.43256157769096
 30
0.0
 10
125.8641520182292
 20
87.20156792534722
 30
0.0
 10
126.1623250325521
 20
86.87083875868055
 30
0.0
 10
126.2946166992187
 20
86.67240125868055
 30
0.0
 10
126.4930541992187
 20
86.54010959201388
 30
0.0
 10
126.5592000325521
 20
86.3080824110243
 30
0.0
 10
126.6253458658854
 20
85.74635959201387
 30
0.0
 10
126.8237833658854
 20
85.21719292534722
 30
0.0
 10
127.0222208658854
 20
84.68802625868055
 30
0.0
 10
127.0547770182292
 20
84.58829074435764
 30
0.0
 10
127.0222208658854
 20
84.48958875868055
 30
0.0
 10
127.0222208658854
 20
84.38985324435762
 30
0.0
  0
SPLINE
  5
108
330
A
100
AcDbEntity
  8
LAYER_1
 62
     7
100
AcDbSpline
210
0.0
220
0.0
230
1.0
 70
     8
 71
     3
 72
    26
 73
    22
 74
     0
 42
0.0000000001
 43
0.0000000001
 40
0.0
 40
0.0
 40
0.0
 40
0.0
 40
1.0
 40
1.0
 40
1.0
 40
2.0
 40
2.0
 40
2.0
 40
3.0
 40
3.0
 40
3.0
 40
4.0
 40
4.0
 40
4.0
 40
5.0
 40
5.0
 40
5.0
 40
6.0
 40
6.0
 40
6.0
 40
7.0
 40
7.0
 40
7.0
 40
7.0
 10
120.3079020182292
 20
91.93047824435763
 30
0.0
 10
120.5063395182292
 20
91.53360324435764
 30
0.0
 10
120.7709228515625
 20
91.20287407769096
 30
0.0
 10
120.9368041992187
 20
90.77344292534721
 30
0.0
 10
121.0029500325521
 20
90.54141574435764
 30
0.0
 10
121.0690958658854
 20
90.31042209201388
 30
0.0
 10
121.1352416992187
 20
90.0783949110243
 30
0.0
 10
121.1677978515625
 20
89.87995741102429
 30
0.0
 10
121.3336791992187
 20
89.74766574435763
 30
0.0
 10
121.4659708658854
 20
89.61537407769096
 30
0.0
 10
122.1599853515625
 20
89.02006157769097
 30
0.0
 10
122.7888875325521
 20
88.39219292534722
 30
0.0
 10
123.2844645182292
 20
87.59844292534721
 30
0.0
 10
123.4829020182292
 20
87.26771375868054
 30
0.0
 10
123.6813395182292
 20
86.96954074435763
 30
0.0
 10
123.9459228515625
 20
86.7049574110243
 30
0.0
 10
124.3427978515625
 20
86.34167209201388
 30
0.0
 10
124.7732625325521
 20
86.07708875868055
 30
0.0
 10
125.0378458658854
 20
85.61406792534721
 30
0.0
 10
125.4011311848958
 20
85.01875542534721
 30
0.0
 10
125.5670125325521
 20
84.38985324435762
 30
0.0
 10
125.7980061848958
 20
83.76198459201387
 30
0.0
  0
SPLINE
  5
107
330
A
100
AcDbEntity
  8
LAYER_1
 62
     7
100
AcDbSpline
210
0.0
220
0.0
230
1.0
 70
     8
 71
     3
 72
     8
 73
     4
 74
     0
 42
0.0000000001
 43
0.0000000001
 40
0.0
 40
0.0
 40
0.0
 40
0.0
 40
1.0
 40
1.0
 40
1.0
 40
1.0
 10
122.7552978515625
 20
81.51302625868055
 30
0.0
 10
122.7552978515625
 20
79.79323459201389
 30
0.0
 10
122.9211791992187
 20
77.90756157769097
 30
0.0
 10
121.8954020182292
 20
76.41979709201388
 30
0.0
  0
SPLINE
  5
106
330
A
100
AcDbEntity
  8
LAYER_1
 62
     7
100
AcDbSpline
210
0.0
220
0.0
230
1.0
 70
     8
 71
     3
 72
    17
 73
    13
 74
     0
 42
0.0000000001
 43
0.0000000001
 40
0.0
 40
0.0
 40
0.0
 40
0.0
 40
1.0
 40
1.0
 40
1.0
 40
2.0
 40
2.0
 40
2.0
 40
3.0
 40
3.0
 40
3.0
 40
4.0
 40
4.0
 40
4.0
 40
4.0
 10
124.7071166992187
 20
82.67006157769096
 30
0.0
 10
124.6735270182292
 20
81.94245741102429
 30
0.0
 10
124.6735270182292
 20
81.24844292534722
 30
0.0
 10
124.5412353515625
 20
80.52083875868055
 30
0.0
 10
124.4089436848958
 20
79.99167209201389
 30
0.0
 10
124.2766520182292
 20
79.52865125868055
 30
0.0
 10
124.2105061848958
 20
78.99948459201389
 30
0.0
 10
123.9459228515625
 20
77.61042209201388
 30
0.0
 10
123.8797770182292
 20
76.28750542534722
 30
0.0
 10
123.3506103515625
 20
75.06329074435763
 30
0.0
 10
122.9873250325521
 20
74.26954074435763
 30
0.0
 10
122.5904500325521
 20
73.4096449110243
 30
0.0
 10
121.7967000325521
 20
72.98021375868055
 30
0.0
  0
SPLINE
  5
105
330
A
100
AcDbEntity
  8
LAYER_1
 62
     7
100
AcDbSpline
210
0.0
220
0.0
230
1.0
 70
     8
 71
     3
 72
    32
 73
    28
 74
     0
 42
0.0000000001
 43
0.0000000001
 40
0.0
 40
0.0
 40
0.0
 40
0.0
 40
1.0
 40
1.0
 40
1.0
 40
2.0
 40
2.0
 40
2.0
 40
3.0
 40
3.0
 40
3.0
 40
4.0
 40
4.0
 40
4.0
 40
5.0
 40
5.0
 40
5.0
 40
6.0
 40
6.0
 40
6.0
 40
7.0
 40
7.0
 40
7.0
 40
8.0
 40
8.0
 40
8.0
 40
9.0
 40
9.0
 40
9.0
 40
9.0
 10
126.2610270182292
 20
83.66224907769096
 30
0.0
 10
126.2284708658854
 20
82.40547824435762
 30
0.0
 10
126.3271728515625
 20
81.1487074110243
 30
0.0
 10
126.2284708658854
 20
79.85938042534721
 30
0.0
 10
126.1948811848958
 20
79.69349907769096
 30
0.0
 10
126.0961791992187
 20
79.52865125868055
 30
0.0
 10
126.0961791992187
 20
79.3627699110243
 30
0.0
 10
126.0961791992187
 20
79.1643324110243
 30
0.0
 10
126.0625895182292
 20
78.93333875868055
 30
0.0
 10
125.9964436848958
 20
78.73490125868055
 30
0.0
 10
125.9302978515625
 20
78.23829074435763
 30
0.0
 10
125.8641520182292
 20
77.7752699110243
 30
0.0
 10
125.7654500325521
 20
77.27969292534722
 30
0.0
 10
125.5334228515625
 20
76.35365125868054
 30
0.0
 10
124.8394083658854
 20
75.72474907769096
 30
0.0
 10
124.4425333658854
 20
74.93099907769097
 30
0.0
 10
123.9795125325521
 20
73.97240125868055
 30
0.0
 10
123.9459228515625
 20
72.94662407769097
 30
0.0
 10
123.5164916992187
 20
71.98802625868055
 30
0.0
 10
123.1857625325521
 20
71.32656792534722
 30
0.0
 10
122.8550333658854
 20
70.73125542534721
 30
0.0
 10
122.4581583658854
 20
70.10235324435763
 30
0.0
 10
122.3920125325521
 20
70.00365125868055
 30
0.0
 10
122.2922770182292
 20
69.90391574435763
 30
0.0
 10
122.1935750325521
 20
69.80521375868055
 30
0.0
 10
122.0612833658854
 20
69.70547824435764
 30
0.0
 10
121.8954020182292
 20
69.67292209201388
 30
0.0
 10
121.7305541992187
 20
69.60677625868055
 30
0.0
  0
SPLINE
  5
104
330
A
100
AcDbEntity
  8
LAYER_1
 62
     7
100
AcDbSpline
210
0.0
220
0.0
230
1.0
 70
     8
 71
     3
 72
    23
 73
    19
 74
     0
 42
0.0000000001
 43
0.0000000001
 40
0.0
 40
0.0
 40
0.0
 40
0.0
 40
1.0
 40
1.0
 40
1.0
 40
2.0
 40
2.0
 40
2.0
 40
3.0
 40
3.0
 40
3.0
 40
4.0
 40
4.0
 40
4.0
 40
5.0
 40
5.0
 40
5.0
 40
6.0
 40
6.0
 40
6.0
 40
6.0
 10
127.7162353515625
 20
84.55573459201388
 30
0.0
 10
127.7162353515625
 20
83.76198459201387
 30
0.0
 10
127.7498250325521
 20
82.96823459201389
 30
0.0
 10
127.6175333658854
 20
82.1408949110243
 30
0.0
 10
127.4852416992187
 20
81.21485324435763
 30
0.0
 10
127.3855061848958
 20
80.32240125868054
 30
0.0
 10
127.2868041992187
 20
79.39635959201388
 30
0.0
 10
127.1209228515625
 20
78.30443657769096
 30
0.0
 10
126.9560750325521
 20
77.27969292534722
 30
0.0
 10
127.0883666992187
 20
76.1877699110243
 30
0.0
 10
127.1209228515625
 20
75.85704074435763
 30
0.0
 10
127.1870686848958
 20
75.52631157769096
 30
0.0
 10
127.0883666992187
 20
75.1955824110243
 30
0.0
 10
126.7901936848958
 20
74.17083875868055
 30
0.0
 10
126.4594645182292
 20
73.17865125868055
 30
0.0
 10
126.0961791992187
 20
72.15287407769097
 30
0.0
 10
125.9302978515625
 20
71.68985324435764
 30
0.0
 10
125.7654500325521
 20
71.2268324110243
 30
0.0
 10
125.5334228515625
 20
70.76381157769097
 30
0.0
  0
SPLINE
  5
103
330
A
100
AcDbEntity
  8
LAYER_1
 62
     7
100
AcDbSpline
210
0.0
220
0.0
230
1.0
 70
     8
 71
     3
 72
    20
 73
    16
 74
     0
 42
0.0000000001
 43
0.0000000001
 40
0.0
 40
0.0
 40
0.0
 40
0.0
 40
1.0
 40
1.0
 40
1.0
 40
2.0
 40
2.0
 40
2.0
 40
3.0
 40
3.0
 40
3.0
 40
4.0
 40
4.0
 40
4.0
 40
5.0
 40
5.0
 40
5.0
 40
5.0
 10
128.8081583658854
 20
76.91537407769097
 30
0.0
 10
128.8081583658854
 20
76.48594292534722
 30
0.0
 10
128.7084228515625
 20
76.12162407769097
 30
0.0
 10
128.6097208658854
 20
75.69219292534721
 30
0.0
 10
128.5435750325521
 20
75.36146375868054
 30
0.0
 10
128.4774291992187
 20
75.06329074435763
 30
0.0
 10
128.4112833658854
 20
74.73256157769096
 30
0.0
 10
128.3115478515625
 20
74.36927625868054
 30
0.0
 10
128.1131103515625
 20
74.07110324435763
 30
0.0
 10
127.9808186848958
 20
73.74037407769096
 30
0.0
 10
127.9146728515625
 20
73.54193657769096
 30
0.0
 10
127.9808186848958
 20
73.27735324435763
 30
0.0
 10
127.9146728515625
 20
73.07891574435763
 30
0.0
 10
127.7498250325521
 20
72.58333875868055
 30
0.0
 10
127.5177978515625
 20
72.15287407769097
 30
0.0
 10
127.3193603515625
 20
71.68985324435764
 30
0.0
  0
SPLINE
  5
102
330
A
100
AcDbEntity
  8
LAYER_1
 62
     7
100
AcDbSpline
210
0.0
220
0.0
230
1.0
 70
     8
 71
     3
 72
    14
 73
    10
 74
     0
 42
0.0000000001
 43
0.0000000001
 40
0.0
 40
0.0
 40
0.0
 40
0.0
 40
1.0
 40
1.0
 40
1.0
 40
2.0
 40
2.0
 40
2.0
 40
3.0
 40
3.0
 40
3.0
 40
3.0
 10
149.6766520182292
 20
113.3953179253472
 30
0.0
 10
149.8425333658854
 20
112.9322970920139
 30
0.0
 10
149.8425333658854
 20
112.435686577691
 30
0.0
 10
150.0735270182292
 20
112.0062554253472
 30
0.0
 10
150.1732625325521
 20
111.7416720920139
 30
0.0
 10
150.3055541992187
 20
111.4770887586806
 30
0.0
 10
150.5039916992187
 20
111.2786512586805
 30
0.0
 10
150.8347208658854
 20
110.9143324110243
 30
0.0
 10
151.1318603515625
 20
110.5174574110243
 30
0.0
 10
151.4961791992187
 20
110.2203179253472
 30
0.0
  0
SPLINE
  5
101
330
A
100
AcDbEntity
  8
LAYER_1
 62
     7
100
AcDbSpline
210
0.0
220
0.0
230
1.0
 70
     8
 71
     3
 72
    26
 73
    22
 74
     0
 42
0.0000000001
 43
0.0000000001
 40
0.0
 40
0.0
 40
0.0
 40
0.0
 40
1.0
 40
1.0
 40
1.0
 40
2.0
 40
2.0
 40
2.0
 40
3.0
 40
3.0
 40
3.0
 40
4.0
 40
4.0
 40
4.0
 40
5.0
 40
5.0
 40
5.0
 40
6.0
 40
6.0
 40
6.0
 40
7.0
 40
7.0
 40
7.0
 40
7.0
 10
150.1732625325521
 20
118.7195407443576
 30
0.0
 10
150.4042561848958
 20
118.5211032443576
 30
0.0
 10
150.5701375325521
 20
118.2901095920139
 30
0.0
 10
150.7024291992187
 20
118.0255262586805
 30
0.0
 10
150.8347208658854
 20
117.7609429253472
 30
0.0
 10
150.7349853515625
 20
117.4963595920139
 30
0.0
 10
150.7685750325521
 20
117.2317762586805
 30
0.0
 10
150.8672770182292
 20
116.602874077691
 30
0.0
 10
150.9995686848958
 20
116.007561577691
 30
0.0
 10
151.1980061848958
 20
115.412249077691
 30
0.0
 10
151.2977416992187
 20
115.1476657443576
 30
0.0
 10
151.4300333658854
 20
114.9166720920139
 30
0.0
 10
151.4961791992187
 20
114.6846449110243
 30
0.0
 10
151.7607625325521
 20
114.0893324110243
 30
0.0
 10
151.9256103515625
 20
113.4614637586806
 30
0.0
 10
152.1240478515625
 20
112.8661512586806
 30
0.0
 10
152.2563395182291
 20
112.5018324110243
 30
0.0
 10
152.3560750325521
 20
112.1385470920139
 30
0.0
 10
152.5870686848958
 20
111.840374077691
 30
0.0
 10
152.7855061848958
 20
111.641936577691
 30
0.0
 10
152.9177978515625
 20
111.4109429253472
 30
0.0
 10
153.1162353515625
 20
111.245061577691
 30
0.0
  0
SPLINE
  5
100
330
A
100
AcDbEntity
  8
LAYER_1
 62
     7
100
AcDbSpline
210
0.0
220
0.0
230
1.0
 70
     8
 71
     3
 72
    20
 73
    16
 74
     0
 42
0.0000000001
 43
0.0000000001
 40
0.0
 40
0.0
 40
0.0
 40
0.0
 40
1.0
 40
1.0
 40
1.0
 40
2.0
 40
2.0
 40
2.0
 40
3.0
 40
3.0
 40
3.0
 40
4.0
 40
4.0
 40
4.0
 40
5.0
 40
5.0
 40
5.0
 40
5.0
 10
152.4883666992187
 20
120.1086032443576
 30
0.0
 10
152.4883666992187
 20
119.4807345920139
 30
0.0
 10
152.6206583658854
 20
118.8854220920139
 30
0.0
 10
152.7529500325521
 20
118.2565199110243
 30
0.0
 10
152.9513875325521
 20
117.396624077691
 30
0.0
 10
153.4144083658854
 20
116.6690199110243
 30
0.0
 10
153.5131103515625
 20
115.7765679253472
 30
0.0
 10
153.5792561848958
 20
115.412249077691
 30
0.0
 10
153.8112833658854
 20
115.0815199110243
 30
0.0
 10
153.9435750325521
 20
114.7182345920139
 30
0.0
 10
154.1745686848958
 20
114.1554782443576
 30
0.0
 10
154.1084228515625
 20
113.5276095920139
 30
0.0
 10
154.3404500325521
 20
112.9984429253472
 30
0.0
 10
154.4727416992187
 20
112.7338595920139
 30
0.0
 10
154.6711791992187
 20
112.435686577691
 30
0.0
 10
154.9357625325521
 20
112.237249077691
 30
0.0
  0
SPLINE
  5
FF
330
A
100
AcDbEntity
  8
LAYER_1
 62
     7
100
AcDbSpline
210
0.0
220
0.0
230
1.0
 70
     8
 71
     3
 72
    17
 73
    13
 74
     0
 42
0.0000000001
 43
0.0000000001
 40
0.0
 40
0.0
 40
0.0
 40
0.0
 40
1.0
 40
1.0
 40
1.0
 40
2.0
 40
2.0
 40
2.0
 40
3.0
 40
3.0
 40
3.0
 40
4.0
 40
4.0
 40
4.0
 40
4.0
 10
154.2081583658854
 20
121.0020887586805
 30
0.0
 10
154.1745686848958
 20
119.976311577691
 30
0.0
 10
154.2081583658854
 20
118.9515679253472
 30
0.0
 10
154.7037353515625
 20
117.9593804253472
 30
0.0
 10
155.0019083658854
 20
117.4302137586806
 30
0.0
 10
155.0680541992188
 20
116.801311577691
 30
0.0
 10
155.2329020182291
 20
116.1734429253472
 30
0.0
 10
155.4313395182292
 20
115.3461032443576
 30
0.0
 10
155.7620686848958
 20
114.5859429253472
 30
0.0
 10
156.1589436848958
 20
113.7921929253472
 30
0.0
 10
156.2912353515625
 20
113.4940199110243
 30
0.0
 10
156.5894083658854
 20
113.3291720920139
 30
0.0
 10
156.8204020182292
 20
113.0971449110243
 30
0.0
  0
SPLINE
  5
FE
330
A
100
AcDbEntity
  8
LAYER_1
 62
     7
100
AcDbSpline
210
0.0
220
0.0
230
1.0
 70
     8
 71
     3
 72
    17
 73
    13
 74
     0
 42
0.0000000001
 43
0.0000000001
 40
0.0
 40
0.0
 40
0.0
 40
0.0
 40
1.0
 40
1.0
 40
1.0
 40
2.0
 40
2.0
 40
2.0
 40
3.0
 40
3.0
 40
3.0
 40
4.0
 40
4.0
 40
4.0
 40
4.0
 10
155.1006103515625
 20
121.7296929253472
 30
0.0
 10
155.1006103515625
 20
121.6299574110243
 30
0.0
 10
155.0680541992188
 20
121.5312554253472
 30
0.0
 10
155.1006103515625
 20
121.4651095920139
 30
0.0
 10
155.2329020182291
 20
121.1343804253472
 30
0.0
 10
155.4649291992187
 20
120.8362074110243
 30
0.0
 10
155.5636311848958
 20
120.5054782443576
 30
0.0
 10
155.8618041992187
 20
119.6791720920139
 30
0.0
 10
156.0602416992188
 20
118.8518324110243
 30
0.0
 10
156.5232625325521
 20
118.0916720920139
 30
0.0
 10
156.7217000325521
 20
117.8270887586806
 30
0.0
 10
156.9201375325521
 20
117.6286512586806
 30
0.0
 10
157.0188395182292
 20
117.3304782443576
 30
0.0
  0
SPLINE
  5
FD
330
A
100
AcDbEntity
  8
LAYER_1
 62
     7
100
AcDbSpline
210
0.0
220
0.0
230
1.0
 70
     8
 71
     3
 72
    14
 73
    10
 74
     0
 42
0.0000000001
 43
0.0000000001
 40
0.0
 40
0.0
 40
0.0
 40
0.0
 40
1.0
 40
1.0
 40
1.0
 40
2.0
 40
2.0
 40
2.0
 40
3.0
 40
3.0
 40
3.0
 40
3.0
 10
156.5558186848958
 20
122.3911512586806
 30
0.0
 10
156.5558186848958
 20
122.2914157443576
 30
0.0
 10
156.5232625325521
 20
122.1927137586805
 30
0.0
 10
156.5558186848958
 20
122.0929782443576
 30
0.0
 10
156.6881103515625
 20
121.762249077691
 30
0.0
 10
156.6555541992187
 20
121.3989637586806
 30
0.0
 10
156.6881103515625
 20
121.0346449110243
 30
0.0
 10
156.7217000325521
 20
120.6377699110243
 30
0.0
 10
156.9862833658854
 20
120.3406304253472
 30
0.0
 10
157.2172770182291
 20
120.0099012586805
 30
0.0
  0
SPLINE
  5
FC
330
A
100
AcDbEntity
  8
LAYER_1
 62
     7
100
AcDbSpline
210
0.0
220
0.0
230
1.0
 70
     8
 71
     3
 72
    26
 73
    22
 74
     0
 42
0.0000000001
 43
0.0000000001
 40
0.0
 40
0.0
 40
0.0
 40
0.0
 40
1.0
 40
1.0
 40
1.0
 40
2.0
 40
2.0
 40
2.0
 40
3.0
 40
3.0
 40
3.0
 40
4.0
 40
4.0
 40
4.0
 40
5.0
 40
5.0
 40
5.0
 40
6.0
 40
6.0
 40
6.0
 40
7.0
 40
7.0
 40
7.0
 40
7.0
 10
152.9177978515625
 20
110.7820407443576
 30
0.0
 10
152.9513875325521
 20
110.1205824110243
 30
0.0
 10
153.0836791992188
 20
109.4927137586806
 30
0.0
 10
153.4469645182292
 20
108.8974012586806
 30
0.0
 10
153.4805541992187
 20
108.8312554253472
 30
0.0
 10
153.5792561848958
 20
108.7976657443576
 30
0.0
 10
153.6128458658854
 20
108.7315199110243
 30
0.0
 10
153.7115478515625
 20
108.5666720920139
 30
0.0
 10
153.7776936848958
 20
108.3682345920139
 30
0.0
 10
153.9099853515625
 20
108.268499077691
 30
0.0
 10
154.7373250325521
 20
107.5408949110243
 30
0.0
 10
154.9683186848958
 20
106.5487074110243
 30
0.0
 10
155.4649291992187
 20
105.6226657443576
 30
0.0
 10
155.5636311848958
 20
105.3916720920139
 30
0.0
 10
155.7956583658854
 20
105.2593804253472
 30
0.0
 10
155.9279500325521
 20
105.0273532443576
 30
0.0
 10
156.1925333658854
 20
104.5643324110243
 30
0.0
 10
156.2250895182291
 20
104.0351657443576
 30
0.0
 10
156.5894083658854
 20
103.6718804253472
 30
0.0
 10
156.9526936848958
 20
103.307561577691
 30
0.0
 10
157.3495686848958
 20
102.9768324110243
 30
0.0
 10
157.8125895182292
 20
102.7783949110243
 30
0.0
  0
SPLINE
  5
FB
330
A
100
AcDbEntity
  8
LAYER_1
 62
     7
100
AcDbSpline
210
0.0
220
0.0
230
1.0
 70
     8
 71
     3
 72
    29
 73
    25
 74
     0
 42
0.0000000001
 43
0.0000000001
 40
0.0
 40
0.0
 40
0.0
 40
0.0
 40
1.0
 40
1.0
 40
1.0
 40
2.0
 40
2.0
 40
2.0
 40
3.0
 40
3.0
 40
3.0
 40
4.0
 40
4.0
 40
4.0
 40
5.0
 40
5.0
 40
5.0
 40
6.0
 40
6.0
 40
6.0
 40
7.0
 40
7.0
 40
7.0
 40
8.0
 40
8.0
 40
8.0
 40
8.0
 10
151.6284708658854
 20
110.054436577691
 30
0.0
 10
151.6610270182292
 20
109.5252699110243
 30
0.0
 10
151.5623250325521
 20
108.9635470920139
 30
0.0
 10
151.7607625325521
 20
108.466936577691
 30
0.0
 10
151.8269083658854
 20
108.3346449110243
 30
0.0
 10
151.9256103515625
 20
108.2359429253472
 30
0.0
 10
152.0253458658854
 20
108.1036512586805
 30
0.0
 10
152.1576375325521
 20
107.871624077691
 30
0.0
 10
152.2899291992187
 20
107.6406304253472
 30
0.0
 10
152.4222208658854
 20
107.4086032443576
 30
0.0
 10
152.7529500325521
 20
106.7145887586806
 30
0.0
 10
152.9513875325521
 20
106.0195407443576
 30
0.0
 10
153.2821166992187
 20
105.3255262586805
 30
0.0
 10
153.4805541992187
 20
104.8289157443576
 30
0.0
 10
153.7115478515625
 20
104.299749077691
 30
0.0
 10
153.9761311848958
 20
103.8041720920139
 30
0.0
 10
154.2081583658854
 20
103.3737074110243
 30
0.0
 10
154.5052978515625
 20
103.0104220920139
 30
0.0
 10
154.7037353515625
 20
102.5474012586806
 30
0.0
 10
154.8034708658854
 20
102.3489637586805
 30
0.0
 10
155.0019083658854
 20
102.2492282443576
 30
0.0
 10
155.1667561848958
 20
102.116936577691
 30
0.0
 10
155.4313395182292
 20
101.9520887586806
 30
0.0
 10
155.7295125325521
 20
101.8859429253472
 30
0.0
 10
155.9605061848958
 20
101.6539157443576
 30
0.0
  0
SPLINE
  5
FA
330
A
100
AcDbEntity
  8
LAYER_1
 62
     7
100
AcDbSpline
210
0.0
220
0.0
230
1.0
 70
     8
 71
     3
 72
    29
 73
    25
 74
     0
 42
0.0000000001
 43
0.0000000001
 40
0.0
 40
0.0
 40
0.0
 40
0.0
 40
1.0
 40
1.0
 40
1.0
 40
2.0
 40
2.0
 40
2.0
 40
3.0
 40
3.0
 40
3.0
 40
4.0
 40
4.0
 40
4.0
 40
5.0
 40
5.0
 40
5.0
 40
6.0
 40
6.0
 40
6.0
 40
7.0
 40
7.0
 40
7.0
 40
8.0
 40
8.0
 40
8.0
 40
8.0
 10
149.4782145182292
 20
108.863811577691
 30
0.0
 10
149.5779500325521
 20
108.466936577691
 30
0.0
 10
149.7102416992187
 20
108.1362074110243
 30
0.0
 10
149.7763875325521
 20
107.7067762586806
 30
0.0
 10
149.9086791992187
 20
106.9791720920139
 30
0.0
 10
150.4378458658854
 20
106.4500054253472
 30
0.0
 10
150.7024291992187
 20
105.7885470920139
 30
0.0
 10
150.7349853515625
 20
105.688811577691
 30
0.0
 10
150.7349853515625
 20
105.5565199110243
 30
0.0
 10
150.8011311848958
 20
105.4578179253472
 30
0.0
 10
150.9995686848958
 20
104.9286512586806
 30
0.0
 10
151.2977416992187
 20
104.4656304253472
 30
0.0
 10
151.4961791992187
 20
103.9690199110243
 30
0.0
 10
151.5623250325521
 20
103.8041720920139
 30
0.0
 10
151.5623250325521
 20
103.6057345920139
 30
0.0
 10
151.5948811848958
 20
103.4398532443576
 30
0.0
 10
151.7607625325521
 20
103.0104220920139
 30
0.0
 10
152.1576375325521
 20
102.8119845920139
 30
0.0
 10
152.4222208658854
 20
102.4812554253472
 30
0.0
 10
152.8516520182292
 20
101.8859429253472
 30
0.0
 10
153.2159708658854
 20
101.323186577691
 30
0.0
 10
153.4144083658854
 20
100.6291720920139
 30
0.0
 10
153.4469645182292
 20
100.529436577691
 30
0.0
 10
153.4805541992187
 20
100.4307345920139
 30
0.0
 10
153.4469645182292
 20
100.330999077691
 30
0.0
  0
SPLINE
  5
F9
330
A
100
AcDbEntity
  8
LAYER_1
 62
     7
100
AcDbSpline
210
0.0
220
0.0
230
1.0
 70
     8
 71
     3
 72
    11
 73
     7
 74
     0
 42
0.0000000001
 43
0.0000000001
 40
0.0
 40
0.0
 40
0.0
 40
0.0
 40
1.0
 40
1.0
 40
1.0
 40
2.0
 40
2.0
 40
2.0
 40
2.0
 10
147.6922770182292
 20
107.9713595920139
 30
0.0
 10
148.2214436848958
 20
106.9130262586806
 30
0.0
 10
148.8503458658854
 20
105.9208387586806
 30
0.0
 10
149.0813395182292
 20
104.696624077691
 30
0.0
 10
149.1149291992188
 20
104.3994845920139
 30
0.0
 10
149.2797770182291
 20
104.1349012586805
 30
0.0
 10
149.4782145182292
 20
103.902874077691
 30
0.0
  0
SPLINE
  5
F8
330
A
100
AcDbEntity
  8
LAYER_1
 62
     7
100
AcDbSpline
210
0.0
220
0.0
230
1.0
 70
     8
 71
     3
 72
    14
 73
    10
 74
     0
 42
0.0000000001
 43
0.0000000001
 40
0.0
 40
0.0
 40
0.0
 40
0.0
 40
1.0
 40
1.0
 40
1.0
 40
2.0
 40
2.0
 40
2.0
 40
3.0
 40
3.0
 40
3.0
 40
3.0
 10
154.7373250325521
 20
100.727874077691
 30
0.0
 10
154.7698811848958
 20
100.6291720920139
 30
0.0
 10
154.9021728515625
 20
100.5630262586806
 30
0.0
 10
154.9683186848958
 20
100.4632907443576
 30
0.0
 10
155.3326375325521
 20
99.76927625868055
 30
0.0
 10
155.5972208658854
 20
99.07422824435763
 30
0.0
 10
156.1589436848958
 20
98.54506157769096
 30
0.0
 10
156.2586791992187
 20
98.4127699110243
 30
0.0
 10
156.4571166992187
 20
98.34662407769096
 30
0.0
 10
156.6555541992187
 20
98.38021375868054
 30
0.0
  0
SPLINE
  5
F7
330
A
100
AcDbEntity
  8
LAYER_1
 62
     7
100
AcDbSpline
210
0.0
220
0.0
230
1.0
 70
     8
 71
     3
 72
    20
 73
    16
 74
     0
 42
0.0000000001
 43
0.0000000001
 40
0.0
 40
0.0
 40
0.0
 40
0.0
 40
1.0
 40
1.0
 40
1.0
 40
2.0
 40
2.0
 40
2.0
 40
3.0
 40
3.0
 40
3.0
 40
4.0
 40
4.0
 40
4.0
 40
5.0
 40
5.0
 40
5.0
 40
5.0
 10
153.6789916992187
 20
100.0002699110243
 30
0.0
 10
153.7451375325521
 20
98.87579074435763
 30
0.0
 10
154.2407145182291
 20
97.85104709201389
 30
0.0
 10
154.7037353515625
 20
96.85885959201389
 30
0.0
 10
154.9683186848958
 20
96.26354709201388
 30
0.0
 10
154.7037353515625
 20
95.56849907769096
 30
0.0
 10
155.0680541992188
 20
95.00677625868055
 30
0.0
 10
155.0680541992188
 20
94.37787407769096
 30
0.0
 10
155.4313395182292
 20
93.81615125868055
 30
0.0
 10
155.7956583658854
 20
93.28698459201388
 30
0.0
 10
155.9605061848958
 20
93.02240125868055
 30
0.0
 10
155.9605061848958
 20
92.6580824110243
 30
0.0
 10
156.1925333658854
 20
92.42708875868054
 30
0.0
 10
156.2586791992187
 20
92.36094292534722
 30
0.0
 10
156.3909708658854
 20
92.42708875868054
 30
0.0
 10
156.4235270182292
 20
92.32735324435762
 30
0.0
  0
SPLINE
  5
F6
330
A
100
AcDbEntity
  8
LAYER_1
 62
     7
100
AcDbSpline
210
0.0
220
0.0
230
1.0
 70
     8
 71
     3
 72
    35
 73
    31
 74
     0
 42
0.0000000001
 43
0.0000000001
 40
0.0
 40
0.0
 40
0.0
 40
0.0
 40
1.0
 40
1.0
 40
1.0
 40
2.0
 40
2.0
 40
2.0
 40
3.0
 40
3.0
 40
3.0
 40
4.0
 40
4.0
 40
4.0
 40
5.0
 40
5.0
 40
5.0
 40
6.0
 40
6.0
 40
6.0
 40
7.0
 40
7.0
 40
7.0
 40
8.0
 40
8.0
 40
8.0
 40
9.0
 40
9.0
 40
9.0
 40
10.0
 40
10.0
 40
10.0
 40
10.0
 10
152.0253458658854
 20
99.37240125868054
 30
0.0
 10
151.9917561848958
 20
99.24010959201388
 30
0.0
 10
152.0914916992188
 20
99.14037407769096
 30
0.0
 10
152.1240478515625
 20
99.00808241102429
 30
0.0
 10
152.1901936848958
 20
97.98333875868055
 30
0.0
 10
152.5545125325521
 20
97.05729709201388
 30
0.0
 10
152.9177978515625
 20
96.09766574435763
 30
0.0
 10
153.0175333658854
 20
95.89922824435763
 30
0.0
 10
152.9839436848958
 20
95.66823459201387
 30
0.0
 10
153.0500895182292
 20
95.4362074110243
 30
0.0
 10
153.1498250325521
 20
94.90704074435763
 30
0.0
 10
153.2821166992187
 20
94.4440199110243
 30
0.0
 10
153.5792561848958
 20
93.98099907769097
 30
0.0
 10
153.7776936848958
 20
93.68385959201387
 30
0.0
 10
153.9099853515625
 20
93.38568657769096
 30
0.0
 10
154.0758666992188
 20
93.08854709201388
 30
0.0
 10
154.1420125325521
 20
93.02240125868055
 30
0.0
 10
154.2081583658854
 20
92.95625542534721
 30
0.0
 10
154.2407145182291
 20
92.89010959201389
 30
0.0
 10
154.4065958658854
 20
92.52579074435764
 30
0.0
 10
154.5714436848958
 20
92.19506157769096
 30
0.0
 10
154.6711791992187
 20
91.79818657769097
 30
0.0
 10
154.8034708658854
 20
91.2690199110243
 30
0.0
 10
155.0680541992188
 20
90.87214491102429
 30
0.0
 10
155.3651936848958
 20
90.40912407769096
 30
0.0
 10
155.4649291992187
 20
90.2768324110243
 30
0.0
 10
155.4313395182292
 20
90.0783949110243
 30
0.0
 10
155.4974853515625
 20
89.94610324435763
 30
0.0
 10
155.6633666992187
 20
89.54922824435764
 30
0.0
 10
155.9940958658854
 20
89.11979709201388
 30
0.0
 10
156.4571166992187
 20
89.02006157769097
 30
0.0
  0
SPLINE
  5
F5
330
A
100
AcDbEntity
  8
LAYER_1
 62
     7
100
AcDbSpline
210
0.0
220
0.0
230
1.0
 70
     8
 71
     3
 72
    29
 73
    25
 74
     0
 42
0.0000000001
 43
0.0000000001
 40
0.0
 40
0.0
 40
0.0
 40
0.0
 40
1.0
 40
1.0
 40
1.0
 40
2.0
 40
2.0
 40
2.0
 40
3.0
 40
3.0
 40
3.0
 40
4.0
 40
4.0
 40
4.0
 40
5.0
 40
5.0
 40
5.0
 40
6.0
 40
6.0
 40
6.0
 40
7.0
 40
7.0
 40
7.0
 40
8.0
 40
8.0
 40
8.0
 40
8.0
 10
150.4378458658854
 20
98.34662407769096
 30
0.0
 10
150.4378458658854
 20
97.68516574435763
 30
0.0
 10
150.4042561848958
 20
97.02370741102429
 30
0.0
 10
150.4704020182292
 20
96.36224907769096
 30
0.0
 10
150.5039916992187
 20
95.93281792534721
 30
0.0
 10
150.6688395182292
 20
95.53594292534721
 30
0.0
 10
150.8011311848958
 20
95.13906792534722
 30
0.0
 10
151.0993041992188
 20
94.41146375868054
 30
0.0
 10
151.6946166992187
 20
93.84870741102429
 30
0.0
 10
151.9256103515625
 20
93.08854709201388
 30
0.0
 10
152.0253458658854
 20
92.82396375868055
 30
0.0
 10
152.0914916992188
 20
92.55938042534721
 30
0.0
 10
152.1901936848958
 20
92.29479709201388
 30
0.0
 10
152.4222208658854
 20
91.59974907769096
 30
0.0
 10
152.5209228515625
 20
90.87214491102429
 30
0.0
 10
152.8852416992187
 20
90.17813042534722
 30
0.0
 10
153.0500895182292
 20
89.81381157769097
 30
0.0
 10
153.2159708658854
 20
89.4830824110243
 30
0.0
 10
153.3808186848958
 20
89.11979709201388
 30
0.0
 10
153.6128458658854
 20
88.62318657769096
 30
0.0
 10
153.7115478515625
 20
88.12760959201388
 30
0.0
 10
153.9761311848958
 20
87.63099907769096
 30
0.0
 10
154.0097208658854
 20
87.59844292534721
 30
0.0
 10
154.0422770182292
 20
87.56485324435764
 30
0.0
 10
154.1084228515625
 20
87.56485324435764
 30
0.0
  0
SPLINE
  5
F4
330
A
100
AcDbEntity
  8
LAYER_1
 62
     7
100
AcDbSpline
210
0.0
220
0.0
230
1.0
 70
     8
 71
     3
 72
    23
 73
    19
 74
     0
 42
0.0000000001
 43
0.0000000001
 40
0.0
 40
0.0
 40
0.0
 40
0.0
 40
1.0
 40
1.0
 40
1.0
 40
2.0
 40
2.0
 40
2.0
 40
3.0
 40
3.0
 40
3.0
 40
4.0
 40
4.0
 40
4.0
 40
5.0
 40
5.0
 40
5.0
 40
6.0
 40
6.0
 40
6.0
 40
6.0
 10
149.4456583658854
 20
94.11329074435763
 30
0.0
 10
149.8425333658854
 20
93.75000542534721
 30
0.0
 10
150.0409708658854
 20
93.28698459201388
 30
0.0
 10
150.2719645182291
 20
92.82396375868055
 30
0.0
 10
150.5365478515625
 20
92.29479709201388
 30
0.0
 10
150.5701375325521
 20
91.69948459201387
 30
0.0
 10
150.7349853515625
 20
91.13672824435763
 30
0.0
 10
150.8347208658854
 20
90.83958875868055
 30
0.0
 10
150.9995686848958
 20
90.57500542534721
 30
0.0
 10
151.0331583658854
 20
90.2768324110243
 30
0.0
 10
151.2315958658854
 20
89.25208875868054
 30
0.0
 10
151.5623250325521
 20
88.32604709201388
 30
0.0
 10
151.8594645182292
 20
87.36641574435762
 30
0.0
 10
151.9592000325521
 20
87.16797824435763
 30
0.0
 10
152.0579020182292
 20
86.93698459201389
 30
0.0
 10
152.1901936848958
 20
86.73854709201387
 30
0.0
 10
152.2237833658854
 20
86.67240125868055
 30
0.0
 10
152.2563395182291
 20
86.5065199110243
 30
0.0
 10
152.4222208658854
 20
86.5065199110243
 30
0.0
  0
SPLINE
  5
F3
330
A
100
AcDbEntity
  8
LAYER_1
 62
     7
100
AcDbSpline
210
0.0
220
0.0
230
1.0
 70
     8
 71
     3
 72
    17
 73
    13
 74
     0
 42
0.0000000001
 43
0.0000000001
 40
0.0
 40
0.0
 40
0.0
 40
0.0
 40
1.0
 40
1.0
 40
1.0
 40
2.0
 40
2.0
 40
2.0
 40
3.0
 40
3.0
 40
3.0
 40
4.0
 40
4.0
 40
4.0
 40
4.0
 10
149.1810750325521
 20
88.95391574435763
 30
0.0
 10
149.6105061848958
 20
88.6893324110243
 30
0.0
 10
149.8425333658854
 20
88.2924574110243
 30
0.0
 10
149.9748250325521
 20
87.86302625868055
 30
0.0
 10
150.1071166992188
 20
87.36641574435762
 30
0.0
 10
150.2719645182291
 20
86.90339491102429
 30
0.0
 10
150.4378458658854
 20
86.40781792534722
 30
0.0
 10
150.5039916992187
 20
86.3080824110243
 30
0.0
 10
150.5701375325521
 20
86.20938042534722
 30
0.0
 10
150.6362833658854
 20
86.1096449110243
 30
0.0
 10
150.9008666992187
 20
85.84506157769097
 30
0.0
 10
151.2641520182291
 20
85.97735324435763
 30
0.0
 10
151.5948811848958
 20
85.94479709201389
 30
0.0
  0
INSERT
  5
6D
330
A
100
AcDbEntity
  8
LAYER_1
 62
     7
100
AcDbBlockReference
  2
AI9-BLK1
 10
98.16050279405381
 20
96.14658610026041
 30
0.0
  0
LWPOLYLINE
  5
58
330
A
100
AcDbEntity
  8
LAYER_1
 62
     7
100
AcDbPolyline
 90
       18
 70
     0
 43
0.0
 10
129.3517944335937
 20
99.18929443359374
 10
131.1148220486111
 20
98.26514756944444
 10
131.7888549804687
 20
98.52938639322916
 10
131.8207221137153
 20
101.2599690755208
 10
134.1306586371528
 20
102.3546481662326
 10
134.3234117296007
 20
105.7137885199653
 10
131.5644070095486
 20
107.2105102539062
 10
131.6284857855903
 20
111.1446370442708
 10
134.1628702799479
 20
112.8051730685764
 10
134.1628702799479
 20
117.6605183919271
 10
131.4036933051215
 20
119.6367974175347
 10
131.243324110243
 20
124.9472398546007
 10
126.568157280816
 20
127.2239312065972
 10
118.4742499457465
 20
122.6319634331597
 10
118.4420383029514
 20
118.9067816840278
 10
121.2332546657986
 20
117.0951782226562
 10
121.2654663085937
 20
113.483167860243
 10
120.2445122612847
 20
112.131312391493
  0
SPLINE
  5
57
330
A
100
AcDbEntity
  8
LAYER_1
 62
     7
100
AcDbSpline
210
0.0
220
0.0
230
1.0
 70
     8
 71
     3
 72
    14
 73
    10
 74
     0
 42
0.0000000001
 43
0.0000000001
 40
0.0
 40
0.0
 40
0.0
 40
0.0
 40
1.0
 40
1.0
 40
1.0
 40
2.0
 40
2.0
 40
2.0
 40
3.0
 40
3.0
 40
3.0
 40
3.0
 10
124.1205891927083
 20
109.9223171657986
 30
0.0
 10
124.1205891927083
 20
109.9223171657986
 30
0.0
 10
124.217913140191
 20
113.807868109809
 30
0.0
 10
124.217913140191
 20
113.807868109809
 30
0.0
 10
124.2659722222222
 20
114.6233222113715
 30
0.0
 10
125.2926106770833
 20
115.0208862304687
 30
0.0
 10
125.2643608940972
 20
113.807868109809
 30
0.0
 10
125.2643608940972
 20
113.807868109809
 30
0.0
 10
125.3079413519965
 20
110.5012654622396
 30
0.0
 10
125.3079413519965
 20
110.5012654622396
 30
0.0
  0
LINE
  5
56
330
A
100
AcDbEntity
  8
LAYER_1
 62
     7
100
AcDbLine
 10
126.568157280816
 20
124.8647298177083
 30
0.0
 11
126.9691663953993
 21
108.7086100260417
 31
0.0
  0
LWPOLYLINE
  5
50
330
A
100
AcDbEntity
  8
LAYER_1
 62
     7
100
AcDbPolyline
 90
        4
 70
     0
 43
0.0
 10
121.0423963758681
 20
111.6243665907118
 10
122.260065375434
 20
113.2189290364583
 10
122.1315633138021
 20
116.5238091362847
 10
121.3297173394097
 20
117.0951782226562
  0
LINE
  5
4F
330
A
100
AcDbEntity
  8
LAYER_1
 62
     7
100
AcDbLine
 10
128.676555718316
 20
107.2354871961805
 30
0.0
 11
130.152434624566
 21
106.719928656684
 31
0.0
  0
LWPOLYLINE
  5
4A
330
A
100
AcDbEntity
  8
LAYER_1
 62
     7
100
AcDbPolyline
 90
        3
 70
     0
 43
0.0
 10
131.7888549804687
 20
101.2224175347222
 10
131.1470336914063
 20
100.9135647243924
 10
131.0831271701389
 20
98.30304361979165
  0
LWPOLYLINE
  5
43
330
A
100
AcDbEntity
  8
LAYER_1
 62
     7
100
AcDbPolyline
 90
        5
 70
     0
 43
0.0
 10
131.5644070095486
 20
111.1067409939236
 10
130.8581624348958
 20
110.4888631184896
 10
130.7620442708333
 20
107.0594428168403
 10
133.6567857530382
 20
105.4331854926215
 10
133.4786743164062
 20
102.1615505642361
  0
LWPOLYLINE
  5
3A
330
A
100
AcDbEntity
  8
LAYER_1
 62
     7
100
AcDbPolyline
 90
        7
 70
     0
 43
0.0
 10
119.438532172309
 20
118.3641791449653
 10
119.3811713324653
 20
122.2154513888889
 10
126.6127712673611
 20
126.0885999891493
 10
130.3634467230903
 20
124.3054185655382
 10
130.505384657118
 20
119.1463880750868
 10
133.4249308268229
 20
116.981145562066
 10
133.4569702148438
 20
112.4279351128472
  0
LINE
  5
39
330
A
100
AcDbEntity
  8
LAYER_1
 62
     7
100
AcDbLine
 10
121.1683146158854
 20
113.5236477322049
 30
0.0
 11
122.1629136827257
 21
113.2973049587674
 31
0.0
  0
LINE
  5
38
330
A
100
AcDbEntity
  8
LAYER_1
 62
     7
100
AcDbLine
 10
118.4742499457465
 20
122.6319634331597
 30
0.0
 11
119.3811713324653
 21
122.2154513888889
 31
0.0
  0
LINE
  5
37
330
A
100
AcDbEntity
  8
LAYER_1
 62
     7
100
AcDbLine
 10
130.3634467230903
 20
124.3054185655382
 30
0.0
 11
131.243324110243
 21
124.9472398546007
 31
0.0
  0
LINE
  5
36
330
A
100
AcDbEntity
  8
LAYER_1
 62
     7
100
AcDbLine
 10
133.4381944444444
 20
117.0340277777778
 30
0.0
 11
134.2319444444444
 21
117.5631944444444
 31
0.0
  0
LINE
  5
35
330
A
100
AcDbEntity
  8
LAYER_1
 62
     7
100
AcDbLine
 10
130.6600694444445
 20
119.1947916666667
 30
0.0
 11
131.4538194444444
 21
119.7239583333333
 31
0.0
  0
LINE
  5
34
330
A
100
AcDbEntity
  8
LAYER_1
 62
     7
100
AcDbLine
 10
130.7620442708333
 20
107.0594428168403
 30
0.0
 11
131.5644070095486
 21
107.2105102539062
 31
0.0
  0
LINE
  5
33
330
A
100
AcDbEntity
  8
LAYER_1
 62
     7
100
AcDbLine
 10
133.6567857530382
 20
105.4331854926215
 30
0.0
 11
134.3234117296007
 21
105.7137885199653
 31
0.0
  0
SPLINE
  5
32
330
A
100
AcDbEntity
  8
LAYER_1
 62
     7
100
AcDbSpline
210
0.0
220
0.0
230
1.0
 70
     8
 71
     3
 72
     8
 73
     4
 74
     0
 42
0.0000000001
 43
0.0000000001
 40
0.0
 40
0.0
 40
0.0
 40
0.0
 40
1.0
 40
1.0
 40
1.0
 40
1.0
 10
124.207233344184
 20
113.2122111002604
 30
0.0
 10
124.5892944335937
 20
113.4473388671875
 30
0.0
 10
125.2655666775174
 20
112.9181722005208
 30
0.0
 10
125.3243055555555
 20
110.9778944227431
 30
0.0
  0
SPLINE
  5
31
330
A
100
AcDbEntity
  8
LAYER_1
 62
     7
100
AcDbSpline
210
0.0
220
0.0
230
1.0
 70
     8
 71
     3
 72
    14
 73
    10
 74
     0
 42
0.0000000001
 43
0.0000000001
 40
0.0
 40
0.0
 40
0.0
 40
0.0
 40
1.0
 40
1.0
 40
1.0
 40
2.0
 40
2.0
 40
2.0
 40
3.0
 40
3.0
 40
3.0
 40
3.0
 10
121.1467827690972
 20
120.573346625434
 30
0.0
 10
121.1381700303819
 20
120.5726576063368
 30
0.0
 10
121.1292127821181
 20
120.5724853515625
 30
0.0
 10
121.1204277886285
 20
120.5724853515625
 30
0.0
 10
120.8505045572917
 20
120.5724853515625
 30
0.0
 10
120.631396484375
 20
120.7915934244792
 30
0.0
 10
120.631396484375
 20
121.061516655816
 30
0.0
 10
120.631396484375
 20
121.3316121419271
 30
0.0
 10
120.8505045572917
 20
121.5507202148437
 30
0.0
 10
121.1204277886285
 20
121.5507202148437
 30
0.0
  0
CIRCLE
  5
30
330
A
100
AcDbEntity
  8
LAYER_1
 62
     7
100
AcDbCircle
 10
121.296644422743
 20
121.061516655816
 30
0.0
 40
0.4890313042534722
  0
SPLINE
  5
2F
330
A
100
AcDbEntity
  8
LAYER_1
 62
     7
100
AcDbSpline
210
0.0
220
0.0
230
1.0
 70
     8
 71
     3
 72
    14
 73
    10
 74
     0
 42
0.0000000001
 43
0.0000000001
 40
0.0
 40
0.0
 40
0.0
 40
0.0
 40
1.0
 40
1.0
 40
1.0
 40
2.0
 40
2.0
 40
2.0
 40
3.0
 40
3.0
 40
3.0
 40
3.0
 10
123.5574883355035
 20
116.22236328125
 30
0.0
 10
123.5485310872396
 20
116.2216742621528
 30
0.0
 10
123.5399183485243
 20
116.2215020073785
 30
0.0
 10
123.5311333550347
 20
116.2215020073785
 30
0.0
 10
123.2612101236979
 20
116.2215020073785
 30
0.0
 10
123.0421020507812
 20
116.4406100802951
 30
0.0
 10
123.0421020507812
 20
116.7105333116319
 30
0.0
 10
123.0421020507812
 20
116.9806287977431
 30
0.0
 10
123.2612101236979
 20
117.1995646158854
 30
0.0
 10
123.5311333550347
 20
117.1995646158854
 30
0.0
  0
CIRCLE
  5
2E
330
A
100
AcDbEntity
  8
LAYER_1
 62
     7
100
AcDbCircle
 10
123.7073499891493
 20
116.7105333116319
 30
0.0
 40
0.4890313042534722
  0
SPLINE
  5
2D
330
A
100
AcDbEntity
  8
LAYER_1
 62
     7
100
AcDbSpline
210
0.0
220
0.0
230
1.0
 70
     8
 71
     3
 72
    14
 73
    10
 74
     0
 42
0.0000000001
 43
0.0000000001
 40
0.0
 40
0.0
 40
0.0
 40
0.0
 40
1.0
 40
1.0
 40
1.0
 40
2.0
 40
2.0
 40
2.0
 40
3.0
 40
3.0
 40
3.0
 40
3.0
 10
129.4498074001736
 20
101.2603135850694
 30
0.0
 10
129.4594536675347
 20
101.2610026041667
 30
0.0
 10
129.4692721896701
 20
101.261174858941
 30
0.0
 10
129.4790907118056
 20
101.261174858941
 30
0.0
 10
129.7789862738715
 20
101.261174858941
 30
0.0
 10
130.0223822699653
 20
101.0177788628472
 30
0.0
 10
130.0223822699653
 20
100.7178833007812
 30
0.0
 10
130.0223822699653
 20
100.417815483941
 30
0.0
 10
129.7789862738715
 20
100.1744194878472
 30
0.0
 10
129.4790907118056
 20
100.1744194878472
 30
0.0
  0
SPLINE
  5
2C
330
A
100
AcDbEntity
  8
LAYER_1
 62
     7
100
AcDbSpline
210
0.0
220
0.0
230
1.0
 70
     8
 71
     3
 72
    11
 73
     7
 74
     0
 42
0.0000000001
 43
0.0000000001
 40
0.0
 40
0.0
 40
0.0
 40
0.0
 40
1.0
 40
1.0
 40
1.0
 40
2.0
 40
2.0
 40
2.0
 40
2.0
 10
129.2832370334201
 20
101.261174858941
 30
0.0
 10
129.5833048502604
 20
101.261174858941
 30
0.0
 10
129.8267008463542
 20
101.0177788628472
 30
0.0
 10
129.8267008463542
 20
100.7178833007812
 30
0.0
 10
129.8267008463542
 20
100.417815483941
 30
0.0
 10
129.5833048502604
 20
100.1744194878472
 30
0.0
 10
129.2832370334201
 20
100.1744194878472
 30
0.0
  0
SPLINE
  5
2B
330
A
100
AcDbEntity
  8
LAYER_1
 62
     7
100
AcDbSpline
210
0.0
220
0.0
230
1.0
 70
     8
 71
     3
 72
    14
 73
    10
 74
     0
 42
0.0000000001
 43
0.0000000001
 40
0.0
 40
0.0
 40
0.0
 40
0.0
 40
1.0
 40
1.0
 40
1.0
 40
2.0
 40
2.0
 40
2.0
 40
3.0
 40
3.0
 40
3.0
 40
3.0
 10
129.4498074001736
 20
103.7884969075521
 30
0.0
 10
129.4594536675347
 20
103.7891859266493
 30
0.0
 10
129.4692721896701
 20
103.7893581814236
 30
0.0
 10
129.4790907118056
 20
103.7893581814236
 30
0.0
 10
129.7789862738715
 20
103.7893581814236
 30
0.0
 10
130.0223822699653
 20
103.5459621853299
 30
0.0
 10
130.0223822699653
 20
103.2460666232639
 30
0.0
 10
130.0223822699653
 20
102.9459988064236
 30
0.0
 10
129.7789862738715
 20
102.7026028103299
 30
0.0
 10
129.4790907118056
 20
102.7026028103299
 30
0.0
  0
SPLINE
  5
2A
330
A
100
AcDbEntity
  8
LAYER_1
 62
     7
100
AcDbSpline
210
0.0
220
0.0
230
1.0
 70
     8
 71
     3
 72
    11
 73
     7
 74
     0
 42
0.0000000001
 43
0.0000000001
 40
0.0
 40
0.0
 40
0.0
 40
0.0
 40
1.0
 40
1.0
 40
1.0
 40
2.0
 40
2.0
 40
2.0
 40
2.0
 10
129.3592013888889
 20
103.7828125
 30
0.0
 10
129.6592692057292
 20
103.7828125
 30
0.0
 10
129.8267008463542
 20
103.5459621853299
 30
0.0
 10
129.8267008463542
 20
103.2460666232639
 30
0.0
 10
129.8267008463542
 20
102.9459988064236
 30
0.0
 10
129.6151719835069
 20
102.6803819444444
 30
0.0
 10
129.3151041666667
 20
102.6803819444444
 30
0.0
  0
SPLINE
  5
29
330
A
100
AcDbEntity
  8
LAYER_1
 62
     7
100
AcDbSpline
210
0.0
220
0.0
230
1.0
 70
     8
 71
     3
 72
    14
 73
    10
 74
     0
 42
0.0000000001
 43
0.0000000001
 40
0.0
 40
0.0
 40
0.0
 40
0.0
 40
1.0
 40
1.0
 40
1.0
 40
2.0
 40
2.0
 40
2.0
 40
3.0
 40
3.0
 40
3.0
 40
3.0
 10
131.9779907226562
 20
104.4353135850694
 30
0.0
 10
131.9876369900173
 20
104.4360026041667
 30
0.0
 10
131.9974555121528
 20
104.4363471137153
 30
0.0
 10
132.0072740342882
 20
104.4363471137153
 30
0.0
 10
132.3071695963542
 20
104.4363471137153
 30
0.0
 10
132.5505655924479
 20
104.1929511176215
 30
0.0
 10
132.5505655924479
 20
103.8928833007812
 30
0.0
 10
132.5505655924479
 20
103.5929877387153
 30
0.0
 10
132.3071695963542
 20
103.3495917426215
 30
0.0
 10
132.0072740342882
 20
103.3495917426215
 30
0.0
  0
CIRCLE
  5
28
330
A
100
AcDbEntity
  8
LAYER_1
 62
     7
100
AcDbCircle
 10
131.8115064832899
 20
103.8928833007812
 30
0.0
 40
0.5433776855468749
  0
SPLINE
  5
27
330
A
100
AcDbEntity
  8
LAYER_1
 62
     7
100
AcDbSpline
210
0.0
220
0.0
230
1.0
 70
     8
 71
     3
 72
    14
 73
    10
 74
     0
 42
0.0000000001
 43
0.0000000001
 40
0.0
 40
0.0
 40
0.0
 40
0.0
 40
1.0
 40
1.0
 40
1.0
 40
2.0
 40
2.0
 40
2.0
 40
3.0
 40
3.0
 40
3.0
 40
3.0
 10
129.0970296223958
 20
110.4325358072917
 30
0.0
 10
129.1066758897569
 20
110.4332248263889
 30
0.0
 10
129.1164944118924
 20
110.4333970811632
 30
0.0
 10
129.1263129340278
 20
110.4333970811632
 30
0.0
 10
129.4262084960938
 20
110.4333970811632
 30
0.0
 10
129.6696044921875
 20
110.1900010850694
 30
0.0
 10
129.6696044921875
 20
109.8901055230035
 30
0.0
 10
129.6696044921875
 20
109.5900377061632
 30
0.0
 10
129.4262084960938
 20
109.3466417100694
 30
0.0
 10
129.1263129340278
 20
109.3466417100694
 30
0.0
  0
CIRCLE
  5
26
330
A
100
AcDbEntity
  8
LAYER_1
 62
     7
100
AcDbCircle
 10
128.9305453830295
 20
109.8901055230035
 30
0.0
 40
0.5433776855468749
  0
SPLINE
  5
25
330
A
100
AcDbEntity
  8
LAYER_1
 62
     7
100
AcDbSpline
210
0.0
220
0.0
230
1.0
 70
     8
 71
     3
 72
    14
 73
    10
 74
     0
 42
0.0000000001
 43
0.0000000001
 40
0.0
 40
0.0
 40
0.0
 40
0.0
 40
1.0
 40
1.0
 40
1.0
 40
2.0
 40
2.0
 40
2.0
 40
3.0
 40
3.0
 40
3.0
 40
3.0
 10
131.7428629557292
 20
116.6061469184028
 30
0.0
 10
131.7525092230903
 20
116.6068359375
 30
0.0
 10
131.7623277452257
 20
116.6070081922743
 30
0.0
 10
131.7721462673611
 20
116.6070081922743
 30
0.0
 10
132.0720418294271
 20
116.6070081922743
 30
0.0
 10
132.3154378255208
 20
116.3636121961805
 30
0.0
 10
132.3154378255208
 20
116.0637166341146
 30
0.0
 10
132.3154378255208
 20
115.7636488172743
 30
0.0
 10
132.0720418294271
 20
115.5202528211806
 30
0.0
 10
131.7721462673611
 20
115.5202528211806
 30
0.0
  0
CIRCLE
  5
24
330
A
100
AcDbEntity
  8
LAYER_1
 62
     7
100
AcDbCircle
 10
131.5763787163628
 20
116.0637166341146
 30
0.0
 40
0.5433776855468749
  0
SPLINE
  5
23
330
A
100
AcDbEntity
  8
LAYER_1
 62
     7
100
AcDbSpline
210
0.0
220
0.0
230
1.0
 70
     8
 71
     3
 72
    14
 73
    10
 74
     0
 42
0.0000000001
 43
0.0000000001
 40
0.0
 40
0.0
 40
0.0
 40
0.0
 40
1.0
 40
1.0
 40
1.0
 40
2.0
 40
2.0
 40
2.0
 40
3.0
 40
3.0
 40
3.0
 40
3.0
 10
128.509124077691
 20
123.2501858181424
 30
0.0
 10
128.5187703450521
 20
123.2508748372396
 30
0.0
 10
128.5285888671875
 20
123.2512193467882
 30
0.0
 10
128.5384073893229
 20
123.2512193467882
 30
0.0
 10
128.8383029513889
 20
123.2512193467882
 30
0.0
 10
129.0816989474826
 20
123.0078233506944
 30
0.0
 10
129.0816989474826
 20
122.7077555338542
 30
0.0
 10
129.0816989474826
 20
122.4078599717882
 30
0.0
 10
128.8383029513889
 20
122.1644639756944
 30
0.0
 10
128.5384073893229
 20
122.1644639756944
 30
0.0
  0
CIRCLE
  5
22
330
A
100
AcDbEntity
  8
LAYER_1
 62
     7
100
AcDbCircle
 10
128.3426398383246
 20
122.7077555338542
 30
0.0
 40
0.5433776855468749
  0
ENDSEC
  0
SECTION
  2
OBJECTS
  0
DICTIONARY
  5
19
330
0
100
AcDbDictionary
281
     1
  3
ACAD_COLOR
350
1EE
  3
ACAD_GROUP
350
1A
  3
ACAD_LAYOUT
350
1BB
  3
ACAD_MATERIAL
350
1F0
  3
ACAD_MLINESTYLE
350
1B
  3
ACAD_PLOTSETTINGS
350
1BC
  3
ACAD_PLOTSTYLENAME
350
1B9
  3
ACDBHEADERROUNDTRIPXREC
350
1ED
  0
DICTIONARY
  5
1EE
102
{ACAD_REACTORS
330
19
102
}
330
19
100
AcDbDictionary
281
     1
  0
DICTIONARY
  5
1A
102
{ACAD_REACTORS
330
19
102
}
330
19
100
AcDbDictionary
281
     1
  0
DICTIONARY
  5
1BB
102
{ACAD_REACTORS
330
19
102
}
330
19
100
AcDbDictionary
281
     1
  3
Layout1
350
1BE
  3
Model
350
1BD
  0
DICTIONARY
  5
1F0
102
{ACAD_REACTORS
330
19
102
}
330
19
100
AcDbDictionary
281
     1
  0
DICTIONARY
  5
1B
102
{ACAD_REACTORS
330
19
102
}
330
19
100
AcDbDictionary
281
     1
  3
STANDARD
350
1C
  0
DICTIONARY
  5
1BC
102
{ACAD_REACTORS
330
19
102
}
330
19
100
AcDbDictionary
281
     1
  0
ACDBDICTIONARYWDFLT
  5
1B9
102
{ACAD_REACTORS
330
19
102
}
330
19
100
AcDbDictionary
281
     1
  3
Normal
350
1BA
100
AcDbDictionaryWithDefault
340
1BA
  0
DICTIONARY
  5
1ED
102
{ACAD_REACTORS
330
19
102
}
330
19
100
AcDbDictionary
281
     1
  3
COLORDICT
350
1EF
  3
MATERIALDICT
350
1F1
  0
LAYOUT
  5
1BE
102
{ACAD_REACTORS
330
1BB
102
}
102
{ACAD_XDICTIONARY
360
1F2
102
}
330
1BB
100
AcDbPlotSettings
  1

  2
Support Center HP LaserJet 4
  4

  6

 40
0.0
 41
0.0
 42
0.0
 43
0.0
 44
0.0
 45
0.0
 46
0.0
 47
0.0
 48
0.0
 49
0.0
140
0.0
141
0.0
142
1.0
143
1.0
 70
   688
 72
     0
 73
     0
 74
     5
  7

 75
    16
147
1.0
148
0.0
149
0.0
100
AcDbLayout
  1
Layout1
 70
     0
 71
     1
 10
0.0
 20
0.0
 11
12.0
 21
9.0
 12
0.0
 22
0.0
 32
0.0
 14
1.000000000000000E+20
 24
1.000000000000000E+20
 34
1.000000000000000E+20
 15
-1.000000000000000E+20
 25
-1.000000000000000E+20
 35
-1.000000000000000E+20
146
0.0
 13
0.0
 23
0.0
 33
0.0
 16
1.0
 26
0.0
 36
0.0
 17
0.0
 27
1.0
 37
0.0
 76
     0
330
B
  0
LAYOUT
  5
1BD
102
{ACAD_REACTORS
330
1BB
102
}
102
{ACAD_XDICTIONARY
360
1F4
102
}
330
1BB
100
AcDbPlotSettings
  1

  2
Support Center HP LaserJet 4
  4

  6

 40
0.0
 41
0.0
 42
0.0
 43
0.0
 44
0.0
 45
0.0
 46
0.0
 47
0.0
 48
0.0
 49
0.0
140
0.0
141
0.0
142
1.0
143
1.0
 70
  1712
 72
     0
 73
     0
 74
     0
  7

 75
     0
147
1.0
148
0.0
149
0.0
100
AcDbLayout
  1
Model
 70
     1
 71
     0
 10
0.0
 20
0.0
 11
12.0
 21
9.0
 12
0.0
 22
0.0
 32
0.0
 14
0.0
 24
0.0
 34
0.0
 15
0.0
 25
0.0
 35
0.0
146
0.0
 13
0.0
 23
0.0
 33
0.0
 16
1.0
 26
0.0
 36
0.0
 17
0.0
 27
1.0
 37
0.0
 76
     0
330
A
  0
MLINESTYLE
  5
1C
102
{ACAD_REACTORS
330
1B
102
}
330
1B
100
AcDbMlineStyle
  2
STANDARD
 70
     0
  3

 62
     0
 51
90.0000000000002
 52
90.0000000000002
 71
     2
 49
0.5
 62
   256
  6
BYLAYER
 49
-0.5
 62
   256
  6
BYLAYER
  0
ACDBPLACEHOLDER
  5
1BA
102
{ACAD_REACTORS
330
1B9
102
}
330
1B9
  0
XRECORD
  5
1EF
102
{ACAD_REACTORS
330
1ED
102
}
330
1ED
100
AcDbXrecord
340
1EE
  0
XRECORD
  5
1F1
102
{ACAD_REACTORS
330
1ED
102
}
330
1ED
100
AcDbXrecord
340
1F0
  0
DICTIONARY
  5
1F2
330
1BE
100
AcDbDictionary
280
     1
281
     1
  3
ACAD_XREC_ROUNDTRIP
360
1F3
  0
DICTIONARY
  5
1F4
330
1BD
100
AcDbDictionary
280
     1
281
     1
  3
ACAD_XREC_ROUNDTRIP
360
1F5
  0
XRECORD
  5
1F3
102
{ACAD_REACTORS
330
1F2
102
}
330
1F2
100
AcDbXrecord
102
SHADEPLOT
 70
     0
102
SHADEPLOTRESLEVEL
 70
     0
102
SHADEPLOTCUSTOMDPI
 70
     0
  0
XRECORD
  5
1F5
102
{ACAD_REACTORS
330
1F4
102
}
330
1F4
100
AcDbXrecord
102
SHADEPLOT
 70
-25416
102
SHADEPLOTRESLEVEL
 70
 -2880
102
SHADEPLOTCUSTOMDPI
 70
 20968
  0
ENDSEC
  0
EOF
