  0
SECTION
  2
HEADER
  9
$ACADVER
  1
AC1015
  9
$ACADMAINTVER
 70
     6
  9
$DWGCODEPAGE
  3
ANSI_1252
  9
$INSBASE
 10
0.0
 20
0.0
 30
0.0
  9
$EXTMIN
 10
52.89238042619409
 20
76.744345158747
 30
-0.0015258207003612
  9
$EXTMAX
 10
150.6498518007593
 20
205.3814823059918
 30
0.0000000349246008
  9
$LIMMIN
 10
53.87629801432291
 20
76.62116292317708
  9
$LIMMAX
 10
150.5510172526041
 20
204.7616617838542
  9
$ORTHOMODE
 70
     0
  9
$REGENMODE
 70
     1
  9
$FILLMODE
 70
     1
  9
$QTEXTMODE
 70
     0
  9
$MIRRTEXT
 70
     1
  9
$LTSCALE
 40
1.0
  9
$ATTMODE
 70
     1
  9
$TEXTSIZE
 40
0.2
  9
$TRACEWID
 40
0.05
  9
$TEXTSTYLE
  7
STANDARD
  9
$CLAYER
  8
0
  9
$CELTYPE
  6
CONTINUOUS
  9
$CECOLOR
 62
   256
  9
$CELTSCALE
 40
1.0
  9
$DISPSILH
 70
     0
  9
$DIMSCALE
 40
1.0
  9
$DIMASZ
 40
0.18
  9
$DIMEXO
 40
0.0625
  9
$DIMDLI
 40
0.38
  9
$DIMRND
 40
0.0
  9
$DIMDLE
 40
0.0
  9
$DIMEXE
 40
0.18
  9
$DIMTP
 40
0.0
  9
$DIMTM
 40
0.0
  9
$DIMTXT
 40
0.18
  9
$DIMCEN
 40
0.09
  9
$DIMTSZ
 40
0.0
  9
$DIMTOL
 70
     0
  9
$DIMLIM
 70
     0
  9
$DIMTIH
 70
     1
  9
$DIMTOH
 70
     1
  9
$DIMSE1
 70
     0
  9
$DIMSE2
 70
     0
  9
$DIMTAD
 70
     0
  9
$DIMZIN
 70
     0
  9
$DIMBLK
  1

  9
$DIMASO
 70
     1
  9
$DIMSHO
 70
     1
  9
$DIMPOST
  1

  9
$DIMAPOST
  1

  9
$DIMALT
 70
     0
  9
$DIMALTD
 70
     2
  9
$DIMALTF
 40
25.4
  9
$DIMLFAC
 40
1.0
  9
$DIMTOFL
 70
     0
  9
$DIMTVP
 40
0.0
  9
$DIMTIX
 70
     0
  9
$DIMSOXD
 70
     0
  9
$DIMSAH
 70
     0
  9
$DIMBLK1
  1

  9
$DIMBLK2
  1

  9
$DIMSTYLE
  2
STANDARD
  9
$DIMCLRD
 70
     0
  9
$DIMCLRE
 70
     0
  9
$DIMCLRT
 70
     0
  9
$DIMTFAC
 40
1.0
  9
$DIMGAP
 40
0.09
  9
$DIMJUST
 70
     0
  9
$DIMSD1
 70
     0
  9
$DIMSD2
 70
     0
  9
$DIMTOLJ
 70
     1
  9
$DIMTZIN
 70
     0
  9
$DIMALTZ
 70
     0
  9
$DIMALTTZ
 70
     0
  9
$DIMUPT
 70
     0
  9
$DIMDEC
 70
     4
  9
$DIMTDEC
 70
     4
  9
$DIMALTU
 70
     2
  9
$DIMALTTD
 70
     2
  9
$DIMTXSTY
  7
STANDARD
  9
$DIMAUNIT
 70
     0
  9
$DIMADEC
 70
     0
  9
$DIMALTRND
 40
0.0
  9
$DIMAZIN
 70
     0
  9
$DIMDSEP
 70
    46
  9
$DIMATFIT
 70
     3
  9
$DIMFRAC
 70
     0
  9
$DIMLDRBLK
  1

  9
$DIMLUNIT
 70
     2
  9
$DIMLWD
 70
    -2
  9
$DIMLWE
 70
    -2
  9
$DIMTMOVE
 70
     0
  9
$LUNITS
 70
     2
  9
$LUPREC
 70
     4
  9
$SKETCHINC
 40
0.1
  9
$FILLETRAD
 40
0.0
  9
$AUNITS
 70
     0
  9
$AUPREC
 70
     0
  9
$MENU
  1
acad
  9
$ELEVATION
 40
0.0
  9
$PELEVATION
 40
0.0
  9
$THICKNESS
 40
0.0
  9
$LIMCHECK
 70
     0
  9
$CHAMFERA
 40
0.0
  9
$CHAMFERB
 40
0.0
  9
$CHAMFERC
 40
0.0
  9
$CHAMFERD
 40
0.0
  9
$SKPOLY
 70
     0
  9
$TDCREATE
 40
2444971.666666667
  9
$TDUCREATE
 40
2444972.0
  9
$TDUPDATE
 40
2452215.423540393
  9
$TDUUPDATE
 40
2452215.756873727
  9
$TDINDWG
 40
0.0002771991
  9
$TDUSRTIMER
 40
0.0002771991
  9
$USRTIMER
 70
     1
  9
$ANGBASE
 50
0.0
  9
$ANGDIR
 70
     0
  9
$PDMODE
 70
     0
  9
$PDSIZE
 40
0.0
  9
$PLINEWID
 40
0.0
  9
$SPLFRAME
 70
     0
  9
$SPLINETYPE
 70
     6
  9
$SPLINESEGS
 70
     8
  9
$HANDSEED
  5
17A
  9
$SURFTAB1
 70
     6
  9
$SURFTAB2
 70
     6
  9
$SURFTYPE
 70
     6
  9
$SURFU
 70
     6
  9
$SURFV
 70
     6
  9
$UCSBASE
  2

  9
$UCSNAME
  2

  9
$UCSORG
 10
0.0
 20
0.0
 30
0.0
  9
$UCSXDIR
 10
1.0
 20
0.0
 30
0.0
  9
$UCSYDIR
 10
0.0
 20
1.0
 30
0.0
  9
$UCSORTHOREF
  2

  9
$UCSORTHOVIEW
 70
     0
  9
$UCSORGTOP
 10
0.0
 20
0.0
 30
0.0
  9
$UCSORGBOTTOM
 10
0.0
 20
0.0
 30
0.0
  9
$UCSORGLEFT
 10
0.0
 20
0.0
 30
0.0
  9
$UCSORGRIGHT
 10
0.0
 20
0.0
 30
0.0
  9
$UCSORGFRONT
 10
0.0
 20
0.0
 30
0.0
  9
$UCSORGBACK
 10
0.0
 20
0.0
 30
0.0
  9
$PUCSBASE
  2

  9
$PUCSNAME
  2

  9
$PUCSORG
 10
0.0
 20
0.0
 30
0.0
  9
$PUCSXDIR
 10
1.0
 20
0.0
 30
0.0
  9
$PUCSYDIR
 10
0.0
 20
1.0
 30
0.0
  9
$PUCSORTHOREF
  2

  9
$PUCSORTHOVIEW
 70
     0
  9
$PUCSORGTOP
 10
0.0
 20
0.0
 30
0.0
  9
$PUCSORGBOTTOM
 10
0.0
 20
0.0
 30
0.0
  9
$PUCSORGLEFT
 10
0.0
 20
0.0
 30
0.0
  9
$PUCSORGRIGHT
 10
0.0
 20
0.0
 30
0.0
  9
$PUCSORGFRONT
 10
0.0
 20
0.0
 30
0.0
  9
$PUCSORGBACK
 10
0.0
 20
0.0
 30
0.0
  9
$USERI1
 70
     0
  9
$USERI2
 70
     0
  9
$USERI3
 70
     0
  9
$USERI4
 70
     0
  9
$USERI5
 70
     0
  9
$USERR1
 40
0.0
  9
$USERR2
 40
0.0
  9
$USERR3
 40
0.0
  9
$USERR4
 40
0.0
  9
$USERR5
 40
0.0
  9
$WORLDVIEW
 70
     1
  9
$SHADEDGE
 70
     3
  9
$SHADEDIF
 70
    70
  9
$TILEMODE
 70
     1
  9
$MAXACTVP
 70
    16
  9
$PINSBASE
 10
0.0
 20
0.0
 30
0.0
  9
$PLIMCHECK
 70
     0
  9
$PEXTMIN
 10
1.000000000000000E+20
 20
1.000000000000000E+20
 30
1.000000000000000E+20
  9
$PEXTMAX
 10
-1.000000000000000E+20
 20
-1.000000000000000E+20
 30
-1.000000000000000E+20
  9
$PLIMMIN
 10
0.0
 20
0.0
  9
$PLIMMAX
 10
12.0
 20
9.0
  9
$UNITMODE
 70
     0
  9
$VISRETAIN
 70
     0
  9
$PLINEGEN
 70
     1
  9
$PSLTSCALE
 70
     0
  9
$TREEDEPTH
 70
  3020
  9
$CMLSTYLE
  2
STANDARD
  9
$CMLJUST
 70
     0
  9
$CMLSCALE
 40
1.0
  9
$PROXYGRAPHICS
 70
     0
  9
$MEASUREMENT
 70
     0
  9
$CELWEIGHT
370
    -1
  9
$ENDCAPS
280
     0
  9
$JOINSTYLE
280
     0
  9
$LWDISPLAY
290
     0
  9
$INSUNITS
 70
     0
  9
$HYPERLINKBASE
  1

  9
$STYLESHEET
  1

  9
$XEDIT
290
     1
  9
$CEPSNTYPE
380
     0
  9
$PSTYLEMODE
290
     1
  9
$FINGERPRINTGUID
  2
{87DE94EE-CEA3-11D5-923F-00805F198AD5}
  9
$VERSIONGUID
  2
{87DE94F0-CEA3-11D5-923F-00805F198AD5}
  9
$EXTNAMES
290
     1
  9
$PSVPSCALE
 40
0.0
  9
$OLESTARTUP
290
     0
  0
ENDSEC
  0
SECTION
  2
CLASSES
  0
CLASS
  1
LWPOLYLINE
  2
AcDbPolyline
  3
AutoCAD 2000
 90
        0
280
     0
281
     1
  0
CLASS
  1
IMAGE
  2
AcDbRasterImage
  3
ISM
 90
      127
280
     0
281
     1
  0
CLASS
  1
OLE2FRAME
  2
AcDbOle2Frame
  3
AutoCAD 2000
 90
        0
280
     0
281
     1
  0
CLASS
  1
HATCH
  2
AcDbHatch
  3
AutoCAD 2000
 90
        0
280
     0
281
     1
  0
CLASS
  1
DICTIONARYVAR
  2
AcDbDictionaryVar
  3
AutoCAD 2000
 90
        0
280
     0
281
     0
  0
CLASS
  1
RASTERVARIABLES
  2
AcDbRasterVariables
  3
ISM
 90
        0
280
     0
281
     0
  0
CLASS
  1
IMAGEDEF
  2
AcDbRasterImageDef
  3
ISM
 90
        0
280
     0
281
     0
  0
CLASS
  1
IMAGEDEF_REACTOR
  2
AcDbRasterImageDefReactor
  3
ISM
 90
        1
280
     0
281
     0
  0
CLASS
  1
IDBUFFER
  2
AcDbIdBuffer
  3
AutoCAD 2000
 90
        0
280
     0
281
     0
  0
CLASS
  1
SPATIAL_FILTER
  2
AcDbSpatialFilter
  3
AutoCAD 2000
 90
        0
280
     0
281
     0
  0
CLASS
  1
XRECORD
  2
AcDbXrecord
  3
AutoCAD 2000
 90
        0
280
     0
281
     0
  0
CLASS
  1
SORTENTSTABLE
  2
AcDbSortentsTable
  3
AutoCAD 2000
 90
        0
280
     0
281
     0
  0
CLASS
  1
LAYER_INDEX
  2
AcDbLayerIndex
  3
AutoCAD 2000
 90
        0
280
     0
281
     0
  0
CLASS
  1
SPATIAL_INDEX
  2
AcDbSpatialIndex
  3
AutoCAD 2000
 90
        0
280
     0
281
     0
  0
CLASS
  1
OBJECT_PTR
  2
CAseDLPNTableRecord
  3
ASE-LPNTableRecord
 90
        1
280
     1
281
     0
  0
CLASS
  1
LAYOUT
  2
AcDbLayout
  3
ObjectDBX Classes
 90
        0
280
     0
281
     0
  0
CLASS
  1
PLOTSETTINGS
  2
AcDbPlotSettings
  3
AutoCAD 2000
 90
        0
280
     0
281
     0
  0
CLASS
  1
ACDBDICTIONARYWDFLT
  2
AcDbDictionaryWithDefault
  3
AutoCAD 2000
 90
        0
280
     0
281
     0
  0
CLASS
  1
ACDBPLACEHOLDER
  2
AcDbPlaceHolder
  3
ObjectDBX Classes
 90
        0
280
     0
281
     0
  0
CLASS
  1
VBAPROJECT
  2
AcDbVbaProject
  3
ObjectDBX Classes
 90
        0
280
     0
281
     0
  0
CLASS
  1
WIPEOUT
  2
AcDbWipeout
  3
WipeOut|AutoCAD Express Tool|expresstools@autodesk.com
 90
      127
280
     0
281
     1
  0
CLASS
  1
WIPEOUTVARIABLES
  2
AcDbWipeoutVariables
  3
WipeOut|AutoCAD Express Tool|expresstools@autodesk.com
 90
        0
280
     0
281
     0
  0
CLASS
  1
RTEXT
  2
RText
  3
RText|AutoCAD Express Tool|expresstools@autodesk.com
 90
        0
280
     0
281
     1
  0
CLASS
  1
ARCALIGNEDTEXT
  2
AcDbArcAlignedText
  3
ATEXT|AutoCAD Express Tool|expresstools@autodesk.com
 90
        0
280
     0
281
     1
  0
CLASS
  1
LONG_TRANSACTION
  2
AcDbLongTransaction
  3
AutoCAD 2000
 90
        0
280
     1
281
     0
  0
CLASS
  1
LWPOLYLINE
  2
AcDbPolyline
  3
AutoCAD 2000
 90
        0
280
     0
281
     1
  0
CLASS
  1
HATCH
  2
AcDbHatch
  3
AutoCAD 2000
 90
        0
280
     0
281
     1
  0
CLASS
  1
XRECORD
  2
AcDbXrecord
  3
AutoCAD 2000
 90
        0
280
     0
281
     0
  0
ENDSEC
  0
SECTION
  2
TABLES
  0
TABLE
  2
VPORT
  5
7
330
0
100
AcDbSymbolTable
 70
     2
  0
VPORT
  5
146
330
7
100
AcDbSymbolTableRecord
100
AcDbViewportTableRecord
  2
*Active
 70
     0
 10
0.0
 20
0.0
 11
1.0
 21
1.0
 12
101.7711161134767
 22
141.0629137323694
 13
0.0
 23
0.0
 14
1.0
 24
1.0
 15
0.0
 25
0.0
 16
0.0
 26
0.0
 36
1.0
 17
0.0
 27
0.0
 37
0.0
 40
130.662918834603
 41
1.836842105263158
 42
50.0
 43
0.0
 44
0.0
 50
0.0
 51
0.0
 71
     0
 72
   100
 73
     1
 74
     1
 75
     0
 76
     0
 77
     0
 78
     0
281
     0
 65
     1
110
0.0
120
0.0
130
0.0
111
1.0
121
0.0
131
0.0
112
0.0
122
1.0
132
0.0
 79
     0
146
0.0
  0
ENDTAB
  0
TABLE
  2
LTYPE
  5
4
330
0
100
AcDbSymbolTable
 70
     1
  0
LTYPE
  5
11
330
4
100
AcDbSymbolTableRecord
100
AcDbLinetypeTableRecord
  2
BYBLOCK
 70
     0
  3

 72
    65
 73
     0
 40
0.0
  0
LTYPE
  5
12
330
4
100
AcDbSymbolTableRecord
100
AcDbLinetypeTableRecord
  2
BYLAYER
 70
     0
  3

 72
    65
 73
     0
 40
0.0
  0
LTYPE
  5
13
330
4
100
AcDbSymbolTableRecord
100
AcDbLinetypeTableRecord
  2
CONTINUOUS
 70
     0
  3
Solid line
 72
    65
 73
     0
 40
0.0
  0
ENDTAB
  0
TABLE
  2
LAYER
  5
2
330
0
100
AcDbSymbolTable
 70
     2
  0
LAYER
  5
14
330
2
100
AcDbSymbolTableRecord
100
AcDbLayerTableRecord
  2
0
 70
     0
 62
     7
  6
CONTINUOUS
370
    -3
390
0
  0
LAYER
  5
21
330
2
100
AcDbSymbolTableRecord
100
AcDbLayerTableRecord
  2
LAYER_1
 70
     0
 62
     5
  6
CONTINUOUS
370
    -3
390
0
  0
ENDTAB
  0
TABLE
  2
STYLE
  5
3
330
0
100
AcDbSymbolTable
 70
     5
  0
STYLE
  5
17
330
3
100
AcDbSymbolTableRecord
100
AcDbTextStyleTableRecord
  2
STANDARD
 70
     0
 40
0.0
 41
1.0
 50
0.0
 71
     0
 42
0.2
  3
txt
  4

  0
STYLE
  5
1D
330
3
100
AcDbSymbolTableRecord
100
AcDbTextStyleTableRecord
  2
STD
 70
     0
 40
0.0
 41
1.0
 50
0.0
 71
     0
 42
0.2
  3
txt
  4

  0
STYLE
  5
1E
330
3
100
AcDbSymbolTableRecord
100
AcDbTextStyleTableRecord
  2
TATESTD
 70
     4
 40
0.0
 41
1.0
 50
0.0
 71
     0
 42
0.2
  3
txt
  4

  0
STYLE
  5
1F
330
3
100
AcDbSymbolTableRecord
100
AcDbTextStyleTableRecord
  2
KANJISTD
 70
     0
 40
0.0
 41
1.0
 50
0.0
 71
     0
 42
0.2
  3
txt
  4
extfont
  0
STYLE
  5
20
330
3
100
AcDbSymbolTableRecord
100
AcDbTextStyleTableRecord
  2
KANJITATE
 70
     4
 40
0.0
 41
1.0
 50
0.0
 71
     0
 42
0.2
  3
txt
  4
extfont
  0
ENDTAB
  0
TABLE
  2
VIEW
  5
5
330
0
100
AcDbSymbolTable
 70
     0
  0
ENDTAB
  0
TABLE
  2
UCS
  5
6
330
0
100
AcDbSymbolTable
 70
     0
  0
ENDTAB
  0
TABLE
  2
APPID
  5
8
330
0
100
AcDbSymbolTable
 70
     1
  0
APPID
  5
16
330
8
100
AcDbSymbolTableRecord
100
AcDbRegAppTableRecord
  2
ACAD
 70
     0
  0
ENDTAB
  0
TABLE
  2
DIMSTYLE
  5
9
330
0
100
AcDbSymbolTable
 70
     1
100
AcDbDimStyleTable
  0
DIMSTYLE
105
18
330
9
100
AcDbSymbolTableRecord
100
AcDbDimStyleTableRecord
  2
STANDARD
 70
     0
  3

  4

289
     0
340
17
  0
ENDTAB
  0
TABLE
  2
BLOCK_RECORD
  5
1
330
0
100
AcDbSymbolTable
 70
     0
  0
BLOCK_RECORD
  5
A
330
1
100
AcDbSymbolTableRecord
100
AcDbBlockTableRecord
  2
*MODEL_SPACE
340
141
  0
BLOCK_RECORD
  5
B
330
1
100
AcDbSymbolTableRecord
100
AcDbBlockTableRecord
  2
*PAPER_SPACE
340
142
  0
ENDTAB
  0
ENDSEC
  0
SECTION
  2
BLOCKS
  0
BLOCK
  5
D
330
A
100
AcDbEntity
  8
0
100
AcDbBlockBegin
  2
*MODEL_SPACE
 70
     0
 10
0.0
 20
0.0
 30
0.0
  3
*MODEL_SPACE
  1

  4

  0
ENDBLK
  5
E
330
A
100
AcDbEntity
  8
0
100
AcDbBlockEnd
  0
BLOCK
  5
F
330
B
100
AcDbEntity
 67
     1
  8
0
100
AcDbBlockBegin
  2
*PAPER_SPACE
 70
     0
 10
0.0
 20
0.0
 30
0.0
  3
*PAPER_SPACE
  1

  4

  0
ENDBLK
  5
10
330
B
100
AcDbEntity
 67
     1
  8
0
100
AcDbBlockEnd
  0
ENDSEC
  0
SECTION
  2
ENTITIES
  0
LWPOLYLINE
  5
137
330
A
100
AcDbEntity
  8
LAYER_1
 62
     7
100
AcDbPolyline
 90
        3
 70
     0
 43
0.0
 10
92.51287163628471
 20
89.12048611111111
 10
84.2616956922743
 20
93.99150661892361
 10
81.98879394531249
 20
99.03547092013888
  0
LWPOLYLINE
  5
129
330
A
100
AcDbEntity
  8
LAYER_1
 62
     7
100
AcDbPolyline
 90
       12
 70
     0
 43
0.0
 10
115.7838026258681
 20
126.7323160807292
 10
130.8295681423611
 20
107.4811225043403
 10
130.8295681423611
 20
96.53312581380207
 10
129.3631632486979
 20
96.12264268663193
 10
132.9408949110243
 20
92.03675944010416
 10
130.8295681423611
 20
91.33275417751736
 10
130.8295681423611
 20
82.49660101996527
 10
124.6128933376736
 20
80.73684624565972
 10
122.2667833116319
 20
81.32354600694444
 10
119.0993625217014
 20
78.27360297309028
 10
113.4692152235243
 20
76.74880371093749
 10
101.7872409396701
 20
83.64536810980903
  0
LWPOLYLINE
  5
124
330
A
100
AcDbEntity
  8
LAYER_1
 62
     7
100
AcDbPolyline
 90
        3
 70
     0
 43
0.0
 10
82.10592719184027
 20
163.6677015516493
 10
89.96505126953124
 20
159.7673366970486
 10
106.2827460394965
 20
138.8890245225694
  0
LWPOLYLINE
  5
11B
330
A
100
AcDbEntity
  8
LAYER_1
 62
     7
100
AcDbPolyline
 90
        7
 70
     0
 43
0.0
 10
107.885748969184
 20
128.6000745985243
 10
124.6221950954861
 20
105.8340223524306
 10
124.6221950954861
 20
94.79335259331596
 10
123.2050550672743
 20
95.00815429687499
 10
126.7336941189236
 20
89.93490668402777
 10
124.6221950954861
 20
89.23124593098957
 10
124.6221950954861
 20
80.84932861328124
  0
LINE
  5
11A
330
A
100
AcDbEntity
  8
LAYER_1
 62
     7
100
AcDbLine
 10
82.10592719184027
 20
163.6677015516493
 30
0.0
 11
97.98092719184027
 21
142.0734985351562
 31
0.0
  0
LINE
  5
119
330
A
100
AcDbEntity
  8
LAYER_1
 62
     7
100
AcDbLine
 10
124.6128933376736
 20
80.73684624565972
 30
0.0
 11
119.5296549479167
 21
82.10558268229165
 31
0.0
  0
LINE
  5
118
330
A
100
AcDbEntity
  8
LAYER_1
 62
     7
100
AcDbLine
 10
132.9408949110243
 20
92.03675944010416
 30
0.0
 11
124.651995171441
 21
89.26052924262152
 31
0.0
  0
LWPOLYLINE
  5
113
330
A
100
AcDbEntity
  8
LAYER_1
 62
     7
100
AcDbPolyline
 90
        3
 70
     0
 43
0.0
 10
130.8295681423611
 20
96.53312581380207
 10
124.651995171441
 20
94.79335259331596
 10
123.2050550672743
 20
95.00815429687499
  0
LINE
  5
112
330
A
100
AcDbEntity
  8
LAYER_1
 62
     7
100
AcDbLine
 10
124.6221950954861
 20
105.8340223524306
 30
0.0
 11
130.8295681423611
 21
107.4811225043403
 31
0.0
  0
LINE
  5
111
330
A
100
AcDbEntity
  8
LAYER_1
 62
     7
100
AcDbLine
 10
113.4692152235243
 20
76.74880371093749
 30
0.0
 11
119.5296549479167
 21
82.10558268229165
 31
0.0
  0
LWPOLYLINE
  5
10C
330
A
100
AcDbEntity
  8
LAYER_1
 62
     7
100
AcDbPolyline
 90
        3
 70
     0
 43
0.0
 10
106.3080674913194
 20
138.9086615668403
 10
89.96505126953124
 20
159.7673366970486
 10
82.10592719184027
 20
163.6677015516493
  0
LWPOLYLINE
  5
DC
330
A
100
AcDbEntity
  8
LAYER_1
 62
     7
100
AcDbPolyline
 90
       46
 70
     0
 43
0.0
 10
107.8285603841146
 20
128.5590779622396
 10
118.2001925998264
 20
114.6362413194444
 10
118.2001925998264
 20
104.4706258138021
 10
121.5629503038194
 20
99.93464084201388
 10
121.5629503038194
 20
88.90861273871526
 10
112.9757052951389
 20
86.5871351453993
 10
110.4587185329861
 20
88.36135932074652
 10
107.7215901692708
 20
83.20008951822916
 10
104.6399522569444
 20
84.33352593315972
 10
96.06510959201388
 20
82.02703450520832
 10
85.43475070529513
 20
104.1576388888889
 10
85.43475070529513
 20
99.85678168402777
 10
79.89210883246527
 20
98.64238552517361
 10
78.78743896484374
 20
96.25924072265624
 10
75.89407552083333
 20
99.77840576171874
 10
74.45919325086805
 20
97.39663899739583
 10
68.30866427951388
 20
95.98587239583333
 10
66.08020426432292
 20
101.8506306966146
 10
66.08020426432292
 20
144.5479383680556
 10
56.42239583333333
 20
164.684521484375
 10
56.42239583333333
 20
171.2529405381944
 10
58.69047444661458
 20
171.2529405381944
 10
58.69047444661458
 20
173.5206746419271
 10
61.97451171874999
 20
173.5206746419271
 10
55.9533460828993
 20
176.4925862630208
 10
53.99825439453124
 20
180.0112345377604
 10
57.74221191406249
 20
188.9021647135417
 10
57.39976942274305
 20
191.7805419921875
 10
60.44971245659722
 20
192.2108344184028
 10
60.08229302300347
 20
194.6408325195312
 10
64.24224582248263
 20
204.6445285373264
 10
78.86581488715277
 20
196.9516303168403
 10
81.0651638454861
 20
201.1692884657118
 10
84.02691243489582
 20
199.6396660698784
 10
101.8566596137153
 20
184.7814860026041
 10
136.9682115342882
 20
166.0138115776909
 10
141.2694132486979
 20
162.4162706163194
 10
137.7356065538194
 20
155.0165500217014
 10
150.4187255859375
 20
144.5086642795139
 10
145.1063883463542
 20
132.1507622612847
 10
145.7265055338542
 20
128.6340087890625
 10
141.0346299913194
 20
127.7741129557292
 10
141.7164143880208
 20
124.2644219292535
 10
135.5603732638889
 20
109.9443657769097
 10
126.3671359592014
 20
113.3067789713542
 10
115.8247992621528
 20
126.7622884114583
  0
LINE
  5
DB
330
A
100
AcDbEntity
  8
LAYER_1
 62
     7
100
AcDbLine
 10
101.269098578559
 20
137.3640530056424
 30
0.0
 11
102.8715847439236
 21
135.2131076388889
 31
0.0
  0
LWPOLYLINE
  5
D6
330
A
100
AcDbEntity
  8
LAYER_1
 62
     7
100
AcDbPolyline
 90
        3
 70
     0
 43
0.0
 10
61.97451171874999
 20
173.5206746419271
 10
82.10592719184027
 20
163.6677015516493
 10
97.99522433810763
 20
142.0831448025174
  0
LWPOLYLINE
  5
CE
330
A
100
AcDbEntity
  8
LAYER_1
 62
     7
100
AcDbPolyline
 90
        6
 70
     0
 43
0.0
 10
94.11466878255207
 20
109.0500189887153
 10
102.3096896701389
 20
110.9508504231771
 10
105.3754801432292
 20
109.397112358941
 10
107.6430419921875
 20
113.4635308159722
 10
110.2351318359375
 20
112.7888088650173
 10
118.2001925998264
 20
114.6362413194444
  0
LINE
  5
CD
330
A
100
AcDbEntity
  8
LAYER_1
 62
     7
100
AcDbLine
 10
93.52814127604165
 20
87.30543755425346
 30
0.0
 11
56.42239583333333
 21
164.684521484375
 31
0.0
  0
LINE
  5
CC
330
A
100
AcDbEntity
  8
LAYER_1
 62
     7
100
AcDbLine
 10
58.69047444661458
 20
167.0692165798611
 30
0.0
 11
58.69047444661458
 21
173.5206746419271
 31
0.0
  0
LINE
  5
CB
330
A
100
AcDbEntity
  8
LAYER_1
 62
     7
100
AcDbLine
 10
89.96505126953124
 20
159.7673366970486
 30
0.0
 11
55.9533460828993
 21
176.4925862630208
 31
0.0
  0
LWPOLYLINE
  5
C3
330
A
100
AcDbEntity
  8
LAYER_1
 62
     7
100
AcDbPolyline
 90
        6
 70
     0
 43
0.0
 10
55.95799696180555
 20
176.4140380859375
 10
60.01425238715277
 20
186.0883829752604
 10
59.760693359375
 20
189.0678738064236
 10
62.81029188368055
 20
189.4981662326389
 10
62.44304470486111
 20
191.9286810980903
 10
66.60299750434027
 20
201.9318603515625
  0
LINE
  5
C2
330
A
100
AcDbEntity
  8
LAYER_1
 62
     7
100
AcDbLine
 10
64.24224582248263
 20
204.6445285373264
 30
0.0
 11
101.8566596137153
 21
184.7814860026041
 31
0.0
  0
LINE
  5
C1
330
A
100
AcDbEntity
  8
LAYER_1
 62
     7
100
AcDbLine
 10
106.9591905381944
 20
180.5147352430555
 30
0.0
 11
150.4187255859375
 21
144.5086642795139
 31
0.0
  0
LWPOLYLINE
  5
B7
330
A
100
AcDbEntity
  8
LAYER_1
 62
     7
100
AcDbPolyline
 90
        8
 70
     0
 43
0.0
 10
126.3671359592014
 20
113.3067789713542
 10
132.8897352430556
 20
128.2819200303819
 10
132.2079508463542
 20
131.7914388020833
 10
136.8998263888889
 20
132.651506890191
 10
136.2797092013889
 20
136.1684326171875
 10
141.5915296766493
 20
148.5259901258681
 10
101.4458319769965
 20
183.4472005208333
 10
89.96505126953124
 20
159.7673366970486
  0
LINE
  5
B6
330
A
100
AcDbEntity
  8
LAYER_1
 62
     7
100
AcDbLine
 10
97.00803222656249
 20
187.2838311089409
 30
0.0
 11
81.09444715711805
 21
201.2037394205729
 31
0.0
  0
LINE
  5
B5
330
A
100
AcDbEntity
  8
LAYER_1
 62
     7
100
AcDbLine
 10
141.5915296766493
 20
148.5259901258681
 30
0.0
 11
150.4187255859375
 21
144.5086642795139
 31
0.0
  0
LWPOLYLINE
  5
B0
330
A
100
AcDbEntity
  8
LAYER_1
 62
     7
100
AcDbPolyline
 90
        3
 70
     0
 43
0.0
 10
64.24224582248263
 20
204.6445285373264
 10
66.60299750434027
 20
201.9318603515625
 10
141.2694132486979
 20
162.4162706163194
  0
LINE
  5
AF
330
A
100
AcDbEntity
  8
LAYER_1
 62
     7
100
AcDbLine
 10
60.08229302300347
 20
194.6408325195312
 30
0.0
 11
62.44304470486111
 21
191.9286810980903
 31
0.0
  0
LINE
  5
AE
330
A
100
AcDbEntity
  8
LAYER_1
 62
     7
100
AcDbLine
 10
60.42938639322916
 20
192.1775892469618
 30
0.0
 11
62.81029188368055
 21
189.4981662326389
 31
0.0
  0
LINE
  5
AD
330
A
100
AcDbEntity
  8
LAYER_1
 62
     7
100
AcDbLine
 10
57.46281467013888
 20
191.7331719292534
 30
0.0
 11
59.84372016059027
 21
189.0534044053819
 31
0.0
  0
LINE
  5
AC
330
A
100
AcDbEntity
  8
LAYER_1
 62
     7
100
AcDbLine
 10
57.71292860243055
 20
188.9655544704861
 30
0.0
 11
60.01425238715277
 21
186.0883829752604
 31
0.0
  0
SPLINE
  5
AB
330
A
100
AcDbEntity
  8
LAYER_1
 62
     7
100
AcDbSpline
210
0.0
220
0.0
230
1.0
 70
     8
 71
     3
 72
    29
 73
    25
 74
     0
 42
0.0000000001
 43
0.0000000001
 40
0.0
 40
0.0
 40
0.0
 40
0.0
 40
1.0
 40
1.0
 40
1.0
 40
2.0
 40
2.0
 40
2.0
 40
3.0
 40
3.0
 40
3.0
 40
4.0
 40
4.0
 40
4.0
 40
5.0
 40
5.0
 40
5.0
 40
6.0
 40
6.0
 40
6.0
 40
7.0
 40
7.0
 40
7.0
 40
8.0
 40
8.0
 40
8.0
 40
8.0
 10
55.6403591579861
 20
177.11787109375
 30
0.0
 10
55.83569607204861
 20
177.9390096028646
 30
0.0
 10
57.00875108506944
 20
179.42470703125
 30
0.0
 10
57.32191026475694
 20
181.8100911458333
 30
0.0
 10
57.63455268012152
 20
184.1947862413194
 30
0.0
 10
58.22108018663194
 20
186.3846611870659
 30
0.0
 10
58.92474093967013
 20
187.4014811197916
 30
0.0
 10
58.65137261284722
 20
188.4177842881944
 30
0.0
 10
58.57282443576388
 20
189.5908393012153
 30
0.0
 10
58.49462076822916
 20
190.568212890625
 30
0.0
 10
59.55054253472222
 20
190.2948445638021
 30
0.0
 10
61.07534179687499
 20
190.4510796440972
 30
0.0
 10
61.77900254991319
 20
190.6074869791667
 30
0.0
 10
61.89665256076388
 20
191.3502495659722
 30
0.0
 10
61.66186930338541
 20
192.2494194878472
 30
0.0
 10
61.50563422309028
 20
192.9143229166667
 30
0.0
 10
61.74024522569444
 20
194.4783962673611
 30
0.0
 10
61.85737847222222
 20
195.1036810980903
 30
0.0
 10
62.52193739149305
 20
196.0033677842882
 30
0.0
 10
63.1868408203125
 20
196.9025377061632
 30
0.0
 10
63.42145182291666
 20
198.2318277994791
 30
0.0
 10
63.69499240451388
 20
199.8351752387153
 30
0.0
 10
63.96887749565972
 20
201.4380059136284
 30
0.0
 10
64.90714925130207
 20
203.2368625217014
 30
0.0
 10
65.02428249782986
 20
203.6669826931423
 30
0.0
  0
SPLINE
  5
AA
330
A
100
AcDbEntity
  8
LAYER_1
 62
     7
100
AcDbSpline
210
0.0
220
0.0
230
1.0
 70
     8
 71
     3
 72
    26
 73
    22
 74
     0
 42
0.0000000001
 43
0.0000000001
 40
0.0
 40
0.0
 40
0.0
 40
0.0
 40
1.0
 40
1.0
 40
1.0
 40
2.0
 40
2.0
 40
2.0
 40
3.0
 40
3.0
 40
3.0
 40
4.0
 40
4.0
 40
4.0
 40
5.0
 40
5.0
 40
5.0
 40
6.0
 40
6.0
 40
6.0
 40
7.0
 40
7.0
 40
7.0
 40
7.0
 10
58.53372260199652
 20
182.5528537326389
 30
0.0
 10
58.72923177083333
 20
183.9214179144965
 30
0.0
 10
58.99794921874999
 20
185.4901421440972
 30
0.0
 10
59.7021267361111
 20
186.5069620768229
 30
0.0
 10
59.42824164496528
 20
187.5232652452257
 30
0.0
 10
59.35021023220486
 20
188.6963202582465
 30
0.0
 10
59.27183430989583
 20
189.6738661024305
 30
0.0
 10
60.32775607638888
 20
189.4003255208333
 30
0.0
 10
61.85255533854166
 20
189.5567328559028
 30
0.0
 10
62.55638834635416
 20
189.7131401909722
 30
0.0
 10
62.67352159288194
 20
190.4559027777778
 30
0.0
 10
62.2876708984375
 20
191.6634087456597
 30
0.0
 10
62.13126356336805
 20
192.3279676649305
 30
0.0
 10
62.36553005642361
 20
193.2271375868055
 30
0.0
 10
62.63424750434027
 20
194.2093343098958
 30
0.0
 10
63.29915093315972
 20
195.1088487413194
 30
0.0
 10
63.96405436197916
 20
196.0080186631944
 30
0.0
 10
64.19832085503472
 20
197.3374810112847
 30
0.0
 10
64.47220594618055
 20
198.9408284505208
 30
0.0
 10
64.74609103732638
 20
200.5434868706597
 30
0.0
 10
65.61081000434027
 20
202.5719590928819
 30
0.0
 10
65.72828776041666
 20
203.0020792643229
 30
0.0
  0
SPLINE
  5
A9
330
A
100
AcDbEntity
  8
LAYER_1
 62
     7
100
AcDbSpline
210
0.0
220
0.0
230
1.0
 70
     8
 71
     3
 72
     8
 73
     4
 74
     0
 42
0.0000000001
 43
0.0000000001
 40
0.0
 40
0.0
 40
0.0
 40
0.0
 40
1.0
 40
1.0
 40
1.0
 40
1.0
 10
65.06338433159722
 20
198.1927259657118
 30
0.0
 10
65.33726942274305
 20
199.7959011501736
 30
0.0
 10
66.20250515407986
 20
201.8243733723958
 30
0.0
 10
66.31963840060763
 20
202.2544935438368
 30
0.0
  0
SPLINE
  5
A8
330
A
100
AcDbEntity
  8
LAYER_1
 62
     7
100
AcDbSpline
210
0.0
220
0.0
230
1.0
 70
     8
 71
     3
 72
    29
 73
    25
 74
     0
 42
0.0000000001
 43
0.0000000001
 40
0.0
 40
0.0
 40
0.0
 40
0.0
 40
1.0
 40
1.0
 40
1.0
 40
2.0
 40
2.0
 40
2.0
 40
3.0
 40
3.0
 40
3.0
 40
4.0
 40
4.0
 40
4.0
 40
5.0
 40
5.0
 40
5.0
 40
6.0
 40
6.0
 40
6.0
 40
7.0
 40
7.0
 40
7.0
 40
8.0
 40
8.0
 40
8.0
 40
8.0
 10
54.81939290364583
 20
178.4084038628472
 30
0.0
 10
55.01507432725694
 20
179.2291978624132
 30
0.0
 10
55.81847059461805
 20
180.4199951171875
 30
0.0
 10
56.42239583333333
 20
182.7483629014757
 30
0.0
 10
56.96964925130208
 20
184.8596896701389
 30
0.0
 10
57.63455268012152
 20
187.0249321831597
 30
0.0
 10
58.33821343315972
 20
188.0417521158854
 30
0.0
 10
58.06467285156249
 20
189.0580552842882
 30
0.0
 10
57.98646918402778
 20
190.231110297309
 30
0.0
 10
57.90843777126736
 20
191.208656141493
 30
0.0
 10
58.96384277343749
 20
190.9347710503472
 30
0.0
 10
60.48881429036458
 20
191.0915228949653
 30
0.0
 10
61.19247504340277
 20
191.2479302300347
 30
0.0
 10
61.30995279947916
 20
191.9906928168403
 30
0.0
 10
60.91893446180555
 20
193.1878634982639
 30
0.0
 10
60.76269938151041
 20
193.8527669270833
 30
0.0
 10
60.99696587456597
 20
195.4168402777778
 30
0.0
 10
61.75488688151041
 20
196.0757147894965
 30
0.0
 10
62.2876708984375
 20
197.0587727864583
 30
0.0
 10
62.79582248263888
 20
197.997216796875
 30
0.0
 10
62.83492431640624
 20
198.8722710503472
 30
0.0
 10
63.10829264322916
 20
200.4751017252604
 30
0.0
 10
63.38217773437499
 20
202.0782769097222
 30
0.0
 10
64.12511257595486
 20
204.2142361111111
 30
0.0
 10
64.24224582248263
 20
204.6445285373264
 30
0.0
  0
SPLINE
  5
A7
330
A
100
AcDbEntity
  8
LAYER_1
 62
     7
100
AcDbSpline
210
0.0
220
0.0
230
1.0
 70
     8
 71
     3
 72
    17
 73
    13
 74
     0
 42
0.0000000001
 43
0.0000000001
 40
0.0
 40
0.0
 40
0.0
 40
0.0
 40
1.0
 40
1.0
 40
1.0
 40
2.0
 40
2.0
 40
2.0
 40
3.0
 40
3.0
 40
3.0
 40
4.0
 40
4.0
 40
4.0
 40
4.0
 10
57.46281467013888
 20
191.7331719292534
 30
0.0
 10
58.51821967230902
 20
191.4592868381076
 30
0.0
 10
59.88299424913194
 20
191.8198160807291
 30
0.0
 10
60.58648274739583
 20
191.9760511610243
 30
0.0
 10
60.70413275824652
 20
192.7189860026041
 30
0.0
 10
60.31259765624999
 20
193.9165011935764
 30
0.0
 10
60.15636257595486
 20
194.5810601128472
 30
0.0
 10
60.56719021267361
 20
195.5339735243055
 30
0.0
 10
61.08998345269097
 20
196.1148166232639
 30
0.0
 10
61.62276746961805
 20
197.098046875
 30
0.0
 10
62.13126356336805
 20
198.0364908854166
 30
0.0
 10
61.85737847222222
 20
198.8185275607639
 30
0.0
 10
62.05288764105902
 20
199.4048828125
 30
0.0
  0
SPLINE
  5
A6
330
A
100
AcDbEntity
  8
LAYER_1
 62
     7
100
AcDbSpline
210
0.0
220
0.0
230
1.0
 70
     8
 71
     3
 72
     8
 73
     4
 74
     0
 42
0.0000000001
 43
0.0000000001
 40
0.0
 40
0.0
 40
0.0
 40
0.0
 40
1.0
 40
1.0
 40
1.0
 40
1.0
 10
54.3501708984375
 20
179.4445163302951
 30
0.0
 10
54.5455078125
 20
180.2656548394097
 30
0.0
 10
55.21265055338541
 20
181.1481160481771
 30
0.0
 10
55.81640353732639
 20
183.4764838324653
 30
0.0
  0
LINE
  5
A5
330
A
100
AcDbEntity
  8
LAYER_1
 62
     7
100
AcDbLine
 10
68.30866427951388
 20
95.98587239583333
 30
0.0
 11
68.30866427951388
 21
140.0903293185764
 31
0.0
  0
LWPOLYLINE
  5
A0
330
A
100
AcDbEntity
  8
LAYER_1
 62
     7
100
AcDbPolyline
 90
        3
 70
     0
 43
0.0
 10
56.42239583333333
 20
171.2529405381944
 10
96.10886230468749
 20
93.63976236979165
 10
96.10886230468749
 20
82.14468451605902
  0
LWPOLYLINE
  5
9B
330
A
100
AcDbEntity
  8
LAYER_1
 62
     7
100
AcDbPolyline
 90
        3
 70
     0
 43
0.0
 10
58.7099392361111
 20
173.5258422851562
 10
94.11466878255207
 20
109.0500189887153
 10
94.11466878255207
 20
97.55459662543402
  0
LINE
  5
9A
330
A
100
AcDbEntity
  8
LAYER_1
 62
     7
100
AcDbLine
 10
105.3008938259549
 20
109.3821261935764
 30
0.0
 11
105.2974487304687
 21
98.53593207465276
 31
0.0
  0
LINE
  5
99
330
A
100
AcDbEntity
  8
LAYER_1
 62
     7
100
AcDbLine
 10
102.3096896701389
 20
110.9508504231771
 30
0.0
 11
102.3096896701389
 21
99.94204779730902
 31
0.0
  0
LINE
  5
98
330
A
100
AcDbEntity
  8
LAYER_1
 62
     7
100
AcDbLine
 10
107.6470038519965
 20
113.4433770073785
 30
0.0
 11
107.6470038519965
 21
102.5546359592014
 31
0.0
  0
LINE
  5
97
330
A
100
AcDbEntity
  8
LAYER_1
 62
     7
100
AcDbLine
 10
110.2325480143229
 20
112.7297254774306
 30
0.0
 11
110.2325480143229
 21
102.1636176215278
 31
0.0
  0
SPLINE
  5
96
330
A
100
AcDbEntity
  8
LAYER_1
 62
     7
100
AcDbSpline
210
0.0
220
0.0
230
1.0
 70
     8
 71
     3
 72
    23
 73
    19
 74
     0
 42
0.0000000001
 43
0.0000000001
 40
0.0
 40
0.0
 40
0.0
 40
0.0
 40
1.0
 40
1.0
 40
1.0
 40
2.0
 40
2.0
 40
2.0
 40
3.0
 40
3.0
 40
3.0
 40
4.0
 40
4.0
 40
4.0
 40
5.0
 40
5.0
 40
5.0
 40
6.0
 40
6.0
 40
6.0
 40
6.0
 10
94.11466878255207
 20
103.7862575954861
 30
0.0
 10
95.93281792534721
 20
104.4900906032986
 30
0.0
 10
97.75096706814236
 20
104.9593126085069
 30
0.0
 10
99.04115532769096
 20
105.0764458550347
 30
0.0
 10
100.3318603515625
 20
105.1935791015625
 30
0.0
 10
101.7391818576389
 20
105.4869289822049
 30
0.0
 10
102.325537109375
 20
105.6631456163194
 30
0.0
 10
103.0297146267361
 20
104.9593126085069
 30
0.0
 10
104.3784695095486
 20
103.7862575954861
 30
0.0
 10
105.3169135199653
 20
103.7276909722222
 30
0.0
 10
105.6686577690972
 20
105.1350124782986
 30
0.0
 10
107.0763237847222
 20
108.0092556423611
 30
0.0
 10
107.6630235460069
 20
108.5366997612847
 30
0.0
 10
108.7184285481771
 20
108.3024332682292
 30
0.0
 10
109.5395670572917
 20
108.1849555121528
 30
0.0
 10
110.2434000651042
 20
108.3024332682292
 30
0.0
 10
111.5924994574653
 20
109.1232272677951
 30
0.0
 10
115.4044976128472
 20
110.9999430338542
 30
0.0
 10
118.1609185112847
 20
111.4107706705729
 30
0.0
  0
SPLINE
  5
95
330
A
100
AcDbEntity
  8
LAYER_1
 62
     7
100
AcDbSpline
210
0.0
220
0.0
230
1.0
 70
     8
 71
     3
 72
    23
 73
    19
 74
     0
 42
0.0000000001
 43
0.0000000001
 40
0.0
 40
0.0
 40
0.0
 40
0.0
 40
1.0
 40
1.0
 40
1.0
 40
2.0
 40
2.0
 40
2.0
 40
3.0
 40
3.0
 40
3.0
 40
4.0
 40
4.0
 40
4.0
 40
5.0
 40
5.0
 40
5.0
 40
6.0
 40
6.0
 40
6.0
 40
6.0
 10
94.11466878255207
 20
101.3226698133681
 30
0.0
 10
95.93281792534721
 20
102.0268473307292
 30
0.0
 10
97.80953369140624
 20
102.7894192165799
 30
0.0
 10
99.10023871527777
 20
102.9065524631076
 30
0.0
 10
100.3904269748264
 20
103.0236857096354
 30
0.0
 10
101.7391818576389
 20
103.6102132161458
 30
0.0
 10
102.325537109375
 20
103.7862575954861
 30
0.0
 10
103.0297146267361
 20
103.0822523328993
 30
0.0
 10
104.2024251302083
 20
102.085413953993
 30
0.0
 10
105.3169135199653
 20
101.4987141927083
 30
0.0
 10
105.6686577690972
 20
102.9065524631076
 30
0.0
 10
107.0763237847222
 20
106.1320231119792
 30
0.0
 10
107.6630235460069
 20
106.6599839952257
 30
0.0
 10
108.7184285481771
 20
106.4252007378472
 30
0.0
 10
109.5395670572917
 20
106.0148898654514
 30
0.0
 10
110.2434000651042
 20
106.1320231119792
 30
0.0
 10
111.5924994574653
 20
106.953333875868
 30
0.0
 10
115.4044976128472
 20
108.3609998914931
 30
0.0
 10
118.1609185112847
 20
108.7713107638889
 30
0.0
  0
SPLINE
  5
94
330
A
100
AcDbEntity
  8
LAYER_1
 62
     7
100
AcDbSpline
210
0.0
220
0.0
230
1.0
 70
     8
 71
     3
 72
    23
 73
    19
 74
     0
 42
0.0000000001
 43
0.0000000001
 40
0.0
 40
0.0
 40
0.0
 40
0.0
 40
1.0
 40
1.0
 40
1.0
 40
2.0
 40
2.0
 40
2.0
 40
3.0
 40
3.0
 40
3.0
 40
4.0
 40
4.0
 40
4.0
 40
5.0
 40
5.0
 40
5.0
 40
6.0
 40
6.0
 40
6.0
 40
6.0
 10
94.11466878255207
 20
99.03547092013888
 30
0.0
 10
95.93281792534721
 20
99.73930392795138
 30
0.0
 10
97.80953369140624
 20
100.5018758138021
 30
0.0
 10
99.10023871527777
 20
100.6190090603299
 30
0.0
 10
100.3904269748264
 20
100.7366590711805
 30
0.0
 10
101.7391818576389
 20
101.3226698133681
 30
0.0
 10
102.325537109375
 20
101.4987141927083
 30
0.0
 10
103.0297146267361
 20
100.7952256944444
 30
0.0
 10
104.2024251302083
 20
99.79821506076388
 30
0.0
 10
105.3169135199653
 20
99.21168755425346
 30
0.0
 10
105.6686577690972
 20
100.6190090603299
 30
0.0
 10
107.0763237847222
 20
103.84482421875
 30
0.0
 10
107.6630235460069
 20
104.3729573567708
 30
0.0
 10
108.7184285481771
 20
104.1381740993924
 30
0.0
 10
109.5395670572917
 20
103.7276909722222
 30
0.0
 10
110.2434000651042
 20
103.84482421875
 30
0.0
 10
111.5924994574653
 20
104.6661349826389
 30
0.0
 10
115.4044976128472
 20
106.0734564887153
 30
0.0
 10
118.1609185112847
 20
106.484284125434
 30
0.0
  0
SPLINE
  5
93
330
A
100
AcDbEntity
  8
LAYER_1
 62
     7
100
AcDbSpline
210
0.0
220
0.0
230
1.0
 70
     8
 71
     3
 72
    23
 73
    19
 74
     0
 42
0.0000000001
 43
0.0000000001
 40
0.0
 40
0.0
 40
0.0
 40
0.0
 40
1.0
 40
1.0
 40
1.0
 40
2.0
 40
2.0
 40
2.0
 40
3.0
 40
3.0
 40
3.0
 40
4.0
 40
4.0
 40
4.0
 40
5.0
 40
5.0
 40
5.0
 40
6.0
 40
6.0
 40
6.0
 40
6.0
 10
94.11466878255207
 20
106.3666341145833
 30
0.0
 10
95.93281792534721
 20
107.0708116319444
 30
0.0
 10
97.92718370225694
 20
106.953333875868
 30
0.0
 10
99.21737196180554
 20
107.0708116319444
 30
0.0
 10
100.5075602213542
 20
107.1879448784722
 30
0.0
 10
101.7391818576389
 20
107.2172281901042
 30
0.0
 10
102.325537109375
 20
107.3929280598958
 30
0.0
 10
103.0297146267361
 20
106.6892673068576
 30
0.0
 10
104.3784695095486
 20
105.8977566189236
 30
0.0
 10
105.3169135199653
 20
105.8391899956597
 30
0.0
 10
105.6686577690972
 20
107.2465115017361
 30
0.0
 10
107.0763237847222
 20
110.1791490342882
 30
0.0
 10
107.6630235460069
 20
110.7067654079861
 30
0.0
 10
108.7184285481771
 20
110.4724989149305
 30
0.0
 10
109.2463894314236
 20
110.1791490342882
 30
0.0
 10
110.2434000651042
 20
110.0322157118056
 30
0.0
 10
111.5924994574653
 20
110.8535264756944
 30
0.0
 10
115.4044976128472
 20
113.2289198133681
 30
0.0
 10
118.1609185112847
 20
113.6392306857639
 30
0.0
  0
SPLINE
  5
92
330
A
100
AcDbEntity
  8
LAYER_1
 62
     7
100
AcDbSpline
210
0.0
220
0.0
230
1.0
 70
     8
 71
     3
 72
    23
 73
    19
 74
     0
 42
0.0000000001
 43
0.0000000001
 40
0.0
 40
0.0
 40
0.0
 40
0.0
 40
1.0
 40
1.0
 40
1.0
 40
2.0
 40
2.0
 40
2.0
 40
3.0
 40
3.0
 40
3.0
 40
4.0
 40
4.0
 40
4.0
 40
5.0
 40
5.0
 40
5.0
 40
6.0
 40
6.0
 40
6.0
 40
6.0
 10
94.11466878255207
 20
108.1701416015625
 30
0.0
 10
95.93281792534721
 20
108.873974609375
 30
0.0
 10
97.75096706814236
 20
109.2408772786458
 30
0.0
 10
99.04115532769096
 20
109.3580105251736
 30
0.0
 10
100.3318603515625
 20
109.4751437717014
 30
0.0
 10
101.7391818576389
 20
109.0207356770833
 30
0.0
 10
102.325537109375
 20
109.1967800564236
 30
0.0
 10
103.0297146267361
 20
108.4927747938368
 30
0.0
 10
104.3784695095486
 20
107.7012641059028
 30
0.0
 10
105.3169135199653
 20
107.6423529730903
 30
0.0
 10
105.6686577690972
 20
109.0500189887153
 30
0.0
 10
107.0763237847222
 20
111.9826565212673
 30
0.0
 10
107.6630235460069
 20
112.5102728949653
 30
0.0
 10
108.7184285481771
 20
112.2760064019097
 30
0.0
 10
109.4224338107639
 20
112.172998046875
 30
0.0
 10
110.2434000651042
 20
111.8357231987847
 30
0.0
 10
111.5924994574653
 20
112.6570339626736
 30
0.0
 10
112.2375935872396
 20
113.1703531901042
 30
0.0
 10
113.8211317274305
 20
113.6392306857639
 30
0.0
  0
LINE
  5
91
330
A
100
AcDbEntity
  8
LAYER_1
 62
     7
100
AcDbLine
 10
104.6399522569444
 20
84.33352593315972
 30
0.0
 11
104.6399522569444
 21
95.80448811848957
 31
0.0
  0
LINE
  5
90
330
A
100
AcDbEntity
  8
LAYER_1
 62
     7
100
AcDbLine
 10
107.6750813802083
 20
83.27760416666666
 30
0.0
 11
107.6750813802083
 21
94.74856635199652
 31
0.0
  0
LINE
  5
8F
330
A
100
AcDbEntity
  8
LAYER_1
 62
     7
100
AcDbLine
 10
110.4318467881944
 20
88.32174072265624
 30
0.0
 11
110.4318467881944
 21
99.7927029079861
 31
0.0
  0
LINE
  5
8E
330
A
100
AcDbEntity
  8
LAYER_1
 62
     7
100
AcDbLine
 10
113.0122233072917
 20
86.50359157986111
 30
0.0
 11
113.0122233072917
 21
97.97438151041666
 31
0.0
  0
SPLINE
  5
8D
330
A
100
AcDbEntity
  8
LAYER_1
 62
     7
100
AcDbSpline
210
0.0
220
0.0
230
1.0
 70
     8
 71
     3
 72
    20
 73
    16
 74
     0
 42
0.0000000001
 43
0.0000000001
 40
0.0
 40
0.0
 40
0.0
 40
0.0
 40
1.0
 40
1.0
 40
1.0
 40
2.0
 40
2.0
 40
2.0
 40
3.0
 40
3.0
 40
3.0
 40
4.0
 40
4.0
 40
4.0
 40
5.0
 40
5.0
 40
5.0
 40
5.0
 10
96.10886230468749
 20
89.8863308376736
 30
0.0
 10
97.98575032552083
 20
90.00346408420138
 30
0.0
 10
102.3841037326389
 20
89.71011420355902
 30
0.0
 10
104.5541693793403
 20
88.88932020399305
 30
0.0
 10
105.4929578993056
 20
87.71626519097221
 30
0.0
 10
106.54853515625
 20
87.30543755425346
 30
0.0
 10
107.6039401584201
 20
87.18830430772569
 30
0.0
 10
108.1908121744792
 20
88.596142578125
 30
0.0
 10
109.5981336805556
 20
90.53125271267361
 30
0.0
 10
110.4194444444444
 20
90.88316921657986
 30
0.0
 10
111.0645385742187
 20
90.29664171006944
 30
0.0
 10
112.5309434678819
 20
89.41676432291666
 30
0.0
 10
112.9998209635417
 20
89.29963107638888
 30
0.0
 10
114.8765367296007
 20
89.53441433376736
 30
0.0
 10
117.1640801323785
 20
88.71327582465277
 30
0.0
 10
119.3339735243056
 20
88.36135932074652
 30
0.0
  0
SPLINE
  5
8C
330
A
100
AcDbEntity
  8
LAYER_1
 62
     7
100
AcDbSpline
210
0.0
220
0.0
230
1.0
 70
     8
 71
     3
 72
    20
 73
    16
 74
     0
 42
0.0000000001
 43
0.0000000001
 40
0.0
 40
0.0
 40
0.0
 40
0.0
 40
1.0
 40
1.0
 40
1.0
 40
2.0
 40
2.0
 40
2.0
 40
3.0
 40
3.0
 40
3.0
 40
4.0
 40
4.0
 40
4.0
 40
5.0
 40
5.0
 40
5.0
 40
5.0
 10
96.10886230468749
 20
92.99449598524305
 30
0.0
 10
97.98575032552083
 20
93.11214599609374
 30
0.0
 10
102.3841037326389
 20
92.58418511284721
 30
0.0
 10
104.5541693793403
 20
91.76287434895832
 30
0.0
 10
105.4929578993056
 20
90.58981933593749
 30
0.0
 10
106.54853515625
 20
89.87151692708332
 30
0.0
 10
107.6039401584201
 20
89.75403917100694
 30
0.0
 10
108.1908121744792
 20
91.16170518663193
 30
0.0
 10
109.5981336805556
 20
93.09715983072915
 30
0.0
 10
110.4194444444444
 20
93.44924858940972
 30
0.0
 10
111.0645385742187
 20
92.8628933376736
 30
0.0
 10
112.5309434678819
 20
91.98301595052082
 30
0.0
 10
112.9998209635417
 20
91.86553819444444
 30
0.0
 10
114.8765367296007
 20
92.10014919704861
 30
0.0
 10
119.3925401475694
 20
90.58981933593749
 30
0.0
 10
121.5629503038194
 20
90.23807508680555
 30
0.0
  0
SPLINE
  5
8B
330
A
100
AcDbEntity
  8
LAYER_1
 62
     7
100
AcDbSpline
210
0.0
220
0.0
230
1.0
 70
     8
 71
     3
 72
    20
 73
    16
 74
     0
 42
0.0000000001
 43
0.0000000001
 40
0.0
 40
0.0
 40
0.0
 40
0.0
 40
1.0
 40
1.0
 40
1.0
 40
2.0
 40
2.0
 40
2.0
 40
3.0
 40
3.0
 40
3.0
 40
4.0
 40
4.0
 40
4.0
 40
5.0
 40
5.0
 40
5.0
 40
5.0
 10
100.5075602213542
 20
94.7542507595486
 30
0.0
 10
102.3841037326389
 20
94.87138400607638
 30
0.0
 10
103.4985921223958
 20
94.98886176215277
 30
0.0
 10
104.5541693793403
 20
94.3730509440104
 30
0.0
 10
105.4929578993056
 20
93.19999593098957
 30
0.0
 10
106.54853515625
 20
92.4816935221354
 30
0.0
 10
107.6039401584201
 20
92.36404351128472
 30
0.0
 10
108.1908121744792
 20
93.77188178168402
 30
0.0
 10
109.5981336805556
 20
95.70716417100694
 30
0.0
 10
110.4194444444444
 20
96.05890842013888
 30
0.0
 10
111.0645385742187
 20
95.47255316840277
 30
0.0
 10
112.5309434678819
 20
93.99150661892361
 30
0.0
 10
112.9998209635417
 20
93.87437337239582
 30
0.0
 10
114.8765367296007
 20
94.10898437499999
 30
0.0
 10
119.3925401475694
 20
93.19999593098957
 30
0.0
 10
121.5629503038194
 20
92.84807942708332
 30
0.0
  0
SPLINE
  5
8A
330
A
100
AcDbEntity
  8
LAYER_1
 62
     7
100
AcDbSpline
210
0.0
220
0.0
230
1.0
 70
     8
 71
     3
 72
    14
 73
    10
 74
     0
 42
0.0000000001
 43
0.0000000001
 40
0.0
 40
0.0
 40
0.0
 40
0.0
 40
1.0
 40
1.0
 40
1.0
 40
2.0
 40
2.0
 40
2.0
 40
3.0
 40
3.0
 40
3.0
 40
3.0
 10
121.5629503038194
 20
95.26756998697915
 30
0.0
 10
119.3925401475694
 20
95.61931423611111
 30
0.0
 10
114.8765367296007
 20
96.52847493489583
 30
0.0
 10
112.9998209635417
 20
96.29369167751736
 30
0.0
 10
112.5309434678819
 20
96.41082492404513
 30
0.0
 10
111.0645385742187
 20
97.89169921874999
 30
0.0
 10
110.4194444444444
 20
98.47839898003471
 30
0.0
 10
109.9500501844618
 20
97.68671603732638
 30
0.0
 10
108.2493787977431
 20
95.5168226453993
 30
0.0
 10
107.6630235460069
 20
94.46090087890624
 30
0.0
  0
SPLINE
  5
89
330
A
100
AcDbEntity
  8
LAYER_1
 62
     7
100
AcDbSpline
210
0.0
220
0.0
230
1.0
 70
     8
 71
     3
 72
     8
 73
     4
 74
     0
 42
0.0000000001
 43
0.0000000001
 40
0.0
 40
0.0
 40
0.0
 40
0.0
 40
1.0
 40
1.0
 40
1.0
 40
1.0
 10
121.5629503038194
 20
97.36425509982638
 30
0.0
 10
119.3925401475694
 20
97.71599934895832
 30
0.0
 10
116.929296875
 20
98.68372667100694
 30
0.0
 10
115.0527533637153
 20
98.44911566840277
 30
0.0
  0
SPLINE
  5
88
330
A
100
AcDbEntity
  8
LAYER_1
 62
     7
100
AcDbSpline
210
0.0
220
0.0
230
1.0
 70
     8
 71
     3
 72
    20
 73
    16
 74
     0
 42
0.0000000001
 43
0.0000000001
 40
0.0
 40
0.0
 40
0.0
 40
0.0
 40
1.0
 40
1.0
 40
1.0
 40
2.0
 40
2.0
 40
2.0
 40
3.0
 40
3.0
 40
3.0
 40
4.0
 40
4.0
 40
4.0
 40
5.0
 40
5.0
 40
5.0
 40
5.0
 10
96.10886230468749
 20
87.95053168402777
 30
0.0
 10
97.98575032552083
 20
88.06800944010416
 30
0.0
 10
102.3841037326389
 20
86.92423773871526
 30
0.0
 10
104.5541693793403
 20
86.1036159939236
 30
0.0
 10
105.2583468967014
 20
85.48728841145832
 30
0.0
 10
106.54853515625
 20
84.51956108940972
 30
0.0
 10
107.6039401584201
 20
84.40242784288193
 30
0.0
 10
108.1908121744792
 20
85.80974934895832
 30
0.0
 10
109.5981336805556
 20
88.30279269748263
 30
0.0
 10
110.4194444444444
 20
88.65470920138888
 30
0.0
 10
111.0645385742187
 20
88.06800944010416
 30
0.0
 10
112.5309434678819
 20
87.36452094184027
 30
0.0
 10
112.9998209635417
 20
87.24687093098957
 30
0.0
 10
114.8765367296007
 20
87.48165418836805
 30
0.0
 10
115.2287977430556
 20
87.71626519097221
 30
0.0
 10
116.0495917426215
 20
87.36452094184027
 30
0.0
  0
SPLINE
  5
87
330
A
100
AcDbEntity
  8
LAYER_1
 62
     7
100
AcDbSpline
210
0.0
220
0.0
230
1.0
 70
     8
 71
     3
 72
     8
 73
     4
 74
     0
 42
0.0000000001
 43
0.0000000001
 40
0.0
 40
0.0
 40
0.0
 40
0.0
 40
1.0
 40
1.0
 40
1.0
 40
1.0
 10
96.10886230468749
 20
85.19445529513888
 30
0.0
 10
97.98575032552083
 20
85.31158854166667
 30
0.0
 10
101.0353488498264
 20
84.78362765842013
 30
0.0
 10
103.2054144965278
 20
83.96248914930555
 30
0.0
  0
LINE
  5
86
330
A
100
AcDbEntity
  8
LAYER_1
 62
     7
100
AcDbLine
 10
132.8897352430556
 20
128.2819200303819
 30
0.0
 11
141.7164143880208
 21
124.2644219292535
 31
0.0
  0
LINE
  5
85
330
A
100
AcDbEntity
  8
LAYER_1
 62
     7
100
AcDbLine
 10
132.2441243489583
 20
131.7569878472222
 30
0.0
 11
141.0713202582465
 21
127.739662000868
 31
0.0
  0
LINE
  5
84
330
A
100
AcDbEntity
  8
LAYER_1
 62
     7
100
AcDbLine
 10
136.9070610894097
 20
132.6661485460069
 30
0.0
 11
145.733740234375
 21
128.6483059353299
 31
0.0
  0
LINE
  5
83
330
A
100
AcDbEntity
  8
LAYER_1
 62
     7
100
AcDbLine
 10
136.3205335828993
 20
136.1849690755208
 30
0.0
 11
145.1473849826389
 21
132.1674709743924
 31
0.0
  0
SPLINE
  5
82
330
A
100
AcDbEntity
  8
LAYER_1
 62
     7
100
AcDbSpline
210
0.0
220
0.0
230
1.0
 70
     8
 71
     3
 72
    29
 73
    25
 74
     0
 42
0.0000000001
 43
0.0000000001
 40
0.0
 40
0.0
 40
0.0
 40
0.0
 40
1.0
 40
1.0
 40
1.0
 40
2.0
 40
2.0
 40
2.0
 40
3.0
 40
3.0
 40
3.0
 40
4.0
 40
4.0
 40
4.0
 40
5.0
 40
5.0
 40
5.0
 40
6.0
 40
6.0
 40
6.0
 40
7.0
 40
7.0
 40
7.0
 40
8.0
 40
8.0
 40
8.0
 40
8.0
 10
134.0553833007812
 20
110.5310655381944
 30
0.0
 10
134.9936550564236
 20
112.2315646701389
 30
0.0
 10
135.6974880642361
 20
116.9823513454861
 30
0.0
 10
135.6974880642361
 20
118.8005004882812
 30
0.0
 10
135.6974880642361
 20
120.6186496310764
 30
0.0
 10
135.8146213107639
 20
122.3196655273437
 30
0.0
 10
136.7528930664062
 20
123.1404595269097
 30
0.0
 10
137.6916815863715
 20
123.9617702907986
 30
0.0
 10
137.8673814561632
 20
125.4865695529514
 30
0.0
 10
138.2192979600694
 20
125.8383138020833
 30
0.0
 10
137.4568983289931
 20
127.2461520724826
 30
0.0
 10
137.6325981987847
 20
128.7711235894097
 30
0.0
 10
136.5771931966146
 20
129.8265285915799
 30
0.0
 10
139.2166531032986
 20
129.5331787109375
 30
0.0
 10
141.2694132486979
 20
129.6508287217882
 30
0.0
 10
142.7353013780382
 20
130.0613118489583
 30
0.0
 10
141.7384629991319
 20
131.4104112413194
 30
0.0
 10
140.6828857421875
 20
133.2285603841146
 30
0.0
 10
140.3306247287326
 20
134.4016153971354
 30
0.0
 10
141.6798963758681
 20
135.9851535373264
 30
0.0
 10
142.6767347547743
 20
137.5099527994792
 30
0.0
 10
142.7353013780382
 20
139.8557183159722
 30
0.0
 10
142.7938680013021
 20
142.2018283420139
 30
0.0
 10
143.908356391059
 20
145.8966932508681
 30
0.0
 10
144.9642781575521
 20
147.011181640625
 30
0.0
  0
SPLINE
  5
81
330
A
100
AcDbEntity
  8
LAYER_1
 62
     7
100
AcDbSpline
210
0.0
220
0.0
230
1.0
 70
     8
 71
     3
 72
    29
 73
    25
 74
     0
 42
0.0000000001
 43
0.0000000001
 40
0.0
 40
0.0
 40
0.0
 40
0.0
 40
1.0
 40
1.0
 40
1.0
 40
2.0
 40
2.0
 40
2.0
 40
3.0
 40
3.0
 40
3.0
 40
4.0
 40
4.0
 40
4.0
 40
5.0
 40
5.0
 40
5.0
 40
6.0
 40
6.0
 40
6.0
 40
7.0
 40
7.0
 40
7.0
 40
8.0
 40
8.0
 40
8.0
 40
8.0
 10
131.6507066514757
 20
111.4107706705729
 30
0.0
 10
132.5889784071181
 20
113.1117865668403
 30
0.0
 10
133.3513780381944
 20
116.220123969184
 30
0.0
 10
133.3513780381944
 20
118.0382731119792
 30
0.0
 10
133.3513780381944
 20
119.8564222547743
 30
0.0
 10
134.5829996744792
 20
122.4514404296875
 30
0.0
 10
134.9936550564236
 20
123.5512871636285
 30
0.0
 10
135.4299763997396
 20
124.7191745334201
 30
0.0
 10
135.9906656901042
 20
126.3516330295139
 30
0.0
 10
136.3424099392361
 20
126.7035495334201
 30
0.0
 10
135.5803548177083
 20
128.1113878038194
 30
0.0
 10
135.7560546875
 20
129.6361870659722
 30
0.0
 10
134.7004774305555
 20
130.6917643229167
 30
0.0
 10
137.3394205729167
 20
130.3984144422743
 30
0.0
 10
139.3923529730903
 20
130.516064453125
 30
0.0
 10
140.8585856119792
 20
130.9263753255208
 30
0.0
 10
139.8615749782986
 20
132.2751302083333
 30
0.0
 10
138.8056532118056
 20
134.0932793511285
 30
0.0
 10
138.4539089626736
 20
135.2663343641493
 30
0.0
 10
139.8030083550347
 20
136.8502170138889
 30
0.0
 10
140.8000189887153
 20
138.3750162760417
 30
0.0
 10
140.8585856119792
 20
140.7207817925347
 30
0.0
 10
140.917152235243
 20
143.0668918185764
 30
0.0
 10
142.031640625
 20
146.7617567274305
 30
0.0
 10
143.0872178819444
 20
147.8762451171875
 30
0.0
  0
SPLINE
  5
80
330
A
100
AcDbEntity
  8
LAYER_1
 62
     7
100
AcDbSpline
210
0.0
220
0.0
230
1.0
 70
     8
 71
     3
 72
    26
 73
    22
 74
     0
 42
0.0000000001
 43
0.0000000001
 40
0.0
 40
0.0
 40
0.0
 40
0.0
 40
1.0
 40
1.0
 40
1.0
 40
2.0
 40
2.0
 40
2.0
 40
3.0
 40
3.0
 40
3.0
 40
4.0
 40
4.0
 40
4.0
 40
5.0
 40
5.0
 40
5.0
 40
6.0
 40
6.0
 40
6.0
 40
7.0
 40
7.0
 40
7.0
 40
7.0
 10
129.7886325412326
 20
112.2315646701389
 30
0.0
 10
130.726904296875
 20
113.9325805664062
 30
0.0
 10
131.4893039279514
 20
117.04091796875
 30
0.0
 10
131.4893039279514
 20
118.8590671115451
 30
0.0
 10
131.4893039279514
 20
120.6772162543403
 30
0.0
 10
132.7209255642361
 20
123.2727511935764
 30
0.0
 10
133.1315809461806
 20
124.3724256727431
 30
0.0
 10
133.5673855251736
 20
125.5403130425347
 30
0.0
 10
134.1285915798611
 20
127.1729437934028
 30
0.0
 10
134.4803358289931
 20
127.5246880425347
 30
0.0
 10
133.7177639431424
 20
128.932526312934
 30
0.0
 10
133.8939805772569
 20
130.4569810655382
 30
0.0
 10
132.8384033203125
 20
131.5129028320312
 30
0.0
 10
135.4773464626736
 20
131.2195529513889
 30
0.0
 10
137.5302788628472
 20
131.3366861979167
 30
0.0
 10
138.9965115017361
 20
131.7476860894097
 30
0.0
 10
137.9995008680556
 20
133.0964409722222
 30
0.0
 10
136.9435791015625
 20
134.9144178602431
 30
0.0
 10
136.5918348524305
 20
136.0874728732639
 30
0.0
 10
137.9409342447917
 20
137.6710110134549
 30
0.0
 10
139.2166531032986
 20
140.7354234483507
 30
0.0
 10
139.2752197265625
 20
143.0815334743924
 30
0.0
  0
SPLINE
  5
7F
330
A
100
AcDbEntity
  8
LAYER_1
 62
     7
100
AcDbSpline
210
0.0
220
0.0
230
1.0
 70
     8
 71
     3
 72
     8
 73
     4
 74
     0
 42
0.0000000001
 43
0.0000000001
 40
0.0
 40
0.0
 40
0.0
 40
0.0
 40
1.0
 40
1.0
 40
1.0
 40
1.0
 10
127.8381917317708
 20
112.8180921766493
 30
0.0
 10
128.7766357421875
 20
114.5191080729167
 30
0.0
 10
129.5979465060764
 20
118.8005004882812
 30
0.0
 10
129.5979465060764
 20
120.6186496310764
 30
0.0
  0
SPLINE
  5
7E
330
A
100
AcDbEntity
  8
LAYER_1
 62
     7
100
AcDbSpline
210
0.0
220
0.0
230
1.0
 70
     8
 71
     3
 72
     8
 73
     4
 74
     0
 42
0.0000000001
 43
0.0000000001
 40
0.0
 40
0.0
 40
0.0
 40
0.0
 40
1.0
 40
1.0
 40
1.0
 40
1.0
 10
146.9581271701389
 20
136.6886420355903
 30
0.0
 10
147.6032212999132
 20
139.6800184461806
 30
0.0
 10
147.4275214301215
 20
142.6710503472222
 30
0.0
 10
149.6559814453125
 20
144.8411159939236
 30
0.0
  0
SPLINE
  5
7D
330
A
100
AcDbEntity
  8
LAYER_1
 62
     7
100
AcDbSpline
210
0.0
220
0.0
230
1.0
 70
     8
 71
     3
 72
    26
 73
    22
 74
     0
 42
0.0000000001
 43
0.0000000001
 40
0.0
 40
0.0
 40
0.0
 40
0.0
 40
1.0
 40
1.0
 40
1.0
 40
2.0
 40
2.0
 40
2.0
 40
3.0
 40
3.0
 40
3.0
 40
4.0
 40
4.0
 40
4.0
 40
5.0
 40
5.0
 40
5.0
 40
6.0
 40
6.0
 40
6.0
 40
7.0
 40
7.0
 40
7.0
 40
7.0
 10
138.0435980902778
 20
115.9853407118056
 30
0.0
 10
138.0435980902778
 20
117.803662109375
 30
0.0
 10
138.5124755859375
 20
121.2637437608507
 30
0.0
 10
138.8793782552083
 20
122.1434488932292
 30
0.0
 10
139.3585910373264
 20
123.2946275499132
 30
0.0
 10
139.9935221354166
 20
124.4895589192708
 30
0.0
 10
140.3452663845486
 20
124.8414754231771
 30
0.0
 10
139.5830390082465
 20
126.2493136935764
 30
0.0
 10
139.7587388780382
 20
127.7741129557292
 30
0.0
 10
138.7033338758681
 20
128.8296902126736
 30
0.0
 10
141.3426215277778
 20
128.5363403320312
 30
0.0
 10
143.3950371636285
 20
128.6539903428819
 30
0.0
 10
144.8614420572916
 20
129.0643012152778
 30
0.0
 10
143.8644314236111
 20
130.4130560980903
 30
0.0
 10
142.808509657118
 20
132.2312052408854
 30
0.0
 10
142.4567654079861
 20
133.4042602539062
 30
0.0
 10
143.8058648003472
 20
134.9881429036458
 30
0.0
 10
144.8028754340278
 20
136.51259765625
 30
0.0
 10
144.8614420572916
 20
138.8587076822917
 30
0.0
 10
144.9200086805556
 20
141.2048177083333
 30
0.0
 10
146.884918891059
 20
143.7266276041667
 30
0.0
 10
147.4860880533854
 20
145.8966932508681
 30
0.0
  0
LWPOLYLINE
  5
75
330
A
100
AcDbEntity
  8
LAYER_1
 62
     7
100
AcDbPolyline
 90
        6
 70
     0
 43
0.0
 10
121.5333224826389
 20
99.98855658637152
 10
113.0122233072917
 20
97.97438151041666
 10
110.4318467881944
 20
99.7927029079861
 10
107.6750813802083
 20
94.74856635199652
 10
104.6399522569444
 20
95.80448811848957
 10
96.10886230468749
 20
93.63976236979165
  0
LWPOLYLINE
  5
6D
330
A
100
AcDbEntity
  8
LAYER_1
 62
     7
100
AcDbPolyline
 90
        6
 70
     0
 43
0.0
 10
118.2001925998264
 20
104.4706258138021
 10
110.2325480143229
 20
102.1636176215278
 10
107.6039401584201
 20
102.5546359592014
 10
105.3513644748264
 20
98.53593207465276
 10
102.2149495442708
 20
99.94204779730902
 10
94.11931966145832
 20
97.65278184678819
  0
SPLINE
  5
6C
330
A
100
AcDbEntity
  8
LAYER_1
 62
     7
100
AcDbSpline
210
0.0
220
0.0
230
1.0
 70
    11
 71
     3
 72
   101
 73
    97
 74
     0
 42
0.0000000001
 43
0.0000000001
 40
0.0
 40
0.0
 40
0.0
 40
0.0
 40
1.0
 40
1.0
 40
1.0
 40
2.0
 40
2.0
 40
2.0
 40
3.0
 40
3.0
 40
3.0
 40
4.0
 40
4.0
 40
4.0
 40
5.0
 40
5.0
 40
5.0
 40
6.0
 40
6.0
 40
6.0
 40
7.0
 40
7.0
 40
7.0
 40
8.0
 40
8.0
 40
8.0
 40
9.0
 40
9.0
 40
9.0
 40
10.0
 40
10.0
 40
10.0
 40
11.0
 40
11.0
 40
11.0
 40
12.0
 40
12.0
 40
12.0
 40
13.0
 40
13.0
 40
13.0
 40
14.0
 40
14.0
 40
14.0
 40
15.0
 40
15.0
 40
15.0
 40
16.0
 40
16.0
 40
16.0
 40
17.0
 40
17.0
 40
17.0
 40
18.0
 40
18.0
 40
18.0
 40
19.0
 40
19.0
 40
19.0
 40
20.0
 40
20.0
 40
20.0
 40
21.0
 40
21.0
 40
21.0
 40
22.0
 40
22.0
 40
22.0
 40
23.0
 40
23.0
 40
23.0
 40
24.0
 40
24.0
 40
24.0
 40
25.0
 40
25.0
 40
25.0
 40
26.0
 40
26.0
 40
26.0
 40
27.0
 40
27.0
 40
27.0
 40
28.0
 40
28.0
 40
28.0
 40
29.0
 40
29.0
 40
29.0
 40
30.0
 40
30.0
 40
30.0
 40
31.0
 40
31.0
 40
31.0
 40
32.0
 40
32.0
 40
32.0
 40
32.0
 10
96.65628797743055
 20
136.6104383680556
 30
0.0
 10
96.65628797743055
 20
136.6104383680556
 30
0.0
 10
94.93580729166666
 20
139.0347520616319
 30
0.0
 10
94.93580729166666
 20
139.0347520616319
 30
0.0
 10
94.93580729166666
 20
139.0347520616319
 30
0.0
 10
94.93580729166666
 20
139.7385850694444
 30
0.0
 10
94.93580729166666
 20
139.7385850694444
 30
0.0
 10
94.93580729166666
 20
139.7385850694444
 30
0.0
 10
98.4158704969618
 20
142.3193060980903
 30
0.0
 10
98.4158704969618
 20
142.3193060980903
 30
0.0
 10
98.4158704969618
 20
142.3193060980903
 30
0.0
 10
97.90720214843749
 20
142.9445909288194
 30
0.0
 10
97.90720214843749
 20
142.9445909288194
 30
0.0
 10
97.90720214843749
 20
142.9445909288194
 30
0.0
 10
97.90720214843749
 20
144.0397867838541
 30
0.0
 10
97.90720214843749
 20
144.0397867838541
 30
0.0
 10
97.90720214843749
 20
144.0397867838541
 30
0.0
 10
101.5435004340278
 20
144.4693901909722
 30
0.0
 10
101.5435004340278
 20
144.4693901909722
 30
0.0
 10
101.5435004340278
 20
144.4693901909722
 30
0.0
 10
106.0403835720486
 20
138.7608669704861
 30
0.0
 10
106.0403835720486
 20
138.7608669704861
 30
0.0
 10
106.3528537326389
 20
138.7217651367187
 30
0.0
 10
106.54853515625
 20
138.7608669704861
 30
0.0
 10
106.7047702365451
 20
139.1911593967014
 30
0.0
 10
106.7047702365451
 20
139.1911593967014
 30
0.0
 10
102.2476779513889
 20
144.8604085286458
 30
0.0
 10
102.2476779513889
 20
144.8604085286458
 30
0.0
 10
102.2476779513889
 20
144.8604085286458
 30
0.0
 10
106.3137518988715
 20
153.071449110243
 30
0.0
 10
106.3137518988715
 20
153.071449110243
 30
0.0
 10
106.3137518988715
 20
153.071449110243
 30
0.0
 10
107.4087754991319
 20
153.1498250325521
 30
0.0
 10
107.4087754991319
 20
153.1498250325521
 30
0.0
 10
107.4087754991319
 20
153.1498250325521
 30
0.0
 10
108.776995171441
 20
151.5857516818576
 30
0.0
 10
108.776995171441
 20
151.5857516818576
 30
0.0
 10
108.776995171441
 20
151.5857516818576
 30
0.0
 10
108.503626844618
 20
146.7372965494791
 30
0.0
 10
108.503626844618
 20
146.7372965494791
 30
0.0
 10
108.503626844618
 20
146.7372965494791
 30
0.0
 10
110.1848334418403
 20
144.7432752821181
 30
0.0
 10
110.1848334418403
 20
144.7432752821181
 30
0.0
 10
110.1848334418403
 20
144.7432752821181
 30
0.0
 10
111.3969902886285
 20
147.5193332248264
 30
0.0
 10
111.3969902886285
 20
147.5193332248264
 30
0.0
 10
111.3969902886285
 20
147.5193332248264
 30
0.0
 10
112.4132934570312
 20
147.5193332248264
 30
0.0
 10
112.4132934570312
 20
147.5193332248264
 30
0.0
 10
112.4132934570312
 20
147.5193332248264
 30
0.0
 10
114.8377794053819
 20
144.8996826171875
 30
0.0
 10
114.8377794053819
 20
144.8996826171875
 30
0.0
 10
114.8377794053819
 20
144.8996826171875
 30
0.0
 10
114.5638943142361
 20
139.7776869032118
 30
0.0
 10
114.5638943142361
 20
139.7776869032118
 30
0.0
 10
114.5638943142361
 20
139.7776869032118
 30
0.0
 10
115.6198160807292
 20
138.5655300564236
 30
0.0
 10
115.6198160807292
 20
138.5655300564236
 30
0.0
 10
115.6198160807292
 20
138.5655300564236
 30
0.0
 10
118.1609185112847
 20
140.0124701605903
 30
0.0
 10
118.1609185112847
 20
140.0124701605903
 30
0.0
 10
118.1609185112847
 20
140.0124701605903
 30
0.0
 10
119.138636610243
 20
140.1296034071181
 30
0.0
 10
119.138636610243
 20
140.1296034071181
 30
0.0
 10
119.138636610243
 20
140.1296034071181
 30
0.0
 10
120.7418117947048
 20
138.3307467990451
 30
0.0
 10
120.7418117947048
 20
138.3307467990451
 30
0.0
 10
120.7418117947048
 20
138.3307467990451
 30
0.0
 10
116.2451009114583
 20
127.2263427734375
 30
0.0
 10
116.2451009114583
 20
127.2263427734375
 30
0.0
 10
116.0886935763889
 20
126.9137003580729
 30
0.0
 10
115.815325249566
 20
126.6789171006944
 30
0.0
 10
115.3459309895833
 20
126.6789171006944
 30
0.0
 10
115.3459309895833
 20
126.6789171006944
 30
0.0
 10
110.3801703559028
 20
126.0145304361979
 30
0.0
 10
110.3801703559028
 20
126.0145304361979
 30
0.0
 10
110.3801703559028
 20
126.0145304361979
 30
0.0
 10
108.5814860026042
 20
128.438671875
 30
0.0
 10
108.5814860026042
 20
128.438671875
 30
0.0
 10
108.5814860026042
 20
128.438671875
 30
0.0
 10
101.4656412760417
 20
129.846337890625
 30
0.0
 10
101.4656412760417
 20
129.846337890625
 30
0.0
 10
101.4656412760417
 20
129.846337890625
 30
0.0
 10
99.94084201388888
 20
131.9185628255208
 30
0.0
 10
99.94084201388888
 20
131.9185628255208
 30
0.0
 10
99.94084201388888
 20
131.9185628255208
 30
0.0
 10
99.94084201388888
 20
132.8918023003472
 30
0.0
 10
99.94084201388888
 20
132.8918023003472
 30
0.0
 10
99.94084201388888
 20
132.8918023003472
 30
0.0
 10
103.3814588758681
 20
135.5155870225694
 30
0.0
 10
103.3814588758681
 20
135.5155870225694
 30
0.0
 10
103.3814588758681
 20
135.5155870225694
 30
0.0
 10
101.9737928602431
 20
137.4706787109375
 30
0.0
 10
101.9737928602431
 20
137.4706787109375
 30
0.0
 10
101.9737928602431
 20
137.4706787109375
 30
0.0
 10
96.65628797743055
 20
136.6104383680556
 30
0.0
 10
96.65628797743055
 20
136.6104383680556
 30
0.0
  0
LINE
  5
6B
330
A
100
AcDbEntity
  8
LAYER_1
 62
     7
100
AcDbLine
 10
99.94084201388888
 20
132.8918023003472
 30
0.0
 11
103.7724772135417
 21
135.7894721137153
 31
0.0
  0
LINE
  5
6A
330
A
100
AcDbEntity
  8
LAYER_1
 62
     7
100
AcDbLine
 10
114.8765367296007
 20
138.1550469292535
 30
0.0
 11
118.1609185112847
 21
140.0124701605903
 31
0.0
  0
LINE
  5
69
330
A
100
AcDbEntity
  8
LAYER_1
 62
     7
100
AcDbLine
 10
109.7938151041667
 20
143.8050035264757
 30
0.0
 11
111.3969902886285
 21
147.5193332248264
 31
0.0
  0
SPLINE
  5
68
330
A
100
AcDbEntity
  8
LAYER_1
 62
     7
100
AcDbSpline
210
0.0
220
0.0
230
1.0
 70
     8
 71
     3
 72
    26
 73
    22
 74
     0
 42
0.0000000001
 43
0.0000000001
 40
0.0
 40
0.0
 40
0.0
 40
0.0
 40
1.0
 40
1.0
 40
1.0
 40
2.0
 40
2.0
 40
2.0
 40
3.0
 40
3.0
 40
3.0
 40
4.0
 40
4.0
 40
4.0
 40
5.0
 40
5.0
 40
5.0
 40
6.0
 40
6.0
 40
6.0
 40
7.0
 40
7.0
 40
7.0
 40
7.0
 10
99.96392415364582
 20
132.9352105034722
 30
0.0
 10
99.96392415364582
 20
132.9352105034722
 30
0.0
 10
101.4656412760417
 20
130.7946004231771
 30
0.0
 10
101.4656412760417
 20
130.7946004231771
 30
0.0
 10
101.4656412760417
 20
130.7946004231771
 30
0.0
 10
108.6352294921875
 20
129.2844428168403
 30
0.0
 10
108.6352294921875
 20
129.2844428168403
 30
0.0
 10
108.6352294921875
 20
129.2844428168403
 30
0.0
 10
110.3901611328125
 20
126.9090494791667
 30
0.0
 10
110.3901611328125
 20
126.9090494791667
 30
0.0
 10
110.3901611328125
 20
126.9090494791667
 30
0.0
 10
114.700836859809
 20
127.4223687065972
 30
0.0
 10
114.700836859809
 20
127.4223687065972
 30
0.0
 10
115.3752143012153
 20
127.4809353298611
 30
0.0
 10
115.5707234700521
 20
127.6273518880208
 30
0.0
 10
115.7269585503472
 20
128.0965738932292
 30
0.0
 10
115.7269585503472
 20
128.0965738932292
 30
0.0
 10
119.8035400390625
 20
138.2136135525174
 30
0.0
 10
119.8035400390625
 20
138.2136135525174
 30
0.0
 10
119.8035400390625
 20
138.2136135525174
 30
0.0
 10
118.1609185112847
 20
140.0124701605903
 30
0.0
 10
118.1609185112847
 20
140.0124701605903
 30
0.0
  0
LWPOLYLINE
  5
62
330
A
100
AcDbEntity
  8
LAYER_1
 62
     7
100
AcDbPolyline
 90
        4
 70
     0
 43
0.0
 10
94.93580729166666
 20
139.7385850694444
 10
96.65628797743055
 20
137.45517578125
 10
102.003076171875
 20
138.360546875
 10
103.8896104600694
 20
135.7503702799479
  0
LWPOLYLINE
  5
5C
330
A
100
AcDbEntity
  8
LAYER_1
 62
     7
100
AcDbPolyline
 90
        4
 70
     0
 43
0.0
 10
111.3551323784722
 20
147.4817816840278
 10
113.8602335611979
 20
144.7041734483507
 10
113.6207994249132
 20
139.5770100911458
 10
114.8765367296007
 20
138.1550469292535
  0
LWPOLYLINE
  5
56
330
A
100
AcDbEntity
  8
LAYER_1
 62
     7
100
AcDbPolyline
 90
        4
 70
     0
 43
0.0
 10
106.3137518988715
 20
153.071449110243
 10
107.9169270833333
 20
151.3123833550347
 10
107.6430419921875
 20
146.3073486328125
 10
109.7938151041667
 20
143.8050035264757
  0
LINE
  5
55
330
A
100
AcDbEntity
  8
LAYER_1
 62
     7
100
AcDbLine
 10
114.5638943142361
 20
139.7776869032118
 30
0.0
 11
113.6207994249132
 21
139.5770100911458
 31
0.0
  0
LINE
  5
54
330
A
100
AcDbEntity
  8
LAYER_1
 62
     7
100
AcDbLine
 10
114.7985053168403
 20
144.8511067708333
 30
0.0
 11
113.8550659179687
 21
144.6502577039931
 31
0.0
  0
LINE
  5
53
330
A
100
AcDbEntity
  8
LAYER_1
 62
     7
100
AcDbLine
 10
108.776995171441
 20
151.5857516818576
 30
0.0
 11
107.9169270833333
 21
151.2779324001736
 31
0.0
  0
LINE
  5
52
330
A
100
AcDbEntity
  8
LAYER_1
 62
     7
100
AcDbLine
 10
108.5134453667535
 20
146.6446234809028
 30
0.0
 11
107.6530327690972
 21
146.3366319444444
 31
0.0
  0
LINE
  5
51
330
A
100
AcDbEntity
  8
LAYER_1
 62
     7
100
AcDbLine
 10
96.65628797743055
 20
136.6104383680556
 30
0.0
 11
96.65628797743055
 21
137.45517578125
 31
0.0
  0
LINE
  5
50
330
A
100
AcDbEntity
  8
LAYER_1
 62
     7
100
AcDbLine
 10
101.9737928602431
 20
137.4706787109375
 30
0.0
 11
101.9737928602431
 21
138.360546875
 31
0.0
  0
LINE
  5
4F
330
A
100
AcDbEntity
  8
LAYER_1
 62
     7
100
AcDbLine
 10
101.4656412760417
 20
129.846337890625
 30
0.0
 11
101.4656412760417
 21
130.7946004231771
 31
0.0
  0
LINE
  5
4E
330
A
100
AcDbEntity
  8
LAYER_1
 62
     7
100
AcDbLine
 10
108.6352294921875
 20
128.438671875
 30
0.0
 11
108.6352294921875
 21
129.2844428168403
 31
0.0
  0
LINE
  5
4D
330
A
100
AcDbEntity
  8
LAYER_1
 62
     7
100
AcDbLine
 10
110.394984266493
 20
126.0929063585069
 30
0.0
 11
110.394984266493
 21
127.0113688151042
 31
0.0
  0
LINE
  5
4C
330
A
100
AcDbEntity
  8
LAYER_1
 62
     7
100
AcDbLine
 10
119.8035400390625
 20
138.2136135525174
 30
0.0
 11
120.7418117947048
 21
138.3307467990451
 31
0.0
  0
SPLINE
  5
4B
330
A
100
AcDbEntity
  8
LAYER_1
 62
     7
100
AcDbSpline
210
0.0
220
0.0
230
1.0
 70
    11
 71
     3
 72
    23
 73
    19
 74
     0
 42
0.0000000001
 43
0.0000000001
 40
0.0
 40
0.0
 40
0.0
 40
0.0
 40
1.0
 40
1.0
 40
1.0
 40
2.0
 40
2.0
 40
2.0
 40
3.0
 40
3.0
 40
3.0
 40
4.0
 40
4.0
 40
4.0
 40
5.0
 40
5.0
 40
5.0
 40
6.0
 40
6.0
 40
6.0
 40
6.0
 10
98.93694118923611
 20
139.4206027560764
 30
0.0
 10
98.93694118923611
 20
139.1308702256944
 30
0.0
 10
98.45428331163194
 20
138.8957424587674
 30
0.0
 10
97.85862630208332
 20
138.8957424587674
 30
0.0
 10
97.26296929253472
 20
138.8957424587674
 30
0.0
 10
96.78031141493055
 20
139.1308702256944
 30
0.0
 10
96.78031141493055
 20
139.4206027560764
 30
0.0
 10
96.78031141493055
 20
139.4206027560764
 30
0.0
 10
96.78031141493055
 20
139.7285942925347
 30
0.0
 10
96.78031141493055
 20
139.7285942925347
 30
0.0
 10
96.78031141493055
 20
140.0188435872396
 30
0.0
 10
97.26296929253472
 20
140.2539713541667
 30
0.0
 10
97.85862630208332
 20
140.2539713541667
 30
0.0
 10
98.45428331163194
 20
140.2539713541667
 30
0.0
 10
98.93694118923611
 20
140.0188435872396
 30
0.0
 10
98.93694118923611
 20
139.7285942925347
 30
0.0
 10
98.93694118923611
 20
139.7285942925347
 30
0.0
 10
98.93694118923611
 20
139.4206027560764
 30
0.0
 10
98.93694118923611
 20
139.4206027560764
 30
0.0
  0
ELLIPSE
  5
4A
330
A
100
AcDbEntity
  8
LAYER_1
 62
     7
100
AcDbEllipse
 10
97.85862630208332
 20
139.7800984700521
 30
0.0
 11
1.078314887152778
 21
-0.0001722547743055556
 31
0.0
210
0.0
220
0.0
230
1.0
 40
0.4870606966609247
 41
0.0
 42
6.283185307179586
  0
ELLIPSE
  5
49
330
A
100
AcDbEntity
  8
LAYER_1
 62
     7
100
AcDbEllipse
 10
100.6250379774306
 20
143.2257968478733
 30
0.0
 11
0.5822211371527776
 21
-8.612738715277776E-5
 31
0.0
210
0.0
220
0.0
230
1.0
 40
0.4874260301697899
 41
0.0
 42
6.283185307179586
  0
ELLIPSE
  5
48
330
A
100
AcDbEntity
  8
LAYER_1
 62
     7
100
AcDbEllipse
 10
102.0909261067708
 20
141.1434088812934
 30
0.0
 11
0.6149495442708332
 21
0.0002583821614583333
 31
0.0
210
0.0
220
0.0
230
1.0
 40
0.4869747469304142
 41
0.0
 42
6.283185307179586
  0
ELLIPSE
  5
47
330
A
100
AcDbEntity
  8
LAYER_1
 62
     7
100
AcDbEllipse
 10
105.3461968315972
 20
136.9647664388021
 30
0.0
 11
0.6466444227430555
 21
0.0
 31
0.0
210
0.0
220
0.0
230
1.0
 40
0.487480021310602
 41
0.0
 42
6.283185307179586
  0
ELLIPSE
  5
46
330
A
100
AcDbEntity
  8
LAYER_1
 62
     7
100
AcDbEllipse
 10
111.9149603949653
 20
128.519287109375
 30
0.0
 11
0.6728271484374999
 21
-0.0001722547743055555
 31
0.0
210
0.0
220
0.0
230
1.0
 40
0.4874551811576406
 41
0.0
 42
6.283185307179586
  0
SPLINE
  5
45
330
A
100
AcDbEntity
  8
LAYER_1
 62
     7
100
AcDbSpline
210
0.0
220
0.0
230
1.0
 70
    11
 71
     3
 72
    23
 73
    19
 74
     0
 42
0.0000000001
 43
0.0000000001
 40
0.0
 40
0.0
 40
0.0
 40
0.0
 40
1.0
 40
1.0
 40
1.0
 40
2.0
 40
2.0
 40
2.0
 40
3.0
 40
3.0
 40
3.0
 40
4.0
 40
4.0
 40
4.0
 40
5.0
 40
5.0
 40
5.0
 40
6.0
 40
6.0
 40
6.0
 40
6.0
 10
103.9555840386285
 20
132.0853054470486
 30
0.0
 10
103.9555840386285
 20
131.7838595920139
 30
0.0
 10
103.4534613715278
 20
131.5392578125
 30
0.0
 10
102.8342054578993
 20
131.5392578125
 30
0.0
 10
102.2146050347222
 20
131.5392578125
 30
0.0
 10
101.7123101128472
 20
131.7838595920139
 30
0.0
 10
101.7123101128472
 20
132.0853054470486
 30
0.0
 10
101.7123101128472
 20
132.0853054470486
 30
0.0
 10
101.7123101128472
 20
132.4056993272569
 30
0.0
 10
101.7123101128472
 20
132.4056993272569
 30
0.0
 10
101.7123101128472
 20
132.7074896918403
 30
0.0
 10
102.2146050347222
 20
132.9520914713542
 30
0.0
 10
102.8342054578993
 20
132.9520914713542
 30
0.0
 10
103.4534613715278
 20
132.9520914713542
 30
0.0
 10
103.9555840386285
 20
132.7074896918403
 30
0.0
 10
103.9555840386285
 20
132.4056993272569
 30
0.0
 10
103.9555840386285
 20
132.4056993272569
 30
0.0
 10
103.9555840386285
 20
132.0853054470486
 30
0.0
 10
103.9555840386285
 20
132.0853054470486
 30
0.0
  0
ELLIPSE
  5
44
330
A
100
AcDbEntity
  8
LAYER_1
 62
     7
100
AcDbEllipse
 10
102.8342054578993
 20
132.4588399251302
 30
0.0
 11
1.121378580729167
 21
0.0002583821614583333
 31
0.0
210
0.0
220
0.0
230
1.0
 40
0.4871735661768081
 41
0.0
 42
6.283185307179586
  0
SPLINE
  5
43
330
A
100
AcDbEntity
  8
LAYER_1
 62
     7
100
AcDbSpline
210
0.0
220
0.0
230
1.0
 70
    11
 71
     3
 72
    23
 73
    19
 74
     0
 42
0.0000000001
 43
0.0000000001
 40
0.0
 40
0.0
 40
0.0
 40
0.0
 40
1.0
 40
1.0
 40
1.0
 40
2.0
 40
2.0
 40
2.0
 40
3.0
 40
3.0
 40
3.0
 40
4.0
 40
4.0
 40
4.0
 40
5.0
 40
5.0
 40
5.0
 40
6.0
 40
6.0
 40
6.0
 40
6.0
 10
117.7716227213542
 20
138.6192735460069
 30
0.0
 10
118.1826226128472
 20
138.6029093424479
 30
0.0
 10
118.5030164930555
 20
138.1714111328125
 30
0.0
 10
118.487513563368
 20
137.6563693576389
 30
0.0
 10
118.4720106336805
 20
137.1409830729166
 30
0.0
 10
118.126123046875
 20
136.7365288628472
 30
0.0
 10
117.7152954101562
 20
136.7528930664062
 30
0.0
 10
117.7152954101562
 20
136.7528930664062
 30
0.0
 10
117.4388264973958
 20
136.7640896267361
 30
0.0
 10
117.4388264973958
 20
136.7640896267361
 30
0.0
 10
117.0279988606771
 20
136.7804538302951
 30
0.0
 10
116.7076049804687
 20
137.2119520399305
 30
0.0
 10
116.7231079101562
 20
137.7273383246528
 30
0.0
 10
116.7391276041667
 20
138.2423800998264
 30
0.0
 10
117.084326171875
 20
138.6468343098958
 30
0.0
 10
117.4956705729167
 20
138.6304701063368
 30
0.0
 10
117.4956705729167
 20
138.6304701063368
 30
0.0
 10
117.7716227213542
 20
138.6192735460069
 30
0.0
 10
117.7716227213542
 20
138.6192735460069
 30
0.0
  0
ELLIPSE
  5
42
330
A
100
AcDbEntity
  8
LAYER_1
 62
     7
100
AcDbEllipse
 10
117.4396877712673
 20
137.6983995225695
 30
0.0
 11
0.02842203776041667
 21
0.9332763671875
 31
0.0
210
0.0
220
0.0
230
1.0
 40
0.7970659003197966
 41
0.0
 42
6.283185307179586
  0
SPLINE
  5
41
330
A
100
AcDbEntity
  8
LAYER_1
 62
     7
100
AcDbSpline
210
0.0
220
0.0
230
1.0
 70
    11
 71
     3
 72
    23
 73
    19
 74
     0
 42
0.0000000001
 43
0.0000000001
 40
0.0
 40
0.0
 40
0.0
 40
0.0
 40
1.0
 40
1.0
 40
1.0
 40
2.0
 40
2.0
 40
2.0
 40
3.0
 40
3.0
 40
3.0
 40
4.0
 40
4.0
 40
4.0
 40
5.0
 40
5.0
 40
5.0
 40
6.0
 40
6.0
 40
6.0
 40
6.0
 10
113.8421468098958
 20
138.0327460394965
 30
0.0
 10
114.2529744466146
 20
138.0163818359375
 30
0.0
 10
114.5733683268229
 20
137.5848836263021
 30
0.0
 10
114.5578653971354
 20
137.0698418511285
 30
0.0
 10
114.541845703125
 20
136.5542833116319
 30
0.0
 10
114.1966471354167
 20
136.1500013563368
 30
0.0
 10
113.7856472439236
 20
136.1663655598958
 30
0.0
 10
113.7856472439236
 20
136.1663655598958
 30
0.0
 10
113.5093505859375
 20
136.1775621202257
 30
0.0
 10
113.5093505859375
 20
136.1775621202257
 30
0.0
 10
113.0983506944444
 20
136.1939263237847
 30
0.0
 10
112.7779568142361
 20
136.6254245334201
 30
0.0
 10
112.7939765082465
 20
137.1409830729166
 30
0.0
 10
112.809479437934
 20
137.6560248480903
 30
0.0
 10
113.1551947699653
 20
138.0608235677083
 30
0.0
 10
113.5661946614583
 20
138.0439425998264
 30
0.0
 10
113.5661946614583
 20
138.0439425998264
 30
0.0
 10
113.8421468098958
 20
138.0327460394965
 30
0.0
 10
113.8421468098958
 20
138.0327460394965
 30
0.0
  0
ELLIPSE
  5
40
330
A
100
AcDbEntity
  8
LAYER_1
 62
     7
100
AcDbEllipse
 10
113.5101257324219
 20
137.1117858886719
 30
0.0
 11
0.02850816514756944
 21
0.9335347493489583
 31
0.0
210
0.0
220
0.0
230
1.0
 40
0.7969316880999889
 41
0.0
 42
6.283185307179586
  0
SPLINE
  5
3F
330
A
100
AcDbEntity
  8
LAYER_1
 62
     7
100
AcDbSpline
210
0.0
220
0.0
230
1.0
 70
    11
 71
     3
 72
    23
 73
    19
 74
     0
 42
0.0000000001
 43
0.0000000001
 40
0.0
 40
0.0
 40
0.0
 40
0.0
 40
1.0
 40
1.0
 40
1.0
 40
2.0
 40
2.0
 40
2.0
 40
3.0
 40
3.0
 40
3.0
 40
4.0
 40
4.0
 40
4.0
 40
5.0
 40
5.0
 40
5.0
 40
6.0
 40
6.0
 40
6.0
 40
6.0
 10
112.2680826822917
 20
145.3070651584201
 30
0.0
 10
112.6670247395833
 20
145.2907009548611
 30
0.0
 10
112.9774278428819
 20
144.8724663628472
 30
0.0
 10
112.9622694227431
 20
144.3725830078125
 30
0.0
 10
112.9472832573785
 20
143.8726996527778
 30
0.0
 10
112.6119032118055
 20
143.4803032769097
 30
0.0
 10
112.2134779188368
 20
143.4966674804687
 30
0.0
 10
112.2134779188368
 20
143.4966674804687
 30
0.0
 10
111.9456217447917
 20
143.50751953125
 30
0.0
 10
111.9456217447917
 20
143.50751953125
 30
0.0
 10
111.5468519422743
 20
143.5233669704861
 30
0.0
 10
111.2362765842014
 20
143.9416015625
 30
0.0
 10
111.2514350043403
 20
144.4414849175347
 30
0.0
 10
111.2665934244792
 20
144.9413682725694
 30
0.0
 10
111.6019734700521
 20
145.3337646484375
 30
0.0
 10
112.0003987630208
 20
145.3179172092014
 30
0.0
 10
112.0003987630208
 20
145.3179172092014
 30
0.0
 10
112.2680826822917
 20
145.3070651584201
 30
0.0
 10
112.2680826822917
 20
145.3070651584201
 30
0.0
  0
ELLIPSE
  5
3E
330
A
100
AcDbEntity
  8
LAYER_1
 62
     7
100
AcDbEllipse
 10
111.9462246365017
 20
144.4137518988715
 30
0.0
 11
0.02730238172743055
 21
0.9048543294270833
 31
0.0
210
0.0
220
0.0
230
1.0
 40
0.7976396655053641
 41
0.0
 42
6.283185307179586
  0
SPLINE
  5
3D
330
A
100
AcDbEntity
  8
LAYER_1
 62
     7
100
AcDbSpline
210
0.0
220
0.0
230
1.0
 70
    11
 71
     3
 72
    23
 73
    19
 74
     0
 42
0.0000000001
 43
0.0000000001
 40
0.0
 40
0.0
 40
0.0
 40
0.0
 40
1.0
 40
1.0
 40
1.0
 40
2.0
 40
2.0
 40
2.0
 40
3.0
 40
3.0
 40
3.0
 40
4.0
 40
4.0
 40
4.0
 40
5.0
 40
5.0
 40
5.0
 40
6.0
 40
6.0
 40
6.0
 40
6.0
 10
106.7650594075521
 20
151.4088460286458
 30
0.0
 10
107.1514268663194
 20
151.3933430989583
 30
0.0
 10
107.4532172309028
 20
150.9875108506944
 30
0.0
 10
107.4380588107639
 20
150.5027859157986
 30
0.0
 10
107.4235894097222
 20
150.0173719618055
 30
0.0
 10
107.0983723958333
 20
149.6370334201389
 30
0.0
 10
106.7116604275173
 20
149.6525363498264
 30
0.0
 10
106.7116604275173
 20
149.6525363498264
 30
0.0
 10
106.4520724826389
 20
149.6628716362847
 30
0.0
 10
106.4520724826389
 20
149.6628716362847
 30
0.0
 10
106.0651882595486
 20
149.6788913302951
 30
0.0
 10
105.7637424045139
 20
150.0845513237847
 30
0.0
 10
105.7785563151042
 20
150.5694485134549
 30
0.0
 10
105.7930257161458
 20
151.054345703125
 30
0.0
 10
106.1185872395833
 20
151.4350287543403
 30
0.0
 10
106.5049546983507
 20
151.4195258246528
 30
0.0
 10
106.5049546983507
 20
151.4195258246528
 30
0.0
 10
106.7650594075521
 20
151.4088460286458
 30
0.0
 10
106.7650594075521
 20
151.4088460286458
 30
0.0
  0
ELLIPSE
  5
3C
330
A
100
AcDbEntity
  8
LAYER_1
 62
     7
100
AcDbEllipse
 10
106.4526753743489
 20
150.5423183865017
 30
0.0
 11
0.02644110785590277
 21
0.8780687120225695
 31
0.0
210
0.0
220
0.0
230
1.0
 40
0.7974311585785856
 41
0.0
 42
6.283185307179586
  0
SPLINE
  5
3B
330
A
100
AcDbEntity
  8
LAYER_1
 62
     7
100
AcDbSpline
210
0.0
220
0.0
230
1.0
 70
    11
 71
     3
 72
    23
 73
    19
 74
     0
 42
0.0000000001
 43
0.0000000001
 40
0.0
 40
0.0
 40
0.0
 40
0.0
 40
1.0
 40
1.0
 40
1.0
 40
2.0
 40
2.0
 40
2.0
 40
3.0
 40
3.0
 40
3.0
 40
4.0
 40
4.0
 40
4.0
 40
5.0
 40
5.0
 40
5.0
 40
6.0
 40
6.0
 40
6.0
 40
6.0
 10
104.565882703993
 20
146.4675455729167
 30
0.0
 10
104.9520779079861
 20
146.4520426432292
 30
0.0
 10
105.2535237630208
 20
146.0465549045139
 30
0.0
 10
105.2388821072049
 20
145.5611409505208
 30
0.0
 10
105.2242404513889
 20
145.0762437608507
 30
0.0
 10
104.8990234375
 20
144.6960774739583
 30
0.0
 10
104.5124837239583
 20
144.7115804036458
 30
0.0
 10
104.5124837239583
 20
144.7115804036458
 30
0.0
 10
104.2527235243056
 20
144.7219156901041
 30
0.0
 10
104.2527235243056
 20
144.7219156901041
 30
0.0
 10
103.8660115559896
 20
144.7374186197916
 30
0.0
 10
103.5645657009549
 20
145.1434231228299
 30
0.0
 10
103.5792073567708
 20
145.6283203125
 30
0.0
 10
103.5938490125868
 20
146.1132175021701
 30
0.0
 10
103.9194105360243
 20
146.4933837890625
 30
0.0
 10
104.3057779947917
 20
146.477880859375
 30
0.0
 10
104.3057779947917
 20
146.477880859375
 30
0.0
 10
104.565882703993
 20
146.4675455729167
 30
0.0
 10
104.565882703993
 20
146.4675455729167
 30
0.0
  0
ELLIPSE
  5
3A
330
A
100
AcDbEntity
  8
LAYER_1
 62
     7
100
AcDbEllipse
 10
104.2534125434028
 20
145.6010179307725
 30
0.0
 11
0.02652723524305556
 21
0.8782409667968748
 31
0.0
210
0.0
220
0.0
230
1.0
 40
0.7973783413737804
 41
0.0
 42
6.283185307179586
  0
SPLINE
  5
39
330
A
100
AcDbEntity
  8
LAYER_1
 62
     7
100
AcDbSpline
210
0.0
220
0.0
230
1.0
 70
    11
 71
     3
 72
    23
 73
    19
 74
     0
 42
0.0000000001
 43
0.0000000001
 40
0.0
 40
0.0
 40
0.0
 40
0.0
 40
1.0
 40
1.0
 40
1.0
 40
2.0
 40
2.0
 40
2.0
 40
3.0
 40
3.0
 40
3.0
 40
4.0
 40
4.0
 40
4.0
 40
5.0
 40
5.0
 40
5.0
 40
6.0
 40
6.0
 40
6.0
 40
6.0
 10
107.6740478515625
 20
145.2652072482639
 30
0.0
 10
108.0604153103298
 20
145.2497043185764
 30
0.0
 10
108.3618611653646
 20
144.8436998155382
 30
0.0
 10
108.3472195095486
 20
144.3591471354167
 30
0.0
 10
108.3325778537326
 20
143.8739054361979
 30
0.0
 10
108.007533094618
 20
143.4937391493056
 30
0.0
 10
107.6206488715278
 20
143.5092420789931
 30
0.0
 10
107.6206488715278
 20
143.5092420789931
 30
0.0
 10
107.3610609266493
 20
143.5195773654514
 30
0.0
 10
107.3610609266493
 20
143.5195773654514
 30
0.0
 10
106.9743489583333
 20
143.5350802951389
 30
0.0
 10
106.6729031032986
 20
143.9410847981771
 30
0.0
 10
106.6875447591146
 20
144.4259819878472
 30
0.0
 10
106.7021864149306
 20
144.9108791775174
 30
0.0
 10
107.0277479383681
 20
145.2910454644097
 30
0.0
 10
107.4139431423611
 20
145.2755425347222
 30
0.0
 10
107.4139431423611
 20
145.2755425347222
 30
0.0
 10
107.6740478515625
 20
145.2652072482639
 30
0.0
 10
107.6740478515625
 20
145.2652072482639
 30
0.0
  0
ELLIPSE
  5
38
330
A
100
AcDbEntity
  8
LAYER_1
 62
     7
100
AcDbEllipse
 10
107.3616638183594
 20
144.3986796061198
 30
0.0
 11
0.02644110785590278
 21
0.878240966796875
 31
0.0
210
0.0
220
0.0
230
1.0
 40
0.7972827529466137
 41
0.0
 42
6.283185307179586
  0
LINE
  5
37
330
A
100
AcDbEntity
  8
LAYER_1
 62
     7
100
AcDbLine
 10
106.8124294704861
 20
138.0081136067708
 30
0.0
 11
114.8179701063368
 21
127.8033962673611
 31
0.0
  0
LINE
  5
36
330
A
100
AcDbEntity
  8
LAYER_1
 62
     7
100
AcDbLine
 10
107.1056070963542
 20
138.360546875
 30
0.0
 11
114.9941867404514
 21
128.3015570746528
 31
0.0
  0
LWPOLYLINE
  5
30
330
A
100
AcDbEntity
  8
LAYER_1
 62
     7
100
AcDbPolyline
 90
        4
 70
     1
 43
0.0
 10
104.9064303927951
 20
139.2104519314236
 10
105.3169135199653
 20
138.7415744357639
 10
103.89443359375
 20
138.3453884548611
 10
103.5571587456597
 20
138.8587076822917
  0
LWPOLYLINE
  5
2A
330
A
100
AcDbEntity
  8
LAYER_1
 62
     7
100
AcDbPolyline
 90
        4
 70
     1
 43
0.0
 10
108.5134453667535
 20
139.9146294487847
 10
108.1026177300347
 20
140.5011569552951
 10
108.6305786132812
 20
141.6444118923611
 10
109.0996283637153
 20
141.1169677734375
  0
LWPOLYLINE
  5
23
330
A
100
AcDbEntity
  8
LAYER_1
 62
     7
100
AcDbPolyline
 90
        5
 70
     0
 43
0.0
 10
109.5688503689236
 20
137.1582085503472
 10
111.5043050130208
 20
134.606598578559
 10
112.50166015625
 20
134.5187486436632
 10
112.2961602105035
 20
135.691803656684
 10
110.0091335720486
 20
138.3898301866319
  0
LINE
  5
22
330
A
100
AcDbEntity
  8
LAYER_1
 62
     7
100
AcDbLine
 10
111.1231051974826
 20
135.1931260850694
 30
0.0
 11
111.738916015625
 21
136.2490478515625
 31
0.0
  0
ENDSEC
  0
SECTION
  2
OBJECTS
  0
DICTIONARY
  5
19
330
0
100
AcDbDictionary
281
     1
  3
ACAD_COLOR
350
172
  3
ACAD_GROUP
350
1A
  3
ACAD_LAYOUT
350
13F
  3
ACAD_MATERIAL
350
174
  3
ACAD_MLINESTYLE
350
1B
  3
ACAD_PLOTSETTINGS
350
140
  3
ACAD_PLOTSTYLENAME
350
13D
  3
ACDBHEADERROUNDTRIPXREC
350
171
  0
DICTIONARY
  5
172
102
{ACAD_REACTORS
330
19
102
}
330
19
100
AcDbDictionary
281
     1
  0
DICTIONARY
  5
1A
102
{ACAD_REACTORS
330
19
102
}
330
19
100
AcDbDictionary
281
     1
  0
DICTIONARY
  5
13F
102
{ACAD_REACTORS
330
19
102
}
330
19
100
AcDbDictionary
281
     1
  3
Layout1
350
142
  3
Model
350
141
  0
DICTIONARY
  5
174
102
{ACAD_REACTORS
330
19
102
}
330
19
100
AcDbDictionary
281
     1
  0
DICTIONARY
  5
1B
102
{ACAD_REACTORS
330
19
102
}
330
19
100
AcDbDictionary
281
     1
  3
STANDARD
350
1C
  0
DICTIONARY
  5
140
102
{ACAD_REACTORS
330
19
102
}
330
19
100
AcDbDictionary
281
     1
  0
ACDBDICTIONARYWDFLT
  5
13D
102
{ACAD_REACTORS
330
19
102
}
330
19
100
AcDbDictionary
281
     1
  3
Normal
350
13E
100
AcDbDictionaryWithDefault
340
13E
  0
DICTIONARY
  5
171
102
{ACAD_REACTORS
330
19
102
}
330
19
100
AcDbDictionary
281
     1
  3
COLORDICT
350
173
  3
MATERIALDICT
350
175
  0
LAYOUT
  5
142
102
{ACAD_REACTORS
330
13F
102
}
102
{ACAD_XDICTIONARY
360
176
102
}
330
13F
100
AcDbPlotSettings
  1

  2
Support Center HP LaserJet 4
  4

  6

 40
0.0
 41
0.0
 42
0.0
 43
0.0
 44
0.0
 45
0.0
 46
0.0
 47
0.0
 48
0.0
 49
0.0
140
0.0
141
0.0
142
1.0
143
1.0
 70
   688
 72
     0
 73
     0
 74
     5
  7

 75
    16
147
1.0
148
0.0
149
0.0
100
AcDbLayout
  1
Layout1
 70
     0
 71
     1
 10
0.0
 20
0.0
 11
12.0
 21
9.0
 12
0.0
 22
0.0
 32
0.0
 14
1.000000000000000E+20
 24
1.000000000000000E+20
 34
1.000000000000000E+20
 15
-1.000000000000000E+20
 25
-1.000000000000000E+20
 35
-1.000000000000000E+20
146
0.0
 13
0.0
 23
0.0
 33
0.0
 16
1.0
 26
0.0
 36
0.0
 17
0.0
 27
1.0
 37
0.0
 76
     0
330
B
  0
LAYOUT
  5
141
102
{ACAD_REACTORS
330
13F
102
}
102
{ACAD_XDICTIONARY
360
178
102
}
330
13F
100
AcDbPlotSettings
  1

  2
Support Center HP LaserJet 4
  4

  6

 40
0.0
 41
0.0
 42
0.0
 43
0.0
 44
0.0
 45
0.0
 46
0.0
 47
0.0
 48
0.0
 49
0.0
140
0.0
141
0.0
142
1.0
143
1.0
 70
  1712
 72
     0
 73
     0
 74
     0
  7

 75
     0
147
1.0
148
0.0
149
0.0
100
AcDbLayout
  1
Model
 70
     1
 71
     0
 10
0.0
 20
0.0
 11
12.0
 21
9.0
 12
0.0
 22
0.0
 32
0.0
 14
0.0
 24
0.0
 34
0.0
 15
0.0
 25
0.0
 35
0.0
146
0.0
 13
0.0
 23
0.0
 33
0.0
 16
1.0
 26
0.0
 36
0.0
 17
0.0
 27
1.0
 37
0.0
 76
     0
330
A
  0
MLINESTYLE
  5
1C
102
{ACAD_REACTORS
330
1B
102
}
330
1B
100
AcDbMlineStyle
  2
STANDARD
 70
     0
  3

 62
     0
 51
90.0000000000002
 52
90.0000000000002
 71
     2
 49
0.5
 62
   256
  6
BYLAYER
 49
-0.5
 62
   256
  6
BYLAYER
  0
ACDBPLACEHOLDER
  5
13E
102
{ACAD_REACTORS
330
13D
102
}
330
13D
  0
XRECORD
  5
173
102
{ACAD_REACTORS
330
171
102
}
330
171
100
AcDbXrecord
340
172
  0
XRECORD
  5
175
102
{ACAD_REACTORS
330
171
102
}
330
171
100
AcDbXrecord
340
174
  0
DICTIONARY
  5
176
330
142
100
AcDbDictionary
280
     1
281
     1
  3
ACAD_XREC_ROUNDTRIP
360
177
  0
DICTIONARY
  5
178
330
141
100
AcDbDictionary
280
     1
281
     1
  3
ACAD_XREC_ROUNDTRIP
360
179
  0
XRECORD
  5
177
102
{ACAD_REACTORS
330
176
102
}
330
176
100
AcDbXrecord
102
SHADEPLOT
 70
     0
102
SHADEPLOTRESLEVEL
 70
     0
102
SHADEPLOTCUSTOMDPI
 70
     0
  0
XRECORD
  5
179
102
{ACAD_REACTORS
330
178
102
}
330
178
100
AcDbXrecord
102
SHADEPLOT
 70
-25416
102
SHADEPLOTRESLEVEL
 70
 -2880
102
SHADEPLOTCUSTOMDPI
 70
 20968
  0
ENDSEC
  0
EOF
