  0
SECTION
  2
HEADER
  9
$ACADVER
  1
AC1015
  9
$ACADMAINTVER
 70
     6
  9
$DWGCODEPAGE
  3
ANSI_1252
  9
$INSBASE
 10
0.0
 20
0.0
 30
0.0
  9
$EXTMIN
 10
6.092447284845509
 20
24.21969877769708
 30
-0.0015258207003612
  9
$EXTMAX
 10
118.5468015581225
 20
129.3220063569887
 30
0.0000000349246008
  9
$LIMMIN
 10
5.966905381944444
 20
24.09430881076389
  9
$LIMMAX
 10
118.6723429361979
 20
129.4473958333333
  9
$ORTHOMODE
 70
     0
  9
$REGENMODE
 70
     1
  9
$FILLMODE
 70
     1
  9
$QTEXTMODE
 70
     0
  9
$MIRRTEXT
 70
     1
  9
$LTSCALE
 40
1.0
  9
$ATTMODE
 70
     1
  9
$TEXTSIZE
 40
0.2
  9
$TRACEWID
 40
0.05
  9
$TEXTSTYLE
  7
STANDARD
  9
$CLAYER
  8
0
  9
$CELTYPE
  6
CONTINUOUS
  9
$CECOLOR
 62
   256
  9
$CELTSCALE
 40
1.0
  9
$DISPSILH
 70
     0
  9
$DIMSCALE
 40
1.0
  9
$DIMASZ
 40
0.18
  9
$DIMEXO
 40
0.0625
  9
$DIMDLI
 40
0.38
  9
$DIMRND
 40
0.0
  9
$DIMDLE
 40
0.0
  9
$DIMEXE
 40
0.18
  9
$DIMTP
 40
0.0
  9
$DIMTM
 40
0.0
  9
$DIMTXT
 40
0.18
  9
$DIMCEN
 40
0.09
  9
$DIMTSZ
 40
0.0
  9
$DIMTOL
 70
     0
  9
$DIMLIM
 70
     0
  9
$DIMTIH
 70
     1
  9
$DIMTOH
 70
     1
  9
$DIMSE1
 70
     0
  9
$DIMSE2
 70
     0
  9
$DIMTAD
 70
     0
  9
$DIMZIN
 70
     0
  9
$DIMBLK
  1

  9
$DIMASO
 70
     1
  9
$DIMSHO
 70
     1
  9
$DIMPOST
  1

  9
$DIMAPOST
  1

  9
$DIMALT
 70
     0
  9
$DIMALTD
 70
     2
  9
$DIMALTF
 40
25.4
  9
$DIMLFAC
 40
1.0
  9
$DIMTOFL
 70
     0
  9
$DIMTVP
 40
0.0
  9
$DIMTIX
 70
     0
  9
$DIMSOXD
 70
     0
  9
$DIMSAH
 70
     0
  9
$DIMBLK1
  1

  9
$DIMBLK2
  1

  9
$DIMSTYLE
  2
STANDARD
  9
$DIMCLRD
 70
     0
  9
$DIMCLRE
 70
     0
  9
$DIMCLRT
 70
     0
  9
$DIMTFAC
 40
1.0
  9
$DIMGAP
 40
0.09
  9
$DIMJUST
 70
     0
  9
$DIMSD1
 70
     0
  9
$DIMSD2
 70
     0
  9
$DIMTOLJ
 70
     1
  9
$DIMTZIN
 70
     0
  9
$DIMALTZ
 70
     0
  9
$DIMALTTZ
 70
     0
  9
$DIMUPT
 70
     0
  9
$DIMDEC
 70
     4
  9
$DIMTDEC
 70
     4
  9
$DIMALTU
 70
     2
  9
$DIMALTTD
 70
     2
  9
$DIMTXSTY
  7
STANDARD
  9
$DIMAUNIT
 70
     0
  9
$DIMADEC
 70
     0
  9
$DIMALTRND
 40
0.0
  9
$DIMAZIN
 70
     0
  9
$DIMDSEP
 70
    46
  9
$DIMATFIT
 70
     3
  9
$DIMFRAC
 70
     0
  9
$DIMLDRBLK
  1

  9
$DIMLUNIT
 70
     2
  9
$DIMLWD
 70
    -2
  9
$DIMLWE
 70
    -2
  9
$DIMTMOVE
 70
     0
  9
$LUNITS
 70
     2
  9
$LUPREC
 70
     4
  9
$SKETCHINC
 40
0.1
  9
$FILLETRAD
 40
0.0
  9
$AUNITS
 70
     0
  9
$AUPREC
 70
     0
  9
$MENU
  1
acad
  9
$ELEVATION
 40
0.0
  9
$PELEVATION
 40
0.0
  9
$THICKNESS
 40
0.0
  9
$LIMCHECK
 70
     0
  9
$CHAMFERA
 40
0.0
  9
$CHAMFERB
 40
0.0
  9
$CHAMFERC
 40
0.0
  9
$CHAMFERD
 40
0.0
  9
$SKPOLY
 70
     0
  9
$TDCREATE
 40
2444971.666666667
  9
$TDUCREATE
 40
2444972.0
  9
$TDUPDATE
 40
2452215.424006366
  9
$TDUUPDATE
 40
2452215.757339699
  9
$TDINDWG
 40
0.0000680556
  9
$TDUSRTIMER
 40
0.0000680556
  9
$USRTIMER
 70
     1
  9
$ANGBASE
 50
0.0
  9
$ANGDIR
 70
     0
  9
$PDMODE
 70
     0
  9
$PDSIZE
 40
0.0
  9
$PLINEWID
 40
0.0
  9
$SPLFRAME
 70
     0
  9
$SPLINETYPE
 70
     6
  9
$SPLINESEGS
 70
     8
  9
$HANDSEED
  5
13D
  9
$SURFTAB1
 70
     6
  9
$SURFTAB2
 70
     6
  9
$SURFTYPE
 70
     6
  9
$SURFU
 70
     6
  9
$SURFV
 70
     6
  9
$UCSBASE
  2

  9
$UCSNAME
  2

  9
$UCSORG
 10
0.0
 20
0.0
 30
0.0
  9
$UCSXDIR
 10
1.0
 20
0.0
 30
0.0
  9
$UCSYDIR
 10
0.0
 20
1.0
 30
0.0
  9
$UCSORTHOREF
  2

  9
$UCSORTHOVIEW
 70
     0
  9
$UCSORGTOP
 10
0.0
 20
0.0
 30
0.0
  9
$UCSORGBOTTOM
 10
0.0
 20
0.0
 30
0.0
  9
$UCSORGLEFT
 10
0.0
 20
0.0
 30
0.0
  9
$UCSORGRIGHT
 10
0.0
 20
0.0
 30
0.0
  9
$UCSORGFRONT
 10
0.0
 20
0.0
 30
0.0
  9
$UCSORGBACK
 10
0.0
 20
0.0
 30
0.0
  9
$PUCSBASE
  2

  9
$PUCSNAME
  2

  9
$PUCSORG
 10
0.0
 20
0.0
 30
0.0
  9
$PUCSXDIR
 10
1.0
 20
0.0
 30
0.0
  9
$PUCSYDIR
 10
0.0
 20
1.0
 30
0.0
  9
$PUCSORTHOREF
  2

  9
$PUCSORTHOVIEW
 70
     0
  9
$PUCSORGTOP
 10
0.0
 20
0.0
 30
0.0
  9
$PUCSORGBOTTOM
 10
0.0
 20
0.0
 30
0.0
  9
$PUCSORGLEFT
 10
0.0
 20
0.0
 30
0.0
  9
$PUCSORGRIGHT
 10
0.0
 20
0.0
 30
0.0
  9
$PUCSORGFRONT
 10
0.0
 20
0.0
 30
0.0
  9
$PUCSORGBACK
 10
0.0
 20
0.0
 30
0.0
  9
$USERI1
 70
     0
  9
$USERI2
 70
     0
  9
$USERI3
 70
     0
  9
$USERI4
 70
     0
  9
$USERI5
 70
     0
  9
$USERR1
 40
0.0
  9
$USERR2
 40
0.0
  9
$USERR3
 40
0.0
  9
$USERR4
 40
0.0
  9
$USERR5
 40
0.0
  9
$WORLDVIEW
 70
     1
  9
$SHADEDGE
 70
     3
  9
$SHADEDIF
 70
    70
  9
$TILEMODE
 70
     1
  9
$MAXACTVP
 70
    16
  9
$PINSBASE
 10
0.0
 20
0.0
 30
0.0
  9
$PLIMCHECK
 70
     0
  9
$PEXTMIN
 10
1.000000000000000E+20
 20
1.000000000000000E+20
 30
1.000000000000000E+20
  9
$PEXTMAX
 10
-1.000000000000000E+20
 20
-1.000000000000000E+20
 30
-1.000000000000000E+20
  9
$PLIMMIN
 10
0.0
 20
0.0
  9
$PLIMMAX
 10
12.0
 20
9.0
  9
$UNITMODE
 70
     0
  9
$VISRETAIN
 70
     0
  9
$PLINEGEN
 70
     1
  9
$PSLTSCALE
 70
     0
  9
$TREEDEPTH
 70
  3020
  9
$CMLSTYLE
  2
STANDARD
  9
$CMLJUST
 70
     0
  9
$CMLSCALE
 40
1.0
  9
$PROXYGRAPHICS
 70
     0
  9
$MEASUREMENT
 70
     0
  9
$CELWEIGHT
370
    -1
  9
$ENDCAPS
280
     0
  9
$JOINSTYLE
280
     0
  9
$LWDISPLAY
290
     0
  9
$INSUNITS
 70
     0
  9
$HYPERLINKBASE
  1

  9
$STYLESHEET
  1

  9
$XEDIT
290
     1
  9
$CEPSNTYPE
380
     0
  9
$PSTYLEMODE
290
     1
  9
$FINGERPRINTGUID
  2
{87DE94F4-CEA3-11D5-923F-00805F198AD5}
  9
$VERSIONGUID
  2
{87DE94F6-CEA3-11D5-923F-00805F198AD5}
  9
$EXTNAMES
290
     1
  9
$PSVPSCALE
 40
0.0
  9
$OLESTARTUP
290
     0
  0
ENDSEC
  0
SECTION
  2
CLASSES
  0
CLASS
  1
LWPOLYLINE
  2
AcDbPolyline
  3
AutoCAD 2000
 90
        0
280
     0
281
     1
  0
CLASS
  1
IMAGE
  2
AcDbRasterImage
  3
ISM
 90
      127
280
     0
281
     1
  0
CLASS
  1
OLE2FRAME
  2
AcDbOle2Frame
  3
AutoCAD 2000
 90
        0
280
     0
281
     1
  0
CLASS
  1
HATCH
  2
AcDbHatch
  3
AutoCAD 2000
 90
        0
280
     0
281
     1
  0
CLASS
  1
DICTIONARYVAR
  2
AcDbDictionaryVar
  3
AutoCAD 2000
 90
        0
280
     0
281
     0
  0
CLASS
  1
RASTERVARIABLES
  2
AcDbRasterVariables
  3
ISM
 90
        0
280
     0
281
     0
  0
CLASS
  1
IMAGEDEF
  2
AcDbRasterImageDef
  3
ISM
 90
        0
280
     0
281
     0
  0
CLASS
  1
IMAGEDEF_REACTOR
  2
AcDbRasterImageDefReactor
  3
ISM
 90
        1
280
     0
281
     0
  0
CLASS
  1
IDBUFFER
  2
AcDbIdBuffer
  3
AutoCAD 2000
 90
        0
280
     0
281
     0
  0
CLASS
  1
SPATIAL_FILTER
  2
AcDbSpatialFilter
  3
AutoCAD 2000
 90
        0
280
     0
281
     0
  0
CLASS
  1
XRECORD
  2
AcDbXrecord
  3
AutoCAD 2000
 90
        0
280
     0
281
     0
  0
CLASS
  1
SORTENTSTABLE
  2
AcDbSortentsTable
  3
AutoCAD 2000
 90
        0
280
     0
281
     0
  0
CLASS
  1
LAYER_INDEX
  2
AcDbLayerIndex
  3
AutoCAD 2000
 90
        0
280
     0
281
     0
  0
CLASS
  1
SPATIAL_INDEX
  2
AcDbSpatialIndex
  3
AutoCAD 2000
 90
        0
280
     0
281
     0
  0
CLASS
  1
OBJECT_PTR
  2
CAseDLPNTableRecord
  3
ASE-LPNTableRecord
 90
        1
280
     1
281
     0
  0
CLASS
  1
LAYOUT
  2
AcDbLayout
  3
ObjectDBX Classes
 90
        0
280
     0
281
     0
  0
CLASS
  1
PLOTSETTINGS
  2
AcDbPlotSettings
  3
AutoCAD 2000
 90
        0
280
     0
281
     0
  0
CLASS
  1
ACDBDICTIONARYWDFLT
  2
AcDbDictionaryWithDefault
  3
AutoCAD 2000
 90
        0
280
     0
281
     0
  0
CLASS
  1
ACDBPLACEHOLDER
  2
AcDbPlaceHolder
  3
ObjectDBX Classes
 90
        0
280
     0
281
     0
  0
CLASS
  1
VBAPROJECT
  2
AcDbVbaProject
  3
ObjectDBX Classes
 90
        0
280
     0
281
     0
  0
CLASS
  1
WIPEOUT
  2
AcDbWipeout
  3
WipeOut|AutoCAD Express Tool|expresstools@autodesk.com
 90
      127
280
     0
281
     1
  0
CLASS
  1
WIPEOUTVARIABLES
  2
AcDbWipeoutVariables
  3
WipeOut|AutoCAD Express Tool|expresstools@autodesk.com
 90
        0
280
     0
281
     0
  0
CLASS
  1
RTEXT
  2
RText
  3
RText|AutoCAD Express Tool|expresstools@autodesk.com
 90
        0
280
     0
281
     1
  0
CLASS
  1
ARCALIGNEDTEXT
  2
AcDbArcAlignedText
  3
ATEXT|AutoCAD Express Tool|expresstools@autodesk.com
 90
        0
280
     0
281
     1
  0
CLASS
  1
LONG_TRANSACTION
  2
AcDbLongTransaction
  3
AutoCAD 2000
 90
        0
280
     1
281
     0
  0
CLASS
  1
LWPOLYLINE
  2
AcDbPolyline
  3
AutoCAD 2000
 90
        0
280
     0
281
     1
  0
CLASS
  1
HATCH
  2
AcDbHatch
  3
AutoCAD 2000
 90
        0
280
     0
281
     1
  0
CLASS
  1
XRECORD
  2
AcDbXrecord
  3
AutoCAD 2000
 90
        0
280
     0
281
     0
  0
ENDSEC
  0
SECTION
  2
TABLES
  0
TABLE
  2
VPORT
  5
7
330
0
100
AcDbSymbolTable
 70
     2
  0
VPORT
  5
109
330
7
100
AcDbSymbolTableRecord
100
AcDbViewportTableRecord
  2
*Active
 70
     0
 10
0.0
 20
0.0
 11
1.0
 21
1.0
 12
62.31962442148398
 22
76.7708525673429
 13
0.0
 23
0.0
 14
1.0
 24
1.0
 15
0.0
 25
0.0
 16
0.0
 26
0.0
 36
1.0
 17
0.0
 27
0.0
 37
0.0
 40
106.7574620293592
 41
1.836842105263158
 42
50.0
 43
0.0
 44
0.0
 50
0.0
 51
0.0
 71
     0
 72
   100
 73
     1
 74
     1
 75
     0
 76
     0
 77
     0
 78
     0
281
     0
 65
     1
110
0.0
120
0.0
130
0.0
111
1.0
121
0.0
131
0.0
112
0.0
122
1.0
132
0.0
 79
     0
146
0.0
  0
ENDTAB
  0
TABLE
  2
LTYPE
  5
4
330
0
100
AcDbSymbolTable
 70
     1
  0
LTYPE
  5
11
330
4
100
AcDbSymbolTableRecord
100
AcDbLinetypeTableRecord
  2
BYBLOCK
 70
     0
  3

 72
    65
 73
     0
 40
0.0
  0
LTYPE
  5
12
330
4
100
AcDbSymbolTableRecord
100
AcDbLinetypeTableRecord
  2
BYLAYER
 70
     0
  3

 72
    65
 73
     0
 40
0.0
  0
LTYPE
  5
13
330
4
100
AcDbSymbolTableRecord
100
AcDbLinetypeTableRecord
  2
CONTINUOUS
 70
     0
  3
Solid line
 72
    65
 73
     0
 40
0.0
  0
ENDTAB
  0
TABLE
  2
LAYER
  5
2
330
0
100
AcDbSymbolTable
 70
     2
  0
LAYER
  5
14
330
2
100
AcDbSymbolTableRecord
100
AcDbLayerTableRecord
  2
0
 70
     0
 62
     7
  6
CONTINUOUS
370
    -3
390
0
  0
LAYER
  5
21
330
2
100
AcDbSymbolTableRecord
100
AcDbLayerTableRecord
  2
LAYER_1
 70
     0
 62
     5
  6
CONTINUOUS
370
    -3
390
0
  0
ENDTAB
  0
TABLE
  2
STYLE
  5
3
330
0
100
AcDbSymbolTable
 70
     5
  0
STYLE
  5
17
330
3
100
AcDbSymbolTableRecord
100
AcDbTextStyleTableRecord
  2
STANDARD
 70
     0
 40
0.0
 41
1.0
 50
0.0
 71
     0
 42
0.2
  3
txt
  4

  0
STYLE
  5
1D
330
3
100
AcDbSymbolTableRecord
100
AcDbTextStyleTableRecord
  2
STD
 70
     0
 40
0.0
 41
1.0
 50
0.0
 71
     0
 42
0.2
  3
txt
  4

  0
STYLE
  5
1E
330
3
100
AcDbSymbolTableRecord
100
AcDbTextStyleTableRecord
  2
TATESTD
 70
     4
 40
0.0
 41
1.0
 50
0.0
 71
     0
 42
0.2
  3
txt
  4

  0
STYLE
  5
1F
330
3
100
AcDbSymbolTableRecord
100
AcDbTextStyleTableRecord
  2
KANJISTD
 70
     0
 40
0.0
 41
1.0
 50
0.0
 71
     0
 42
0.2
  3
txt
  4
extfont
  0
STYLE
  5
20
330
3
100
AcDbSymbolTableRecord
100
AcDbTextStyleTableRecord
  2
KANJITATE
 70
     4
 40
0.0
 41
1.0
 50
0.0
 71
     0
 42
0.2
  3
txt
  4
extfont
  0
ENDTAB
  0
TABLE
  2
VIEW
  5
5
330
0
100
AcDbSymbolTable
 70
     0
  0
ENDTAB
  0
TABLE
  2
UCS
  5
6
330
0
100
AcDbSymbolTable
 70
     0
  0
ENDTAB
  0
TABLE
  2
APPID
  5
8
330
0
100
AcDbSymbolTable
 70
     1
  0
APPID
  5
16
330
8
100
AcDbSymbolTableRecord
100
AcDbRegAppTableRecord
  2
ACAD
 70
     0
  0
ENDTAB
  0
TABLE
  2
DIMSTYLE
  5
9
330
0
100
AcDbSymbolTable
 70
     1
100
AcDbDimStyleTable
  0
DIMSTYLE
105
18
330
9
100
AcDbSymbolTableRecord
100
AcDbDimStyleTableRecord
  2
STANDARD
 70
     0
  3

  4

289
     0
340
17
  0
ENDTAB
  0
TABLE
  2
BLOCK_RECORD
  5
1
330
0
100
AcDbSymbolTable
 70
     0
  0
BLOCK_RECORD
  5
A
330
1
100
AcDbSymbolTableRecord
100
AcDbBlockTableRecord
  2
*MODEL_SPACE
340
104
  0
BLOCK_RECORD
  5
B
330
1
100
AcDbSymbolTableRecord
100
AcDbBlockTableRecord
  2
*PAPER_SPACE
340
105
  0
ENDTAB
  0
ENDSEC
  0
SECTION
  2
BLOCKS
  0
BLOCK
  5
D
330
A
100
AcDbEntity
  8
0
100
AcDbBlockBegin
  2
*MODEL_SPACE
 70
     0
 10
0.0
 20
0.0
 30
0.0
  3
*MODEL_SPACE
  1

  4

  0
ENDBLK
  5
E
330
A
100
AcDbEntity
  8
0
100
AcDbBlockEnd
  0
BLOCK
  5
F
330
B
100
AcDbEntity
 67
     1
  8
0
100
AcDbBlockBegin
  2
*PAPER_SPACE
 70
     0
 10
0.0
 20
0.0
 30
0.0
  3
*PAPER_SPACE
  1

  4

  0
ENDBLK
  5
10
330
B
100
AcDbEntity
 67
     1
  8
0
100
AcDbBlockEnd
  0
ENDSEC
  0
SECTION
  2
ENTITIES
  0
LINE
  5
FE
330
A
100
AcDbEntity
  8
LAYER_1
 62
     7
100
AcDbLine
 10
29.02269015842014
 20
110.0187798394097
 30
0.0
 11
45.42565104166666
 21
100.8122789171007
 31
0.0
  0
LWPOLYLINE
  5
EA
330
A
100
AcDbEntity
  8
LAYER_1
 62
     7
100
AcDbPolyline
 90
       18
 70
     0
 43
0.0
 10
67.39554172092014
 20
45.57499593098958
 10
32.45624457465277
 20
24.22660047743056
 10
11.27355821397569
 20
37.09024251302083
 10
11.37053765190972
 20
48.16519097222222
 10
6.099197048611111
 20
51.26026475694444
 10
16.44826388888889
 20
61.75437011718749
 10
11.12851969401042
 20
64.89784749348958
 10
11.17709554036458
 20
79.84129367404513
 10
45.473193359375
 20
100.6386461046007
 10
55.7797132703993
 20
106.8883938259549
 10
92.76298556857638
 20
129.3151041666667
 10
113.9456719292535
 20
118.4335978190104
 10
114.0421346028646
 20
105.3763414171007
 10
110.8020222981771
 20
101.748828125
 10
118.5400512695312
 20
89.65912679036458
 10
114.3804429796007
 20
85.35465223524305
 10
114.4290188259549
 20
74.18306884765624
 10
105.56875
 20
68.79166666666666
  0
LWPOLYLINE
  5
E5
330
A
100
AcDbEntity
  8
LAYER_1
 62
     7
100
AcDbPolyline
 90
        3
 70
     0
 43
0.0
 10
60.39424641927083
 20
97.5852579752604
 10
21.81658393012152
 20
73.89316406249999
 10
21.76818033854167
 20
58.7562757703993
  0
LINE
  5
E4
330
A
100
AcDbEntity
  8
LAYER_1
 62
     7
100
AcDbLine
 10
103.160456000434
 20
123.8498046875
 30
0.0
 11
66.76836208767361
 21
101.4997477213542
 31
0.0
  0
LINE
  5
E3
330
A
100
AcDbEntity
  8
LAYER_1
 62
     7
100
AcDbLine
 10
77.05576171874999
 20
95.87735188802083
 30
0.0
 11
113.8001166449653
 21
118.3371351453993
 31
0.0
  0
LWPOLYLINE
  5
DA
330
A
100
AcDbEntity
  8
LAYER_1
 62
     7
100
AcDbPolyline
 90
        7
 70
     0
 43
0.0
 10
32.40766872829861
 20
24.37146674262153
 10
32.21422661675347
 20
36.31681857638888
 10
27.03986545138889
 20
39.02500813802083
 10
37.05062391493055
 20
49.61609293619791
 10
31.97272542317708
 20
52.56612820095486
 10
32.06918809678819
 20
68.37997775607639
 10
65.82922905815971
 20
89.01523844401041
  0
SPLINE
  5
D9
330
A
100
AcDbEntity
  8
LAYER_1
 62
     7
100
AcDbSpline
210
0.0
220
0.0
230
1.0
 70
     8
 71
     3
 72
    11
 73
     7
 74
     0
 42
0.0000000001
 43
0.0000000001
 40
0.0
 40
0.0
 40
0.0
 40
0.0
 40
1.0
 40
1.0
 40
1.0
 40
2.0
 40
2.0
 40
2.0
 40
2.0
 10
32.21422661675347
 20
30.17473008897569
 30
0.0
 10
31.15038113064236
 20
31.52899712456597
 30
0.0
 10
31.00534261067708
 20
32.01251627604167
 30
0.0
 10
30.56988254123264
 20
33.70526394314236
 30
0.0
 10
30.13493923611111
 20
35.39801161024305
 30
0.0
 10
29.60301649305555
 20
37.04235568576389
 30
0.0
 10
29.69947916666666
 20
37.33226047092013
 30
0.0
  0
SPLINE
  5
D8
330
A
100
AcDbEntity
  8
LAYER_1
 62
     7
100
AcDbSpline
210
0.0
220
0.0
230
1.0
 70
     8
 71
     3
 72
    14
 73
    10
 74
     0
 42
0.0000000001
 43
0.0000000001
 40
0.0
 40
0.0
 40
0.0
 40
0.0
 40
1.0
 40
1.0
 40
1.0
 40
2.0
 40
2.0
 40
2.0
 40
3.0
 40
3.0
 40
3.0
 40
3.0
 10
27.81328938802083
 20
38.44450954861111
 30
0.0
 10
27.47480875651041
 20
36.51043294270833
 30
0.0
 10
27.57178819444444
 20
36.75176188151041
 30
0.0
 10
27.95884467230902
 20
35.30103217230902
 30
0.0
 10
28.3457288953993
 20
33.85013020833333
 30
0.0
 10
28.97411431206597
 20
31.96445719401041
 30
0.0
 10
29.31259494357639
 20
30.56161431206597
 30
0.0
 10
29.6510755750868
 20
29.15928819444444
 30
0.0
 10
30.42501627604166
 20
26.54773356119792
 30
0.0
 10
31.24736056857639
 20
25.2418701171875
 30
0.0
  0
SPLINE
  5
D7
330
A
100
AcDbEntity
  8
LAYER_1
 62
     7
100
AcDbSpline
210
0.0
220
0.0
230
1.0
 70
     8
 71
     3
 72
    17
 73
    13
 74
     0
 42
0.0000000001
 43
0.0000000001
 40
0.0
 40
0.0
 40
0.0
 40
0.0
 40
1.0
 40
1.0
 40
1.0
 40
2.0
 40
2.0
 40
2.0
 40
3.0
 40
3.0
 40
3.0
 40
4.0
 40
4.0
 40
4.0
 40
4.0
 10
35.74476047092013
 20
50.29288194444444
 30
0.0
 10
34.583935546875
 20
49.61609293619791
 30
0.0
 10
34.87435709635416
 20
49.56751708984375
 30
0.0
 10
33.8583984375
 20
48.3102294921875
 30
0.0
 10
32.84312879774306
 20
47.05294189453124
 30
0.0
 10
30.66686197916667
 20
45.74707845052083
 30
0.0
 10
30.66686197916667
 20
45.74707845052083
 30
0.0
 10
30.66686197916667
 20
45.74707845052083
 30
0.0
 10
30.27997775607639
 20
44.97313774956597
 30
0.0
 10
29.11915283203125
 20
44.05433078342013
 30
0.0
 10
27.95884467230902
 20
43.1353515625
 30
0.0
 10
25.73417426215278
 20
40.8627943250868
 30
0.0
 10
25.39569363064236
 20
40.18583306206597
 30
0.0
  0
SPLINE
  5
D6
330
A
100
AcDbEntity
  8
LAYER_1
 62
     7
100
AcDbSpline
210
0.0
220
0.0
230
1.0
 70
     8
 71
     3
 72
    26
 73
    22
 74
     0
 42
0.0000000001
 43
0.0000000001
 40
0.0
 40
0.0
 40
0.0
 40
0.0
 40
1.0
 40
1.0
 40
1.0
 40
2.0
 40
2.0
 40
2.0
 40
3.0
 40
3.0
 40
3.0
 40
4.0
 40
4.0
 40
4.0
 40
5.0
 40
5.0
 40
5.0
 40
6.0
 40
6.0
 40
6.0
 40
7.0
 40
7.0
 40
7.0
 40
7.0
 10
28.49076741536458
 20
26.83815511067708
 30
0.0
 10
27.76540256076389
 20
28.43392333984375
 30
0.0
 10
27.71682671440972
 20
29.15928819444444
 30
0.0
 10
27.32994249131944
 20
30.51372748480902
 30
0.0
 10
26.94288601345486
 20
31.86747775607639
 30
0.0
 10
25.78206108940972
 20
34.04374457465278
 30
0.0
 10
25.73417426215278
 20
35.10759006076388
 30
0.0
 10
25.68559841579861
 20
36.171435546875
 30
0.0
 10
25.10509982638889
 20
38.73458658854166
 30
0.0
 10
24.96023356119791
 20
39.50835503472222
 30
0.0
 10
24.81519504123264
 20
40.28229573567708
 30
0.0
 10
24.6217529296875
 20
40.42733425564236
 30
0.0
 10
24.91165771484375
 20
41.20127495659722
 30
0.0
 10
25.20225151909722
 20
41.97504340277777
 30
0.0
 10
26.50742594401041
 20
43.76425374348958
 30
0.0
 10
26.94288601345486
 20
44.53819444444444
 30
0.0
 10
27.3783460828993
 20
45.3121351453993
 30
0.0
 10
28.63563368055555
 20
46.95647922092014
 30
0.0
 10
29.07109375
 20
47.53628879123264
 30
0.0
 10
29.50603705512152
 20
48.11678738064236
 30
0.0
 10
32.50464816623263
 20
51.69572482638888
 30
0.0
 10
32.64968668619792
 20
51.98562961154514
 30
0.0
  0
SPLINE
  5
D5
330
A
100
AcDbEntity
  8
LAYER_1
 62
     7
100
AcDbSpline
210
0.0
220
0.0
230
1.0
 70
     8
 71
     3
 72
    20
 73
    16
 74
     0
 42
0.0000000001
 43
0.0000000001
 40
0.0
 40
0.0
 40
0.0
 40
0.0
 40
1.0
 40
1.0
 40
1.0
 40
2.0
 40
2.0
 40
2.0
 40
3.0
 40
3.0
 40
3.0
 40
4.0
 40
4.0
 40
4.0
 40
5.0
 40
5.0
 40
5.0
 40
5.0
 10
23.02598470052083
 20
41.20127495659722
 30
0.0
 10
22.9290052625868
 20
40.18583306206597
 30
0.0
 10
22.78396674262153
 20
40.08885362413194
 30
0.0
 10
23.12244737413194
 20
39.84735243055555
 30
0.0
 10
23.46092800564236
 20
39.60550672743055
 30
0.0
 10
23.8963880750868
 20
38.73458658854166
 30
0.0
 10
23.6543701171875
 20
37.23579779730903
 30
0.0
 10
23.41235215928819
 20
35.73649224175347
 30
0.0
 10
23.41235215928819
 20
35.34943576388888
 30
0.0
 10
23.94427490234375
 20
33.89870605468749
 30
0.0
 10
24.47671440972222
 20
32.44797634548611
 30
0.0
 10
24.52477349175347
 20
31.19051649305555
 30
0.0
 10
24.91165771484375
 20
30.416748046875
 30
0.0
 10
25.29871419270833
 20
29.64280734592014
 30
0.0
 10
25.20225151909722
 20
28.723828125
 30
0.0
 10
25.68559841579861
 20
28.38551974826389
 30
0.0
  0
SPLINE
  5
D4
330
A
100
AcDbEntity
  8
LAYER_1
 62
     7
100
AcDbSpline
210
0.0
220
0.0
230
1.0
 70
     8
 71
     3
 72
    14
 73
    10
 74
     0
 42
0.0000000001
 43
0.0000000001
 40
0.0
 40
0.0
 40
0.0
 40
0.0
 40
1.0
 40
1.0
 40
1.0
 40
2.0
 40
2.0
 40
2.0
 40
3.0
 40
3.0
 40
3.0
 40
3.0
 10
19.446875
 20
32.10949571397569
 30
0.0
 10
19.59191351996527
 20
33.07636176215277
 30
0.0
 10
19.78535563151042
 20
33.46324598524306
 30
0.0
 10
19.97879774305556
 20
34.09214816623263
 30
0.0
 10
20.172412109375
 20
34.72105034722222
 30
0.0
 10
20.31727837456597
 20
35.63951280381944
 30
0.0
 10
20.51072048611111
 20
36.21983913845486
 30
0.0
 10
20.70433485243055
 20
36.80033772786458
 30
0.0
 10
20.84920111762153
 20
37.86418321397569
 30
0.0
 10
21.38112386067708
 20
37.86418321397569
 30
0.0
  0
LINE
  5
D3
330
A
100
AcDbEntity
  8
LAYER_1
 62
     7
100
AcDbLine
 10
21.76818033854167
 20
41.92663981119792
 30
0.0
 11
21.81658393012152
 21
30.75505642361111
 31
0.0
  0
SPLINE
  5
D2
330
A
100
AcDbEntity
  8
LAYER_1
 62
     7
100
AcDbSpline
210
0.0
220
0.0
230
1.0
 70
     8
 71
     3
 72
    41
 73
    37
 74
     0
 42
0.0000000001
 43
0.0000000001
 40
0.0
 40
0.0
 40
0.0
 40
0.0
 40
1.0
 40
1.0
 40
1.0
 40
2.0
 40
2.0
 40
2.0
 40
3.0
 40
3.0
 40
3.0
 40
4.0
 40
4.0
 40
4.0
 40
5.0
 40
5.0
 40
5.0
 40
6.0
 40
6.0
 40
6.0
 40
7.0
 40
7.0
 40
7.0
 40
8.0
 40
8.0
 40
8.0
 40
9.0
 40
9.0
 40
9.0
 40
10.0
 40
10.0
 40
10.0
 40
11.0
 40
11.0
 40
11.0
 40
12.0
 40
12.0
 40
12.0
 40
12.0
 10
17.56068522135417
 20
33.31820746527777
 30
0.0
 10
18.23816324869792
 20
34.1407240125868
 30
0.0
 10
18.62453070746528
 20
35.78489583333333
 30
0.0
 10
18.86654866536458
 20
36.70387505425347
 30
0.0
 10
19.10856662326389
 20
37.6226820203993
 30
0.0
 10
19.34989556206597
 20
40.91068115234375
 30
0.0
 10
19.54402669270833
 20
41.44312065972222
 30
0.0
 10
19.73746880425347
 20
41.97504340277777
 30
0.0
 10
19.83393147786458
 20
43.1353515625
 30
0.0
 10
19.83393147786458
 20
43.1353515625
 30
0.0
 10
19.83393147786458
 20
43.1353515625
 30
0.0
 10
19.54402669270833
 20
43.3773695203993
 30
0.0
 10
19.73746880425347
 20
43.90929226345486
 30
0.0
 10
19.93039415147569
 20
44.44121500651041
 30
0.0
 10
20.12383626302083
 20
45.60203993055555
 30
0.0
 10
20.46231689453125
 20
45.8919447157118
 30
0.0
 10
20.80131429036458
 20
46.18253851996527
 30
0.0
 10
22.39708251953125
 20
48.01963568793402
 30
0.0
 10
22.78396674262153
 20
48.45509575737847
 30
0.0
 10
23.17102322048611
 20
48.89055582682291
 30
0.0
 10
26.55600179036458
 20
52.61470404730903
 30
0.0
 10
26.894482421875
 20
52.80762939453125
 30
0.0
 10
27.23279079861111
 20
53.00107150607639
 30
0.0
 10
28.00673149956597
 20
53.77501220703125
 30
0.0
 10
28.58723008897569
 20
54.59735649956597
 30
0.0
 10
28.1037109375
 20
55.66120198567708
 30
0.0
 10
28.44219156901042
 20
55.90270317925346
 30
0.0
 10
28.49076741536458
 20
57.54739176432291
 30
0.0
 10
28.53865424262153
 20
59.19121907552083
 30
0.0
 10
29.31259494357639
 20
61.2708509657118
 30
0.0
 10
29.50603705512152
 20
62.18983018663194
 30
0.0
 10
29.69947916666666
 20
63.10863715277777
 30
0.0
 10
29.94149712456597
 20
64.22105848524305
 30
0.0
 10
30.42501627604166
 20
65.04288601345486
 30
0.0
 10
30.90887993706597
 20
65.86523030598958
 30
0.0
 10
31.39239908854166
 20
66.49361572265624
 30
0.0
 10
31.77928331163194
 20
66.54219156901041
 30
0.0
  0
SPLINE
  5
D1
330
A
100
AcDbEntity
  8
LAYER_1
 62
     7
100
AcDbSpline
210
0.0
220
0.0
230
1.0
 70
     8
 71
     3
 72
    14
 73
    10
 74
     0
 42
0.0000000001
 43
0.0000000001
 40
0.0
 40
0.0
 40
0.0
 40
0.0
 40
1.0
 40
1.0
 40
1.0
 40
2.0
 40
2.0
 40
2.0
 40
3.0
 40
3.0
 40
3.0
 40
3.0
 10
14.9975341796875
 20
34.72105034722222
 30
0.0
 10
15.57803276909722
 20
36.02639702690972
 30
0.0
 10
15.81987847222222
 20
36.02639702690972
 30
0.0
 10
16.2069349500868
 20
37.28368462456597
 30
0.0
 10
16.59330240885416
 20
38.54166124131944
 30
0.0
 10
16.59330240885416
 20
39.41189236111111
 30
0.0
 10
16.7867445203993
 20
40.37927517361111
 30
0.0
 10
16.98087565104166
 20
41.34614122178819
 30
0.0
 10
17.89916585286458
 20
43.95786810980903
 30
0.0
 10
18.18958740234375
 20
44.00627170138888
 30
0.0
  0
SPLINE
  5
D0
330
A
100
AcDbEntity
  8
LAYER_1
 62
     7
100
AcDbSpline
210
0.0
220
0.0
230
1.0
 70
     8
 71
     3
 72
    14
 73
    10
 74
     0
 42
0.0000000001
 43
0.0000000001
 40
0.0
 40
0.0
 40
0.0
 40
0.0
 40
1.0
 40
1.0
 40
1.0
 40
2.0
 40
2.0
 40
2.0
 40
3.0
 40
3.0
 40
3.0
 40
3.0
 10
11.95103624131944
 20
36.51043294270833
 30
0.0
 10
12.62782524956597
 20
37.33226047092013
 30
0.0
 10
12.96630588107639
 20
36.8973171657986
 30
0.0
 10
13.40176595052083
 20
38.00904947916666
 30
0.0
 10
13.83670925564236
 20
39.12147081163194
 30
0.0
 10
13.69167073567708
 20
40.37927517361111
 30
0.0
 10
14.12713080512153
 20
41.44312065972222
 30
0.0
 10
14.56259087456597
 20
42.50696614583333
 30
0.0
 10
15.04611002604167
 20
44.48979085286458
 30
0.0
 10
15.57803276909722
 20
44.97313774956597
 30
0.0
  0
LINE
  5
CF
330
A
100
AcDbEntity
  8
LAYER_1
 62
     7
100
AcDbLine
 10
26.50742594401041
 20
55.61262613932291
 30
0.0
 11
15.9649169921875
 21
45.50506049262152
 31
0.0
  0
SPLINE
  5
CE
330
A
100
AcDbEntity
  8
LAYER_1
 62
     7
100
AcDbSpline
210
0.0
220
0.0
230
1.0
 70
     8
 71
     3
 72
    20
 73
    16
 74
     0
 42
0.0000000001
 43
0.0000000001
 40
0.0
 40
0.0
 40
0.0
 40
0.0
 40
1.0
 40
1.0
 40
1.0
 40
2.0
 40
2.0
 40
2.0
 40
3.0
 40
3.0
 40
3.0
 40
4.0
 40
4.0
 40
4.0
 40
5.0
 40
5.0
 40
5.0
 40
5.0
 10
14.90107150607639
 20
46.03749999999999
 30
0.0
 10
15.14257269965278
 20
46.42386745876735
 30
0.0
 10
15.52945692274306
 20
47.43982611762152
 30
0.0
 10
16.10995551215278
 20
47.92317301432291
 30
0.0
 10
16.69028184678819
 20
48.40720893012152
 30
0.0
 10
16.2069349500868
 20
48.84215223524305
 30
0.0
 10
17.36724310980903
 20
49.22903645833333
 30
0.0
 10
18.52806803385417
 20
49.61609293619791
 30
0.0
 10
19.39847140842014
 20
51.35672743055555
 30
0.0
 10
20.07594943576389
 20
51.93722601996527
 30
0.0
 10
20.75273844401042
 20
52.51755235460069
 30
0.0
 10
22.6869873046875
 20
53.87199164496527
 30
0.0
 10
22.97740885416667
 20
54.06543375651041
 30
0.0
 10
23.26748589409722
 20
54.25887586805555
 30
0.0
 10
24.6217529296875
 20
56.19312472873263
 30
0.0
 10
24.86325412326389
 20
56.43514268663194
 30
0.0
  0
SPLINE
  5
CD
330
A
100
AcDbEntity
  8
LAYER_1
 62
     7
100
AcDbSpline
210
0.0
220
0.0
230
1.0
 70
     8
 71
     3
 72
    11
 73
     7
 74
     0
 42
0.0000000001
 43
0.0000000001
 40
0.0
 40
0.0
 40
0.0
 40
0.0
 40
1.0
 40
1.0
 40
1.0
 40
2.0
 40
2.0
 40
2.0
 40
2.0
 10
11.37053765190972
 20
41.15269911024305
 30
0.0
 10
12.09590250651042
 20
41.97504340277777
 30
0.0
 10
12.53136257595486
 20
43.81282958984374
 30
0.0
 10
12.67640109592014
 20
44.15131022135417
 30
0.0
 10
12.82126736111111
 20
44.48979085286458
 30
0.0
 10
12.91841905381944
 20
46.71446126302083
 30
0.0
 10
13.06328531901042
 20
47.05294189453124
 30
0.0
  0
SPLINE
  5
CC
330
A
100
AcDbEntity
  8
LAYER_1
 62
     7
100
AcDbSpline
210
0.0
220
0.0
230
1.0
 70
     8
 71
     3
 72
    17
 73
    13
 74
     0
 42
0.0000000001
 43
0.0000000001
 40
0.0
 40
0.0
 40
0.0
 40
0.0
 40
1.0
 40
1.0
 40
1.0
 40
2.0
 40
2.0
 40
2.0
 40
3.0
 40
3.0
 40
3.0
 40
4.0
 40
4.0
 40
4.0
 40
4.0
 10
22.9290052625868
 20
57.74031711154513
 30
0.0
 10
22.10648871527778
 20
56.96706542968749
 30
0.0
 10
22.10648871527778
 20
56.91848958333333
 30
0.0
 10
21.33323703342014
 20
56.0961452907986
 30
0.0
 10
20.55929633246528
 20
55.2743177625868
 30
0.0
 10
19.34989556206597
 20
53.72643636067708
 30
0.0
 10
18.77008599175347
 20
53.29149305555555
 30
0.0
 10
18.18958740234375
 20
52.8560329861111
 30
0.0
 10
16.35180121527778
 20
50.19641927083333
 30
0.0
 10
15.67501220703125
 20
49.85793863932291
 30
0.0
 10
14.9975341796875
 20
49.51894124348958
 30
0.0
 10
12.91841905381944
 20
48.40720893012152
 30
0.0
 10
12.7248046875
 20
47.48771294487847
 30
0.0
  0
SPLINE
  5
CB
330
A
100
AcDbEntity
  8
LAYER_1
 62
     7
100
AcDbSpline
210
0.0
220
0.0
230
1.0
 70
     8
 71
     3
 72
    17
 73
    13
 74
     0
 42
0.0000000001
 43
0.0000000001
 40
0.0
 40
0.0
 40
0.0
 40
0.0
 40
1.0
 40
1.0
 40
1.0
 40
2.0
 40
2.0
 40
2.0
 40
3.0
 40
3.0
 40
3.0
 40
4.0
 40
4.0
 40
4.0
 40
4.0
 10
10.7900390625
 20
48.60013427734375
 30
0.0
 10
12.33792046440972
 20
49.22903645833333
 30
0.0
 10
13.06328531901042
 20
50.58347574869791
 30
0.0
 10
13.69167073567708
 20
51.30884060329861
 30
0.0
 10
14.32057291666667
 20
52.0342054578993
 30
0.0
 10
16.2069349500868
 20
54.45180121527778
 30
0.0
 10
16.59330240885416
 20
55.17716606987847
 30
0.0
 10
16.98087565104166
 20
55.90270317925346
 30
0.0
 10
17.51279839409722
 20
57.01495225694444
 30
0.0
 10
18.18958740234375
 20
58.03091091579861
 30
0.0
 10
18.86654866536458
 20
59.04618055555555
 30
0.0
 10
19.05999077690972
 20
59.5781032986111
 30
0.0
 10
19.34989556206597
 20
59.7236585828993
 30
0.0
  0
LINE
  5
CA
330
A
100
AcDbEntity
  8
LAYER_1
 62
     7
100
AcDbLine
 10
11.32196180555556
 20
48.11678738064236
 30
0.0
 11
27.03986545138889
 21
39.02500813802083
 31
0.0
  0
SPLINE
  5
C9
330
A
100
AcDbEntity
  8
LAYER_1
 62
     7
100
AcDbSpline
210
0.0
220
0.0
230
1.0
 70
     8
 71
     3
 72
    20
 73
    16
 74
     0
 42
0.0000000001
 43
0.0000000001
 40
0.0
 40
0.0
 40
0.0
 40
0.0
 40
1.0
 40
1.0
 40
1.0
 40
2.0
 40
2.0
 40
2.0
 40
3.0
 40
3.0
 40
3.0
 40
4.0
 40
4.0
 40
4.0
 40
5.0
 40
5.0
 40
5.0
 40
5.0
 10
17.27078043619791
 20
61.07740885416666
 30
0.0
 10
17.07733832465278
 20
60.59406195746527
 30
0.0
 10
17.22220458984375
 20
60.15860188802083
 30
0.0
 10
16.7867445203993
 20
59.7236585828993
 30
0.0
 10
16.35180121527778
 20
59.28819851345486
 30
0.0
 10
16.25482177734375
 20
57.88587239583333
 30
0.0
 10
15.14257269965278
 20
57.35394965277777
 30
0.0
 10
14.0301513671875
 20
56.82202690972222
 30
0.0
 10
13.88511284722222
 20
56.48302951388889
 30
0.0
 10
12.91841905381944
 20
55.70908881293402
 30
0.0
 10
11.95103624131944
 20
54.93583713107638
 30
0.0
 10
12.62782524956597
 20
54.5487806532118
 30
0.0
 10
11.757421875
 20
54.01685791015625
 30
0.0
 10
10.88719075520833
 20
53.48493516710069
 30
0.0
 10
8.758810763888889
 20
51.26026475694444
 30
0.0
 10
8.517481825086804
 20
50.53489990234375
 30
0.0
  0
SPLINE
  5
C8
330
A
100
AcDbEntity
  8
LAYER_1
 62
     7
100
AcDbSpline
210
0.0
220
0.0
230
1.0
 70
     8
 71
     3
 72
    29
 73
    25
 74
     0
 42
0.0000000001
 43
0.0000000001
 40
0.0
 40
0.0
 40
0.0
 40
0.0
 40
1.0
 40
1.0
 40
1.0
 40
2.0
 40
2.0
 40
2.0
 40
3.0
 40
3.0
 40
3.0
 40
4.0
 40
4.0
 40
4.0
 40
5.0
 40
5.0
 40
5.0
 40
6.0
 40
6.0
 40
6.0
 40
7.0
 40
7.0
 40
7.0
 40
8.0
 40
8.0
 40
8.0
 40
8.0
 10
31.87574598524305
 20
60.64246554904513
 30
0.0
 10
30.86047634548611
 20
60.06213921440972
 30
0.0
 10
31.05391845703125
 20
59.91710069444444
 30
0.0
 10
30.71543782552083
 20
58.61123725043402
 30
0.0
 10
30.3764404296875
 20
57.30554606119791
 30
0.0
 10
30.66686197916667
 20
56.28958740234374
 30
0.0
 10
30.66686197916667
 20
55.61262613932291
 30
0.0
 10
30.66686197916667
 20
54.93583713107638
 30
0.0
 10
30.95693901909722
 20
53.77501220703125
 30
0.0
 10
30.47341986762153
 20
53.48493516710069
 30
0.0
 10
29.98955620659722
 20
53.19451361762152
 30
0.0
 10
30.3764404296875
 20
52.7595703125
 30
0.0
 10
30.08653564453125
 20
52.56612820095486
 30
0.0
 10
29.796630859375
 20
52.37268608940972
 30
0.0
 10
27.861865234375
 20
50.58347574869791
 30
0.0
 10
27.18490397135416
 20
49.90599772135416
 30
0.0
 10
26.50742594401041
 20
49.22903645833333
 30
0.0
 10
26.94288601345486
 20
48.69711371527777
 30
0.0
 10
25.97550320095486
 20
48.01963568793402
 30
0.0
 10
25.00863715277778
 20
47.3428466796875
 30
0.0
 10
23.41235215928819
 20
45.36002197265625
 30
0.0
 10
22.97740885416667
 20
44.44121500651041
 30
0.0
 10
22.54194878472222
 20
43.52240804036458
 30
0.0
 10
22.39708251953125
 20
42.4099867078993
 30
0.0
 10
21.81658393012152
 20
41.97504340277777
 30
0.0
  0
SPLINE
  5
C7
330
A
100
AcDbEntity
  8
LAYER_1
 62
     7
100
AcDbSpline
210
0.0
220
0.0
230
1.0
 70
     8
 71
     3
 72
    17
 73
    13
 74
     0
 42
0.0000000001
 43
0.0000000001
 40
0.0
 40
0.0
 40
0.0
 40
0.0
 40
1.0
 40
1.0
 40
1.0
 40
2.0
 40
2.0
 40
2.0
 40
3.0
 40
3.0
 40
3.0
 40
4.0
 40
4.0
 40
4.0
 40
4.0
 10
30.47341986762153
 20
69.05676676432292
 30
0.0
 10
29.11915283203125
 20
68.28351508246527
 30
0.0
 10
30.08653564453125
 20
68.47695719401041
 30
0.0
 10
29.02269015842014
 20
66.92907579210069
 30
0.0
 10
27.95884467230902
 20
65.38136664496527
 30
0.0
 10
26.79801974826389
 20
64.46307644314236
 30
0.0
 10
26.65298122829861
 20
62.62529025607638
 30
0.0
 10
26.50742594401041
 20
60.78750406901041
 30
0.0
 10
26.60440538194444
 20
60.15860188802083
 30
0.0
 10
26.31450059678819
 20
58.85273844401041
 30
0.0
 10
26.02407904730903
 20
57.54739176432291
 30
0.0
 10
26.60440538194444
 20
56.38656684027777
 30
0.0
 10
25.97550320095486
 20
56.0961452907986
 30
0.0
  0
SPLINE
  5
C6
330
A
100
AcDbEntity
  8
LAYER_1
 62
     7
100
AcDbSpline
210
0.0
220
0.0
230
1.0
 70
     8
 71
     3
 72
    17
 73
    13
 74
     0
 42
0.0000000001
 43
0.0000000001
 40
0.0
 40
0.0
 40
0.0
 40
0.0
 40
1.0
 40
1.0
 40
1.0
 40
2.0
 40
2.0
 40
2.0
 40
3.0
 40
3.0
 40
3.0
 40
4.0
 40
4.0
 40
4.0
 40
4.0
 10
23.6543701171875
 20
57.45041232638889
 30
0.0
 10
23.99285074869792
 20
59.481640625
 30
0.0
 10
23.94427490234375
 20
60.35204399956596
 30
0.0
 10
24.42831081814236
 20
61.56092800564235
 30
0.0
 10
24.91165771484375
 20
62.77015652126735
 30
0.0
 10
24.57317708333333
 20
63.25367567274305
 30
0.0
 10
24.66963975694444
 20
64.55953911675347
 30
0.0
 10
24.76679144965278
 20
65.86523030598958
 30
0.0
 10
25.68559841579861
 20
68.13847656249999
 30
0.0
 10
26.1689453125
 20
68.91190049913193
 30
0.0
 10
26.65298122829861
 20
69.6858412000868
 30
0.0
 10
26.74944390190972
 20
70.7496866861979
 30
0.0
 10
27.18490397135416
 20
70.84666612413194
 30
0.0
  0
SPLINE
  5
C5
330
A
100
AcDbEntity
  8
LAYER_1
 62
     7
100
AcDbSpline
210
0.0
220
0.0
230
1.0
 70
     8
 71
     3
 72
    14
 73
    10
 74
     0
 42
0.0000000001
 43
0.0000000001
 40
0.0
 40
0.0
 40
0.0
 40
0.0
 40
1.0
 40
1.0
 40
1.0
 40
2.0
 40
2.0
 40
2.0
 40
3.0
 40
3.0
 40
3.0
 40
3.0
 10
24.71821560329861
 20
72.34545491536457
 30
0.0
 10
23.70294596354167
 20
71.23355034722222
 30
0.0
 10
23.79940863715278
 20
71.13657090928818
 30
0.0
 10
23.46092800564236
 20
69.54080268012152
 30
0.0
 10
23.12244737413194
 20
67.94451768663194
 30
0.0
 10
23.46092800564236
 20
66.83261311848958
 30
0.0
 10
23.02598470052083
 20
65.81682671440971
 30
0.0
 10
22.59052463107639
 20
64.80138481987846
 30
0.0
 10
22.20364040798611
 20
62.77015652126735
 30
0.0
 10
22.01002604166667
 20
61.70631103515625
 30
0.0
  0
SPLINE
  5
C4
330
A
100
AcDbEntity
  8
LAYER_1
 62
     7
100
AcDbSpline
210
0.0
220
0.0
230
1.0
 70
     8
 71
     3
 72
    17
 73
    13
 74
     0
 42
0.0000000001
 43
0.0000000001
 40
0.0
 40
0.0
 40
0.0
 40
0.0
 40
1.0
 40
1.0
 40
1.0
 40
2.0
 40
2.0
 40
2.0
 40
3.0
 40
3.0
 40
3.0
 40
4.0
 40
4.0
 40
4.0
 40
4.0
 10
18.14118381076389
 20
75.87598876953125
 30
0.0
 10
17.80270317925347
 20
74.42508680555555
 30
0.0
 10
18.38302951388889
 20
74.90860595703124
 30
0.0
 10
18.57664388020833
 20
73.60274251302083
 30
0.0
 10
18.77008599175347
 20
72.29739583333333
 30
0.0
 10
19.49545084635416
 20
69.05676676432292
 30
0.0
 10
19.83393147786458
 20
68.33140190972222
 30
0.0
 10
20.172412109375
 20
67.60603705512152
 30
0.0
 10
20.75273844401042
 20
67.5095743815104
 30
0.0
 10
20.99475640190972
 20
66.10724826388888
 30
0.0
 10
21.23625759548611
 20
64.70440538194444
 30
0.0
 10
21.62314181857639
 20
62.7217529296875
 30
0.0
 10
21.57456597222222
 20
61.75437011718749
 30
0.0
  0
SPLINE
  5
C3
330
A
100
AcDbEntity
  8
LAYER_1
 62
     7
100
AcDbSpline
210
0.0
220
0.0
230
1.0
 70
     8
 71
     3
 72
    20
 73
    16
 74
     0
 42
0.0000000001
 43
0.0000000001
 40
0.0
 40
0.0
 40
0.0
 40
0.0
 40
1.0
 40
1.0
 40
1.0
 40
2.0
 40
2.0
 40
2.0
 40
3.0
 40
3.0
 40
3.0
 40
4.0
 40
4.0
 40
4.0
 40
5.0
 40
5.0
 40
5.0
 40
5.0
 10
14.07872721354167
 20
78.3426771375868
 30
0.0
 10
13.74024658203125
 20
76.40791151258679
 30
0.0
 10
14.22411024305555
 20
77.66519911024305
 30
0.0
 10
14.61064995659722
 20
75.6823744032118
 30
0.0
 10
14.9975341796875
 20
73.69972195095485
 30
0.0
 10
15.77147488064236
 20
72.97435709635415
 30
0.0
 10
16.35180121527778
 20
71.42647569444443
 30
0.0
 10
16.9322998046875
 20
69.87928331163194
 30
0.0
 10
17.70572374131944
 20
68.91190049913193
 30
0.0
 10
17.41564670138889
 20
67.75159233940971
 30
0.0
 10
17.12574191623264
 20
66.59076741536458
 30
0.0
 10
17.36724310980903
 20
65.91380615234374
 30
0.0
 10
17.89916585286458
 20
64.89784749348958
 30
0.0
 10
18.43160536024305
 20
63.88257785373263
 30
0.0
 10
17.85110677083333
 20
61.75437011718749
 30
0.0
 10
17.80270317925347
 20
61.12598470052082
 30
0.0
  0
SPLINE
  5
C2
330
A
100
AcDbEntity
  8
LAYER_1
 62
     7
100
AcDbSpline
210
0.0
220
0.0
230
1.0
 70
     8
 71
     3
 72
    17
 73
    13
 74
     0
 42
0.0000000001
 43
0.0000000001
 40
0.0
 40
0.0
 40
0.0
 40
0.0
 40
1.0
 40
1.0
 40
1.0
 40
2.0
 40
2.0
 40
2.0
 40
3.0
 40
3.0
 40
3.0
 40
4.0
 40
4.0
 40
4.0
 40
4.0
 10
15.52945692274306
 20
62.2382337782118
 30
0.0
 10
15.67501220703125
 20
63.54409722222221
 30
0.0
 10
15.38441840277778
 20
64.94642333984375
 30
0.0
 10
15.28795572916667
 20
66.10724826388888
 30
0.0
 10
15.19097629123264
 20
67.26755642361111
 30
0.0
 10
14.94964735243056
 20
67.89645860460068
 30
0.0
 10
14.32057291666667
 20
69.25038113064235
 30
0.0
 10
13.69167073567708
 20
70.60464816623264
 30
0.0
 10
13.450341796875
 20
71.42647569444443
 30
0.0
 10
13.25672743055555
 20
72.68445231119792
 30
0.0
 10
13.06328531901042
 20
73.94173990885416
 30
0.0
 10
11.66095920138889
 20
76.50489095052083
 30
0.0
 10
11.27355821397569
 20
76.84337158203124
 30
0.0
  0
SPLINE
  5
C1
330
A
100
AcDbEntity
  8
LAYER_1
 62
     7
100
AcDbSpline
210
0.0
220
0.0
230
1.0
 70
     8
 71
     3
 72
    14
 73
    10
 74
     0
 42
0.0000000001
 43
0.0000000001
 40
0.0
 40
0.0
 40
0.0
 40
0.0
 40
1.0
 40
1.0
 40
1.0
 40
2.0
 40
2.0
 40
2.0
 40
3.0
 40
3.0
 40
3.0
 40
3.0
 10
11.12851969401042
 20
72.49083794487846
 30
0.0
 10
11.9994398328993
 20
71.61991780598957
 30
0.0
 10
12.24094102647569
 20
70.99153238932291
 30
0.0
 10
12.24094102647569
 20
70.36263020833333
 30
0.0
 10
12.24094102647569
 20
69.73424479166665
 30
0.0
 10
12.82126736111111
 20
68.28351508246527
 30
0.0
 10
12.86984320746528
 20
67.60603705512152
 30
0.0
 10
12.91841905381944
 20
66.92907579210069
 30
0.0
 10
13.20832383897569
 20
64.22105848524305
 30
0.0
 10
13.01488172743055
 20
63.97904052734374
 30
0.0
  0
LINE
  5
C0
330
A
100
AcDbEntity
  8
LAYER_1
 62
     7
100
AcDbLine
 10
16.44826388888889
 20
61.75437011718749
 30
0.0
 11
31.87574598524305
 21
52.56612820095486
 31
0.0
  0
LINE
  5
BF
330
A
100
AcDbEntity
  8
LAYER_1
 62
     7
100
AcDbLine
 10
11.32196180555556
 20
79.84129367404513
 30
0.0
 11
32.02078450520833
 21
68.33140190972222
 31
0.0
  0
LINE
  5
BE
330
A
100
AcDbEntity
  8
LAYER_1
 62
     7
100
AcDbLine
 10
94.5589138454861
 20
58.05072021484374
 30
0.0
 11
101.6132636176215
 21
62.33469645182291
 31
0.0
  0
LINE
  5
BD
330
A
100
AcDbEntity
  8
LAYER_1
 62
     7
100
AcDbLine
 10
100.0653822157118
 20
45.36002197265625
 30
0.0
 11
105.820758734809
 21
48.79357638888889
 31
0.0
  0
LWPOLYLINE
  5
B5
330
A
100
AcDbEntity
  8
LAYER_1
 62
     7
100
AcDbPolyline
 90
        6
 70
     0
 43
0.0
 10
94.60077175564236
 20
72.92578125
 10
94.60077175564236
 20
58.07931450737847
 10
90.24841037326388
 20
55.66120198567708
 10
100.0653822157118
 20
45.36002197265625
 10
94.74563802083333
 20
41.97504340277777
 10
95.0362318250868
 20
30.22313368055555
  0
SPLINE
  5
B4
330
A
100
AcDbEntity
  8
LAYER_1
 62
     7
100
AcDbSpline
210
0.0
220
0.0
230
1.0
 70
     8
 71
     3
 72
    11
 73
     7
 74
     0
 42
0.0000000001
 43
0.0000000001
 40
0.0
 40
0.0
 40
0.0
 40
0.0
 40
1.0
 40
1.0
 40
1.0
 40
2.0
 40
2.0
 40
2.0
 40
2.0
 10
103.2090318467882
 20
77.95562065972221
 30
0.0
 10
103.6444919162326
 20
76.60135362413193
 30
0.0
 10
104.0794352213542
 20
75.73095024956596
 30
0.0
 10
104.5148952907986
 20
75.24760335286457
 30
0.0
 10
104.9503553602431
 20
74.76356743706596
 30
0.0
 10
105.3852986653646
 20
73.79618462456597
 30
0.0
 10
105.5787407769097
 20
73.16779920789929
 30
0.0
  0
SPLINE
  5
B3
330
A
100
AcDbEntity
  8
LAYER_1
 62
     7
100
AcDbSpline
210
0.0
220
0.0
230
1.0
 70
     8
 71
     3
 72
    14
 73
    10
 74
     0
 42
0.0000000001
 43
0.0000000001
 40
0.0
 40
0.0
 40
0.0
 40
0.0
 40
1.0
 40
1.0
 40
1.0
 40
2.0
 40
2.0
 40
2.0
 40
3.0
 40
3.0
 40
3.0
 40
3.0
 10
104.1764146592882
 20
64.17248263888888
 30
0.0
 10
104.2728773328993
 20
65.18844129774305
 30
0.0
 10
103.6923787434896
 20
66.83261311848958
 30
0.0
 10
103.7409545898437
 20
68.04149712456596
 30
0.0
 10
103.7895304361979
 20
69.25038113064235
 30
0.0
 10
102.8221476236979
 20
72.92578125
 30
0.0
 10
102.8221476236979
 20
73.21637505425346
 30
0.0
 10
102.8221476236979
 20
73.50627983940971
 30
0.0
 10
102.1451863606771
 20
76.21429714626736
 30
0.0
 10
100.8393229166667
 20
76.45631510416666
 30
0.0
  0
SPLINE
  5
B2
330
A
100
AcDbEntity
  8
LAYER_1
 62
     7
100
AcDbSpline
210
0.0
220
0.0
230
1.0
 70
     8
 71
     3
 72
    17
 73
    13
 74
     0
 42
0.0000000001
 43
0.0000000001
 40
0.0
 40
0.0
 40
0.0
 40
0.0
 40
1.0
 40
1.0
 40
1.0
 40
2.0
 40
2.0
 40
2.0
 40
3.0
 40
3.0
 40
3.0
 40
4.0
 40
4.0
 40
4.0
 40
4.0
 10
97.27847222222222
 20
74.25972222222221
 30
0.0
 10
97.90737440321179
 20
73.38880208333333
 30
0.0
 10
98.95313313802083
 20
72.78091498480902
 30
0.0
 10
99.29213053385416
 20
71.76547309027777
 30
0.0
 10
99.63061116536457
 20
70.7496866861979
 30
0.0
 10
100.5008422851562
 20
70.02414957682291
 30
0.0
 10
100.6458808051215
 20
69.05676676432292
 30
0.0
 10
100.7909193250868
 20
68.09007297092013
 30
0.0
 10
101.3712456597222
 20
67.12269015842013
 30
0.0
 10
101.7097262912326
 20
66.49361572265624
 30
0.0
 10
102.0482069227431
 20
65.86523030598958
 30
0.0
 10
102.5320705837674
 20
63.15721299913194
 30
0.0
 10
102.2416490342882
 20
62.86661919487847
 30
0.0
  0
SPLINE
  5
B1
330
A
100
AcDbEntity
  8
LAYER_1
 62
     7
100
AcDbSpline
210
0.0
220
0.0
230
1.0
 70
     8
 71
     3
 72
    29
 73
    25
 74
     0
 42
0.0000000001
 43
0.0000000001
 40
0.0
 40
0.0
 40
0.0
 40
0.0
 40
1.0
 40
1.0
 40
1.0
 40
2.0
 40
2.0
 40
2.0
 40
3.0
 40
3.0
 40
3.0
 40
4.0
 40
4.0
 40
4.0
 40
5.0
 40
5.0
 40
5.0
 40
6.0
 40
6.0
 40
6.0
 40
7.0
 40
7.0
 40
7.0
 40
8.0
 40
8.0
 40
8.0
 40
8.0
 10
108.9158325195312
 20
50.97035997178819
 30
0.0
 10
108.4323133680556
 20
52.17924397786458
 30
0.0
 10
108.1902954101562
 20
52.7595703125
 30
0.0
 10
107.6583726671007
 20
53.3395521375868
 30
0.0
 10
107.1264499240451
 20
53.91987847222222
 30
0.0
 10
106.836028374566
 20
54.88726128472221
 30
0.0
 10
106.2555297851562
 20
55.2743177625868
 30
0.0
 10
105.6757202148437
 20
55.66120198567708
 30
0.0
 10
104.9982421875
 20
56.53160536024305
 30
0.0
 10
103.9343967013889
 20
57.16050754123263
 30
0.0
 10
102.8705512152778
 20
57.7888929578993
 30
0.0
 10
101.4198215060764
 20
58.56283365885416
 30
0.0
 10
101.3712456597222
 20
58.99829372829861
 30
0.0
 10
101.3228420681424
 20
59.43323703342013
 30
0.0
 10
99.67849799262152
 20
60.73892822265624
 30
0.0
 10
99.77547743055554
 20
61.12598470052082
 30
0.0
 10
99.87194010416665
 20
61.51286892361111
 30
0.0
 10
99.29213053385416
 20
62.77015652126735
 30
0.0
 10
99.48505588107638
 20
63.35065511067707
 30
0.0
 10
99.67849799262152
 20
63.9311537000868
 30
0.0
 10
99.24355468749999
 20
66.39715304904513
 30
0.0
 10
98.75969102647568
 20
66.97765163845486
 30
0.0
 10
98.27617187499999
 20
67.55815022786457
 30
0.0
 10
95.76159667968749
 20
71.9589152018229
 30
0.0
 10
94.79421386718749
 20
71.86193576388888
 30
0.0
  0
SPLINE
  5
B0
330
A
100
AcDbEntity
  8
LAYER_1
 62
     7
100
AcDbSpline
210
0.0
220
0.0
230
1.0
 70
     8
 71
     3
 72
    26
 73
    22
 74
     0
 42
0.0000000001
 43
0.0000000001
 40
0.0
 40
0.0
 40
0.0
 40
0.0
 40
1.0
 40
1.0
 40
1.0
 40
2.0
 40
2.0
 40
2.0
 40
3.0
 40
3.0
 40
3.0
 40
4.0
 40
4.0
 40
4.0
 40
5.0
 40
5.0
 40
5.0
 40
6.0
 40
6.0
 40
6.0
 40
7.0
 40
7.0
 40
7.0
 40
7.0
 10
107.0780463324653
 20
49.61609293619791
 30
0.0
 10
106.5945271809896
 20
51.0668226453993
 30
0.0
 10
105.2888359917535
 20
52.71116672092013
 30
0.0
 10
104.4663194444444
 20
53.38795572916666
 30
0.0
 10
103.6444919162326
 20
54.06543375651041
 30
0.0
 10
102.5320705837674
 20
55.5161634657118
 30
0.0
 10
101.3228420681424
 20
56.28958740234374
 30
0.0
 10
100.113958062066
 20
57.06352810329861
 30
0.0
 10
97.55080702039929
 20
58.99829372829861
 30
0.0
 10
96.82544216579861
 20
59.23962266710069
 30
0.0
 10
96.87384575737846
 20
59.23962266710069
 30
0.0
 10
96.24494357638888
 20
59.43323703342013
 30
0.0
 10
96.24494357638888
 20
59.43323703342013
 30
0.0
 10
96.24494357638888
 20
59.43323703342013
 30
0.0
 10
95.8580593532986
 20
59.77154541015624
 30
0.0
 10
96.10007731119791
 20
60.83539089626736
 30
0.0
 10
96.3419230143229
 20
61.89992540147569
 30
0.0
 10
96.5834242078993
 20
63.64055989583333
 30
0.0
 10
96.5834242078993
 20
64.36592475043402
 30
0.0
 10
96.5834242078993
 20
65.09146185980902
 30
0.0
 10
95.90646294487847
 20
67.84805501302083
 30
0.0
 10
94.74563802083333
 20
68.13847656249999
 30
0.0
  0
SPLINE
  5
AF
330
A
100
AcDbEntity
  8
LAYER_1
 62
     7
100
AcDbSpline
210
0.0
220
0.0
230
1.0
 70
     8
 71
     3
 72
    14
 73
    10
 74
     0
 42
0.0000000001
 43
0.0000000001
 40
0.0
 40
0.0
 40
0.0
 40
0.0
 40
1.0
 40
1.0
 40
1.0
 40
2.0
 40
2.0
 40
2.0
 40
3.0
 40
3.0
 40
3.0
 40
3.0
 10
94.26229112413193
 20
57.93393147786458
 30
0.0
 10
95.66461724175346
 20
57.49898817274305
 30
0.0
 10
96.97030843098958
 20
55.80624050564236
 30
0.0
 10
97.69584554036457
 20
55.17716606987847
 30
0.0
 10
98.42121039496527
 20
54.5487806532118
 30
0.0
 10
100.2104207356771
 20
52.37268608940972
 30
0.0
 10
101.3712456597222
 20
52.13066813151041
 30
0.0
 10
102.5320705837674
 20
51.8886501736111
 30
0.0
 10
104.853375922309
 20
49.13257378472222
 30
0.0
 10
104.6597615559896
 20
48.21376681857638
 30
0.0
  0
SPLINE
  5
AE
330
A
100
AcDbEntity
  8
LAYER_1
 62
     7
100
AcDbSpline
210
0.0
220
0.0
230
1.0
 70
     8
 71
     3
 72
    14
 73
    10
 74
     0
 42
0.0000000001
 43
0.0000000001
 40
0.0
 40
0.0
 40
0.0
 40
0.0
 40
1.0
 40
1.0
 40
1.0
 40
2.0
 40
2.0
 40
2.0
 40
3.0
 40
3.0
 40
3.0
 40
3.0
 10
102.0482069227431
 20
46.66588541666666
 30
0.0
 10
101.5162841796875
 20
47.53628879123264
 30
0.0
 10
100.0653822157118
 20
48.93913167317708
 30
0.0
 10
99.24355468749999
 20
49.71255560980902
 30
0.0
 10
98.42121039496527
 20
50.48632405598958
 30
0.0
 10
97.16392279730901
 20
52.32411024305555
 30
0.0
 10
96.05150146484374
 20
53.24308946397569
 30
0.0
 10
94.93908013237846
 20
54.16189643012152
 30
0.0
 10
93.05289035373264
 20
56.62858479817708
 30
0.0
 10
92.42450493706596
 20
56.82202690972222
 30
0.0
  0
SPLINE
  5
AD
330
A
100
AcDbEntity
  8
LAYER_1
 62
     7
100
AcDbSpline
210
0.0
220
0.0
230
1.0
 70
     8
 71
     3
 72
    14
 73
    10
 74
     0
 42
0.0000000001
 43
0.0000000001
 40
0.0
 40
0.0
 40
0.0
 40
0.0
 40
1.0
 40
1.0
 40
1.0
 40
2.0
 40
2.0
 40
2.0
 40
3.0
 40
3.0
 40
3.0
 40
3.0
 10
103.2576076931424
 20
35.20456949869791
 30
0.0
 10
103.2576076931424
 20
37.52570258246527
 30
0.0
 10
103.2576076931424
 20
39.073583984375
 30
0.0
 10
103.8379340277778
 20
40.08885362413194
 30
0.0
 10
104.4184326171875
 20
41.10412326388889
 30
0.0
 10
104.5632988823785
 20
41.63604600694444
 30
0.0
 10
104.7083374023437
 20
43.3773695203993
 30
0.0
 10
104.853375922309
 20
45.11869303385416
 30
0.0
 10
105.6271443684896
 20
47.8267103407118
 30
0.0
 10
105.4822781032986
 20
48.40720893012152
 30
0.0
  0
SPLINE
  5
AC
330
A
100
AcDbEntity
  8
LAYER_1
 62
     7
100
AcDbSpline
210
0.0
220
0.0
230
1.0
 70
     8
 71
     3
 72
    11
 73
     7
 74
     0
 42
0.0000000001
 43
0.0000000001
 40
0.0
 40
0.0
 40
0.0
 40
0.0
 40
1.0
 40
1.0
 40
1.0
 40
2.0
 40
2.0
 40
2.0
 40
2.0
 10
101.9031684027778
 20
46.42386745876735
 30
0.0
 10
102.1451863606771
 20
44.00627170138888
 30
0.0
 10
101.7097262912326
 20
42.65200466579861
 30
0.0
 10
101.6132636176215
 20
41.05623643663194
 30
0.0
 10
101.5162841796875
 20
39.46046820746528
 30
0.0
 10
99.82405327690971
 20
34.57566731770833
 30
0.0
 10
100.1625339084201
 20
33.07636176215277
 30
0.0
  0
SPLINE
  5
AB
330
A
100
AcDbEntity
  8
LAYER_1
 62
     7
100
AcDbSpline
210
0.0
220
0.0
230
1.0
 70
     8
 71
     3
 72
    14
 73
    10
 74
     0
 42
0.0000000001
 43
0.0000000001
 40
0.0
 40
0.0
 40
0.0
 40
0.0
 40
1.0
 40
1.0
 40
1.0
 40
2.0
 40
2.0
 40
2.0
 40
3.0
 40
3.0
 40
3.0
 40
3.0
 10
96.19653998480902
 20
30.56161431206597
 30
0.0
 10
96.63200005425347
 20
32.88343641493055
 30
0.0
 10
97.45382758246527
 20
33.22174479166667
 30
0.0
 10
97.69584554036457
 20
35.10759006076388
 30
0.0
 10
97.93769124348958
 20
36.99377983940972
 30
0.0
 10
98.27617187499999
 20
38.68652750651042
 30
0.0
 10
98.46961398654513
 20
40.18583306206597
 30
0.0
 10
98.66322835286458
 20
41.68462185329861
 30
0.0
 10
98.95313313802083
 20
44.39263916015624
 30
0.0
 10
99.34001736111111
 20
44.87667507595486
 30
0.0
  0
SPLINE
  5
AA
330
A
100
AcDbEntity
  8
LAYER_1
 62
     7
100
AcDbSpline
210
0.0
220
0.0
230
1.0
 70
     8
 71
     3
 72
     8
 73
     4
 74
     0
 42
0.0000000001
 43
0.0000000001
 40
0.0
 40
0.0
 40
0.0
 40
0.0
 40
1.0
 40
1.0
 40
1.0
 40
1.0
 10
94.89067654079861
 20
37.3806640625
 30
0.0
 10
95.61604139539929
 20
38.92854546440972
 30
0.0
 10
97.21232638888888
 20
41.29773763020833
 30
0.0
 10
96.3419230143229
 20
42.94190945095486
 30
0.0
  0
LINE
  5
A9
330
A
100
AcDbEntity
  8
LAYER_1
 62
     7
100
AcDbLine
 10
66.04919840494792
 20
82.32520751953125
 30
0.0
 11
65.81303710937499
 21
89.04228244357638
 31
0.0
  0
LINE
  5
A8
330
A
100
AcDbEntity
  8
LAYER_1
 62
     7
100
AcDbLine
 10
67.33869764539929
 20
45.65113254123263
 30
0.0
 11
66.87154269748264
 21
58.93834906684027
 31
0.0
  0
SPLINE
  5
A7
330
A
100
AcDbEntity
  8
LAYER_1
 62
     7
100
AcDbSpline
210
0.0
220
0.0
230
1.0
 70
    11
 71
     3
 72
    92
 73
    88
 74
     0
 42
0.0000000001
 43
0.0000000001
 40
0.0
 40
0.0
 40
0.0
 40
0.0
 40
1.0
 40
1.0
 40
1.0
 40
2.0
 40
2.0
 40
2.0
 40
3.0
 40
3.0
 40
3.0
 40
4.0
 40
4.0
 40
4.0
 40
5.0
 40
5.0
 40
5.0
 40
6.0
 40
6.0
 40
6.0
 40
7.0
 40
7.0
 40
7.0
 40
8.0
 40
8.0
 40
8.0
 40
9.0
 40
9.0
 40
9.0
 40
10.0
 40
10.0
 40
10.0
 40
11.0
 40
11.0
 40
11.0
 40
12.0
 40
12.0
 40
12.0
 40
13.0
 40
13.0
 40
13.0
 40
14.0
 40
14.0
 40
14.0
 40
15.0
 40
15.0
 40
15.0
 40
16.0
 40
16.0
 40
16.0
 40
17.0
 40
17.0
 40
17.0
 40
18.0
 40
18.0
 40
18.0
 40
19.0
 40
19.0
 40
19.0
 40
20.0
 40
20.0
 40
20.0
 40
21.0
 40
21.0
 40
21.0
 40
22.0
 40
22.0
 40
22.0
 40
23.0
 40
23.0
 40
23.0
 40
24.0
 40
24.0
 40
24.0
 40
25.0
 40
25.0
 40
25.0
 40
26.0
 40
26.0
 40
26.0
 40
27.0
 40
27.0
 40
27.0
 40
28.0
 40
28.0
 40
28.0
 40
29.0
 40
29.0
 40
29.0
 40
29.0
 10
64.95520833333333
 20
49.61609293619791
 30
0.0
 10
64.95520833333333
 20
49.61609293619791
 30
0.0
 10
64.95520833333333
 20
57.11193169487846
 30
0.0
 10
64.95520833333333
 20
57.7888929578993
 30
0.0
 10
64.95520833333333
 20
58.46585422092014
 30
0.0
 10
65.63216959635416
 20
58.99829372829861
 30
0.0
 10
66.30913085937499
 20
58.99829372829861
 30
0.0
 10
66.98643663194444
 20
58.99829372829861
 30
0.0
 10
67.95330268012152
 20
58.85273844401041
 30
0.0
 10
67.90541585286458
 20
57.88587239583333
 30
0.0
 10
67.85684000651041
 20
56.91848958333333
 30
0.0
 10
67.95330268012152
 20
49.95440131293402
 30
0.0
 10
67.95330268012152
 20
49.95440131293402
 30
0.0
 10
67.95330268012152
 20
49.95440131293402
 30
0.0
 10
73.5150648328993
 20
46.8593275282118
 30
0.0
 10
73.5150648328993
 20
46.8593275282118
 30
0.0
 10
73.5150648328993
 20
46.8593275282118
 30
0.0
 10
74.53102349175346
 20
47.19780815972222
 30
0.0
 10
74.53102349175346
 20
47.19780815972222
 30
0.0
 10
74.53102349175346
 20
47.19780815972222
 30
0.0
 10
74.5789103190104
 20
50.24447835286458
 30
0.0
 10
74.5789103190104
 20
50.24447835286458
 30
0.0
 10
74.5789103190104
 20
50.24447835286458
 30
0.0
 10
78.06104058159721
 20
51.64732123480902
 30
0.0
 10
78.06104058159721
 20
51.64732123480902
 30
0.0
 10
78.06104058159721
 20
51.64732123480902
 30
0.0
 10
78.35146213107639
 20
55.95110677083333
 30
0.0
 10
78.35146213107639
 20
55.95110677083333
 30
0.0
 10
78.35146213107639
 20
55.95110677083333
 30
0.0
 10
74.19254286024305
 20
58.32081570095485
 30
0.0
 10
74.19254286024305
 20
58.32081570095485
 30
0.0
 10
74.19254286024305
 20
58.32081570095485
 30
0.0
 10
74.28900553385417
 20
61.2708509657118
 30
0.0
 10
74.28900553385417
 20
61.2708509657118
 30
0.0
 10
74.28900553385417
 20
61.2708509657118
 30
0.0
 10
78.10944417317708
 20
63.39854193793402
 30
0.0
 10
78.10944417317708
 20
63.39854193793402
 30
0.0
 10
78.10944417317708
 20
63.39854193793402
 30
0.0
 10
78.10944417317708
 20
68.33140190972222
 30
0.0
 10
78.10944417317708
 20
68.33140190972222
 30
0.0
 10
78.10944417317708
 20
68.33140190972222
 30
0.0
 10
73.95052490234374
 20
72.15184054904513
 30
0.0
 10
73.95052490234374
 20
72.15184054904513
 30
0.0
 10
73.95052490234374
 20
72.15184054904513
 30
0.0
 10
73.70850694444444
 20
78.05208333333333
 30
0.0
 10
73.70850694444444
 20
78.05208333333333
 30
0.0
 10
73.70850694444444
 20
78.05208333333333
 30
0.0
 10
66.12929687499999
 20
82.32520751953125
 30
0.0
 10
66.12929687499999
 20
82.32520751953125
 30
0.0
 10
66.12929687499999
 20
82.32520751953125
 30
0.0
 10
53.92883572048611
 20
75.53750813802083
 30
0.0
 10
53.92883572048611
 20
75.53750813802083
 30
0.0
 10
53.92883572048611
 20
75.53750813802083
 30
0.0
 10
53.88025987413194
 20
71.66849365234374
 30
0.0
 10
53.88025987413194
 20
71.66849365234374
 30
0.0
 10
53.88025987413194
 20
71.66849365234374
 30
0.0
 10
58.08775499131944
 20
69.34736056857638
 30
0.0
 10
58.08775499131944
 20
69.34736056857638
 30
0.0
 10
58.08775499131944
 20
69.34736056857638
 30
0.0
 10
58.1361585828993
 20
65.62338460286458
 30
0.0
 10
58.1361585828993
 20
65.62338460286458
 30
0.0
 10
58.1361585828993
 20
65.62338460286458
 30
0.0
 10
54.26714409722221
 20
60.88396674262152
 30
0.0
 10
54.26714409722221
 20
60.88396674262152
 30
0.0
 10
54.26714409722221
 20
60.88396674262152
 30
0.0
 10
54.4121826171875
 20
56.14454888237847
 30
0.0
 10
54.4121826171875
 20
56.14454888237847
 30
0.0
 10
54.4121826171875
 20
56.14454888237847
 30
0.0
 10
55.91148817274305
 20
55.5161634657118
 30
0.0
 10
55.91148817274305
 20
55.5161634657118
 30
0.0
 10
55.91148817274305
 20
55.5161634657118
 30
0.0
 10
58.03969590928819
 20
56.48302951388889
 30
0.0
 10
58.03969590928819
 20
56.48302951388889
 30
0.0
 10
58.03969590928819
 20
56.48302951388889
 30
0.0
 10
58.03969590928819
 20
52.71116672092013
 30
0.0
 10
58.03969590928819
 20
52.71116672092013
 30
0.0
 10
58.03969590928819
 20
52.71116672092013
 30
0.0
 10
54.75118001302083
 20
49.51894124348958
 30
0.0
 10
54.75118001302083
 20
49.51894124348958
 30
0.0
 10
54.75118001302083
 20
49.51894124348958
 30
0.0
 10
54.79906684027777
 20
44.77969563802083
 30
0.0
 10
54.79906684027777
 20
44.77969563802083
 30
0.0
 10
54.79906684027777
 20
44.77969563802083
 30
0.0
 10
56.39552408854166
 20
44.102734375
 30
0.0
 10
56.39552408854166
 20
44.102734375
 30
0.0
 10
56.39552408854166
 20
44.102734375
 30
0.0
 10
64.95520833333333
 20
49.61609293619791
 30
0.0
 10
64.95520833333333
 20
49.61609293619791
 30
0.0
  0
ELLIPSE
  5
A6
330
A
100
AcDbEntity
  8
LAYER_1
 62
     7
100
AcDbEllipse
 10
57.82093234592013
 20
73.21628892686631
 30
0.0
 11
0.0
 21
-1.103033447265625
 31
0.0
210
0.0
220
0.0
230
1.0
 40
0.7150776961503143
 41
0.0
 42
6.283185307179586
  0
ELLIPSE
  5
A5
330
A
100
AcDbEntity
  8
LAYER_1
 62
     7
100
AcDbEllipse
 10
61.62931315104166
 20
69.49593031141492
 30
0.0
 11
0.0
 21
-1.102688937717014
 31
0.0
210
0.0
220
0.0
230
1.0
 40
0.7153011396839528
 41
0.0
 42
6.283185307179586
  0
ELLIPSE
  5
A4
330
A
100
AcDbEntity
  8
LAYER_1
 62
     7
100
AcDbEllipse
 10
57.86778564453125
 20
60.36082899305555
 30
0.0
 11
0.0
 21
-1.102947319878472
 31
0.0
210
0.0
220
0.0
230
1.0
 40
0.7151335311572701
 41
0.0
 42
6.283185307179586
  0
ELLIPSE
  5
A3
330
A
100
AcDbEntity
  8
LAYER_1
 62
     7
100
AcDbEllipse
 10
62.23341064453125
 20
52.43495619032117
 30
0.0
 11
0.0
 21
-1.103033447265625
 31
0.0
210
0.0
220
0.0
230
1.0
 40
0.7150776961503143
 41
0.0
 42
6.283185307179586
  0
ELLIPSE
  5
A2
330
A
100
AcDbEntity
  8
LAYER_1
 62
     7
100
AcDbEllipse
 10
63.37545979817708
 20
66.94345906575521
 30
0.0
 11
0.0
 21
-1.103033447265625
 31
0.0
210
0.0
220
0.0
230
1.0
 40
0.7150776961503143
 41
0.0
 42
6.283185307179586
  0
ELLIPSE
  5
A1
330
A
100
AcDbEntity
  8
LAYER_1
 62
     7
100
AcDbEllipse
 10
57.86778564453125
 20
48.20325927734375
 30
0.0
 11
0.0
 21
-1.102947319878472
 31
0.0
210
0.0
220
0.0
230
1.0
 40
0.7151335311572701
 41
0.0
 42
6.283185307179586
  0
LINE
  5
A0
330
A
100
AcDbEntity
  8
LAYER_1
 62
     7
100
AcDbLine
 10
62.44011637369791
 20
61.51286892361111
 30
0.0
 11
62.58670518663194
 21
66.94354519314236
 31
0.0
  0
LINE
  5
9F
330
A
100
AcDbEntity
  8
LAYER_1
 62
     7
100
AcDbLine
 10
64.22984347873263
 20
61.80277370876735
 30
0.0
 11
64.16421440972222
 21
66.94354519314236
 31
0.0
  0
LINE
  5
9E
330
A
100
AcDbEntity
  8
LAYER_1
 62
     7
100
AcDbLine
 10
66.12929687499999
 20
79.30230848524305
 30
0.0
 11
66.73408338758679
 21
59.95792507595485
 31
0.0
  0
LWPOLYLINE
  5
97
330
A
100
AcDbEntity
  8
LAYER_1
 62
     7
100
AcDbPolyline
 90
        5
 70
     0
 43
0.0
 10
56.00846761067708
 20
55.66120198567708
 10
55.76644965277777
 20
60.59406195746527
 10
59.63546413845486
 20
65.28490397135415
 10
59.44202202690972
 20
68.61527777777778
 10
58.23313802083333
 20
69.34736056857638
  0
LWPOLYLINE
  5
90
330
A
100
AcDbEntity
  8
LAYER_1
 62
     7
100
AcDbPolyline
 90
        5
 70
     0
 43
0.0
 10
56.34694824218749
 20
44.15131022135417
 10
56.25548095703125
 20
49.14359809027777
 10
59.44202202690972
 20
52.37268608940972
 10
59.27837999131944
 20
57.20408799913194
 10
58.03969590928819
 20
56.43514268663194
  0
LINE
  5
8F
330
A
100
AcDbEntity
  8
LAYER_1
 62
     7
100
AcDbLine
 10
69.30774197048611
 20
58.80485161675347
 30
0.0
 11
72.06433512369792
 21
57.69243028428819
 31
0.0
  0
LINE
  5
8E
330
A
100
AcDbEntity
  8
LAYER_1
 62
     7
100
AcDbLine
 10
60.84434814453125
 20
57.30554606119791
 30
0.0
 11
63.21405707465277
 21
58.41779513888888
 31
0.0
  0
ELLIPSE
  5
8D
330
A
100
AcDbEntity
  8
LAYER_1
 62
     7
100
AcDbEllipse
 10
70.22878824869791
 20
75.84532741970486
 30
0.0
 11
0.0
 21
-1.069013129340278
 31
0.0
210
0.0
220
0.0
230
1.0
 40
0.6248792323122339
 41
0.0
 42
6.283185307179586
  0
ELLIPSE
  5
8C
330
A
100
AcDbEntity
  8
LAYER_1
 62
     7
100
AcDbEllipse
 10
74.86123589409722
 20
66.07012736002604
 30
0.0
 11
0.0
 21
-1.06909925672743
 31
0.0
210
0.0
220
0.0
230
1.0
 40
0.624828855248204
 41
0.0
 42
6.283185307179586
  0
ELLIPSE
  5
8B
330
A
100
AcDbEntity
  8
LAYER_1
 62
     7
100
AcDbEllipse
 10
70.76398383246527
 20
61.16680908203124
 30
0.0
 11
0.0
 21
-1.069357638888889
 31
0.0
210
0.0
220
0.0
230
1.0
 40
0.6246778350515464
 41
0.0
 42
6.283185307179586
  0
ELLIPSE
  5
8A
330
A
100
AcDbEntity
  8
LAYER_1
 62
     7
100
AcDbEllipse
 10
70.76398383246527
 20
55.65896267361111
 30
0.0
 11
0.0
 21
-1.069357638888889
 31
0.0
210
0.0
220
0.0
230
1.0
 40
0.6246778350515464
 41
0.0
 42
6.283185307179586
  0
ELLIPSE
  5
89
330
A
100
AcDbEntity
  8
LAYER_1
 62
     7
100
AcDbEllipse
 10
74.72722167968749
 20
53.50973985460069
 30
0.0
 11
0.0
 21
-1.069357638888889
 31
0.0
210
0.0
220
0.0
230
1.0
 40
0.6246778350515464
 41
0.0
 42
6.283185307179586
  0
ELLIPSE
  5
88
330
A
100
AcDbEntity
  8
LAYER_1
 62
     7
100
AcDbEllipse
 10
71.50312906901041
 20
50.82290988498264
 30
0.0
 11
0.0
 21
-1.069013129340278
 31
0.0
210
0.0
220
0.0
230
1.0
 40
0.6250403666768883
 41
0.0
 42
6.283185307179586
  0
LWPOLYLINE
  5
83
330
A
100
AcDbEntity
  8
LAYER_1
 62
     7
100
AcDbPolyline
 90
        3
 70
     0
 43
0.0
 10
74.53102349175346
 20
50.19641927083333
 10
73.56364067925347
 20
49.80075005425347
 10
73.46717800564235
 20
46.90790337456597
  0
LWPOLYLINE
  5
7C
330
A
100
AcDbEntity
  8
LAYER_1
 62
     7
100
AcDbPolyline
 90
        5
 70
     0
 43
0.0
 10
74.19254286024305
 20
61.22244737413194
 10
73.12818060980902
 20
60.43093668619791
 10
72.98314208984374
 20
58.12737358940971
 10
77.34652777777777
 20
55.59178331163194
 10
77.07815483940972
 20
51.39979112413194
  0
LWPOLYLINE
  5
73
330
A
100
AcDbEntity
  8
LAYER_1
 62
     7
100
AcDbPolyline
 90
        7
 70
     0
 43
0.0
 10
55.38232150607639
 20
70.97344563802082
 10
55.295849609375
 20
75.00386284722221
 10
66.19664849175346
 20
80.84726155598958
 10
72.38231743706596
 20
77.22973904079861
 10
72.59625786675346
 20
71.52345513237846
 10
76.99719509548611
 20
67.46099853515625
 10
77.04559868706596
 20
62.91519504123264
  0
LWPOLYLINE
  5
63
330
A
100
AcDbEntity
  8
LAYER_1
 62
     7
100
AcDbPolyline
 90
       14
 70
     1
 43
0.0
 10
63.16599799262152
 20
95.89716118706596
 10
59.73192681206596
 20
98.07394476996527
 10
59.73192681206596
 20
99.86315511067707
 10
64.81034206814236
 20
102.6197482638889
 10
95.51957872178819
 20
85.54809434678819
 10
95.51957872178819
 20
84.14576822916666
 10
90.05479600694444
 20
80.80867648654514
 10
85.07353244357638
 20
83.22696126302083
 10
78.59296332465277
 20
82.06613633897568
 10
73.95052490234374
 20
84.67769097222221
 10
74.7244656032986
 20
89.65912679036458
 10
71.19393174913193
 20
91.78681776258679
 10
66.50257297092013
 20
88.83661024305555
 10
62.15021158854166
 20
91.35135769314235
  0
ELLIPSE
  5
62
330
A
100
AcDbEntity
  8
LAYER_1
 62
     7
100
AcDbEllipse
 10
64.18143988715278
 20
98.98310546875
 30
0.0
 11
1.062122938368056
 21
-0.0001722547743055555
 31
0.0
210
0.0
220
0.0
230
1.0
 40
0.6396367090710278
 41
0.0
 42
6.283185307179586
  0
ELLIPSE
  5
61
330
A
100
AcDbEntity
  8
LAYER_1
 62
     7
100
AcDbEllipse
 10
68.21185709635417
 20
96.90071750217012
 30
0.0
 11
1.061606174045139
 21
0.0001722547743055555
 31
0.0
210
0.0
220
0.0
230
1.0
 40
0.6399480688108793
 41
0.0
 42
6.283185307179586
  0
ELLIPSE
  5
60
330
A
100
AcDbEntity
  8
LAYER_1
 62
     7
100
AcDbEllipse
 10
66.12929687499999
 20
93.27372097439235
 30
0.0
 11
1.062295193142361
 21
-0.000344509548611111
 31
0.0
210
0.0
220
0.0
230
1.0
 40
0.6395329645849067
 41
0.0
 42
6.283185307179586
  0
ELLIPSE
  5
5F
330
A
100
AcDbEntity
  8
LAYER_1
 62
     7
100
AcDbEllipse
 10
75.80157470703125
 20
92.46774088541666
 30
0.0
 11
1.062122938368056
 21
-0.0001722547743055555
 31
0.0
210
0.0
220
0.0
230
1.0
 40
0.6396367090710278
 41
0.0
 42
6.283185307179586
  0
ELLIPSE
  5
5E
330
A
100
AcDbEntity
  8
LAYER_1
 62
     7
100
AcDbEllipse
 10
78.75712212456597
 20
86.4895528157552
 30
0.0
 11
1.062295193142361
 21
8.612738715277777E-5
 31
0.0
210
0.0
220
0.0
230
1.0
 40
0.6392897660194785
 41
0.0
 42
6.283185307179586
  0
ELLIPSE
  5
5D
330
A
100
AcDbEntity
  8
LAYER_1
 62
     7
100
AcDbEllipse
 10
89.03401421440971
 20
85.81784532335068
 30
0.0
 11
1.062122938368056
 21
-0.0001722547743055555
 31
0.0
210
0.0
220
0.0
230
1.0
 40
0.6396367090710278
 41
0.0
 42
6.283185307179586
  0
LINE
  5
5C
330
A
100
AcDbEntity
  8
LAYER_1
 62
     7
100
AcDbLine
 10
72.35475667317708
 20
94.05937499999999
 30
0.0
 11
74.52551133897569
 21
95.28858506944444
 31
0.0
  0
LWPOLYLINE
  5
55
330
A
100
AcDbEntity
  8
LAYER_1
 62
     7
100
AcDbPolyline
 90
        5
 70
     0
 43
0.0
 10
74.28900553385417
 20
86.1285929361979
 10
78.30288628472222
 20
83.71030815972222
 10
85.02495659722221
 20
84.82272949218749
 10
89.95833333333333
 20
82.55
 10
94.98765597873263
 20
85.74153645833333
  0
LWPOLYLINE
  5
50
330
A
100
AcDbEntity
  8
LAYER_1
 62
     7
100
AcDbPolyline
 90
        3
 70
     0
 43
0.0
 10
63.16599799262152
 20
95.94573703342013
 10
63.40749918619791
 20
97.34857991536458
 10
59.88299424913194
 20
99.78874104817707
  0
LWPOLYLINE
  5
49
330
A
100
AcDbEntity
  8
LAYER_1
 62
     7
100
AcDbPolyline
 90
        5
 70
     0
 43
0.0
 10
74.77235243055554
 20
89.65912679036458
 10
74.86123589409722
 20
90.7884290907118
 10
71.0004896375868
 20
92.99552951388888
 10
66.26107177734374
 20
90.19104953342013
 10
62.44011637369791
 20
92.65704888237846
  0
LWPOLYLINE
  5
3E
330
A
100
AcDbEntity
  8
LAYER_1
 62
     7
100
AcDbPolyline
 90
        9
 70
     0
 43
0.0
 10
95.58159044053818
 20
84.35574679904514
 10
105.4602294921875
 20
79.22737765842014
 10
105.56875
 20
64.82291666666666
 10
101.6132636176215
 20
62.33469645182291
 10
111.0919270833333
 20
52.27570665147569
 10
105.8691623263889
 20
48.74568956163194
 10
106.4010850694444
 20
36.94520399305555
 10
95.27756076388889
 20
29.9332288953993
 10
66.8894571940104
 20
45.8919447157118
  0
LWPOLYLINE
  5
34
330
A
100
AcDbEntity
  8
LAYER_1
 62
     7
100
AcDbPolyline
 90
        8
 70
     0
 43
0.0
 10
29.55461290147569
 20
91.54479980468749
 10
29.40957438151041
 20
93.86644965277777
 10
26.894482421875
 20
95.65565999348958
 10
31.68230387369792
 20
100.8305379231771
 10
28.92571072048611
 20
103.2481336805555
 10
29.02269015842014
 20
109.9223171657986
 10
39.32369791666666
 20
115.8218709309896
 10
55.7797132703993
 20
106.8883938259549
  0
LWPOLYLINE
  5
2F
330
A
100
AcDbEntity
  8
LAYER_1
 62
     7
100
AcDbPolyline
 90
        3
 70
     0
 43
0.0
 10
65.67523328993055
 20
89.45293782552082
 10
94.82056884765625
 20
72.98865424262152
 10
105.4602294921875
 20
79.22737765842014
  0
LINE
  5
2E
330
A
100
AcDbEntity
  8
LAYER_1
 62
     7
100
AcDbLine
 10
54.26714409722221
 20
60.88396674262152
 30
0.0
 11
55.76644965277777
 21
60.59406195746527
 31
0.0
  0
LINE
  5
2D
330
A
100
AcDbEntity
  8
LAYER_1
 62
     7
100
AcDbLine
 10
53.92883572048611
 20
75.53750813802083
 30
0.0
 11
55.295849609375
 21
75.00386284722221
 31
0.0
  0
LINE
  5
2C
330
A
100
AcDbEntity
  8
LAYER_1
 62
     7
100
AcDbLine
 10
72.38231743706596
 20
77.22973904079861
 30
0.0
 11
73.70850694444444
 21
78.05208333333333
 31
0.0
  0
LINE
  5
2B
330
A
100
AcDbEntity
  8
LAYER_1
 62
     7
100
AcDbLine
 10
76.82287326388888
 20
67.67493896484375
 30
0.0
 11
78.10944417317708
 21
68.33140190972222
 31
0.0
  0
LINE
  5
2A
330
A
100
AcDbEntity
  8
LAYER_1
 62
     7
100
AcDbLine
 10
72.98314208984374
 20
58.12737358940971
 30
0.0
 11
74.19254286024305
 21
58.32081570095485
 31
0.0
  0
LINE
  5
29
330
A
100
AcDbEntity
  8
LAYER_1
 62
     7
100
AcDbLine
 10
77.34652777777777
 20
55.59178331163194
 30
0.0
 11
78.35146213107639
 21
55.95110677083333
 31
0.0
  0
LINE
  5
28
330
A
100
AcDbEntity
  8
LAYER_1
 62
     7
100
AcDbLine
 10
58.1020521375868
 20
52.90512559678819
 30
0.0
 11
59.44202202690972
 21
52.37268608940972
 31
0.0
  0
LINE
  5
27
330
A
100
AcDbEntity
  8
LAYER_1
 62
     7
100
AcDbLine
 10
54.75118001302083
 20
49.51894124348958
 30
0.0
 11
56.25548095703125
 21
49.14359809027777
 31
0.0
  0
LINE
  5
26
330
A
100
AcDbEntity
  8
LAYER_1
 62
     7
100
AcDbLine
 10
85.07353244357638
 20
83.22696126302083
 30
0.0
 11
85.02495659722221
 21
84.82272949218749
 31
0.0
  0
LINE
  5
25
330
A
100
AcDbEntity
  8
LAYER_1
 62
     7
100
AcDbLine
 10
90.05479600694444
 20
80.80867648654514
 30
0.0
 11
89.95833333333333
 21
82.55
 31
0.0
  0
LINE
  5
24
330
A
100
AcDbEntity
  8
LAYER_1
 62
     7
100
AcDbLine
 10
78.51630995008679
 20
82.35052897135417
 30
0.0
 11
78.30288628472222
 21
83.71030815972222
 31
0.0
  0
LINE
  5
23
330
A
100
AcDbEntity
  8
LAYER_1
 62
     7
100
AcDbLine
 10
66.38078884548611
 20
89.21746554904513
 30
0.0
 11
66.26107177734374
 21
90.19104953342013
 31
0.0
  0
LINE
  5
22
330
A
100
AcDbEntity
  8
LAYER_1
 62
     7
100
AcDbLine
 10
70.99049886067708
 20
92.03968777126735
 30
0.0
 11
71.0004896375868
 21
92.99552951388888
 31
0.0
  0
ENDSEC
  0
SECTION
  2
OBJECTS
  0
DICTIONARY
  5
19
330
0
100
AcDbDictionary
281
     1
  3
ACAD_COLOR
350
135
  3
ACAD_GROUP
350
1A
  3
ACAD_LAYOUT
350
102
  3
ACAD_MATERIAL
350
137
  3
ACAD_MLINESTYLE
350
1B
  3
ACAD_PLOTSETTINGS
350
103
  3
ACAD_PLOTSTYLENAME
350
100
  3
ACDBHEADERROUNDTRIPXREC
350
134
  0
DICTIONARY
  5
135
102
{ACAD_REACTORS
330
19
102
}
330
19
100
AcDbDictionary
281
     1
  0
DICTIONARY
  5
1A
102
{ACAD_REACTORS
330
19
102
}
330
19
100
AcDbDictionary
281
     1
  0
DICTIONARY
  5
102
102
{ACAD_REACTORS
330
19
102
}
330
19
100
AcDbDictionary
281
     1
  3
Layout1
350
105
  3
Model
350
104
  0
DICTIONARY
  5
137
102
{ACAD_REACTORS
330
19
102
}
330
19
100
AcDbDictionary
281
     1
  0
DICTIONARY
  5
1B
102
{ACAD_REACTORS
330
19
102
}
330
19
100
AcDbDictionary
281
     1
  3
STANDARD
350
1C
  0
DICTIONARY
  5
103
102
{ACAD_REACTORS
330
19
102
}
330
19
100
AcDbDictionary
281
     1
  0
ACDBDICTIONARYWDFLT
  5
100
102
{ACAD_REACTORS
330
19
102
}
330
19
100
AcDbDictionary
281
     1
  3
Normal
350
101
100
AcDbDictionaryWithDefault
340
101
  0
DICTIONARY
  5
134
102
{ACAD_REACTORS
330
19
102
}
330
19
100
AcDbDictionary
281
     1
  3
COLORDICT
350
136
  3
MATERIALDICT
350
138
  0
LAYOUT
  5
105
102
{ACAD_REACTORS
330
102
102
}
102
{ACAD_XDICTIONARY
360
139
102
}
330
102
100
AcDbPlotSettings
  1

  2
Support Center HP LaserJet 4
  4

  6

 40
0.0
 41
0.0
 42
0.0
 43
0.0
 44
0.0
 45
0.0
 46
0.0
 47
0.0
 48
0.0
 49
0.0
140
0.0
141
0.0
142
1.0
143
1.0
 70
   688
 72
     0
 73
     0
 74
     5
  7

 75
    16
147
1.0
148
0.0
149
0.0
100
AcDbLayout
  1
Layout1
 70
     0
 71
     1
 10
0.0
 20
0.0
 11
12.0
 21
9.0
 12
0.0
 22
0.0
 32
0.0
 14
1.000000000000000E+20
 24
1.000000000000000E+20
 34
1.000000000000000E+20
 15
-1.000000000000000E+20
 25
-1.000000000000000E+20
 35
-1.000000000000000E+20
146
0.0
 13
0.0
 23
0.0
 33
0.0
 16
1.0
 26
0.0
 36
0.0
 17
0.0
 27
1.0
 37
0.0
 76
     0
330
B
  0
LAYOUT
  5
104
102
{ACAD_REACTORS
330
102
102
}
102
{ACAD_XDICTIONARY
360
13B
102
}
330
102
100
AcDbPlotSettings
  1

  2
Support Center HP LaserJet 4
  4

  6

 40
0.0
 41
0.0
 42
0.0
 43
0.0
 44
0.0
 45
0.0
 46
0.0
 47
0.0
 48
0.0
 49
0.0
140
0.0
141
0.0
142
1.0
143
1.0
 70
  1712
 72
     0
 73
     0
 74
     0
  7

 75
     0
147
1.0
148
0.0
149
0.0
100
AcDbLayout
  1
Model
 70
     1
 71
     0
 10
0.0
 20
0.0
 11
12.0
 21
9.0
 12
0.0
 22
0.0
 32
0.0
 14
0.0
 24
0.0
 34
0.0
 15
0.0
 25
0.0
 35
0.0
146
0.0
 13
0.0
 23
0.0
 33
0.0
 16
1.0
 26
0.0
 36
0.0
 17
0.0
 27
1.0
 37
0.0
 76
     0
330
A
  0
MLINESTYLE
  5
1C
102
{ACAD_REACTORS
330
1B
102
}
330
1B
100
AcDbMlineStyle
  2
STANDARD
 70
     0
  3

 62
     0
 51
90.0000000000002
 52
90.0000000000002
 71
     2
 49
0.5
 62
   256
  6
BYLAYER
 49
-0.5
 62
   256
  6
BYLAYER
  0
ACDBPLACEHOLDER
  5
101
102
{ACAD_REACTORS
330
100
102
}
330
100
  0
XRECORD
  5
136
102
{ACAD_REACTORS
330
134
102
}
330
134
100
AcDbXrecord
340
135
  0
XRECORD
  5
138
102
{ACAD_REACTORS
330
134
102
}
330
134
100
AcDbXrecord
340
137
  0
DICTIONARY
  5
139
330
105
100
AcDbDictionary
280
     1
281
     1
  3
ACAD_XREC_ROUNDTRIP
360
13A
  0
DICTIONARY
  5
13B
330
104
100
AcDbDictionary
280
     1
281
     1
  3
ACAD_XREC_ROUNDTRIP
360
13C
  0
XRECORD
  5
13A
102
{ACAD_REACTORS
330
139
102
}
330
139
100
AcDbXrecord
102
SHADEPLOT
 70
     0
102
SHADEPLOTRESLEVEL
 70
     0
102
SHADEPLOTCUSTOMDPI
 70
     0
  0
XRECORD
  5
13C
102
{ACAD_REACTORS
330
13B
102
}
330
13B
100
AcDbXrecord
102
SHADEPLOT
 70
-25416
102
SHADEPLOTRESLEVEL
 70
 -2880
102
SHADEPLOTCUSTOMDPI
 70
 20968
  0
ENDSEC
  0
EOF
