  0
SECTION
  2
HEADER
  9
$ACADVER
  1
AC1015
  9
$ACADMAINTVER
 70
     6
  9
$DWGCODEPAGE
  3
ANSI_1252
  9
$INSBASE
 10
0.0
 20
0.0
 30
0.0
  9
$EXTMIN
 10
14.97421204989594
 20
15.62463269776862
 30
-0.0015258207003612
  9
$EXTMAX
 10
117.9236661512508
 20
99.57851588625299
 30
0.0000000349246008
  9
$LIMMIN
 10
3.180856662326389
 20
11.08442247178819
  9
$LIMMAX
 10
120.8558444552951
 20
104.7116102430556
  9
$ORTHOMODE
 70
     0
  9
$REGENMODE
 70
     1
  9
$FILLMODE
 70
     1
  9
$QTEXTMODE
 70
     0
  9
$MIRRTEXT
 70
     1
  9
$LTSCALE
 40
1.0
  9
$ATTMODE
 70
     1
  9
$TEXTSIZE
 40
0.2
  9
$TRACEWID
 40
0.05
  9
$TEXTSTYLE
  7
STANDARD
  9
$CLAYER
  8
0
  9
$CELTYPE
  6
CONTINUOUS
  9
$CECOLOR
 62
   256
  9
$CELTSCALE
 40
1.0
  9
$DISPSILH
 70
     0
  9
$DIMSCALE
 40
1.0
  9
$DIMASZ
 40
0.18
  9
$DIMEXO
 40
0.0625
  9
$DIMDLI
 40
0.38
  9
$DIMRND
 40
0.0
  9
$DIMDLE
 40
0.0
  9
$DIMEXE
 40
0.18
  9
$DIMTP
 40
0.0
  9
$DIMTM
 40
0.0
  9
$DIMTXT
 40
0.18
  9
$DIMCEN
 40
0.09
  9
$DIMTSZ
 40
0.0
  9
$DIMTOL
 70
     0
  9
$DIMLIM
 70
     0
  9
$DIMTIH
 70
     1
  9
$DIMTOH
 70
     1
  9
$DIMSE1
 70
     0
  9
$DIMSE2
 70
     0
  9
$DIMTAD
 70
     0
  9
$DIMZIN
 70
     0
  9
$DIMBLK
  1

  9
$DIMASO
 70
     1
  9
$DIMSHO
 70
     1
  9
$DIMPOST
  1

  9
$DIMAPOST
  1

  9
$DIMALT
 70
     0
  9
$DIMALTD
 70
     2
  9
$DIMALTF
 40
25.4
  9
$DIMLFAC
 40
1.0
  9
$DIMTOFL
 70
     0
  9
$DIMTVP
 40
0.0
  9
$DIMTIX
 70
     0
  9
$DIMSOXD
 70
     0
  9
$DIMSAH
 70
     0
  9
$DIMBLK1
  1

  9
$DIMBLK2
  1

  9
$DIMSTYLE
  2
STANDARD
  9
$DIMCLRD
 70
     0
  9
$DIMCLRE
 70
     0
  9
$DIMCLRT
 70
     0
  9
$DIMTFAC
 40
1.0
  9
$DIMGAP
 40
0.09
  9
$DIMJUST
 70
     0
  9
$DIMSD1
 70
     0
  9
$DIMSD2
 70
     0
  9
$DIMTOLJ
 70
     1
  9
$DIMTZIN
 70
     0
  9
$DIMALTZ
 70
     0
  9
$DIMALTTZ
 70
     0
  9
$DIMUPT
 70
     0
  9
$DIMDEC
 70
     4
  9
$DIMTDEC
 70
     4
  9
$DIMALTU
 70
     2
  9
$DIMALTTD
 70
     2
  9
$DIMTXSTY
  7
STANDARD
  9
$DIMAUNIT
 70
     0
  9
$DIMADEC
 70
     0
  9
$DIMALTRND
 40
0.0
  9
$DIMAZIN
 70
     0
  9
$DIMDSEP
 70
    46
  9
$DIMATFIT
 70
     3
  9
$DIMFRAC
 70
     0
  9
$DIMLDRBLK
  1

  9
$DIMLUNIT
 70
     2
  9
$DIMLWD
 70
    -2
  9
$DIMLWE
 70
    -2
  9
$DIMTMOVE
 70
     0
  9
$LUNITS
 70
     2
  9
$LUPREC
 70
     4
  9
$SKETCHINC
 40
0.1
  9
$FILLETRAD
 40
0.0
  9
$AUNITS
 70
     0
  9
$AUPREC
 70
     0
  9
$MENU
  1
acad
  9
$ELEVATION
 40
0.0
  9
$PELEVATION
 40
0.0
  9
$THICKNESS
 40
0.0
  9
$LIMCHECK
 70
     0
  9
$CHAMFERA
 40
0.0
  9
$CHAMFERB
 40
0.0
  9
$CHAMFERC
 40
0.0
  9
$CHAMFERD
 40
0.0
  9
$SKPOLY
 70
     0
  9
$TDCREATE
 40
2444971.666666667
  9
$TDUCREATE
 40
2444972.0
  9
$TDUPDATE
 40
2452215.423690972
  9
$TDUUPDATE
 40
2452215.757024305
  9
$TDINDWG
 40
0.0000686343
  9
$TDUSRTIMER
 40
0.0000686343
  9
$USRTIMER
 70
     1
  9
$ANGBASE
 50
0.0
  9
$ANGDIR
 70
     0
  9
$PDMODE
 70
     0
  9
$PDSIZE
 40
0.0
  9
$PLINEWID
 40
0.0
  9
$SPLFRAME
 70
     0
  9
$SPLINETYPE
 70
     6
  9
$SPLINESEGS
 70
     8
  9
$HANDSEED
  5
115
  9
$SURFTAB1
 70
     6
  9
$SURFTAB2
 70
     6
  9
$SURFTYPE
 70
     6
  9
$SURFU
 70
     6
  9
$SURFV
 70
     6
  9
$UCSBASE
  2

  9
$UCSNAME
  2

  9
$UCSORG
 10
0.0
 20
0.0
 30
0.0
  9
$UCSXDIR
 10
1.0
 20
0.0
 30
0.0
  9
$UCSYDIR
 10
0.0
 20
1.0
 30
0.0
  9
$UCSORTHOREF
  2

  9
$UCSORTHOVIEW
 70
     0
  9
$UCSORGTOP
 10
0.0
 20
0.0
 30
0.0
  9
$UCSORGBOTTOM
 10
0.0
 20
0.0
 30
0.0
  9
$UCSORGLEFT
 10
0.0
 20
0.0
 30
0.0
  9
$UCSORGRIGHT
 10
0.0
 20
0.0
 30
0.0
  9
$UCSORGFRONT
 10
0.0
 20
0.0
 30
0.0
  9
$UCSORGBACK
 10
0.0
 20
0.0
 30
0.0
  9
$PUCSBASE
  2

  9
$PUCSNAME
  2

  9
$PUCSORG
 10
0.0
 20
0.0
 30
0.0
  9
$PUCSXDIR
 10
1.0
 20
0.0
 30
0.0
  9
$PUCSYDIR
 10
0.0
 20
1.0
 30
0.0
  9
$PUCSORTHOREF
  2

  9
$PUCSORTHOVIEW
 70
     0
  9
$PUCSORGTOP
 10
0.0
 20
0.0
 30
0.0
  9
$PUCSORGBOTTOM
 10
0.0
 20
0.0
 30
0.0
  9
$PUCSORGLEFT
 10
0.0
 20
0.0
 30
0.0
  9
$PUCSORGRIGHT
 10
0.0
 20
0.0
 30
0.0
  9
$PUCSORGFRONT
 10
0.0
 20
0.0
 30
0.0
  9
$PUCSORGBACK
 10
0.0
 20
0.0
 30
0.0
  9
$USERI1
 70
     0
  9
$USERI2
 70
     0
  9
$USERI3
 70
     0
  9
$USERI4
 70
     0
  9
$USERI5
 70
     0
  9
$USERR1
 40
0.0
  9
$USERR2
 40
0.0
  9
$USERR3
 40
0.0
  9
$USERR4
 40
0.0
  9
$USERR5
 40
0.0
  9
$WORLDVIEW
 70
     1
  9
$SHADEDGE
 70
     3
  9
$SHADEDIF
 70
    70
  9
$TILEMODE
 70
     1
  9
$MAXACTVP
 70
    16
  9
$PINSBASE
 10
0.0
 20
0.0
 30
0.0
  9
$PLIMCHECK
 70
     0
  9
$PEXTMIN
 10
1.000000000000000E+20
 20
1.000000000000000E+20
 30
1.000000000000000E+20
  9
$PEXTMAX
 10
-1.000000000000000E+20
 20
-1.000000000000000E+20
 30
-1.000000000000000E+20
  9
$PLIMMIN
 10
0.0
 20
0.0
  9
$PLIMMAX
 10
12.0
 20
9.0
  9
$UNITMODE
 70
     0
  9
$VISRETAIN
 70
     0
  9
$PLINEGEN
 70
     1
  9
$PSLTSCALE
 70
     0
  9
$TREEDEPTH
 70
  3020
  9
$CMLSTYLE
  2
STANDARD
  9
$CMLJUST
 70
     0
  9
$CMLSCALE
 40
1.0
  9
$PROXYGRAPHICS
 70
     0
  9
$MEASUREMENT
 70
     0
  9
$CELWEIGHT
370
    -1
  9
$ENDCAPS
280
     0
  9
$JOINSTYLE
280
     0
  9
$LWDISPLAY
290
     0
  9
$INSUNITS
 70
     0
  9
$HYPERLINKBASE
  1

  9
$STYLESHEET
  1

  9
$XEDIT
290
     1
  9
$CEPSNTYPE
380
     0
  9
$PSTYLEMODE
290
     1
  9
$FINGERPRINTGUID
  2
{87DE94F1-CEA3-11D5-923F-00805F198AD5}
  9
$VERSIONGUID
  2
{87DE94F3-CEA3-11D5-923F-00805F198AD5}
  9
$EXTNAMES
290
     1
  9
$PSVPSCALE
 40
0.0
  9
$OLESTARTUP
290
     0
  0
ENDSEC
  0
SECTION
  2
CLASSES
  0
CLASS
  1
LWPOLYLINE
  2
AcDbPolyline
  3
AutoCAD 2000
 90
        0
280
     0
281
     1
  0
CLASS
  1
IMAGE
  2
AcDbRasterImage
  3
ISM
 90
      127
280
     0
281
     1
  0
CLASS
  1
OLE2FRAME
  2
AcDbOle2Frame
  3
AutoCAD 2000
 90
        0
280
     0
281
     1
  0
CLASS
  1
HATCH
  2
AcDbHatch
  3
AutoCAD 2000
 90
        0
280
     0
281
     1
  0
CLASS
  1
DICTIONARYVAR
  2
AcDbDictionaryVar
  3
AutoCAD 2000
 90
        0
280
     0
281
     0
  0
CLASS
  1
RASTERVARIABLES
  2
AcDbRasterVariables
  3
ISM
 90
        0
280
     0
281
     0
  0
CLASS
  1
IMAGEDEF
  2
AcDbRasterImageDef
  3
ISM
 90
        0
280
     0
281
     0
  0
CLASS
  1
IMAGEDEF_REACTOR
  2
AcDbRasterImageDefReactor
  3
ISM
 90
        1
280
     0
281
     0
  0
CLASS
  1
IDBUFFER
  2
AcDbIdBuffer
  3
AutoCAD 2000
 90
        0
280
     0
281
     0
  0
CLASS
  1
SPATIAL_FILTER
  2
AcDbSpatialFilter
  3
AutoCAD 2000
 90
        0
280
     0
281
     0
  0
CLASS
  1
XRECORD
  2
AcDbXrecord
  3
AutoCAD 2000
 90
        0
280
     0
281
     0
  0
CLASS
  1
SORTENTSTABLE
  2
AcDbSortentsTable
  3
AutoCAD 2000
 90
        0
280
     0
281
     0
  0
CLASS
  1
LAYER_INDEX
  2
AcDbLayerIndex
  3
AutoCAD 2000
 90
        0
280
     0
281
     0
  0
CLASS
  1
SPATIAL_INDEX
  2
AcDbSpatialIndex
  3
AutoCAD 2000
 90
        0
280
     0
281
     0
  0
CLASS
  1
OBJECT_PTR
  2
CAseDLPNTableRecord
  3
ASE-LPNTableRecord
 90
        1
280
     1
281
     0
  0
CLASS
  1
LAYOUT
  2
AcDbLayout
  3
ObjectDBX Classes
 90
        0
280
     0
281
     0
  0
CLASS
  1
PLOTSETTINGS
  2
AcDbPlotSettings
  3
AutoCAD 2000
 90
        0
280
     0
281
     0
  0
CLASS
  1
ACDBDICTIONARYWDFLT
  2
AcDbDictionaryWithDefault
  3
AutoCAD 2000
 90
        0
280
     0
281
     0
  0
CLASS
  1
ACDBPLACEHOLDER
  2
AcDbPlaceHolder
  3
ObjectDBX Classes
 90
        0
280
     0
281
     0
  0
CLASS
  1
VBAPROJECT
  2
AcDbVbaProject
  3
ObjectDBX Classes
 90
        0
280
     0
281
     0
  0
CLASS
  1
WIPEOUT
  2
AcDbWipeout
  3
WipeOut|AutoCAD Express Tool|expresstools@autodesk.com
 90
      127
280
     0
281
     1
  0
CLASS
  1
WIPEOUTVARIABLES
  2
AcDbWipeoutVariables
  3
WipeOut|AutoCAD Express Tool|expresstools@autodesk.com
 90
        0
280
     0
281
     0
  0
CLASS
  1
RTEXT
  2
RText
  3
RText|AutoCAD Express Tool|expresstools@autodesk.com
 90
        0
280
     0
281
     1
  0
CLASS
  1
ARCALIGNEDTEXT
  2
AcDbArcAlignedText
  3
ATEXT|AutoCAD Express Tool|expresstools@autodesk.com
 90
        0
280
     0
281
     1
  0
CLASS
  1
LONG_TRANSACTION
  2
AcDbLongTransaction
  3
AutoCAD 2000
 90
        0
280
     1
281
     0
  0
CLASS
  1
LWPOLYLINE
  2
AcDbPolyline
  3
AutoCAD 2000
 90
        0
280
     0
281
     1
  0
CLASS
  1
HATCH
  2
AcDbHatch
  3
AutoCAD 2000
 90
        0
280
     0
281
     1
  0
CLASS
  1
XRECORD
  2
AcDbXrecord
  3
AutoCAD 2000
 90
        0
280
     0
281
     0
  0
ENDSEC
  0
SECTION
  2
TABLES
  0
TABLE
  2
VPORT
  5
7
330
0
100
AcDbSymbolTable
 70
     2
  0
VPORT
  5
E1
330
7
100
AcDbSymbolTableRecord
100
AcDbViewportTableRecord
  2
*Active
 70
     0
 10
0.0
 20
0.0
 11
1.0
 21
1.0
 12
66.44893910057338
 22
57.60157429201081
 13
0.0
 23
0.0
 14
1.0
 24
1.0
 15
0.0
 25
0.0
 16
0.0
 26
0.0
 36
1.0
 17
0.0
 27
0.0
 37
0.0
 40
85.27599158515342
 41
1.836842105263158
 42
50.0
 43
0.0
 44
0.0
 50
0.0
 51
0.0
 71
     0
 72
   100
 73
     1
 74
     1
 75
     0
 76
     0
 77
     0
 78
     0
281
     0
 65
     1
110
0.0
120
0.0
130
0.0
111
1.0
121
0.0
131
0.0
112
0.0
122
1.0
132
0.0
 79
     0
146
0.0
  0
ENDTAB
  0
TABLE
  2
LTYPE
  5
4
330
0
100
AcDbSymbolTable
 70
     1
  0
LTYPE
  5
11
330
4
100
AcDbSymbolTableRecord
100
AcDbLinetypeTableRecord
  2
BYBLOCK
 70
     0
  3

 72
    65
 73
     0
 40
0.0
  0
LTYPE
  5
12
330
4
100
AcDbSymbolTableRecord
100
AcDbLinetypeTableRecord
  2
BYLAYER
 70
     0
  3

 72
    65
 73
     0
 40
0.0
  0
LTYPE
  5
13
330
4
100
AcDbSymbolTableRecord
100
AcDbLinetypeTableRecord
  2
CONTINUOUS
 70
     0
  3
Solid line
 72
    65
 73
     0
 40
0.0
  0
ENDTAB
  0
TABLE
  2
LAYER
  5
2
330
0
100
AcDbSymbolTable
 70
     2
  0
LAYER
  5
14
330
2
100
AcDbSymbolTableRecord
100
AcDbLayerTableRecord
  2
0
 70
     0
 62
     7
  6
CONTINUOUS
370
    -3
390
0
  0
LAYER
  5
21
330
2
100
AcDbSymbolTableRecord
100
AcDbLayerTableRecord
  2
LAYER_1
 70
     0
 62
     5
  6
CONTINUOUS
370
    -3
390
0
  0
ENDTAB
  0
TABLE
  2
STYLE
  5
3
330
0
100
AcDbSymbolTable
 70
     5
  0
STYLE
  5
17
330
3
100
AcDbSymbolTableRecord
100
AcDbTextStyleTableRecord
  2
STANDARD
 70
     0
 40
0.0
 41
1.0
 50
0.0
 71
     0
 42
0.2
  3
txt
  4

  0
STYLE
  5
1D
330
3
100
AcDbSymbolTableRecord
100
AcDbTextStyleTableRecord
  2
STD
 70
     0
 40
0.0
 41
1.0
 50
0.0
 71
     0
 42
0.2
  3
txt
  4

  0
STYLE
  5
1E
330
3
100
AcDbSymbolTableRecord
100
AcDbTextStyleTableRecord
  2
TATESTD
 70
     4
 40
0.0
 41
1.0
 50
0.0
 71
     0
 42
0.2
  3
txt
  4

  0
STYLE
  5
1F
330
3
100
AcDbSymbolTableRecord
100
AcDbTextStyleTableRecord
  2
KANJISTD
 70
     0
 40
0.0
 41
1.0
 50
0.0
 71
     0
 42
0.2
  3
txt
  4
extfont
  0
STYLE
  5
20
330
3
100
AcDbSymbolTableRecord
100
AcDbTextStyleTableRecord
  2
KANJITATE
 70
     4
 40
0.0
 41
1.0
 50
0.0
 71
     0
 42
0.2
  3
txt
  4
extfont
  0
ENDTAB
  0
TABLE
  2
VIEW
  5
5
330
0
100
AcDbSymbolTable
 70
     0
  0
ENDTAB
  0
TABLE
  2
UCS
  5
6
330
0
100
AcDbSymbolTable
 70
     0
  0
ENDTAB
  0
TABLE
  2
APPID
  5
8
330
0
100
AcDbSymbolTable
 70
     1
  0
APPID
  5
16
330
8
100
AcDbSymbolTableRecord
100
AcDbRegAppTableRecord
  2
ACAD
 70
     0
  0
ENDTAB
  0
TABLE
  2
DIMSTYLE
  5
9
330
0
100
AcDbSymbolTable
 70
     1
100
AcDbDimStyleTable
  0
DIMSTYLE
105
18
330
9
100
AcDbSymbolTableRecord
100
AcDbDimStyleTableRecord
  2
STANDARD
 70
     0
  3

  4

289
     0
340
17
  0
ENDTAB
  0
TABLE
  2
BLOCK_RECORD
  5
1
330
0
100
AcDbSymbolTable
 70
     0
  0
BLOCK_RECORD
  5
A
330
1
100
AcDbSymbolTableRecord
100
AcDbBlockTableRecord
  2
*MODEL_SPACE
340
DC
  0
BLOCK_RECORD
  5
B
330
1
100
AcDbSymbolTableRecord
100
AcDbBlockTableRecord
  2
*PAPER_SPACE
340
DD
  0
ENDTAB
  0
ENDSEC
  0
SECTION
  2
BLOCKS
  0
BLOCK
  5
D
330
A
100
AcDbEntity
  8
0
100
AcDbBlockBegin
  2
*MODEL_SPACE
 70
     0
 10
0.0
 20
0.0
 30
0.0
  3
*MODEL_SPACE
  1

  4

  0
ENDBLK
  5
E
330
A
100
AcDbEntity
  8
0
100
AcDbBlockEnd
  0
BLOCK
  5
F
330
B
100
AcDbEntity
 67
     1
  8
0
100
AcDbBlockBegin
  2
*PAPER_SPACE
 70
     0
 10
0.0
 20
0.0
 30
0.0
  3
*PAPER_SPACE
  1

  4

  0
ENDBLK
  5
10
330
B
100
AcDbEntity
 67
     1
  8
0
100
AcDbBlockEnd
  0
ENDSEC
  0
SECTION
  2
ENTITIES
  0
LWPOLYLINE
  5
C9
330
A
100
AcDbEntity
  8
LAYER_1
 62
     7
100
AcDbPolyline
 90
       12
 70
     0
 43
0.0
 10
69.32393391927083
 20
31.21445990668402
 10
41.6722195095486
 20
15.63039822048611
 10
35.80677218967013
 20
18.70945231119791
 10
35.87998046875
 20
23.32811957465277
 10
22.16970621744791
 20
22.96156141493055
 10
22.31629503038194
 20
26.77424858940972
 10
15.05782335069444
 20
30.73369683159722
 10
15.13120388454861
 20
38.87170138888889
 10
15.571142578125
 20
39.4582288953993
 10
14.98461507161458
 20
40.48469509548611
 10
15.27779269748264
 20
50.30890163845486
 10
37.16465657552083
 20
62.74380154079861
  0
LWPOLYLINE
  5
BB
330
A
100
AcDbEntity
  8
LAYER_1
 62
     7
100
AcDbPolyline
 90
       12
 70
     0
 43
0.0
 10
73.97860243055555
 20
83.65932074652777
 10
88.44834798177082
 20
91.88000759548611
 10
97.02629123263888
 20
87.11406249999999
 10
97.09967176649305
 20
83.74183078342013
 10
108.683977593316
 20
84.25497775607639
 10
108.3907999674479
 20
80.8820570203993
 10
117.5552707248264
 20
75.67703450520833
 10
117.7752400716146
 20
67.61206597222221
 10
117.4086819118923
 20
66.36528591579861
 10
117.9218288845486
 20
65.70555013020832
 10
117.7752400716146
 20
58.520458984375
 10
95.26481391059026
 20
45.83406711154513
  0
LWPOLYLINE
  5
B6
330
A
100
AcDbEntity
  8
LAYER_1
 62
     7
100
AcDbPolyline
 90
        3
 70
     0
 43
0.0
 10
60.07368028428819
 20
34.08973659939236
 10
41.8921888563368
 20
23.84178331163194
 10
36.09994981553819
 20
27.433984375
  0
LINE
  5
B5
330
A
100
AcDbEntity
  8
LAYER_1
 62
     7
100
AcDbLine
 10
117.3353013780382
 20
66.36528591579861
 30
0.0
 11
91.76597493489582
 21
51.95324571397569
 31
0.0
  0
LINE
  5
B4
330
A
100
AcDbEntity
  8
LAYER_1
 62
     7
100
AcDbLine
 10
87.8675048828125
 20
59.04411349826388
 30
0.0
 11
117.3353013780382
 21
75.60365397135416
 31
0.0
  0
LINE
  5
B3
330
A
100
AcDbEntity
  8
LAYER_1
 62
     7
100
AcDbLine
 10
42.18536648220486
 20
33.37281222873263
 30
0.0
 11
56.2634046766493
 21
41.28395724826389
 31
0.0
  0
LWPOLYLINE
  5
A2
330
A
100
AcDbEntity
  8
LAYER_1
 62
     7
100
AcDbPolyline
 90
       15
 70
     0
 43
0.0
 10
53.91264377170138
 20
53.27220052083333
 10
36.97965494791666
 20
63.0662624782986
 10
28.6216810438368
 20
78.97605794270832
 10
42.9184828016493
 20
87.04085422092012
 10
45.1912122938368
 20
92.97968207465277
 10
53.03603922526041
 20
97.23230794270833
 10
56.55554877387152
 20
94.88568115234374
 10
65.28025309244791
 20
99.57824571397569
 10
98.63980170355902
 20
39.89816758897569
 10
95.04691162109374
 20
37.77202690972222
 10
94.68035346137152
 20
34.25251736111111
 10
86.61555718315971
 20
30.14665256076389
 10
81.99637315538193
 20
30.66031629774305
 10
72.61193305121527
 20
25.67457411024305
 10
65.86660834418402
 20
37.33484429253472
  0
SPLINE
  5
A1
330
A
100
AcDbEntity
  8
LAYER_1
 62
     7
100
AcDbSpline
210
0.0
220
0.0
230
1.0
 70
     8
 71
     3
 72
     8
 73
     4
 74
     0
 42
0.0000000001
 43
0.0000000001
 40
0.0
 40
0.0
 40
0.0
 40
0.0
 40
1.0
 40
1.0
 40
1.0
 40
1.0
 10
41.13805745442708
 20
85.929638671875
 30
0.0
 10
42.01173366970486
 20
84.83823242187499
 30
0.0
 10
42.0162122938368
 20
84.82272949218749
 30
0.0
 10
42.0162122938368
 20
84.82272949218749
 30
0.0
  0
SPLINE
  5
A0
330
A
100
AcDbEntity
  8
LAYER_1
 62
     7
100
AcDbSpline
210
0.0
220
0.0
230
1.0
 70
     8
 71
     3
 72
     8
 73
     4
 74
     0
 42
0.0000000001
 43
0.0000000001
 40
0.0
 40
0.0
 40
0.0
 40
0.0
 40
1.0
 40
1.0
 40
1.0
 40
1.0
 10
39.17900390625
 20
84.84150526258679
 30
0.0
 10
39.91212022569444
 20
84.32835828993055
 30
0.0
 10
40.88622097439236
 20
83.40059407552083
 30
0.0
 10
41.25277913411458
 20
83.18062472873262
 30
0.0
  0
LWPOLYLINE
  5
9B
330
A
100
AcDbEntity
  8
LAYER_1
 62
     7
100
AcDbPolyline
 90
        3
 70
     0
 43
0.0
 10
37.63956298828125
 20
84.03500840928818
 10
40.79251437717014
 20
81.76176215277778
 10
42.9184828016493
 20
87.04085422092012
  0
SPLINE
  5
9A
330
A
100
AcDbEntity
  8
LAYER_1
 62
     7
100
AcDbSpline
210
0.0
220
0.0
230
1.0
 70
     8
 71
     3
 72
    11
 73
     7
 74
     0
 42
0.0000000001
 43
0.0000000001
 40
0.0
 40
0.0
 40
0.0
 40
0.0
 40
1.0
 40
1.0
 40
1.0
 40
2.0
 40
2.0
 40
2.0
 40
2.0
 10
51.37188585069444
 20
96.27801649305555
 30
0.0
 10
51.6652357313368
 20
95.61828070746527
 30
0.0
 10
52.00974527994791
 20
95.39882812499999
 30
0.0
 10
52.66948106553819
 20
95.25223931206597
 30
0.0
 10
53.32938910590277
 20
95.10565049913194
 30
0.0
 10
54.84678141276041
 20
94.67466905381944
 30
0.0
 10
54.77081705729166
 20
93.94913194444443
 30
0.0
  0
SPLINE
  5
99
330
A
100
AcDbEntity
  8
LAYER_1
 62
     7
100
AcDbSpline
210
0.0
220
0.0
230
1.0
 70
     8
 71
     3
 72
    11
 73
     7
 74
     0
 42
0.0000000001
 43
0.0000000001
 40
0.0
 40
0.0
 40
0.0
 40
0.0
 40
1.0
 40
1.0
 40
1.0
 40
2.0
 40
2.0
 40
2.0
 40
2.0
 10
48.71072184244791
 20
94.88568115234374
 30
0.0
 10
49.15048828125
 20
94.1525648328993
 30
0.0
 10
49.81039632161458
 20
93.85938720703125
 30
0.0
 10
50.47013210720485
 20
93.78600667317707
 30
0.0
 10
51.13004014756944
 20
93.71279839409722
 30
0.0
 10
52.25004069010416
 20
93.14711371527777
 30
0.0
 10
52.28862575954861
 20
92.4598171657986
 30
0.0
  0
SPLINE
  5
98
330
A
100
AcDbEntity
  8
LAYER_1
 62
     7
100
AcDbSpline
210
0.0
220
0.0
230
1.0
 70
     8
 71
     3
 72
    11
 73
     7
 74
     0
 42
0.0000000001
 43
0.0000000001
 40
0.0
 40
0.0
 40
0.0
 40
0.0
 40
1.0
 40
1.0
 40
1.0
 40
2.0
 40
2.0
 40
2.0
 40
2.0
 10
46.43799235026042
 20
93.71279839409722
 30
0.0
 10
47.02451985677083
 20
93.19947916666666
 30
0.0
 10
47.68425564236111
 20
92.83292100694443
 30
0.0
 10
48.27078314887152
 20
92.6863321940104
 30
0.0
 10
48.85731065538194
 20
92.53974338107638
 30
0.0
 10
49.8885999891493
 20
91.49295111762152
 30
0.0
 10
50.03518880208333
 20
91.19977349175346
 30
0.0
  0
LWPOLYLINE
  5
92
330
A
100
AcDbEntity
  8
LAYER_1
 62
     7
100
AcDbPolyline
 90
        4
 70
     0
 43
0.0
 10
90.1438517252604
 20
35.1670179578993
 10
56.55554877387152
 20
94.88568115234374
 10
48.63734130859375
 20
90.34039442274305
 10
45.33780110677083
 20
92.97968207465277
  0
SPLINE
  5
91
330
A
100
AcDbEntity
  8
LAYER_1
 62
     7
100
AcDbSpline
210
0.0
220
0.0
230
1.0
 70
     8
 71
     3
 72
     8
 73
     4
 74
     0
 42
0.0000000001
 43
0.0000000001
 40
0.0
 40
0.0
 40
0.0
 40
0.0
 40
1.0
 40
1.0
 40
1.0
 40
1.0
 10
87.64185112847221
 20
33.59278157552083
 30
0.0
 10
87.56864284939235
 20
32.85966525607638
 30
0.0
 10
87.35194634331596
 20
31.13884006076389
 30
0.0
 10
88.15844319661457
 20
30.99207899305555
 30
0.0
  0
SPLINE
  5
90
330
A
100
AcDbEntity
  8
LAYER_1
 62
     7
100
AcDbSpline
210
0.0
220
0.0
230
1.0
 70
     8
 71
     3
 72
     8
 73
     4
 74
     0
 42
0.0000000001
 43
0.0000000001
 40
0.0
 40
0.0
 40
0.0
 40
0.0
 40
1.0
 40
1.0
 40
1.0
 40
1.0
 10
89.3280531141493
 20
34.54586724175347
 30
0.0
 10
89.54802246093749
 20
33.73937038845486
 30
0.0
 10
90.21120334201387
 20
32.47278103298611
 30
0.0
 10
89.99123399522568
 20
31.95946180555555
 30
0.0
  0
SPLINE
  5
8F
330
A
100
AcDbEntity
  8
LAYER_1
 62
     7
100
AcDbSpline
210
0.0
220
0.0
230
1.0
 70
     8
 71
     3
 72
     8
 73
     4
 74
     0
 42
0.0000000001
 43
0.0000000001
 40
0.0
 40
0.0
 40
0.0
 40
0.0
 40
1.0
 40
1.0
 40
1.0
 40
1.0
 10
91.89447699652777
 20
36.01209988064236
 30
0.0
 10
91.82126871744791
 20
35.20560302734375
 30
0.0
 10
92.58797471788193
 20
33.33422715928819
 30
0.0
 10
92.58797471788193
 20
33.33422715928819
 30
0.0
  0
LWPOLYLINE
  5
8A
330
A
100
AcDbEntity
  8
LAYER_1
 62
     7
100
AcDbPolyline
 90
        3
 70
     0
 43
0.0
 10
86.46896837022568
 20
30.22037760416666
 10
86.54217664930555
 20
33.07963460286458
 10
94.97370334201388
 20
37.77202690972222
  0
SPLINE
  5
89
330
A
100
AcDbEntity
  8
LAYER_1
 62
     7
100
AcDbSpline
210
0.0
220
0.0
230
1.0
 70
     8
 71
     3
 72
    14
 73
    10
 74
     0
 42
0.0000000001
 43
0.0000000001
 40
0.0
 40
0.0
 40
0.0
 40
0.0
 40
1.0
 40
1.0
 40
1.0
 40
2.0
 40
2.0
 40
2.0
 40
3.0
 40
3.0
 40
3.0
 40
3.0
 10
35.8431179470486
 20
20.76221245659722
 30
0.0
 10
36.35678168402777
 20
20.76221245659722
 30
0.0
 10
36.68647732204861
 20
20.61562364366319
 30
0.0
 10
37.126416015625
 20
20.1756849500868
 30
0.0
 10
37.56618245442708
 20
19.73574625651041
 30
0.0
 10
38.84948052300347
 20
18.23265109592014
 30
0.0
 10
39.17900390625
 20
17.79271240234375
 30
0.0
 10
39.50921630859374
 20
17.35294596354166
 30
0.0
 10
39.8394287109375
 20
16.80328097873264
 30
0.0
 10
40.24233262803819
 20
16.47324083116319
 30
0.0
  0
SPLINE
  5
88
330
A
100
AcDbEntity
  8
LAYER_1
 62
     7
100
AcDbSpline
210
0.0
220
0.0
230
1.0
 70
     8
 71
     3
 72
    14
 73
    10
 74
     0
 42
0.0000000001
 43
0.0000000001
 40
0.0
 40
0.0
 40
0.0
 40
0.0
 40
1.0
 40
1.0
 40
1.0
 40
2.0
 40
2.0
 40
2.0
 40
3.0
 40
3.0
 40
3.0
 40
3.0
 10
35.98970675998264
 20
23.14501274956597
 30
0.0
 10
36.28357340494792
 20
23.18135850694444
 30
0.0
 10
36.46650797526041
 20
23.21839328342014
 30
0.0
 10
36.94330919053819
 20
22.81480034722222
 30
0.0
 10
37.41959364149305
 20
22.41189643012153
 30
0.0
 10
39.28924696180555
 20
20.50589735243056
 30
0.0
 10
39.54556206597222
 20
20.06595865885416
 30
0.0
 10
39.80256618923611
 20
19.62619222005208
 30
0.0
 10
40.93910319010416
 20
18.04971652560764
 30
0.0
 10
41.48859592013888
 20
17.97633599175347
 30
0.0
  0
SPLINE
  5
87
330
A
100
AcDbEntity
  8
LAYER_1
 62
     7
100
AcDbSpline
210
0.0
220
0.0
230
1.0
 70
     8
 71
     3
 72
    11
 73
     7
 74
     0
 42
0.0000000001
 43
0.0000000001
 40
0.0
 40
0.0
 40
0.0
 40
0.0
 40
1.0
 40
1.0
 40
1.0
 40
2.0
 40
2.0
 40
2.0
 40
2.0
 10
37.9327406141493
 20
26.37082790798611
 30
0.0
 10
38.81313476562499
 20
26.48107096354167
 30
0.0
 10
39.65580512152778
 20
26.48107096354167
 30
0.0
 10
40.31571316189235
 20
26.73790283203125
 30
0.0
 10
40.97544894748263
 20
26.99421793619791
 30
0.0
 10
41.52563069661458
 20
26.95787217881944
 30
0.0
 10
41.81880832248264
 20
27.14080674913194
 30
0.0
  0
SPLINE
  5
86
330
A
100
AcDbEntity
  8
LAYER_1
 62
     7
100
AcDbSpline
210
0.0
220
0.0
230
1.0
 70
     8
 71
     3
 72
    11
 73
     7
 74
     0
 42
0.0000000001
 43
0.0000000001
 40
0.0
 40
0.0
 40
0.0
 40
0.0
 40
1.0
 40
1.0
 40
1.0
 40
2.0
 40
2.0
 40
2.0
 40
2.0
 10
35.98970675998264
 20
28.35072428385416
 30
0.0
 10
36.57675103081597
 20
28.53365885416666
 30
0.0
 10
38.1527099609375
 20
28.71728244357639
 30
0.0
 10
38.5561306423611
 20
28.86387125651041
 30
0.0
 10
38.9592068142361
 20
29.01046006944444
 30
0.0
 10
41.34200710720486
 20
29.4867445203993
 30
0.0
 10
41.85515407986111
 20
29.41353624131944
 30
0.0
  0
SPLINE
  5
85
330
A
100
AcDbEntity
  8
LAYER_1
 62
     7
100
AcDbSpline
210
0.0
220
0.0
230
1.0
 70
     8
 71
     3
 72
    11
 73
     7
 74
     0
 42
0.0000000001
 43
0.0000000001
 40
0.0
 40
0.0
 40
0.0
 40
0.0
 40
1.0
 40
1.0
 40
1.0
 40
2.0
 40
2.0
 40
2.0
 40
2.0
 10
36.06360405815972
 20
30.95349392361111
 30
0.0
 10
36.87010091145833
 20
31.1734632703993
 30
0.0
 10
37.56618245442708
 20
31.10025499131944
 30
0.0
 10
38.1527099609375
 20
31.10025499131944
 30
0.0
 10
38.73923746744791
 20
31.10025499131944
 30
0.0
 10
41.59883897569444
 20
31.75999077690972
 30
0.0
 10
41.96539713541667
 20
31.64974772135416
 30
0.0
  0
SPLINE
  5
84
330
A
100
AcDbEntity
  8
LAYER_1
 62
     7
100
AcDbSpline
210
0.0
220
0.0
230
1.0
 70
     8
 71
     3
 72
    14
 73
    10
 74
     0
 42
0.0000000001
 43
0.0000000001
 40
0.0
 40
0.0
 40
0.0
 40
0.0
 40
1.0
 40
1.0
 40
1.0
 40
2.0
 40
2.0
 40
2.0
 40
3.0
 40
3.0
 40
3.0
 40
3.0
 10
36.13698459201389
 20
33.73937038845486
 30
0.0
 10
36.57675103081597
 20
33.70250786675347
 30
0.0
 10
37.27300482855902
 20
33.6291273328993
 30
0.0
 10
37.52983669704861
 20
33.48253851996527
 30
0.0
 10
37.78615180121528
 20
33.33594970703125
 30
0.0
 10
39.47287055121527
 20
33.18936089409722
 30
0.0
 10
39.8394287109375
 20
33.29960394965278
 30
0.0
 10
40.20598687065972
 20
33.40915798611111
 30
0.0
 10
41.19541829427083
 20
33.4461927625868
 30
0.0
 10
41.34200710720486
 20
33.66616210937499
 30
0.0
  0
SPLINE
  5
83
330
A
100
AcDbEntity
  8
LAYER_1
 62
     7
100
AcDbSpline
210
0.0
220
0.0
230
1.0
 70
     8
 71
     3
 72
    17
 73
    13
 74
     0
 42
0.0000000001
 43
0.0000000001
 40
0.0
 40
0.0
 40
0.0
 40
0.0
 40
1.0
 40
1.0
 40
1.0
 40
2.0
 40
2.0
 40
2.0
 40
3.0
 40
3.0
 40
3.0
 40
4.0
 40
4.0
 40
4.0
 40
4.0
 10
22.13336046006944
 20
23.80492078993055
 30
0.0
 10
22.90282253689236
 20
24.1349609375
 30
0.0
 10
24.62588704427083
 20
24.20834147135416
 30
0.0
 10
25.28562282986111
 20
24.3180677625868
 30
0.0
 10
25.94553087022569
 20
24.42831081814236
 30
0.0
 10
28.69488932291667
 20
24.86807725694444
 30
0.0
 10
29.20820855034722
 20
24.72148844401042
 30
0.0
 10
29.72135552300347
 20
24.57489963107639
 30
0.0
 10
31.95756700303819
 20
24.50151909722222
 30
0.0
 10
32.61747504340278
 20
24.57489963107639
 30
0.0
 10
33.27721082899306
 20
24.64828016493055
 30
0.0
 10
35.32997097439236
 20
24.50151909722222
 30
0.0
 10
35.66018337673611
 20
24.42831081814236
 30
0.0
  0
SPLINE
  5
82
330
A
100
AcDbEntity
  8
LAYER_1
 62
     7
100
AcDbSpline
210
0.0
220
0.0
230
1.0
 70
     8
 71
     3
 72
    29
 73
    25
 74
     0
 42
0.0000000001
 43
0.0000000001
 40
0.0
 40
0.0
 40
0.0
 40
0.0
 40
1.0
 40
1.0
 40
1.0
 40
2.0
 40
2.0
 40
2.0
 40
3.0
 40
3.0
 40
3.0
 40
4.0
 40
4.0
 40
4.0
 40
5.0
 40
5.0
 40
5.0
 40
6.0
 40
6.0
 40
6.0
 40
7.0
 40
7.0
 40
7.0
 40
8.0
 40
8.0
 40
8.0
 40
8.0
 10
22.35315755208333
 20
25.93088921440972
 30
0.0
 10
23.34258897569444
 20
26.37082790798611
 30
0.0
 10
25.28562282986111
 20
26.26110161675347
 30
0.0
 10
25.98239339192708
 20
26.15085856119791
 30
0.0
 10
26.67864718967014
 20
26.04113226996527
 30
0.0
 10
29.72135552300347
 20
26.15085856119791
 30
0.0
 10
30.01453314887153
 20
26.22406684027778
 30
0.0
 10
30.30788302951389
 20
26.29796413845486
 30
0.0
 10
32.03094753689236
 20
26.11451280381944
 30
0.0
 10
33.05724148220486
 20
25.89454345703125
 30
0.0
 10
34.08370768229166
 20
25.67457411024305
 30
0.0
 10
35.58680284288194
 20
25.381396484375
 30
0.0
 10
35.77042643229166
 20
25.3443617078993
 30
0.0
 10
35.95336100260416
 20
25.30801595052083
 30
0.0
 10
36.94330919053819
 20
24.83121473524306
 30
0.0
 10
37.19962429470485
 20
24.90459526909722
 30
0.0
 10
37.45645616319444
 20
24.97780354817708
 30
0.0
 10
38.81313476562499
 20
24.06175265842014
 30
0.0
 10
39.21603868272569
 20
23.694677734375
 30
0.0
 10
39.61894259982638
 20
23.32811957465277
 30
0.0
 10
40.05888129340278
 20
22.55848524305555
 30
0.0
 10
40.53568250868055
 20
22.00847574869792
 30
0.0
 10
41.01248372395833
 20
21.45898301866319
 30
0.0
 10
40.86572265624999
 20
20.83542073567708
 30
0.0
 10
41.63535698784722
 20
20.72586669921875
 30
0.0
  0
SPLINE
  5
81
330
A
100
AcDbEntity
  8
LAYER_1
 62
     7
100
AcDbSpline
210
0.0
220
0.0
230
1.0
 70
     8
 71
     3
 72
    17
 73
    13
 74
     0
 42
0.0000000001
 43
0.0000000001
 40
0.0
 40
0.0
 40
0.0
 40
0.0
 40
1.0
 40
1.0
 40
1.0
 40
2.0
 40
2.0
 40
2.0
 40
3.0
 40
3.0
 40
3.0
 40
4.0
 40
4.0
 40
4.0
 40
4.0
 10
22.4265380859375
 20
28.20413547092014
 30
0.0
 10
23.74618191189236
 20
28.27734375
 30
0.0
 10
25.76242404513889
 20
28.05754665798611
 30
0.0
 10
26.60526665581597
 20
28.09389241536458
 30
0.0
 10
27.44862603081597
 20
28.13075493706597
 30
0.0
 10
28.58464626736111
 20
28.13075493706597
 30
0.0
 10
29.28141682942708
 20
27.94730360243055
 30
0.0
 10
29.97818739149305
 20
27.76419677734375
 30
0.0
 10
30.89423828125
 20
27.50736490885416
 30
0.0
 10
31.51780056423611
 20
27.65395372178819
 30
0.0
 10
32.14119059244791
 20
27.80054253472222
 30
0.0
 10
35.18338216145833
 20
27.32443033854166
 30
0.0
 10
35.62366536458333
 20
27.433984375
 30
0.0
  0
SPLINE
  5
80
330
A
100
AcDbEntity
  8
LAYER_1
 62
     7
100
AcDbSpline
210
0.0
220
0.0
230
1.0
 70
     8
 71
     3
 72
    17
 73
    13
 74
     0
 42
0.0000000001
 43
0.0000000001
 40
0.0
 40
0.0
 40
0.0
 40
0.0
 40
1.0
 40
1.0
 40
1.0
 40
2.0
 40
2.0
 40
2.0
 40
3.0
 40
3.0
 40
3.0
 40
4.0
 40
4.0
 40
4.0
 40
4.0
 10
22.49991861979166
 20
30.22037760416666
 30
0.0
 10
23.19600016276041
 20
30.367138671875
 30
0.0
 10
25.68921576605903
 20
30.11013454861111
 30
0.0
 10
26.60526665581597
 20
30.22037760416666
 30
0.0
 10
27.52200656467014
 20
30.3301038953993
 30
0.0
 10
29.53824869791666
 20
30.367138671875
 30
0.0
 10
30.30788302951389
 20
30.29324137369791
 30
0.0
 10
31.07786187065972
 20
30.22037760416666
 30
0.0
 10
33.20383029513889
 20
30.25689561631944
 30
0.0
 10
33.827392578125
 20
30.00058051215278
 30
0.0
 10
34.45026584201388
 20
29.74357638888889
 30
0.0
 10
35.51342230902777
 20
29.4867445203993
 30
0.0
 10
35.8431179470486
 20
29.34015570746528
 30
0.0
  0
SPLINE
  5
7F
330
A
100
AcDbEntity
  8
LAYER_1
 62
     7
100
AcDbSpline
210
0.0
220
0.0
230
1.0
 70
     8
 71
     3
 72
    23
 73
    19
 74
     0
 42
0.0000000001
 43
0.0000000001
 40
0.0
 40
0.0
 40
0.0
 40
0.0
 40
1.0
 40
1.0
 40
1.0
 40
2.0
 40
2.0
 40
2.0
 40
3.0
 40
3.0
 40
3.0
 40
4.0
 40
4.0
 40
4.0
 40
5.0
 40
5.0
 40
5.0
 40
6.0
 40
6.0
 40
6.0
 40
6.0
 10
22.57312689887153
 20
35.38922661675347
 30
0.0
 10
23.45283203125
 20
35.5358154296875
 30
0.0
 10
24.36905517578125
 20
35.60919596354167
 30
0.0
 10
25.43238389756944
 20
35.42557237413194
 30
0.0
 10
26.49554036458333
 20
35.24263780381944
 30
0.0
 10
29.09848225911458
 20
35.16925726996527
 30
0.0
 10
29.685009765625
 20
35.16925726996527
 30
0.0
 10
30.27136501736111
 20
35.16925726996527
 30
0.0
 10
32.17753634982638
 20
34.76583658854166
 30
0.0
 10
33.16748453776042
 20
35.05901421440972
 30
0.0
 10
34.15691596137152
 20
35.35219184027778
 30
0.0
 10
35.77042643229166
 20
35.24263780381944
 30
0.0
 10
36.13698459201389
 20
35.46243489583333
 30
0.0
 10
36.43016221788194
 20
35.20560302734375
 30
0.0
 10
36.39329969618056
 20
35.05901421440972
 30
0.0
 10
37.01668972439236
 20
35.02266845703124
 30
0.0
 10
37.63956298828125
 20
34.98563368055555
 30
0.0
 10
38.59264865451389
 20
34.80269911024305
 30
0.0
 10
38.81313476562499
 20
35.05901421440972
 30
0.0
  0
SPLINE
  5
7E
330
A
100
AcDbEntity
  8
LAYER_1
 62
     7
100
AcDbSpline
210
0.0
220
0.0
230
1.0
 70
     8
 71
     3
 72
    20
 73
    16
 74
     0
 42
0.0000000001
 43
0.0000000001
 40
0.0
 40
0.0
 40
0.0
 40
0.0
 40
1.0
 40
1.0
 40
1.0
 40
2.0
 40
2.0
 40
2.0
 40
3.0
 40
3.0
 40
3.0
 40
4.0
 40
4.0
 40
4.0
 40
5.0
 40
5.0
 40
5.0
 40
5.0
 10
22.57312689887153
 20
33.77640516493055
 30
0.0
 10
23.37962375217014
 20
33.88595920138889
 30
0.0
 10
24.51564398871528
 20
33.6291273328993
 30
0.0
 10
25.50559217664931
 20
33.4461927625868
 30
0.0
 10
26.49554036458333
 20
33.26256917317708
 30
0.0
 10
28.98823920355903
 20
32.89601101345486
 30
0.0
 10
29.61162923177083
 20
32.74942220052083
 30
0.0
 10
30.23450249565972
 20
32.60283338758681
 30
0.0
 10
30.34474555121528
 20
32.38286404079861
 30
0.0
 10
31.70125189887153
 20
32.4197265625
 30
0.0
 10
32.77784423828125
 20
32.44728732638889
 30
0.0
 10
34.08370768229166
 20
33.04259982638889
 30
0.0
 10
34.56050889756944
 20
33.11598036024305
 30
0.0
 10
35.03662109375
 20
33.18936089409722
 30
0.0
 10
35.58680284288194
 20
33.4461927625868
 30
0.0
 10
36.02674153645833
 20
33.22622341579861
 30
0.0
  0
SPLINE
  5
7D
330
A
100
AcDbEntity
  8
LAYER_1
 62
     7
100
AcDbSpline
210
0.0
220
0.0
230
1.0
 70
     8
 71
     3
 72
    14
 73
    10
 74
     0
 42
0.0000000001
 43
0.0000000001
 40
0.0
 40
0.0
 40
0.0
 40
0.0
 40
1.0
 40
1.0
 40
1.0
 40
2.0
 40
2.0
 40
2.0
 40
3.0
 40
3.0
 40
3.0
 40
3.0
 10
15.09485812717014
 20
33.18936089409722
 30
0.0
 10
15.79093967013889
 20
33.33594970703125
 30
0.0
 10
15.42438151041667
 20
33.33594970703125
 30
0.0
 10
16.59795328776042
 20
32.78628472222222
 30
0.0
 10
17.77100830078125
 20
32.23627522786458
 30
0.0
 10
18.2841552734375
 20
31.64974772135416
 30
0.0
 10
18.61385091145833
 20
31.10025499131944
 30
0.0
 10
18.94389105902778
 20
30.5500732421875
 30
0.0
 10
20.26353488498264
 20
28.93725179036458
 30
0.0
 10
19.93332248263889
 20
28.20413547092014
 30
0.0
  0
SPLINE
  5
7C
330
A
100
AcDbEntity
  8
LAYER_1
 62
     7
100
AcDbSpline
210
0.0
220
0.0
230
1.0
 70
     8
 71
     3
 72
    17
 73
    13
 74
     0
 42
0.0000000001
 43
0.0000000001
 40
0.0
 40
0.0
 40
0.0
 40
0.0
 40
1.0
 40
1.0
 40
1.0
 40
2.0
 40
2.0
 40
2.0
 40
3.0
 40
3.0
 40
3.0
 40
4.0
 40
4.0
 40
4.0
 40
4.0
 10
15.20458441840278
 20
35.42557237413194
 30
0.0
 10
15.68138563368055
 20
35.5358154296875
 30
0.0
 10
16.12115207248264
 20
35.90237358940972
 30
0.0
 10
17.11110026041667
 20
35.24263780381944
 30
0.0
 10
18.10053168402778
 20
34.58272976345486
 30
0.0
 10
18.87068277994792
 20
34.32589789496527
 30
0.0
 10
19.27358669704861
 20
33.77640516493055
 30
0.0
 10
19.67700737847222
 20
33.22622341579861
 30
0.0
 10
20.08008355034722
 20
31.86971706814236
 30
0.0
 10
20.7398193359375
 20
31.61340196397569
 30
0.0
 10
21.400244140625
 20
31.35657009548611
 30
0.0
 10
21.76680230034722
 20
30.47669270833333
 30
0.0
 10
22.2065687391493
 20
29.85381944444444
 30
0.0
  0
SPLINE
  5
7B
330
A
100
AcDbEntity
  8
LAYER_1
 62
     7
100
AcDbSpline
210
0.0
220
0.0
230
1.0
 70
     8
 71
     3
 72
    14
 73
    10
 74
     0
 42
0.0000000001
 43
0.0000000001
 40
0.0
 40
0.0
 40
0.0
 40
0.0
 40
1.0
 40
1.0
 40
1.0
 40
2.0
 40
2.0
 40
2.0
 40
3.0
 40
3.0
 40
3.0
 40
3.0
 10
15.13120388454861
 20
38.17510308159722
 30
0.0
 10
16.08428955078125
 20
38.06537679036458
 30
0.0
 10
16.45084771050347
 20
37.88175320095485
 30
0.0
 10
17.257861328125
 20
37.18498263888888
 30
0.0
 10
18.06366916232639
 20
36.48890109592013
 30
0.0
 10
19.12699788411458
 20
35.97575412326388
 30
0.0
 10
19.89697672526042
 20
35.24263780381944
 30
0.0
 10
20.66712782118055
 20
34.50883246527778
 30
0.0
 10
21.400244140625
 20
33.37281222873263
 30
0.0
 10
22.16970621744791
 20
33.00625406901042
 30
0.0
  0
SPLINE
  5
7A
330
A
100
AcDbEntity
  8
LAYER_1
 62
     7
100
AcDbSpline
210
0.0
220
0.0
230
1.0
 70
     8
 71
     3
 72
    14
 73
    10
 74
     0
 42
0.0000000001
 43
0.0000000001
 40
0.0
 40
0.0
 40
0.0
 40
0.0
 40
1.0
 40
1.0
 40
1.0
 40
2.0
 40
2.0
 40
2.0
 40
3.0
 40
3.0
 40
3.0
 40
3.0
 10
15.05782335069444
 20
42.24410536024305
 30
0.0
 10
16.08428955078125
 20
42.06117078993055
 30
0.0
 10
16.63429904513889
 20
41.76730414496527
 30
0.0
 10
17.18448079427083
 20
41.07105034722222
 30
0.0
 10
17.73397352430555
 20
40.37445203993055
 30
0.0
 10
18.83364800347222
 20
39.2382595486111
 30
0.0
 10
19.27358669704861
 20
38.8348388671875
 30
0.0
 10
19.713525390625
 20
38.4319349500868
 30
0.0
 10
20.88640814887152
 20
36.96570231119792
 30
0.0
 10
21.76680230034722
 20
36.41552056206597
 30
0.0
  0
SPLINE
  5
79
330
A
100
AcDbEntity
  8
LAYER_1
 62
     7
100
AcDbSpline
210
0.0
220
0.0
230
1.0
 70
     8
 71
     3
 72
    17
 73
    13
 74
     0
 42
0.0000000001
 43
0.0000000001
 40
0.0
 40
0.0
 40
0.0
 40
0.0
 40
1.0
 40
1.0
 40
1.0
 40
2.0
 40
2.0
 40
2.0
 40
3.0
 40
3.0
 40
3.0
 40
4.0
 40
4.0
 40
4.0
 40
4.0
 10
22.64650743272569
 20
37.77202690972222
 30
0.0
 10
23.26938069661458
 20
37.88175320095485
 30
0.0
 10
24.29567464192708
 20
38.10172254774305
 30
0.0
 10
25.21241455078125
 20
37.62543809678819
 30
0.0
 10
26.12898220486111
 20
37.14863688151041
 30
0.0
 10
28.98823920355903
 20
36.63548990885416
 30
0.0
 10
29.94132486979166
 20
36.67183566623264
 30
0.0
 10
30.89423828125
 20
36.70887044270833
 30
0.0
 10
34.26715901692708
 20
37.00204806857639
 30
0.0
 10
34.8536865234375
 20
37.18498263888888
 30
0.0
 10
35.44021402994791
 20
37.36860622829861
 30
0.0
 10
36.24653862847222
 20
37.29522569444444
 30
0.0
 10
36.24653862847222
 20
37.29522569444444
 30
0.0
  0
SPLINE
  5
78
330
A
100
AcDbEntity
  8
LAYER_1
 62
     7
100
AcDbSpline
210
0.0
220
0.0
230
1.0
 70
     8
 71
     3
 72
    23
 73
    19
 74
     0
 42
0.0000000001
 43
0.0000000001
 40
0.0
 40
0.0
 40
0.0
 40
0.0
 40
1.0
 40
1.0
 40
1.0
 40
2.0
 40
2.0
 40
2.0
 40
3.0
 40
3.0
 40
3.0
 40
4.0
 40
4.0
 40
4.0
 40
5.0
 40
5.0
 40
5.0
 40
6.0
 40
6.0
 40
6.0
 40
6.0
 10
22.82944200303819
 20
40.11813693576389
 30
0.0
 10
23.6359388563368
 20
39.97137586805555
 30
0.0
 10
23.6359388563368
 20
39.97137586805555
 30
0.0
 10
23.6359388563368
 20
39.97137586805555
 30
0.0
 10
23.6359388563368
 20
39.97137586805555
 30
0.0
 10
24.00249701605902
 20
40.00789388020833
 30
0.0
 10
24.58954128689236
 20
39.71454399956597
 30
0.0
 10
25.17606879340278
 20
39.42136637369791
 30
0.0
 10
26.42233208550347
 20
39.34798583984374
 30
0.0
 10
27.30203721788194
 20
39.42136637369791
 30
0.0
 10
28.18174235026041
 20
39.49457465277777
 30
0.0
 10
29.42800564236111
 20
39.6781982421875
 30
0.0
 10
30.34474555121528
 20
39.4582288953993
 30
0.0
 10
31.26079644097222
 20
39.2382595486111
 30
0.0
 10
33.71714952256944
 20
39.20139702690972
 30
0.0
 10
34.37688530815972
 20
39.12801649305555
 30
0.0
 10
35.03662109375
 20
39.05480821397569
 30
0.0
 10
35.51342230902777
 20
38.98142768012153
 30
0.0
 10
36.17333034939236
 20
39.16505126953125
 30
0.0
  0
SPLINE
  5
77
330
A
100
AcDbEntity
  8
LAYER_1
 62
     7
100
AcDbSpline
210
0.0
220
0.0
230
1.0
 70
     8
 71
     3
 72
    17
 73
    13
 74
     0
 42
0.0000000001
 43
0.0000000001
 40
0.0
 40
0.0
 40
0.0
 40
0.0
 40
1.0
 40
1.0
 40
1.0
 40
2.0
 40
2.0
 40
2.0
 40
3.0
 40
3.0
 40
3.0
 40
4.0
 40
4.0
 40
4.0
 40
4.0
 10
15.16806640625
 20
45.36019422743055
 30
0.0
 10
15.68138563368055
 20
45.4704372829861
 30
0.0
 10
16.48771023220486
 20
45.06684434678819
 30
0.0
 10
16.67081705729166
 20
44.55369737413194
 30
0.0
 10
16.85426839192708
 20
44.04055040147569
 30
0.0
 10
17.51417643229167
 20
42.7572523328993
 30
0.0
 10
18.21077473958333
 20
42.39069417317708
 30
0.0
 10
18.90702853732639
 20
42.02413601345486
 30
0.0
 10
19.86011420355903
 20
41.14443088107639
 30
0.0
 10
20.29988064236111
 20
40.66762966579861
 30
0.0
 10
20.7398193359375
 20
40.19134521484374
 30
0.0
 10
22.02311740451389
 20
38.94508192274305
 30
0.0
 10
22.49991861979166
 20
38.90821940104166
 30
0.0
  0
SPLINE
  5
76
330
A
100
AcDbEntity
  8
LAYER_1
 62
     7
100
AcDbSpline
210
0.0
220
0.0
230
1.0
 70
     8
 71
     3
 72
    14
 73
    10
 74
     0
 42
0.0000000001
 43
0.0000000001
 40
0.0
 40
0.0
 40
0.0
 40
0.0
 40
1.0
 40
1.0
 40
1.0
 40
2.0
 40
2.0
 40
2.0
 40
3.0
 40
3.0
 40
3.0
 40
3.0
 10
19.93332248263889
 20
47.19298502604166
 30
0.0
 10
20.19032660590278
 20
46.57011176215277
 30
0.0
 10
20.19032660590278
 20
46.20355360243055
 30
0.0
 10
20.48350423177083
 20
45.83699544270833
 30
0.0
 10
20.77668185763889
 20
45.4704372829861
 30
0.0
 10
20.88640814887152
 20
44.95711805555555
 30
0.0
 10
21.32686360677083
 20
44.81001247829861
 30
0.0
 10
21.76680230034722
 20
44.66342366536458
 30
0.0
 10
22.49991861979166
 20
44.48031684027777
 30
0.0
 10
22.64650743272569
 20
44.37007378472222
 30
0.0
  0
SPLINE
  5
75
330
A
100
AcDbEntity
  8
LAYER_1
 62
     7
100
AcDbSpline
210
0.0
220
0.0
230
1.0
 70
     8
 71
     3
 72
    17
 73
    13
 74
     0
 42
0.0000000001
 43
0.0000000001
 40
0.0
 40
0.0
 40
0.0
 40
0.0
 40
1.0
 40
1.0
 40
1.0
 40
2.0
 40
2.0
 40
2.0
 40
3.0
 40
3.0
 40
3.0
 40
4.0
 40
4.0
 40
4.0
 40
4.0
 10
16.15749782986111
 20
49.57578531901041
 30
0.0
 10
16.15749782986111
 20
48.76946072048611
 30
0.0
 10
16.04794379340278
 20
48.10955268012152
 30
0.0
 10
16.63429904513889
 20
47.48616265190972
 30
0.0
 10
17.2208265516493
 20
46.86328938802083
 30
0.0
 10
18.65071343315972
 20
45.21343315972222
 30
0.0
 10
19.09065212673611
 20
44.77366672092013
 30
0.0
 10
19.53041856553819
 20
44.33372802734375
 30
0.0
 10
21.21662055121528
 20
43.12381049262152
 30
0.0
 10
21.65655924479167
 20
42.7572523328993
 30
0.0
 10
22.09632568359375
 20
42.39069417317708
 30
0.0
 10
22.60947265625
 20
42.46407470703124
 30
0.0
 10
22.64650743272569
 20
42.13437906901041
 30
0.0
  0
LINE
  5
74
330
A
100
AcDbEntity
  8
LAYER_1
 62
     7
100
AcDbLine
 10
22.31629503038194
 20
26.84762912326389
 30
0.0
 11
22.68285319010417
 21
40.55790337456597
 31
0.0
  0
LINE
  5
73
330
A
100
AcDbEntity
  8
LAYER_1
 62
     7
100
AcDbLine
 10
35.80677218967013
 20
23.40184461805555
 30
0.0
 11
36.24653862847222
 21
36.67183566623264
 31
0.0
  0
LINE
  5
72
330
A
100
AcDbEntity
  8
LAYER_1
 62
     7
100
AcDbLine
 10
22.38967556423611
 20
31.83337131076389
 30
0.0
 11
36.09994981553819
 21
31.83337131076389
 31
0.0
  0
LINE
  5
71
330
A
100
AcDbEntity
  8
LAYER_1
 62
     7
100
AcDbLine
 10
15.49776204427083
 20
39.53160942925347
 30
0.0
 11
22.53626437717014
 21
35.86551106770833
 31
0.0
  0
LWPOLYLINE
  5
68
330
A
100
AcDbEntity
  8
LAYER_1
 62
     7
100
AcDbPolyline
 90
        7
 70
     0
 43
0.0
 10
15.31482747395833
 20
50.235693359375
 10
22.75623372395833
 20
45.4704372829861
 10
22.68285319010417
 20
40.63128390842014
 10
36.39329969618056
 20
40.77787272135416
 10
36.24653862847222
 20
36.7452162000868
 10
42.18536648220486
 20
33.29960394965278
 10
41.59883897569444
 20
15.77698703342014
  0
LWPOLYLINE
  5
53
330
A
100
AcDbEntity
  8
LAYER_1
 62
     7
100
AcDbPolyline
 90
       19
 70
     1
 43
0.0
 10
59.96481526692708
 20
34.10592854817708
 10
58.90148654513888
 20
34.39927842881944
 10
59.04824761284722
 20
38.94508192274305
 10
56.11578233506944
 20
40.52104085286458
 10
56.07874755859375
 20
41.7309583875868
 10
45.88798285590278
 20
47.52302517361111
 10
45.88798285590278
 20
49.02629258897569
 10
49.04024522569444
 20
50.71249457465277
 10
54.61251491970486
 20
50.30890163845486
 10
56.92210693359375
 20
51.48195665147569
 10
53.91643337673611
 20
53.27840169270833
 10
54.13571370442708
 20
62.03996853298611
 10
57.10573052300347
 20
64.53249511718749
 10
57.17842203776041
 20
69.15167914496527
 10
53.91643337673611
 20
73.40378824869791
 10
53.95277913411458
 20
78.53611924913194
 10
55.27242296006944
 20
79.15950927734374
 10
65.50022243923611
 20
73.00088433159722
 10
66.05023193359375
 20
37.44198676215277
  0
LWPOLYLINE
  5
4C
330
A
100
AcDbEntity
  8
LAYER_1
 62
     7
100
AcDbPolyline
 90
        5
 70
     0
 43
0.0
 10
65.42460259331597
 20
72.71752522786457
 10
60.14792209201389
 20
69.55458306206597
 10
60.15498453776041
 20
63.51446940104166
 10
57.36204562717013
 20
60.24352349175346
 10
57.36204562717013
 20
54.17412651909721
  0
LWPOLYLINE
  5
3F
330
A
100
AcDbEntity
  8
LAYER_1
 62
     7
100
AcDbPolyline
 90
       11
 70
     0
 43
0.0
 10
45.96119113498263
 20
49.02629258897569
 10
56.00553927951388
 20
43.12381049262152
 10
56.04240180121527
 20
45.65337185329861
 10
58.90148654513888
 20
47.19298502604166
 10
58.97486707899305
 20
53.05843234592013
 10
55.96902126736111
 20
55.03781195746527
 10
56.04240180121527
 20
60.90325927734374
 10
58.90148654513888
 20
64.05621066623263
 10
58.82827826605902
 20
70.28821614583333
 10
63.11724989149305
 20
72.74388020833332
 10
53.98912489149305
 20
78.53611924913194
  0
LWPOLYLINE
  5
38
330
A
100
AcDbEntity
  8
LAYER_1
 62
     7
100
AcDbPolyline
 90
        5
 70
     0
 43
0.0
 10
57.32897271050346
 20
39.99187418619791
 10
57.25283610026041
 20
45.0701171875
 10
60.04043511284722
 20
46.59767252604166
 10
60.14792209201389
 20
52.25193549262152
 10
58.97486707899305
 20
53.02208658854166
  0
LWPOLYLINE
  5
33
330
A
100
AcDbEntity
  8
LAYER_1
 62
     7
100
AcDbPolyline
 90
        3
 70
     0
 43
0.0
 10
60.00116102430555
 20
34.21617160373263
 10
60.1114040798611
 20
38.68825005425347
 10
59.01172960069444
 20
38.98142768012153
  0
LINE
  5
32
330
A
100
AcDbEntity
  8
LAYER_1
 62
     7
100
AcDbLine
 10
56.04240180121527
 20
45.65337185329861
 30
0.0
 11
57.25283610026041
 21
45.0701171875
 31
0.0
  0
LINE
  5
31
330
A
100
AcDbEntity
  8
LAYER_1
 62
     7
100
AcDbLine
 10
58.90148654513888
 20
47.19298502604166
 30
0.0
 11
60.04043511284722
 21
46.59767252604166
 31
0.0
  0
ELLIPSE
  5
30
330
A
100
AcDbEntity
  8
LAYER_1
 62
     7
100
AcDbEllipse
 10
50.07652994791666
 20
48.76825493706597
 30
0.0
 11
0.8059800889756944
 21
0.0
 31
0.0
210
0.0
220
0.0
230
1.0
 40
0.6593289164351357
 41
0.0
 42
6.283185307179586
  0
ELLIPSE
  5
2F
330
A
100
AcDbEntity
  8
LAYER_1
 62
     7
100
AcDbEllipse
 10
55.83948567708333
 20
49.15634494357639
 30
0.0
 11
0.8059800889756944
 21
0.0
 31
0.0
210
0.0
220
0.0
230
1.0
 40
0.6593289164351357
 41
0.0
 42
6.283185307179586
  0
ELLIPSE
  5
2E
330
A
100
AcDbEntity
  8
LAYER_1
 62
     7
100
AcDbEllipse
 10
59.4230740017361
 20
42.53134019639757
 30
0.0
 11
0.0
 21
-0.7595574273003471
 31
0.0
210
0.0
220
0.0
230
1.0
 40
0.7168615463456275
 41
0.0
 42
6.283185307179586
  0
ELLIPSE
  5
2D
330
A
100
AcDbEntity
  8
LAYER_1
 62
     7
100
AcDbEllipse
 10
62.25511474609375
 20
41.25191786024305
 30
0.0
 11
0.0
 21
-0.7596435546874999
 31
0.0
210
0.0
220
0.0
230
1.0
 40
0.7170068027210884
 41
0.0
 42
6.283185307179586
  0
ELLIPSE
  5
2C
330
A
100
AcDbEntity
  8
LAYER_1
 62
     7
100
AcDbEllipse
 10
61.7204359266493
 20
37.70045505099826
 30
0.0
 11
0.0
 21
-0.7595574273003471
 31
0.0
210
0.0
220
0.0
230
1.0
 40
0.7170881141925255
 41
0.0
 42
6.283185307179586
  0
ELLIPSE
  5
2B
330
A
100
AcDbEntity
  8
LAYER_1
 62
     7
100
AcDbEllipse
 10
62.06442871093749
 20
51.63845011393229
 30
0.0
 11
0.0
 21
-0.7595574273003471
 31
0.0
210
0.0
220
0.0
230
1.0
 40
0.7161809818759528
 41
0.0
 42
6.283185307179586
  0
ELLIPSE
  5
2A
330
A
100
AcDbEntity
  8
LAYER_1
 62
     7
100
AcDbEllipse
 10
58.78021918402777
 20
58.81751234266493
 30
0.0
 11
0.0
 21
-0.7595574273003471
 31
0.0
210
0.0
220
0.0
230
1.0
 40
0.7164077649550934
 41
0.0
 42
6.283185307179586
  0
ELLIPSE
  5
29
330
A
100
AcDbEntity
  8
LAYER_1
 62
     7
100
AcDbEllipse
 10
62.29318305121527
 20
68.36404418945313
 30
0.0
 11
0.0
 21
-0.7595574273003471
 31
0.0
210
0.0
220
0.0
230
1.0
 40
0.7170881141925255
 41
0.0
 42
6.283185307179586
  0
LINE
  5
28
330
A
100
AcDbEntity
  8
LAYER_1
 62
     7
100
AcDbLine
 10
60.99128146701388
 20
46.82642686631944
 30
0.0
 11
63.52067057291666
 21
47.92610134548611
 31
0.0
  0
ELLIPSE
  5
27
330
A
100
AcDbEntity
  8
LAYER_1
 62
     7
100
AcDbEllipse
 10
55.58868272569444
 20
56.95526597764756
 30
0.0
 11
0.0
 21
-0.6892774793836805
 31
0.0
210
0.0
220
0.0
230
1.0
 40
0.5263027700082386
 41
0.0
 42
6.283185307179586
  0
ELLIPSE
  5
26
330
A
100
AcDbEntity
  8
LAYER_1
 62
     7
100
AcDbEllipse
 10
55.99279242621527
 20
74.81765543619791
 30
0.0
 11
0.0
 21
-0.6895358615451388
 31
0.0
210
0.0
220
0.0
230
1.0
 40
0.5251061703722209
 41
0.0
 42
6.283185307179586
  0
LINE
  5
25
330
A
100
AcDbEntity
  8
LAYER_1
 62
     7
100
AcDbLine
 10
56.04240180121527
 20
60.90325927734374
 30
0.0
 11
57.36204562717013
 21
60.24352349175346
 31
0.0
  0
LINE
  5
24
330
A
100
AcDbEntity
  8
LAYER_1
 62
     7
100
AcDbLine
 10
58.90148654513888
 20
64.05621066623263
 30
0.0
 11
60.15498453776041
 21
63.51446940104166
 31
0.0
  0
LINE
  5
23
330
A
100
AcDbEntity
  8
LAYER_1
 62
     7
100
AcDbLine
 10
58.82827826605902
 20
70.28821614583333
 30
0.0
 11
60.14792209201389
 21
69.55458306206597
 31
0.0
  0
LINE
  5
22
330
A
100
AcDbEntity
  8
LAYER_1
 62
     7
100
AcDbLine
 10
56.00553927951388
 20
43.12381049262152
 30
0.0
 11
56.07874755859375
 21
41.7309583875868
 31
0.0
  0
ENDSEC
  0
SECTION
  2
OBJECTS
  0
DICTIONARY
  5
19
330
0
100
AcDbDictionary
281
     1
  3
ACAD_COLOR
350
10D
  3
ACAD_GROUP
350
1A
  3
ACAD_LAYOUT
350
DA
  3
ACAD_MATERIAL
350
10F
  3
ACAD_MLINESTYLE
350
1B
  3
ACAD_PLOTSETTINGS
350
DB
  3
ACAD_PLOTSTYLENAME
350
D8
  3
ACDBHEADERROUNDTRIPXREC
350
10C
  0
DICTIONARY
  5
10D
102
{ACAD_REACTORS
330
19
102
}
330
19
100
AcDbDictionary
281
     1
  0
DICTIONARY
  5
1A
102
{ACAD_REACTORS
330
19
102
}
330
19
100
AcDbDictionary
281
     1
  0
DICTIONARY
  5
DA
102
{ACAD_REACTORS
330
19
102
}
330
19
100
AcDbDictionary
281
     1
  3
Layout1
350
DD
  3
Model
350
DC
  0
DICTIONARY
  5
10F
102
{ACAD_REACTORS
330
19
102
}
330
19
100
AcDbDictionary
281
     1
  0
DICTIONARY
  5
1B
102
{ACAD_REACTORS
330
19
102
}
330
19
100
AcDbDictionary
281
     1
  3
STANDARD
350
1C
  0
DICTIONARY
  5
DB
102
{ACAD_REACTORS
330
19
102
}
330
19
100
AcDbDictionary
281
     1
  0
ACDBDICTIONARYWDFLT
  5
D8
102
{ACAD_REACTORS
330
19
102
}
330
19
100
AcDbDictionary
281
     1
  3
Normal
350
D9
100
AcDbDictionaryWithDefault
340
D9
  0
DICTIONARY
  5
10C
102
{ACAD_REACTORS
330
19
102
}
330
19
100
AcDbDictionary
281
     1
  3
COLORDICT
350
10E
  3
MATERIALDICT
350
110
  0
LAYOUT
  5
DD
102
{ACAD_REACTORS
330
DA
102
}
102
{ACAD_XDICTIONARY
360
111
102
}
330
DA
100
AcDbPlotSettings
  1

  2
Support Center HP LaserJet 4
  4

  6

 40
0.0
 41
0.0
 42
0.0
 43
0.0
 44
0.0
 45
0.0
 46
0.0
 47
0.0
 48
0.0
 49
0.0
140
0.0
141
0.0
142
1.0
143
1.0
 70
   688
 72
     0
 73
     0
 74
     5
  7

 75
    16
147
1.0
148
0.0
149
0.0
100
AcDbLayout
  1
Layout1
 70
     0
 71
     1
 10
0.0
 20
0.0
 11
12.0
 21
9.0
 12
0.0
 22
0.0
 32
0.0
 14
1.000000000000000E+20
 24
1.000000000000000E+20
 34
1.000000000000000E+20
 15
-1.000000000000000E+20
 25
-1.000000000000000E+20
 35
-1.000000000000000E+20
146
0.0
 13
0.0
 23
0.0
 33
0.0
 16
1.0
 26
0.0
 36
0.0
 17
0.0
 27
1.0
 37
0.0
 76
     0
330
B
  0
LAYOUT
  5
DC
102
{ACAD_REACTORS
330
DA
102
}
102
{ACAD_XDICTIONARY
360
113
102
}
330
DA
100
AcDbPlotSettings
  1

  2
Support Center HP LaserJet 4
  4

  6

 40
0.0
 41
0.0
 42
0.0
 43
0.0
 44
0.0
 45
0.0
 46
0.0
 47
0.0
 48
0.0
 49
0.0
140
0.0
141
0.0
142
1.0
143
1.0
 70
  1712
 72
     0
 73
     0
 74
     0
  7

 75
     0
147
1.0
148
0.0
149
0.0
100
AcDbLayout
  1
Model
 70
     1
 71
     0
 10
0.0
 20
0.0
 11
12.0
 21
9.0
 12
0.0
 22
0.0
 32
0.0
 14
0.0
 24
0.0
 34
0.0
 15
0.0
 25
0.0
 35
0.0
146
0.0
 13
0.0
 23
0.0
 33
0.0
 16
1.0
 26
0.0
 36
0.0
 17
0.0
 27
1.0
 37
0.0
 76
     0
330
A
  0
MLINESTYLE
  5
1C
102
{ACAD_REACTORS
330
1B
102
}
330
1B
100
AcDbMlineStyle
  2
STANDARD
 70
     0
  3

 62
     0
 51
90.0000000000002
 52
90.0000000000002
 71
     2
 49
0.5
 62
   256
  6
BYLAYER
 49
-0.5
 62
   256
  6
BYLAYER
  0
ACDBPLACEHOLDER
  5
D9
102
{ACAD_REACTORS
330
D8
102
}
330
D8
  0
XRECORD
  5
10E
102
{ACAD_REACTORS
330
10C
102
}
330
10C
100
AcDbXrecord
340
10D
  0
XRECORD
  5
110
102
{ACAD_REACTORS
330
10C
102
}
330
10C
100
AcDbXrecord
340
10F
  0
DICTIONARY
  5
111
330
DD
100
AcDbDictionary
280
     1
281
     1
  3
ACAD_XREC_ROUNDTRIP
360
112
  0
DICTIONARY
  5
113
330
DC
100
AcDbDictionary
280
     1
281
     1
  3
ACAD_XREC_ROUNDTRIP
360
114
  0
XRECORD
  5
112
102
{ACAD_REACTORS
330
111
102
}
330
111
100
AcDbXrecord
102
SHADEPLOT
 70
     0
102
SHADEPLOTRESLEVEL
 70
     0
102
SHADEPLOTCUSTOMDPI
 70
     0
  0
XRECORD
  5
114
102
{ACAD_REACTORS
330
113
102
}
330
113
100
AcDbXrecord
102
SHADEPLOT
 70
-25416
102
SHADEPLOTRESLEVEL
 70
 -2880
102
SHADEPLOTCUSTOMDPI
 70
 20968
  0
ENDSEC
  0
EOF
