  0
SECTION
  2
HEADER
  9
$ACADVER
  1
AC1015
  9
$ACADMAINTVER
 70
     6
  9
$DWGCODEPAGE
  3
ANSI_1252
  9
$INSBASE
 10
0.0
 20
0.0
 30
0.0
  9
$EXTMIN
 10
0.469
 20
0.1683333333333333
 30
0.0
  9
$EXTMAX
 10
4.906000000000001
 20
5.32
 30
0.0
  9
$LIMMIN
 10
0.0
 20
0.0
  9
$LIMMAX
 10
17.0
 20
22.0
  9
$ORTHOMODE
 70
     0
  9
$REGENMODE
 70
     0
  9
$FILLMODE
 70
     1
  9
$QTEXTMODE
 70
     0
  9
$MIRRTEXT
 70
     1
  9
$LTSCALE
 40
0.25
  9
$ATTMODE
 70
     1
  9
$TEXTSIZE
 40
0.125
  9
$TRACEWID
 40
0.05
  9
$TEXTSTYLE
  7
STANDARD
  9
$CLAYER
  8
0
  9
$CELTYPE
  6
ByLayer
  9
$CECOLOR
 62
   256
  9
$CELTSCALE
 40
1.0
  9
$DISPSILH
 70
     0
  9
$DIMSCALE
 40
1.0
  9
$DIMASZ
 40
0.1
  9
$DIMEXO
 40
0.063
  9
$DIMDLI
 40
0.38
  9
$DIMRND
 40
0.0
  9
$DIMDLE
 40
0.0
  9
$DIMEXE
 40
0.18
  9
$DIMTP
 40
0.0
  9
$DIMTM
 40
0.0
  9
$DIMTXT
 40
0.1
  9
$DIMCEN
 40
0.09
  9
$DIMTSZ
 40
0.0
  9
$DIMTOL
 70
     0
  9
$DIMLIM
 70
     0
  9
$DIMTIH
 70
     1
  9
$DIMTOH
 70
     1
  9
$DIMSE1
 70
     0
  9
$DIMSE2
 70
     0
  9
$DIMTAD
 70
     0
  9
$DIMZIN
 70
     0
  9
$DIMBLK
  1

  9
$DIMASO
 70
     0
  9
$DIMSHO
 70
     0
  9
$DIMPOST
  1

  9
$DIMAPOST
  1

  9
$DIMALT
 70
     0
  9
$DIMALTD
 70
     2
  9
$DIMALTF
 40
25.4
  9
$DIMLFAC
 40
1.0
  9
$DIMTOFL
 70
     0
  9
$DIMTVP
 40
0.0
  9
$DIMTIX
 70
     0
  9
$DIMSOXD
 70
     0
  9
$DIMSAH
 70
     0
  9
$DIMBLK1
  1

  9
$DIMBLK2
  1

  9
$DIMSTYLE
  2
Standard
  9
$DIMCLRD
 70
     0
  9
$DIMCLRE
 70
     0
  9
$DIMCLRT
 70
     0
  9
$DIMTFAC
 40
1.0
  9
$DIMGAP
 40
0.09
  9
$DIMJUST
 70
     0
  9
$DIMSD1
 70
     0
  9
$DIMSD2
 70
     0
  9
$DIMTOLJ
 70
     1
  9
$DIMTZIN
 70
     0
  9
$DIMALTZ
 70
     0
  9
$DIMALTTZ
 70
     0
  9
$DIMUPT
 70
     0
  9
$DIMDEC
 70
     4
  9
$DIMTDEC
 70
     4
  9
$DIMALTU
 70
     2
  9
$DIMALTTD
 70
     2
  9
$DIMTXSTY
  7
STANDARD
  9
$DIMAUNIT
 70
     0
  9
$DIMADEC
 70
     0
  9
$DIMALTRND
 40
0.0
  9
$DIMAZIN
 70
     0
  9
$DIMDSEP
 70
    46
  9
$DIMATFIT
 70
     3
  9
$DIMFRAC
 70
     0
  9
$DIMLDRBLK
  1

  9
$DIMLUNIT
 70
     2
  9
$DIMLWD
 70
    -2
  9
$DIMLWE
 70
    -2
  9
$DIMTMOVE
 70
     0
  9
$LUNITS
 70
     2
  9
$LUPREC
 70
     4
  9
$SKETCHINC
 40
0.1
  9
$FILLETRAD
 40
0.025
  9
$AUNITS
 70
     0
  9
$AUPREC
 70
     0
  9
$MENU
  1
acad
  9
$ELEVATION
 40
0.0
  9
$PELEVATION
 40
0.0
  9
$THICKNESS
 40
0.0
  9
$LIMCHECK
 70
     0
  9
$CHAMFERA
 40
0.0
  9
$CHAMFERB
 40
0.0
  9
$CHAMFERC
 40
1.0
  9
$CHAMFERD
 40
0.0
  9
$SKPOLY
 70
     0
  9
$TDCREATE
 40
2453955.562610069
  9
$TDUCREATE
 40
2453955.895943403
  9
$TDUPDATE
 40
2453955.604276748
  9
$TDUUPDATE
 40
2453955.895943414
  9
$TDINDWG
 40
0.0000000116
  9
$TDUSRTIMER
 40
0.0000000116
  9
$USRTIMER
 70
     1
  9
$ANGBASE
 50
0.0
  9
$ANGDIR
 70
     0
  9
$PDMODE
 70
     0
  9
$PDSIZE
 40
0.0
  9
$PLINEWID
 40
0.0
  9
$SPLFRAME
 70
     0
  9
$SPLINETYPE
 70
     6
  9
$SPLINESEGS
 70
     8
  9
$HANDSEED
  5
279
  9
$SURFTAB1
 70
     6
  9
$SURFTAB2
 70
     6
  9
$SURFTYPE
 70
     6
  9
$SURFU
 70
     6
  9
$SURFV
 70
     6
  9
$UCSBASE
  2

  9
$UCSNAME
  2

  9
$UCSORG
 10
0.0
 20
0.0
 30
0.0
  9
$UCSXDIR
 10
1.0
 20
0.0
 30
0.0
  9
$UCSYDIR
 10
0.0
 20
1.0
 30
0.0
  9
$UCSORTHOREF
  2

  9
$UCSORTHOVIEW
 70
     0
  9
$UCSORGTOP
 10
0.0
 20
0.0
 30
0.0
  9
$UCSORGBOTTOM
 10
0.0
 20
0.0
 30
0.0
  9
$UCSORGLEFT
 10
0.0
 20
0.0
 30
0.0
  9
$UCSORGRIGHT
 10
0.0
 20
0.0
 30
0.0
  9
$UCSORGFRONT
 10
0.0
 20
0.0
 30
0.0
  9
$UCSORGBACK
 10
0.0
 20
0.0
 30
0.0
  9
$PUCSBASE
  2

  9
$PUCSNAME
  2

  9
$PUCSORG
 10
0.0
 20
0.0
 30
0.0
  9
$PUCSXDIR
 10
1.0
 20
0.0
 30
0.0
  9
$PUCSYDIR
 10
0.0
 20
1.0
 30
0.0
  9
$PUCSORTHOREF
  2

  9
$PUCSORTHOVIEW
 70
     0
  9
$PUCSORGTOP
 10
0.0
 20
0.0
 30
0.0
  9
$PUCSORGBOTTOM
 10
0.0
 20
0.0
 30
0.0
  9
$PUCSORGLEFT
 10
0.0
 20
0.0
 30
0.0
  9
$PUCSORGRIGHT
 10
0.0
 20
0.0
 30
0.0
  9
$PUCSORGFRONT
 10
0.0
 20
0.0
 30
0.0
  9
$PUCSORGBACK
 10
0.0
 20
0.0
 30
0.0
  9
$USERI1
 70
     0
  9
$USERI2
 70
     0
  9
$USERI3
 70
     0
  9
$USERI4
 70
     0
  9
$USERI5
 70
     0
  9
$USERR1
 40
0.0
  9
$USERR2
 40
0.0
  9
$USERR3
 40
0.0
  9
$USERR4
 40
0.0
  9
$USERR5
 40
0.0
  9
$WORLDVIEW
 70
     1
  9
$SHADEDGE
 70
     3
  9
$SHADEDIF
 70
    70
  9
$TILEMODE
 70
     1
  9
$MAXACTVP
 70
    16
  9
$PINSBASE
 10
0.0
 20
0.0
 30
0.0
  9
$PLIMCHECK
 70
     0
  9
$PEXTMIN
 10
1.000000000000000E+20
 20
1.000000000000000E+20
 30
1.000000000000000E+20
  9
$PEXTMAX
 10
-1.000000000000000E+20
 20
-1.000000000000000E+20
 30
-1.000000000000000E+20
  9
$PLIMMIN
 10
0.0
 20
0.0
  9
$PLIMMAX
 10
12.0
 20
9.0
  9
$UNITMODE
 70
     0
  9
$VISRETAIN
 70
     0
  9
$PLINEGEN
 70
     0
  9
$PSLTSCALE
 70
     0
  9
$TREEDEPTH
 70
  3020
  9
$CMLSTYLE
  2
Standard
  9
$CMLJUST
 70
     0
  9
$CMLSCALE
 40
1.0
  9
$PROXYGRAPHICS
 70
     1
  9
$MEASUREMENT
 70
     0
  9
$CELWEIGHT
370
    -1
  9
$ENDCAPS
280
     0
  9
$JOINSTYLE
280
     0
  9
$LWDISPLAY
290
     0
  9
$INSUNITS
 70
     1
  9
$HYPERLINKBASE
  1

  9
$STYLESHEET
  1

  9
$XEDIT
290
     1
  9
$CEPSNTYPE
380
     0
  9
$PSTYLEMODE
290
     0
  9
$FINGERPRINTGUID
  2
{FAEB1C30-E019-11D5-929B-00C0DF256EC4}
  9
$VERSIONGUID
  2
{FAEB1C32-E019-11D5-929B-00C0DF256EC4}
  9
$EXTNAMES
290
     1
  9
$PSVPSCALE
 40
0.0
  9
$OLESTARTUP
290
     0
  0
ENDSEC
  0
SECTION
  2
CLASSES
  0
CLASS
  1
ACDBDICTIONARYWDFLT
  2
AcDbDictionaryWithDefault
  3
AutoCAD 2000
 90
        0
280
     0
281
     0
  0
CLASS
  1
ACDBPLACEHOLDER
  2
AcDbPlaceHolder
  3
ObjectDBX Classes
 90
        0
280
     0
281
     0
  0
CLASS
  1
LAYOUT
  2
AcDbLayout
  3
ObjectDBX Classes
 90
        0
280
     0
281
     0
  0
ENDSEC
  0
SECTION
  2
TABLES
  0
TABLE
  2
VPORT
  5
8
330
0
100
AcDbSymbolTable
 70
     2
  0
VPORT
  5
1E
330
8
100
AcDbSymbolTableRecord
100
AcDbViewportTableRecord
  2
*ACTIVE
 70
     0
 10
0.0
 20
0.0
 11
1.0
 21
1.0
 12
15.26150121065375
 22
11.0
 13
0.0
 23
0.0
 14
0.025
 24
0.025
 15
0.0
 25
0.0
 16
0.0
 26
0.0
 36
1.0
 17
0.0
 27
0.0
 37
0.0
 40
22.0
 41
0.7207678883071553
 42
50.0
 43
0.0
 44
0.0
 50
0.0
 51
0.0
 71
     0
 72
  2000
 73
     1
 74
     0
 75
     0
 76
     0
 77
     0
 78
     0
281
     0
 65
     1
110
0.0
120
0.0
130
0.0
111
1.0
121
0.0
131
0.0
112
0.0
122
1.0
132
0.0
 79
     0
146
0.0
  0
ENDTAB
  0
TABLE
  2
LTYPE
  5
5
330
0
100
AcDbSymbolTable
 70
     1
  0
LTYPE
  5
10
330
5
100
AcDbSymbolTableRecord
100
AcDbLinetypeTableRecord
  2
ByBlock
 70
     0
  3

 72
    65
 73
     0
 40
0.0
  0
LTYPE
  5
11
330
5
100
AcDbSymbolTableRecord
100
AcDbLinetypeTableRecord
  2
ByLayer
 70
     0
  3

 72
    65
 73
     0
 40
0.0
  0
LTYPE
  5
1B
330
5
100
AcDbSymbolTableRecord
100
AcDbLinetypeTableRecord
  2
CONTINUOUS
 70
     0
  3
Solid line
 72
    65
 73
     0
 40
0.0
  0
ENDTAB
  0
TABLE
  2
LAYER
  5
2
330
0
100
AcDbSymbolTable
 70
     1
  0
LAYER
  5
1C
330
2
100
AcDbSymbolTableRecord
100
AcDbLayerTableRecord
  2
0
 70
     0
 62
     7
  6
CONTINUOUS
370
    -3
390
F
  0
ENDTAB
  0
TABLE
  2
STYLE
  5
3
330
0
100
AcDbSymbolTable
 70
     1
  0
STYLE
  5
20
330
3
100
AcDbSymbolTableRecord
100
AcDbTextStyleTableRecord
  2
STANDARD
 70
     0
 40
0.0
 41
1.0
 50
0.0
 71
     0
 42
0.125
  3
romans
  4

  0
ENDTAB
  0
TABLE
  2
VIEW
  5
6
330
0
100
AcDbSymbolTable
 70
     0
  0
ENDTAB
  0
TABLE
  2
UCS
  5
7
330
0
100
AcDbSymbolTable
 70
     0
  0
ENDTAB
  0
TABLE
  2
APPID
  5
9
330
0
100
AcDbSymbolTable
 70
     1
  0
APPID
  5
1F
330
9
100
AcDbSymbolTableRecord
100
AcDbRegAppTableRecord
  2
ACAD
 70
     0
  0
ENDTAB
  0
TABLE
  2
DIMSTYLE
  5
A
330
0
100
AcDbSymbolTable
 70
     1
100
AcDbDimStyleTable
  0
DIMSTYLE
105
21
330
A
100
AcDbSymbolTableRecord
100
AcDbDimStyleTableRecord
  2
Standard
 70
     0
  3

  4

340
20
  0
ENDTAB
  0
TABLE
  2
BLOCK_RECORD
  5
1
330
0
100
AcDbSymbolTable
 70
     0
  0
BLOCK_RECORD
  5
18
330
1
100
AcDbSymbolTableRecord
100
AcDbBlockTableRecord
  2
*Model_Space
340
19
  0
BLOCK_RECORD
  5
16
330
1
100
AcDbSymbolTableRecord
100
AcDbBlockTableRecord
  2
*Paper_Space
340
17
  0
ENDTAB
  0
ENDSEC
  0
SECTION
  2
BLOCKS
  0
BLOCK
  5
26E
330
18
100
AcDbEntity
  8
0
100
AcDbBlockBegin
  2
*Model_Space
 70
     0
 10
0.0
 20
0.0
 30
0.0
  3
*Model_Space
  1

  4

  0
ENDBLK
  5
26F
330
18
100
AcDbEntity
  8
0
100
AcDbBlockEnd
  0
BLOCK
  5
26C
330
16
100
AcDbEntity
 67
     1
  8
0
100
AcDbBlockBegin
  2
*Paper_Space
 70
     0
 10
0.0
 20
0.0
 30
0.0
  3
*Paper_Space
  1

  4

  0
ENDBLK
  5
26D
330
16
100
AcDbEntity
 67
     1
  8
0
100
AcDbBlockEnd
  0
ENDSEC
  0
SECTION
  2
ENTITIES
  0
LINE
  5
22
330
18
100
AcDbEntity
  8
0
100
AcDbLine
 10
1.2
 20
3.871
 30
0.0
 11
1.21
 21
3.804
 31
0.0
  0
LINE
  5
23
330
18
100
AcDbEntity
  8
0
100
AcDbLine
 10
1.181
 20
3.99
 30
0.0
 11
1.2
 21
3.871
 31
0.0
  0
LINE
  5
24
330
18
100
AcDbEntity
  8
0
100
AcDbLine
 10
1.151
 20
4.129
 30
0.0
 11
1.181
 21
3.99
 31
0.0
  0
LINE
  5
25
330
18
100
AcDbEntity
  8
0
100
AcDbLine
 10
1.125
 20
4.329
 30
0.0
 11
1.151
 21
4.129
 31
0.0
  0
LINE
  5
26
330
18
100
AcDbEntity
  8
0
100
AcDbLine
 10
1.414
 20
3.914
 30
0.0
 11
1.429
 21
3.853
 31
0.0
  0
LINE
  5
27
330
18
100
AcDbEntity
  8
0
100
AcDbLine
 10
1.386
 20
4.008
 30
0.0
 11
1.414
 21
3.914
 31
0.0
  0
LINE
  5
28
330
18
100
AcDbEntity
  8
0
100
AcDbLine
 10
1.347
 20
4.192
 30
0.0
 11
1.386
 21
4.008
 31
0.0
  0
LINE
  5
29
330
18
100
AcDbEntity
  8
0
100
AcDbLine
 10
1.325
 20
4.374
 30
0.0
 11
1.347
 21
4.192
 31
0.0
  0
LINE
  5
2A
330
18
100
AcDbEntity
  8
0
100
AcDbLine
 10
1.646
 20
3.931
 30
0.0
 11
1.65
 21
3.903
 31
0.0
  0
LINE
  5
2B
330
18
100
AcDbEntity
  8
0
100
AcDbLine
 10
1.646
 20
4.025
 30
0.0
 11
1.646
 21
3.931
 31
0.0
  0
LINE
  5
2C
330
18
100
AcDbEntity
  8
0
100
AcDbLine
 10
1.629
 20
4.161000000000001
 30
0.0
 11
1.646
 21
4.025
 31
0.0
  0
LINE
  5
2D
330
18
100
AcDbEntity
  8
0
100
AcDbLine
 10
1.617
 20
4.294
 30
0.0
 11
1.629
 21
4.161000000000001
 31
0.0
  0
LINE
  5
2E
330
18
100
AcDbEntity
  8
0
100
AcDbLine
 10
1.623
 20
4.442
 30
0.0
 11
1.617
 21
4.294
 31
0.0
  0
LINE
  5
2F
330
18
100
AcDbEntity
  8
0
100
AcDbLine
 10
1.589
 20
3.982
 30
0.0
 11
1.603
 21
3.892
 31
0.0
  0
LINE
  5
30
330
18
100
AcDbEntity
  8
0
100
AcDbLine
 10
1.558
 20
4.124
 30
0.0
 11
1.589
 21
3.982
 31
0.0
  0
LINE
  5
31
330
18
100
AcDbEntity
  8
0
100
AcDbLine
 10
1.525
 20
4.274
 30
0.0
 11
1.558
 21
4.124
 31
0.0
  0
LINE
  5
32
330
18
100
AcDbEntity
  8
0
100
AcDbLine
 10
1.527
 20
4.42
 30
0.0
 11
1.525
 21
4.274
 31
0.0
  0
LINE
  5
33
330
18
100
AcDbEntity
  8
0
100
AcDbLine
 10
1.518
 20
3.893
 30
0.0
 11
1.521
 21
3.874
 31
0.0
  0
LINE
  5
34
330
18
100
AcDbEntity
  8
0
100
AcDbLine
 10
1.5
 20
3.975
 30
0.0
 11
1.518
 21
3.893
 31
0.0
  0
LINE
  5
35
330
18
100
AcDbEntity
  8
0
100
AcDbLine
 10
1.478
 20
4.098
 30
0.0
 11
1.5
 21
3.975
 31
0.0
  0
LINE
  5
36
330
18
100
AcDbEntity
  8
0
100
AcDbLine
 10
1.449
 20
4.246
 30
0.0
 11
1.478
 21
4.098
 31
0.0
  0
LINE
  5
37
330
18
100
AcDbEntity
  8
0
100
AcDbLine
 10
1.428
 20
4.397
 30
0.0
 11
1.449
 21
4.246
 31
0.0
  0
LINE
  5
38
330
18
100
AcDbEntity
  8
0
100
AcDbLine
 10
1.305
 20
3.883
 30
0.0
 11
1.315
 21
3.827
 31
0.0
  0
LINE
  5
39
330
18
100
AcDbEntity
  8
0
100
AcDbLine
 10
1.283
 20
3.982
 30
0.0
 11
1.305
 21
3.883
 31
0.0
  0
LINE
  5
3A
330
18
100
AcDbEntity
  8
0
100
AcDbLine
 10
1.238
 20
4.141
 30
0.0
 11
1.283
 21
3.982
 31
0.0
  0
LINE
  5
3B
330
18
100
AcDbEntity
  8
0
100
AcDbLine
 10
1.218
 20
4.35
 30
0.0
 11
1.238
 21
4.141
 31
0.0
  0
LINE
  5
3C
330
18
100
AcDbEntity
  8
0
100
AcDbLine
 10
1.093
 20
3.88
 30
0.0
 11
1.111
 21
3.781
 31
0.0
  0
LINE
  5
3D
330
18
100
AcDbEntity
  8
0
100
AcDbLine
 10
1.068
 20
4.002
 30
0.0
 11
1.093
 21
3.88
 31
0.0
  0
LINE
  5
3E
330
18
100
AcDbEntity
  8
0
100
AcDbLine
 10
1.04
 20
4.146
 30
0.0
 11
1.068
 21
4.002
 31
0.0
  0
LINE
  5
3F
330
18
100
AcDbEntity
  8
0
100
AcDbLine
 10
1.02
 20
4.305
 30
0.0
 11
1.04
 21
4.146
 31
0.0
  0
LINE
  5
40
330
18
100
AcDbEntity
  8
0
100
AcDbLine
 10
1.021
 20
3.821
 30
0.0
 11
1.027
 21
3.762
 31
0.0
  0
LINE
  5
41
330
18
100
AcDbEntity
  8
0
100
AcDbLine
 10
1.002
 20
3.926
 30
0.0
 11
1.021
 21
3.821
 31
0.0
  0
LINE
  5
42
330
18
100
AcDbEntity
  8
0
100
AcDbLine
 10
0.975
 20
4.067
 30
0.0
 11
1.002
 21
3.926
 31
0.0
  0
LINE
  5
43
330
18
100
AcDbEntity
  8
0
100
AcDbLine
 10
0.9370000000000001
 20
4.287
 30
0.0
 11
0.975
 21
4.067
 31
0.0
  0
LINE
  5
44
330
18
100
AcDbEntity
  8
0
100
AcDbLine
 10
0.915
 20
3.791
 30
0.0
 11
0.9290000000000001
 21
3.74
 31
0.0
  0
LINE
  5
45
330
18
100
AcDbEntity
  8
0
100
AcDbLine
 10
0.879
 20
3.899
 30
0.0
 11
0.915
 21
3.791
 31
0.0
  0
LINE
  5
46
330
18
100
AcDbEntity
  8
0
100
AcDbLine
 10
0.852
 20
4.051
 30
0.0
 11
0.879
 21
3.899
 31
0.0
  0
LINE
  5
47
330
18
100
AcDbEntity
  8
0
100
AcDbLine
 10
0.846
 20
4.266
 30
0.0
 11
0.852
 21
4.051
 31
0.0
  0
LINE
  5
48
330
18
100
AcDbEntity
  8
0
100
AcDbLine
 10
0.8190000000000001
 20
3.838
 30
0.0
 11
0.848
 21
3.722
 31
0.0
  0
LINE
  5
49
330
18
100
AcDbEntity
  8
0
100
AcDbLine
 10
0.8009999999999999
 20
3.962
 30
0.0
 11
0.8190000000000001
 21
3.838
 31
0.0
  0
LINE
  5
4A
330
18
100
AcDbEntity
  8
0
100
AcDbLine
 10
0.785
 20
4.086
 30
0.0
 11
0.8009999999999999
 21
3.962
 31
0.0
  0
LINE
  5
4B
330
18
100
AcDbEntity
  8
0
100
AcDbLine
 10
0.765
 20
4.248
 30
0.0
 11
0.785
 21
4.086
 31
0.0
  0
LINE
  5
4C
330
18
100
AcDbEntity
  8
0
100
AcDbLine
 10
0.748
 20
3.742
 30
0.0
 11
0.755
 21
3.701
 31
0.0
  0
LINE
  5
4D
330
18
100
AcDbEntity
  8
0
100
AcDbLine
 10
0.727
 20
3.886
 30
0.0
 11
0.748
 21
3.742
 31
0.0
  0
LINE
  5
4E
330
18
100
AcDbEntity
  8
0
100
AcDbLine
 10
0.706
 20
4.041
 30
0.0
 11
0.727
 21
3.886
 31
0.0
  0
LINE
  5
4F
330
18
100
AcDbEntity
  8
0
100
AcDbLine
 10
0.6990000000000001
 20
4.233000000000001
 30
0.0
 11
0.706
 21
4.041
 31
0.0
  0
LINE
  5
50
330
18
100
AcDbEntity
  8
0
100
AcDbLine
 10
0.6659999999999999
 20
3.699
 30
0.0
 11
0.6709999999999999
 21
3.682
 31
0.0
  0
LINE
  5
51
330
18
100
AcDbEntity
  8
0
100
AcDbLine
 10
0.643
 20
3.82
 30
0.0
 11
0.6659999999999999
 21
3.699
 31
0.0
  0
LINE
  5
52
330
18
100
AcDbEntity
  8
0
100
AcDbLine
 10
0.627
 20
3.96
 30
0.0
 11
0.643
 21
3.82
 31
0.0
  0
LINE
  5
53
330
18
100
AcDbEntity
  8
0
100
AcDbLine
 10
0.607
 20
4.212
 30
0.0
 11
0.627
 21
3.96
 31
0.0
  0
LINE
  5
54
330
18
100
AcDbEntity
  8
0
100
AcDbLine
 10
0.604
 20
3.713
 30
0.0
 11
0.612
 21
3.668
 31
0.0
  0
LINE
  5
55
330
18
100
AcDbEntity
  8
0
100
AcDbLine
 10
0.5560000000000001
 20
3.852
 30
0.0
 11
0.604
 21
3.713
 31
0.0
  0
LINE
  5
56
330
18
100
AcDbEntity
  8
0
100
AcDbLine
 10
0.53
 20
4.007
 30
0.0
 11
0.5560000000000001
 21
3.852
 31
0.0
  0
LINE
  5
57
330
18
100
AcDbEntity
  8
0
100
AcDbLine
 10
0.529
 20
4.025
 30
0.0
 11
0.53
 21
4.007
 31
0.0
  0
LINE
  5
58
330
18
100
AcDbEntity
  8
0
100
AcDbLine
 10
0.7979999999999999
 20
5.033
 30
0.0
 11
0.7909999999999999
 21
5.116000000000001
 31
0.0
  0
LINE
  5
59
330
18
100
AcDbEntity
  8
0
100
AcDbLine
 10
0.8320000000000001
 20
4.886
 30
0.0
 11
0.7979999999999999
 21
5.033
 31
0.0
  0
LINE
  5
5A
330
18
100
AcDbEntity
  8
0
100
AcDbLine
 10
0.852
 20
4.741000000000001
 30
0.0
 11
0.8320000000000001
 21
4.886
 31
0.0
  0
LINE
  5
5B
330
18
100
AcDbEntity
  8
0
100
AcDbLine
 10
0.8759999999999999
 20
4.608000000000001
 30
0.0
 11
0.852
 21
4.741000000000001
 31
0.0
  0
LINE
  5
5C
330
18
100
AcDbEntity
  8
0
100
AcDbLine
 10
0.703
 20
5.005
 30
0.0
 11
0.693
 21
5.093999999999999
 31
0.0
  0
LINE
  5
5D
330
18
100
AcDbEntity
  8
0
100
AcDbLine
 10
0.716
 20
4.928
 30
0.0
 11
0.703
 21
5.005
 31
0.0
  0
LINE
  5
5E
330
18
100
AcDbEntity
  8
0
100
AcDbLine
 10
0.7559999999999999
 20
4.826000000000001
 30
0.0
 11
0.716
 21
4.928
 31
0.0
  0
LINE
  5
5F
330
18
100
AcDbEntity
  8
0
100
AcDbLine
 10
0.762
 20
4.722
 30
0.0
 11
0.7559999999999999
 21
4.826000000000001
 31
0.0
  0
LINE
  5
60
330
18
100
AcDbEntity
  8
0
100
AcDbLine
 10
0.785
 20
4.587
 30
0.0
 11
0.762
 21
4.722
 31
0.0
  0
LINE
  5
61
330
18
100
AcDbEntity
  8
0
100
AcDbLine
 10
0.64
 20
4.994
 30
0.0
 11
0.629
 21
5.08
 31
0.0
  0
LINE
  5
62
330
18
100
AcDbEntity
  8
0
100
AcDbLine
 10
0.65
 20
4.884
 30
0.0
 11
0.64
 21
4.994
 31
0.0
  0
LINE
  5
63
330
18
100
AcDbEntity
  8
0
100
AcDbLine
 10
0.6629999999999999
 20
4.736000000000001
 30
0.0
 11
0.65
 21
4.884
 31
0.0
  0
LINE
  5
64
330
18
100
AcDbEntity
  8
0
100
AcDbLine
 10
0.7020000000000001
 20
4.568000000000001
 30
0.0
 11
0.6629999999999999
 21
4.736000000000001
 31
0.0
  0
LINE
  5
65
330
18
100
AcDbEntity
  8
0
100
AcDbLine
 10
0.578
 20
5.01
 30
0.0
 11
0.5920000000000001
 21
5.072
 31
0.0
  0
LINE
  5
66
330
18
100
AcDbEntity
  8
0
100
AcDbLine
 10
0.568
 20
4.943000000000001
 30
0.0
 11
0.578
 21
5.01
 31
0.0
  0
LINE
  5
67
330
18
100
AcDbEntity
  8
0
100
AcDbLine
 10
0.564
 20
4.873
 30
0.0
 11
0.568
 21
4.943000000000001
 31
0.0
  0
LINE
  5
68
330
18
100
AcDbEntity
  8
0
100
AcDbLine
 10
0.5870000000000001
 20
4.762
 30
0.0
 11
0.564
 21
4.873
 31
0.0
  0
LINE
  5
69
330
18
100
AcDbEntity
  8
0
100
AcDbLine
 10
0.61
 20
4.647
 30
0.0
 11
0.5870000000000001
 21
4.762
 31
0.0
  0
LINE
  5
6A
330
18
100
AcDbEntity
  8
0
100
AcDbLine
 10
0.617
 20
4.549
 30
0.0
 11
0.61
 21
4.647
 31
0.0
  0
LINE
  5
6B
330
18
100
AcDbEntity
  8
0
100
AcDbLine
 10
0.8959999999999999
 20
4.999
 30
0.0
 11
0.8759999999999999
 21
5.136
 31
0.0
  0
LINE
  5
6C
330
18
100
AcDbEntity
  8
0
100
AcDbLine
 10
0.914
 20
4.926
 30
0.0
 11
0.8959999999999999
 21
4.999
 31
0.0
  0
LINE
  5
6D
330
18
100
AcDbEntity
  8
0
100
AcDbLine
 10
0.9379999999999999
 20
4.802
 30
0.0
 11
0.914
 21
4.926
 31
0.0
  0
LINE
  5
6E
330
18
100
AcDbEntity
  8
0
100
AcDbLine
 10
0.945
 20
4.623
 30
0.0
 11
0.9379999999999999
 21
4.802
 31
0.0
  0
LINE
  5
6F
330
18
100
AcDbEntity
  8
0
100
AcDbLine
 10
0.955
 20
5.103
 30
0.0
 11
0.958
 21
5.154
 31
0.0
  0
LINE
  5
70
330
18
100
AcDbEntity
  8
0
100
AcDbLine
 10
0.966
 20
5.009
 30
0.0
 11
0.955
 21
5.103
 31
0.0
  0
LINE
  5
71
330
18
100
AcDbEntity
  8
0
100
AcDbLine
 10
0.995
 20
4.891
 30
0.0
 11
0.966
 21
5.009
 31
0.0
  0
LINE
  5
72
330
18
100
AcDbEntity
  8
0
100
AcDbLine
 10
1.016
 20
4.791
 30
0.0
 11
0.995
 21
4.891
 31
0.0
  0
LINE
  5
73
330
18
100
AcDbEntity
  8
0
100
AcDbLine
 10
1.036
 20
4.644
 30
0.0
 11
1.016
 21
4.791
 31
0.0
  0
LINE
  5
74
330
18
100
AcDbEntity
  8
0
100
AcDbLine
 10
1.163
 20
5.174
 30
0.0
 11
1.158
 21
5.199
 31
0.0
  0
LINE
  5
75
330
18
100
AcDbEntity
  8
0
100
AcDbLine
 10
1.18
 20
5.066
 30
0.0
 11
1.163
 21
5.174
 31
0.0
  0
LINE
  5
76
330
18
100
AcDbEntity
  8
0
100
AcDbLine
 10
1.19
 20
4.95
 30
0.0
 11
1.18
 21
5.066
 31
0.0
  0
LINE
  5
77
330
18
100
AcDbEntity
  8
0
100
AcDbLine
 10
1.235
 20
4.689
 30
0.0
 11
1.19
 21
4.95
 31
0.0
  0
LINE
  5
78
330
18
100
AcDbEntity
  8
0
100
AcDbLine
 10
1.072
 20
5.075
 30
0.0
 11
1.057
 21
5.176
 31
0.0
  0
LINE
  5
79
330
18
100
AcDbEntity
  8
0
100
AcDbLine
 10
1.092
 20
4.97
 30
0.0
 11
1.072
 21
5.075
 31
0.0
  0
LINE
  5
7A
330
18
100
AcDbEntity
  8
0
100
AcDbLine
 10
1.114
 20
4.823
 30
0.0
 11
1.092
 21
4.97
 31
0.0
  0
LINE
  5
7B
330
18
100
AcDbEntity
  8
0
100
AcDbLine
 10
1.134
 20
4.666
 30
0.0
 11
1.114
 21
4.823
 31
0.0
  0
LINE
  5
7C
330
18
100
AcDbEntity
  8
0
100
AcDbLine
 10
1.281
 20
5.167000000000001
 30
0.0
 11
1.269
 21
5.224
 31
0.0
  0
LINE
  5
7D
330
18
100
AcDbEntity
  8
0
100
AcDbLine
 10
1.308
 20
5.07
 30
0.0
 11
1.281
 21
5.167000000000001
 31
0.0
  0
LINE
  5
7E
330
18
100
AcDbEntity
  8
0
100
AcDbLine
 10
1.331
 20
4.941
 30
0.0
 11
1.308
 21
5.07
 31
0.0
  0
LINE
  5
7F
330
18
100
AcDbEntity
  8
0
100
AcDbLine
 10
1.329
 20
4.842
 30
0.0
 11
1.331
 21
4.941
 31
0.0
  0
LINE
  5
80
330
18
100
AcDbEntity
  8
0
100
AcDbLine
 10
1.338
 20
4.712
 30
0.0
 11
1.329
 21
4.842
 31
0.0
  0
LINE
  5
81
330
18
100
AcDbEntity
  8
0
100
AcDbLine
 10
1.371
 20
5.204
 30
0.0
 11
1.364
 21
5.246
 31
0.0
  0
LINE
  5
82
330
18
100
AcDbEntity
  8
0
100
AcDbLine
 10
1.391
 20
5.129
 30
0.0
 11
1.371
 21
5.204
 31
0.0
  0
LINE
  5
83
330
18
100
AcDbEntity
  8
0
100
AcDbLine
 10
1.428
 20
5.034
 30
0.0
 11
1.391
 21
5.129
 31
0.0
  0
LINE
  5
84
330
18
100
AcDbEntity
  8
0
100
AcDbLine
 10
1.435
 20
4.91
 30
0.0
 11
1.428
 21
5.034
 31
0.0
  0
LINE
  5
85
330
18
100
AcDbEntity
  8
0
100
AcDbLine
 10
1.448
 20
4.737
 30
0.0
 11
1.435
 21
4.91
 31
0.0
  0
LINE
  5
86
330
18
100
AcDbEntity
  8
0
100
AcDbLine
 10
1.605
 20
5.238
 30
0.0
 11
1.605
 21
5.3
 31
0.0
  0
LINE
  5
87
330
18
100
AcDbEntity
  8
0
100
AcDbLine
 10
1.606
 20
5.145
 30
0.0
 11
1.605
 21
5.238
 31
0.0
  0
LINE
  5
88
330
18
100
AcDbEntity
  8
0
100
AcDbLine
 10
1.62
 20
5.017
 30
0.0
 11
1.606
 21
5.145
 31
0.0
  0
LINE
  5
89
330
18
100
AcDbEntity
  8
0
100
AcDbLine
 10
1.631
 20
4.89
 30
0.0
 11
1.62
 21
5.017
 31
0.0
  0
LINE
  5
8A
330
18
100
AcDbEntity
  8
0
100
AcDbLine
 10
1.628
 20
4.778000000000001
 30
0.0
 11
1.631
 21
4.89
 31
0.0
  0
LINE
  5
8B
330
18
100
AcDbEntity
  8
0
100
AcDbLine
 10
1.509
 20
5.249
 30
0.0
 11
1.509
 21
5.279
 31
0.0
  0
LINE
  5
8C
330
18
100
AcDbEntity
  8
0
100
AcDbLine
 10
1.521
 20
5.165
 30
0.0
 11
1.509
 21
5.249
 31
0.0
  0
LINE
  5
8D
330
18
100
AcDbEntity
  8
0
100
AcDbLine
 10
1.532
 20
5.037
 30
0.0
 11
1.521
 21
5.165
 31
0.0
  0
LINE
  5
8E
330
18
100
AcDbEntity
  8
0
100
AcDbLine
 10
1.553
 20
4.895
 30
0.0
 11
1.532
 21
5.037
 31
0.0
  0
LINE
  5
8F
330
18
100
AcDbEntity
  8
0
100
AcDbLine
 10
1.553
 20
4.761
 30
0.0
 11
1.553
 21
4.895
 31
0.0
  0
LINE
  5
90
330
18
100
AcDbEntity
  8
0
100
AcDbLine
 10
0.95
 20
4.502
 30
0.0
 11
0.9590000000000001
 21
4.498
 31
0.0
  0
LINE
  5
91
330
18
100
AcDbEntity
  8
0
100
AcDbLine
 10
0.871
 20
4.54
 30
0.0
 11
0.95
 21
4.502
 31
0.0
  0
LINE
  5
92
330
18
100
AcDbEntity
  8
0
100
AcDbLine
 10
0.785
 20
4.587
 30
0.0
 11
0.871
 21
4.54
 31
0.0
  0
LINE
  5
93
330
18
100
AcDbEntity
  8
0
100
AcDbLine
 10
1.034
 20
4.519
 30
0.0
 11
1.04
 21
4.516
 31
0.0
  0
LINE
  5
94
330
18
100
AcDbEntity
  8
0
100
AcDbLine
 10
0.9570000000000001
 20
4.562
 30
0.0
 11
1.034
 21
4.519
 31
0.0
  0
LINE
  5
95
330
18
100
AcDbEntity
  8
0
100
AcDbLine
 10
0.8759999999999999
 20
4.608000000000001
 30
0.0
 11
0.9570000000000001
 21
4.562
 31
0.0
  0
LINE
  5
96
330
18
100
AcDbEntity
  8
0
100
AcDbLine
 10
1.189
 20
4.588
 30
0.0
 11
1.25
 21
4.564
 31
0.0
  0
LINE
  5
97
330
18
100
AcDbEntity
  8
0
100
AcDbLine
 10
1.036
 20
4.644
 30
0.0
 11
1.189
 21
4.588
 31
0.0
  0
LINE
  5
98
330
18
100
AcDbEntity
  8
0
100
AcDbLine
 10
1.127
 20
4.553
 30
0.0
 11
1.152
 21
4.542
 31
0.0
  0
LINE
  5
99
330
18
100
AcDbEntity
  8
0
100
AcDbLine
 10
1.066
 20
4.577
 30
0.0
 11
1.127
 21
4.553
 31
0.0
  0
LINE
  5
9A
330
18
100
AcDbEntity
  8
0
100
AcDbLine
 10
0.945
 20
4.623
 30
0.0
 11
1.066
 21
4.577
 31
0.0
  0
LINE
  5
9B
330
18
100
AcDbEntity
  8
0
100
AcDbLine
 10
0.7909999999999999
 20
4.531000000000001
 30
0.0
 11
0.877
 21
4.479
 31
0.0
  0
LINE
  5
9C
330
18
100
AcDbEntity
  8
0
100
AcDbLine
 10
0.7020000000000001
 20
4.568000000000001
 30
0.0
 11
0.7909999999999999
 21
4.531000000000001
 31
0.0
  0
LINE
  5
9D
330
18
100
AcDbEntity
  8
0
100
AcDbLine
 10
0.773
 20
4.488
 30
0.0
 11
0.8140000000000001
 21
4.465
 31
0.0
  0
LINE
  5
9E
330
18
100
AcDbEntity
  8
0
100
AcDbLine
 10
0.6829999999999999
 20
4.527
 30
0.0
 11
0.773
 21
4.488
 31
0.0
  0
LINE
  5
9F
330
18
100
AcDbEntity
  8
0
100
AcDbLine
 10
0.617
 20
4.549
 30
0.0
 11
0.6829999999999999
 21
4.527
 31
0.0
  0
LINE
  5
A0
330
18
100
AcDbEntity
  8
0
100
AcDbLine
 10
0.718
 20
4.465
 30
0.0
 11
0.752
 21
4.451000000000001
 31
0.0
  0
LINE
  5
A1
330
18
100
AcDbEntity
  8
0
100
AcDbLine
 10
0.637
 20
4.493
 30
0.0
 11
0.718
 21
4.465
 31
0.0
  0
LINE
  5
A2
330
18
100
AcDbEntity
  8
0
100
AcDbLine
 10
0.5529999999999999
 20
4.513
 30
0.0
 11
0.637
 21
4.493
 31
0.0
  0
LINE
  5
A3
330
18
100
AcDbEntity
  8
0
100
AcDbLine
 10
1.275
 20
4.6
 30
0.0
 11
1.322
 21
4.58
 31
0.0
  0
LINE
  5
A4
330
18
100
AcDbEntity
  8
0
100
AcDbLine
 10
1.134
 20
4.666
 30
0.0
 11
1.275
 21
4.6
 31
0.0
  0
LINE
  5
A5
330
18
100
AcDbEntity
  8
0
100
AcDbLine
 10
1.399
 20
4.611000000000001
 30
0.0
 11
1.419
 21
4.602
 31
0.0
  0
LINE
  5
A6
330
18
100
AcDbEntity
  8
0
100
AcDbLine
 10
1.321
 20
4.644
 30
0.0
 11
1.399
 21
4.611000000000001
 31
0.0
  0
LINE
  5
A7
330
18
100
AcDbEntity
  8
0
100
AcDbLine
 10
1.235
 20
4.689
 30
0.0
 11
1.321
 21
4.644
 31
0.0
  0
LINE
  5
A8
330
18
100
AcDbEntity
  8
0
100
AcDbLine
 10
1.471
 20
4.646
 30
0.0
 11
1.523
 21
4.625
 31
0.0
  0
LINE
  5
A9
330
18
100
AcDbEntity
  8
0
100
AcDbLine
 10
1.41
 20
4.68
 30
0.0
 11
1.471
 21
4.646
 31
0.0
  0
LINE
  5
AA
330
18
100
AcDbEntity
  8
0
100
AcDbLine
 10
1.338
 20
4.712
 30
0.0
 11
1.41
 21
4.68
 31
0.0
  0
LINE
  5
AB
330
18
100
AcDbEntity
  8
0
100
AcDbLine
 10
1.553
 20
4.68
 30
0.0
 11
1.61
 21
4.645
 31
0.0
  0
LINE
  5
AC
330
18
100
AcDbEntity
  8
0
100
AcDbLine
 10
1.503
 20
4.714
 30
0.0
 11
1.553
 21
4.68
 31
0.0
  0
LINE
  5
AD
330
18
100
AcDbEntity
  8
0
100
AcDbLine
 10
1.448
 20
4.737
 30
0.0
 11
1.503
 21
4.714
 31
0.0
  0
LINE
  5
AE
330
18
100
AcDbEntity
  8
0
100
AcDbLine
 10
1.67
 20
4.68
 30
0.0
 11
1.694
 21
4.664
 31
0.0
  0
LINE
  5
AF
330
18
100
AcDbEntity
  8
0
100
AcDbLine
 10
1.601
 20
4.729
 30
0.0
 11
1.67
 21
4.68
 31
0.0
  0
LINE
  5
B0
330
18
100
AcDbEntity
  8
0
100
AcDbLine
 10
1.553
 20
4.761
 30
0.0
 11
1.601
 21
4.729
 31
0.0
  0
LINE
  5
B1
330
18
100
AcDbEntity
  8
0
100
AcDbLine
 10
1.74
 20
4.711
 30
0.0
 11
1.78
 21
4.683
 31
0.0
  0
LINE
  5
B2
330
18
100
AcDbEntity
  8
0
100
AcDbLine
 10
1.687
 20
4.74
 30
0.0
 11
1.74
 21
4.711
 31
0.0
  0
LINE
  5
B3
330
18
100
AcDbEntity
  8
0
100
AcDbLine
 10
1.628
 20
4.778000000000001
 30
0.0
 11
1.687
 21
4.74
 31
0.0
  0
LINE
  5
B4
330
18
100
AcDbEntity
  8
0
100
AcDbLine
 10
0.765
 20
4.248
 30
0.0
 11
0.69
 21
4.353
 31
0.0
  0
LINE
  5
B5
330
18
100
AcDbEntity
  8
0
100
AcDbLine
 10
0.6990000000000001
 20
4.233000000000001
 30
0.0
 11
0.596
 21
4.332
 31
0.0
  0
LINE
  5
B6
330
18
100
AcDbEntity
  8
0
100
AcDbLine
 10
0.607
 20
4.212
 30
0.0
 11
0.5
 21
4.31
 31
0.0
  0
LINE
  5
B7
330
18
100
AcDbEntity
  8
0
100
AcDbLine
 10
0.846
 20
4.266
 30
0.0
 11
0.775
 21
4.372
 31
0.0
  0
LINE
  5
B8
330
18
100
AcDbEntity
  8
0
100
AcDbLine
 10
0.9370000000000001
 20
4.287
 30
0.0
 11
0.8640000000000001
 21
4.392
 31
0.0
  0
LINE
  5
B9
330
18
100
AcDbEntity
  8
0
100
AcDbLine
 10
1.02
 20
4.305
 30
0.0
 11
0.9520000000000001
 21
4.412
 31
0.0
  0
LINE
  5
BA
330
18
100
AcDbEntity
  8
0
100
AcDbLine
 10
1.125
 20
4.329
 30
0.0
 11
1.05
 21
4.435
 31
0.0
  0
LINE
  5
BB
330
18
100
AcDbEntity
  8
0
100
AcDbLine
 10
1.218
 20
4.35
 30
0.0
 11
1.148
 21
4.457
 31
0.0
  0
LINE
  5
BC
330
18
100
AcDbEntity
  8
0
100
AcDbLine
 10
1.325
 20
4.374
 30
0.0
 11
1.244
 21
4.478
 31
0.0
  0
LINE
  5
BD
330
18
100
AcDbEntity
  8
0
100
AcDbLine
 10
1.428
 20
4.397
 30
0.0
 11
1.346
 21
4.501
 31
0.0
  0
LINE
  5
BE
330
18
100
AcDbEntity
  8
0
100
AcDbLine
 10
1.527
 20
4.42
 30
0.0
 11
1.443
 21
4.523
 31
0.0
  0
LINE
  5
BF
330
18
100
AcDbEntity
  8
0
100
AcDbLine
 10
1.623
 20
4.442
 30
0.0
 11
1.547
 21
4.547
 31
0.0
  0
LINE
  5
C0
330
18
100
AcDbEntity
  8
0
100
AcDbLine
 10
1.558
 20
4.572
 30
0.0
 11
1.547
 21
4.547
 31
0.0
  0
LINE
  5
C1
330
18
100
AcDbEntity
  8
0
100
AcDbLine
 10
1.588
 20
4.608000000000001
 30
0.0
 11
1.558
 21
4.572
 31
0.0
  0
LINE
  5
C2
330
18
100
AcDbEntity
  8
0
100
AcDbLine
 10
1.61
 20
4.645
 30
0.0
 11
1.588
 21
4.608000000000001
 31
0.0
  0
LINE
  5
C3
330
18
100
AcDbEntity
  8
0
100
AcDbLine
 10
1.452
 20
4.545
 30
0.0
 11
1.443
 21
4.523
 31
0.0
  0
LINE
  5
C4
330
18
100
AcDbEntity
  8
0
100
AcDbLine
 10
1.485
 20
4.575
 30
0.0
 11
1.452
 21
4.545
 31
0.0
  0
LINE
  5
C5
330
18
100
AcDbEntity
  8
0
100
AcDbLine
 10
1.523
 20
4.625
 30
0.0
 11
1.485
 21
4.575
 31
0.0
  0
LINE
  5
C6
330
18
100
AcDbEntity
  8
0
100
AcDbLine
 10
1.36
 20
4.521
 30
0.0
 11
1.346
 21
4.501
 31
0.0
  0
LINE
  5
C7
330
18
100
AcDbEntity
  8
0
100
AcDbLine
 10
1.392
 20
4.562
 30
0.0
 11
1.36
 21
4.521
 31
0.0
  0
LINE
  5
C8
330
18
100
AcDbEntity
  8
0
100
AcDbLine
 10
1.419
 20
4.602
 30
0.0
 11
1.392
 21
4.562
 31
0.0
  0
LINE
  5
C9
330
18
100
AcDbEntity
  8
0
100
AcDbLine
 10
1.269
 20
4.502
 30
0.0
 11
1.244
 21
4.478
 31
0.0
  0
LINE
  5
CA
330
18
100
AcDbEntity
  8
0
100
AcDbLine
 10
1.291
 20
4.532
 30
0.0
 11
1.269
 21
4.502
 31
0.0
  0
LINE
  5
CB
330
18
100
AcDbEntity
  8
0
100
AcDbLine
 10
1.322
 20
4.58
 30
0.0
 11
1.291
 21
4.532
 31
0.0
  0
LINE
  5
CC
330
18
100
AcDbEntity
  8
0
100
AcDbLine
 10
1.185
 20
4.484
 30
0.0
 11
1.148
 21
4.457
 31
0.0
  0
LINE
  5
CD
330
18
100
AcDbEntity
  8
0
100
AcDbLine
 10
1.212
 20
4.523
 30
0.0
 11
1.185
 21
4.484
 31
0.0
  0
LINE
  5
CE
330
18
100
AcDbEntity
  8
0
100
AcDbLine
 10
1.25
 20
4.564
 30
0.0
 11
1.212
 21
4.523
 31
0.0
  0
LINE
  5
CF
330
18
100
AcDbEntity
  8
0
100
AcDbLine
 10
1.082
 20
4.461
 30
0.0
 11
1.05
 21
4.435
 31
0.0
  0
LINE
  5
D0
330
18
100
AcDbEntity
  8
0
100
AcDbLine
 10
1.115
 20
4.491000000000001
 30
0.0
 11
1.082
 21
4.461
 31
0.0
  0
LINE
  5
D1
330
18
100
AcDbEntity
  8
0
100
AcDbLine
 10
1.152
 20
4.542
 30
0.0
 11
1.115
 21
4.491000000000001
 31
0.0
  0
LINE
  5
D2
330
18
100
AcDbEntity
  8
0
100
AcDbLine
 10
0.973
 20
4.436
 30
0.0
 11
0.9520000000000001
 21
4.412
 31
0.0
  0
LINE
  5
D3
330
18
100
AcDbEntity
  8
0
100
AcDbLine
 10
1.007
 20
4.47
 30
0.0
 11
0.973
 21
4.436
 31
0.0
  0
LINE
  5
D4
330
18
100
AcDbEntity
  8
0
100
AcDbLine
 10
1.04
 20
4.516
 30
0.0
 11
1.007
 21
4.47
 31
0.0
  0
LINE
  5
D5
330
18
100
AcDbEntity
  8
0
100
AcDbLine
 10
0.902
 20
4.433
 30
0.0
 11
0.8640000000000001
 21
4.392
 31
0.0
  0
LINE
  5
D6
330
18
100
AcDbEntity
  8
0
100
AcDbLine
 10
0.9229999999999999
 20
4.453
 30
0.0
 11
0.902
 21
4.433
 31
0.0
  0
LINE
  5
D7
330
18
100
AcDbEntity
  8
0
100
AcDbLine
 10
0.9590000000000001
 20
4.498
 30
0.0
 11
0.9229999999999999
 21
4.453
 31
0.0
  0
LINE
  5
D8
330
18
100
AcDbEntity
  8
0
100
AcDbLine
 10
0.8050000000000001
 20
4.401
 30
0.0
 11
0.775
 21
4.372
 31
0.0
  0
LINE
  5
D9
330
18
100
AcDbEntity
  8
0
100
AcDbLine
 10
0.8440000000000001
 20
4.444
 30
0.0
 11
0.8050000000000001
 21
4.401
 31
0.0
  0
LINE
  5
DA
330
18
100
AcDbEntity
  8
0
100
AcDbLine
 10
0.877
 20
4.479
 30
0.0
 11
0.8440000000000001
 21
4.444
 31
0.0
  0
LINE
  5
DB
330
18
100
AcDbEntity
  8
0
100
AcDbLine
 10
0.742
 20
4.393
 30
0.0
 11
0.69
 21
4.353
 31
0.0
  0
LINE
  5
DC
330
18
100
AcDbEntity
  8
0
100
AcDbLine
 10
0.777
 20
4.427
 30
0.0
 11
0.742
 21
4.393
 31
0.0
  0
LINE
  5
DD
330
18
100
AcDbEntity
  8
0
100
AcDbLine
 10
0.8140000000000001
 20
4.465
 30
0.0
 11
0.777
 21
4.427
 31
0.0
  0
LINE
  5
DE
330
18
100
AcDbEntity
  8
0
100
AcDbLine
 10
0.6790000000000001
 20
4.385
 30
0.0
 11
0.596
 21
4.332
 31
0.0
  0
LINE
  5
DF
330
18
100
AcDbEntity
  8
0
100
AcDbLine
 10
0.711
 20
4.415
 30
0.0
 11
0.6790000000000001
 21
4.385
 31
0.0
  0
LINE
  5
E0
330
18
100
AcDbEntity
  8
0
100
AcDbLine
 10
0.752
 20
4.451000000000001
 30
0.0
 11
0.711
 21
4.415
 31
0.0
  0
LINE
  5
E1
330
18
100
AcDbEntity
  8
0
100
AcDbLine
 10
1.653
 20
4.62
 30
0.0
 11
1.629
 21
4.572
 31
0.0
  0
LINE
  5
E2
330
18
100
AcDbEntity
  8
0
100
AcDbLine
 10
1.694
 20
4.664
 30
0.0
 11
1.653
 21
4.62
 31
0.0
  0
LINE
  5
E3
330
18
100
AcDbEntity
  8
0
100
AcDbLine
 10
2.409
 20
0.774
 30
0.0
 11
2.387
 21
0.7609999999999999
 31
0.0
  0
LINE
  5
E4
330
18
100
AcDbEntity
  8
0
100
AcDbLine
 10
2.517
 20
0.8070000000000001
 30
0.0
 11
2.409
 21
0.774
 31
0.0
  0
LINE
  5
E5
330
18
100
AcDbEntity
  8
0
100
AcDbLine
 10
2.599
 20
0.84
 30
0.0
 11
2.517
 21
0.8070000000000001
 31
0.0
  0
LINE
  5
E6
330
18
100
AcDbEntity
  8
0
100
AcDbLine
 10
2.729
 20
0.905
 30
0.0
 11
2.599
 21
0.84
 31
0.0
  0
LINE
  5
E7
330
18
100
AcDbEntity
  8
0
100
AcDbLine
 10
2.845
 20
0.958
 30
0.0
 11
2.729
 21
0.905
 31
0.0
  0
LINE
  5
E8
330
18
100
AcDbEntity
  8
0
100
AcDbLine
 10
2.371
 20
0.8109999999999999
 30
0.0
 11
2.324
 21
0.785
 31
0.0
  0
LINE
  5
E9
330
18
100
AcDbEntity
  8
0
100
AcDbLine
 10
2.446
 20
0.846
 30
0.0
 11
2.371
 21
0.8109999999999999
 31
0.0
  0
LINE
  5
EA
330
18
100
AcDbEntity
  8
0
100
AcDbLine
 10
2.569
 20
0.895
 30
0.0
 11
2.446
 21
0.846
 31
0.0
  0
LINE
  5
EB
330
18
100
AcDbEntity
  8
0
100
AcDbLine
 10
2.665
 20
0.94
 30
0.0
 11
2.569
 21
0.895
 31
0.0
  0
LINE
  5
EC
330
18
100
AcDbEntity
  8
0
100
AcDbLine
 10
2.3
 20
0.838
 30
0.0
 11
2.252
 21
0.8120000000000001
 31
0.0
  0
LINE
  5
ED
330
18
100
AcDbEntity
  8
0
100
AcDbLine
 10
2.407
 20
0.8809999999999999
 30
0.0
 11
2.3
 21
0.838
 31
0.0
  0
LINE
  5
EE
330
18
100
AcDbEntity
  8
0
100
AcDbLine
 10
2.508
 20
0.925
 30
0.0
 11
2.407
 21
0.8809999999999999
 31
0.0
  0
LINE
  5
EF
330
18
100
AcDbEntity
  8
0
100
AcDbLine
 10
2.266
 20
0.902
 30
0.0
 11
2.179
 21
0.84
 31
0.0
  0
LINE
  5
F0
330
18
100
AcDbEntity
  8
0
100
AcDbLine
 10
2.552
 20
0.7759999999999999
 30
0.0
 11
2.531
 21
0.763
 31
0.0
  0
LINE
  5
F1
330
18
100
AcDbEntity
  8
0
100
AcDbLine
 10
2.682
 20
0.8270000000000001
 30
0.0
 11
2.552
 21
0.7759999999999999
 31
0.0
  0
LINE
  5
F2
330
18
100
AcDbEntity
  8
0
100
AcDbLine
 10
2.785
 20
0.856
 30
0.0
 11
2.682
 21
0.8270000000000001
 31
0.0
  0
LINE
  5
F3
330
18
100
AcDbEntity
  8
0
100
AcDbLine
 10
2.929
 20
0.9059999999999999
 30
0.0
 11
2.785
 21
0.856
 31
0.0
  0
LINE
  5
F4
330
18
100
AcDbEntity
  8
0
100
AcDbLine
 10
3.059
 20
0.978
 30
0.0
 11
2.929
 21
0.9059999999999999
 31
0.0
  0
LINE
  5
F5
330
18
100
AcDbEntity
  8
0
100
AcDbLine
 10
3.356
 20
0.894
 30
0.0
 11
3.253
 21
0.833
 31
0.0
  0
LINE
  5
F6
330
18
100
AcDbEntity
  8
0
100
AcDbLine
 10
3.075
 20
0.833
 30
0.0
 11
3.02
 21
0.8100000000000001
 31
0.0
  0
LINE
  5
F7
330
18
100
AcDbEntity
  8
0
100
AcDbLine
 10
3.156
 20
0.871
 30
0.0
 11
3.075
 21
0.833
 31
0.0
  0
LINE
  5
F8
330
18
100
AcDbEntity
  8
0
100
AcDbLine
 10
3.268
 20
0.9270000000000001
 30
0.0
 11
3.156
 21
0.871
 31
0.0
  0
LINE
  5
F9
330
18
100
AcDbEntity
  8
0
100
AcDbLine
 10
2.936
 20
0.8320000000000001
 30
0.0
 11
2.859
 21
0.795
 31
0.0
  0
LINE
  5
FA
330
18
100
AcDbEntity
  8
0
100
AcDbLine
 10
3.015
 20
0.866
 30
0.0
 11
2.936
 21
0.8320000000000001
 31
0.0
  0
LINE
  5
FB
330
18
100
AcDbEntity
  8
0
100
AcDbLine
 10
3.171
 20
0.919
 30
0.0
 11
3.015
 21
0.866
 31
0.0
  0
LINE
  5
FC
330
18
100
AcDbEntity
  8
0
100
AcDbLine
 10
3.231
 20
0.941
 30
0.0
 11
3.171
 21
0.919
 31
0.0
  0
LINE
  5
FD
330
18
100
AcDbEntity
  8
0
100
AcDbLine
 10
2.677
 20
0.78
 30
0.0
 11
2.672
 21
0.777
 31
0.0
  0
LINE
  5
FE
330
18
100
AcDbEntity
  8
0
100
AcDbLine
 10
2.749
 20
0.816
 30
0.0
 11
2.677
 21
0.78
 31
0.0
  0
LINE
  5
FF
330
18
100
AcDbEntity
  8
0
100
AcDbLine
 10
2.852
 20
0.8540000000000001
 30
0.0
 11
2.749
 21
0.816
 31
0.0
  0
LINE
  5
100
330
18
100
AcDbEntity
  8
0
100
AcDbLine
 10
2.973
 20
0.885
 30
0.0
 11
2.852
 21
0.8540000000000001
 31
0.0
  0
LINE
  5
101
330
18
100
AcDbEntity
  8
0
100
AcDbLine
 10
3.125
 20
0.946
 30
0.0
 11
2.973
 21
0.885
 31
0.0
  0
LINE
  5
102
330
18
100
AcDbEntity
  8
0
100
AcDbLine
 10
3.168
 20
0.965
 30
0.0
 11
3.125
 21
0.946
 31
0.0
  0
LINE
  5
103
330
18
100
AcDbEntity
  8
0
100
AcDbLine
 10
3.475
 20
0.743
 30
0.0
 11
3.46
 21
0.691
 31
0.0
  0
LINE
  5
104
330
18
100
AcDbEntity
  8
0
100
AcDbLine
 10
3.5
 20
0.7979999999999999
 30
0.0
 11
3.475
 21
0.743
 31
0.0
  0
LINE
  5
105
330
18
100
AcDbEntity
  8
0
100
AcDbLine
 10
3.526
 20
0.855
 30
0.0
 11
3.5
 21
0.7979999999999999
 31
0.0
  0
LINE
  5
106
330
18
100
AcDbEntity
  8
0
100
AcDbLine
 10
3.413
 20
0.746
 30
0.0
 11
3.388
 21
0.6840000000000001
 31
0.0
  0
LINE
  5
107
330
18
100
AcDbEntity
  8
0
100
AcDbLine
 10
3.438
 20
0.8020000000000001
 30
0.0
 11
3.413
 21
0.746
 31
0.0
  0
LINE
  5
108
330
18
100
AcDbEntity
  8
0
100
AcDbLine
 10
3.459
 20
0.853
 30
0.0
 11
3.438
 21
0.8020000000000001
 31
0.0
  0
LINE
  5
109
330
18
100
AcDbEntity
  8
0
100
AcDbLine
 10
3.362
 20
0.738
 30
0.0
 11
3.333
 21
0.6790000000000001
 31
0.0
  0
LINE
  5
10A
330
18
100
AcDbEntity
  8
0
100
AcDbLine
 10
3.383
 20
0.7859999999999999
 30
0.0
 11
3.362
 21
0.738
 31
0.0
  0
LINE
  5
10B
330
18
100
AcDbEntity
  8
0
100
AcDbLine
 10
3.406
 20
0.847
 30
0.0
 11
3.383
 21
0.7859999999999999
 31
0.0
  0
LINE
  5
10C
330
18
100
AcDbEntity
  8
0
100
AcDbLine
 10
3.277
 20
0.726
 30
0.0
 11
3.253
 21
0.6709999999999999
 31
0.0
  0
LINE
  5
10D
330
18
100
AcDbEntity
  8
0
100
AcDbLine
 10
3.299
 20
0.7659999999999999
 30
0.0
 11
3.277
 21
0.726
 31
0.0
  0
LINE
  5
10E
330
18
100
AcDbEntity
  8
0
100
AcDbLine
 10
3.34
 20
0.841
 30
0.0
 11
3.299
 21
0.7659999999999999
 31
0.0
  0
LINE
  5
10F
330
18
100
AcDbEntity
  8
0
100
AcDbLine
 10
3.203
 20
0.7120000000000001
 30
0.0
 11
3.181
 21
0.664
 31
0.0
  0
LINE
  5
110
330
18
100
AcDbEntity
  8
0
100
AcDbLine
 10
3.227
 20
0.758
 30
0.0
 11
3.203
 21
0.7120000000000001
 31
0.0
  0
LINE
  5
111
330
18
100
AcDbEntity
  8
0
100
AcDbLine
 10
3.259
 20
0.833
 30
0.0
 11
3.227
 21
0.758
 31
0.0
  0
LINE
  5
112
330
18
100
AcDbEntity
  8
0
100
AcDbLine
 10
3.122
 20
0.733
 30
0.0
 11
3.079
 21
0.655
 31
0.0
  0
LINE
  5
113
330
18
100
AcDbEntity
  8
0
100
AcDbLine
 10
3.17
 20
0.825
 30
0.0
 11
3.122
 21
0.733
 31
0.0
  0
LINE
  5
114
330
18
100
AcDbEntity
  8
0
100
AcDbLine
 10
3.027
 20
0.731
 30
0.0
 11
3.0
 21
0.647
 31
0.0
  0
LINE
  5
115
330
18
100
AcDbEntity
  8
0
100
AcDbLine
 10
3.092
 20
0.8170000000000001
 30
0.0
 11
3.027
 21
0.731
 31
0.0
  0
LINE
  5
116
330
18
100
AcDbEntity
  8
0
100
AcDbLine
 10
2.955
 20
0.735
 30
0.0
 11
2.898
 21
0.637
 31
0.0
  0
LINE
  5
117
330
18
100
AcDbEntity
  8
0
100
AcDbLine
 10
2.995
 20
0.8079999999999999
 30
0.0
 11
2.955
 21
0.735
 31
0.0
  0
LINE
  5
118
330
18
100
AcDbEntity
  8
0
100
AcDbLine
 10
2.868
 20
0.708
 30
0.0
 11
2.831
 21
0.631
 31
0.0
  0
LINE
  5
119
330
18
100
AcDbEntity
  8
0
100
AcDbLine
 10
2.922
 20
0.8009999999999999
 30
0.0
 11
2.868
 21
0.708
 31
0.0
  0
LINE
  5
11A
330
18
100
AcDbEntity
  8
0
100
AcDbLine
 10
2.788
 20
0.6940000000000001
 30
0.0
 11
2.745
 21
0.622
 31
0.0
  0
LINE
  5
11B
330
18
100
AcDbEntity
  8
0
100
AcDbLine
 10
2.839
 20
0.7929999999999999
 30
0.0
 11
2.788
 21
0.6940000000000001
 31
0.0
  0
LINE
  5
11C
330
18
100
AcDbEntity
  8
0
100
AcDbLine
 10
2.681
 20
0.657
 30
0.0
 11
2.645
 21
0.613
 31
0.0
  0
LINE
  5
11D
330
18
100
AcDbEntity
  8
0
100
AcDbLine
 10
2.714
 20
0.713
 30
0.0
 11
2.681
 21
0.657
 31
0.0
  0
LINE
  5
11E
330
18
100
AcDbEntity
  8
0
100
AcDbLine
 10
2.754
 20
0.785
 30
0.0
 11
2.714
 21
0.713
 31
0.0
  0
LINE
  5
11F
330
18
100
AcDbEntity
  8
0
100
AcDbLine
 10
2.592
 20
0.655
 30
0.0
 11
2.573
 21
0.606
 31
0.0
  0
LINE
  5
120
330
18
100
AcDbEntity
  8
0
100
AcDbLine
 10
2.613
 20
0.6940000000000001
 30
0.0
 11
2.592
 21
0.655
 31
0.0
  0
LINE
  5
121
330
18
100
AcDbEntity
  8
0
100
AcDbLine
 10
2.658
 20
0.775
 30
0.0
 11
2.613
 21
0.6940000000000001
 31
0.0
  0
LINE
  5
122
330
18
100
AcDbEntity
  8
0
100
AcDbLine
 10
2.552
 20
0.6990000000000001
 30
0.0
 11
2.498
 21
0.619
 31
0.0
  0
LINE
  5
123
330
18
100
AcDbEntity
  8
0
100
AcDbLine
 10
2.622
 20
0.772
 30
0.0
 11
2.552
 21
0.6990000000000001
 31
0.0
  0
LINE
  5
124
330
18
100
AcDbEntity
  8
0
100
AcDbLine
 10
3.312
 20
0.637
 30
0.0
 11
3.292
 21
0.625
 31
0.0
  0
LINE
  5
125
330
18
100
AcDbEntity
  8
0
100
AcDbLine
 10
3.368
 20
0.654
 30
0.0
 11
3.312
 21
0.637
 31
0.0
  0
LINE
  5
126
330
18
100
AcDbEntity
  8
0
100
AcDbLine
 10
3.428
 20
0.675
 30
0.0
 11
3.368
 21
0.654
 31
0.0
  0
LINE
  5
127
330
18
100
AcDbEntity
  8
0
100
AcDbLine
 10
3.152
 20
0.612
 30
0.0
 11
3.151
 21
0.611
 31
0.0
  0
LINE
  5
128
330
18
100
AcDbEntity
  8
0
100
AcDbLine
 10
3.225
 20
0.653
 30
0.0
 11
3.152
 21
0.612
 31
0.0
  0
LINE
  5
129
330
18
100
AcDbEntity
  8
0
100
AcDbLine
 10
3.275
 20
0.6729999999999999
 30
0.0
 11
3.225
 21
0.653
 31
0.0
  0
LINE
  5
12A
330
18
100
AcDbEntity
  8
0
100
AcDbLine
 10
3.031
 20
0.617
 30
0.0
 11
2.975
 21
0.594
 31
0.0
  0
LINE
  5
12B
330
18
100
AcDbEntity
  8
0
100
AcDbLine
 10
3.129
 20
0.657
 30
0.0
 11
3.031
 21
0.617
 31
0.0
  0
LINE
  5
12C
330
18
100
AcDbEntity
  8
0
100
AcDbLine
 10
3.137
 20
0.66
 30
0.0
 11
3.129
 21
0.657
 31
0.0
  0
LINE
  5
12D
330
18
100
AcDbEntity
  8
0
100
AcDbLine
 10
2.896
 20
0.631
 30
0.0
 11
2.819
 21
0.597
 31
0.0
  0
LINE
  5
12E
330
18
100
AcDbEntity
  8
0
100
AcDbLine
 10
2.91
 20
0.638
 30
0.0
 11
2.896
 21
0.631
 31
0.0
  0
LINE
  5
12F
330
18
100
AcDbEntity
  8
0
100
AcDbLine
 10
3.636
 20
0.6709999999999999
 30
0.0
 11
3.611
 21
0.655
 31
0.0
  0
LINE
  5
130
330
18
100
AcDbEntity
  8
0
100
AcDbLine
 10
3.727
 20
0.701
 30
0.0
 11
3.636
 21
0.6709999999999999
 31
0.0
  0
LINE
  5
131
330
18
100
AcDbEntity
  8
0
100
AcDbLine
 10
3.792
 20
0.728
 30
0.0
 11
3.727
 21
0.701
 31
0.0
  0
LINE
  5
132
330
18
100
AcDbEntity
  8
0
100
AcDbLine
 10
3.485
 20
0.652
 30
0.0
 11
3.469
 21
0.642
 31
0.0
  0
LINE
  5
133
330
18
100
AcDbEntity
  8
0
100
AcDbLine
 10
3.572
 20
0.69
 30
0.0
 11
3.485
 21
0.652
 31
0.0
  0
LINE
  5
134
330
18
100
AcDbEntity
  8
0
100
AcDbLine
 10
3.648
 20
0.7190000000000001
 30
0.0
 11
3.572
 21
0.69
 31
0.0
  0
LINE
  5
135
330
18
100
AcDbEntity
  8
0
100
AcDbLine
 10
3.733
 20
0.7509999999999999
 30
0.0
 11
3.648
 21
0.7190000000000001
 31
0.0
  0
ARC
  5
136
330
18
100
AcDbEntity
  8
0
100
AcDbCircle
 10
2.678
 20
2.468
 30
0.0
 40
0.049
100
AcDbArc
 50
74.288
 51
95.81299999999999
  0
ARC
  5
137
330
18
100
AcDbEntity
  8
0
100
AcDbCircle
 10
2.679
 20
2.47
 30
0.0
 40
0.047
100
AcDbArc
 50
52.215
 51
74.288
  0
ARC
  5
138
330
18
100
AcDbEntity
  8
0
100
AcDbCircle
 10
2.68
 20
2.472
 30
0.0
 40
0.045
100
AcDbArc
 50
29.322
 51
52.215
  0
ARC
  5
139
330
18
100
AcDbEntity
  8
0
100
AcDbCircle
 10
2.682
 20
2.473
 30
0.0
 40
0.043
100
AcDbArc
 50
5.813
 51
29.322
  0
ARC
  5
13A
330
18
100
AcDbEntity
  8
0
100
AcDbCircle
 10
2.682
 20
2.473
 30
0.0
 40
0.043
100
AcDbArc
 50
342.304
 51
5.813
  0
ARC
  5
13B
330
18
100
AcDbEntity
  8
0
100
AcDbCircle
 10
2.68
 20
2.474
 30
0.0
 40
0.045
100
AcDbArc
 50
319.411
 51
342.304
  0
ARC
  5
13C
330
18
100
AcDbEntity
  8
0
100
AcDbCircle
 10
2.678
 20
2.475
 30
0.0
 40
0.047
100
AcDbArc
 50
297.339
 51
319.411
  0
ARC
  5
13D
330
18
100
AcDbEntity
  8
0
100
AcDbCircle
 10
2.677
 20
2.477
 30
0.0
 40
0.049
100
AcDbArc
 50
275.813
 51
297.339
  0
ARC
  5
13E
330
18
100
AcDbEntity
  8
0
100
AcDbCircle
 10
2.677
 20
2.477
 30
0.0
 40
0.049
100
AcDbArc
 50
254.288
 51
275.813
  0
ARC
  5
13F
330
18
100
AcDbEntity
  8
0
100
AcDbCircle
 10
2.676
 20
2.475
 30
0.0
 40
0.047
100
AcDbArc
 50
232.215
 51
254.288
  0
ARC
  5
140
330
18
100
AcDbEntity
  8
0
100
AcDbCircle
 10
2.675
 20
2.473
 30
0.0
 40
0.045
100
AcDbArc
 50
209.322
 51
232.215
  0
ARC
  5
141
330
18
100
AcDbEntity
  8
0
100
AcDbCircle
 10
2.673
 20
2.472
 30
0.0
 40
0.043
100
AcDbArc
 50
185.813
 51
209.322
  0
ARC
  5
142
330
18
100
AcDbEntity
  8
0
100
AcDbCircle
 10
2.673
 20
2.472
 30
0.0
 40
0.043
100
AcDbArc
 50
162.304
 51
185.813
  0
ARC
  5
143
330
18
100
AcDbEntity
  8
0
100
AcDbCircle
 10
2.675
 20
2.471
 30
0.0
 40
0.045
100
AcDbArc
 50
139.411
 51
162.304
  0
ARC
  5
144
330
18
100
AcDbEntity
  8
0
100
AcDbCircle
 10
2.677
 20
2.47
 30
0.0
 40
0.047
100
AcDbArc
 50
117.339
 51
139.411
  0
ARC
  5
145
330
18
100
AcDbEntity
  8
0
100
AcDbCircle
 10
2.678
 20
2.468
 30
0.0
 40
0.049
100
AcDbArc
 50
95.81299999999999
 51
117.339
  0
ARC
  5
146
330
18
100
AcDbEntity
  8
0
100
AcDbCircle
 10
2.66
 20
2.475
 30
0.0
 40
0.047
100
AcDbArc
 50
52.215
 51
65.44199999999999
  0
ARC
  5
147
330
18
100
AcDbEntity
  8
0
100
AcDbCircle
 10
2.661
 20
2.476
 30
0.0
 40
0.045
100
AcDbArc
 50
29.322
 51
52.215
  0
ARC
  5
148
330
18
100
AcDbEntity
  8
0
100
AcDbCircle
 10
2.663
 20
2.477
 30
0.0
 40
0.043
100
AcDbArc
 50
5.813
 51
29.322
  0
ARC
  5
149
330
18
100
AcDbEntity
  8
0
100
AcDbCircle
 10
2.663
 20
2.477
 30
0.0
 40
0.043
100
AcDbArc
 50
342.304
 51
5.813
  0
ARC
  5
14A
330
18
100
AcDbEntity
  8
0
100
AcDbCircle
 10
2.661
 20
2.478
 30
0.0
 40
0.045
100
AcDbArc
 50
319.411
 51
342.304
  0
ARC
  5
14B
330
18
100
AcDbEntity
  8
0
100
AcDbCircle
 10
2.659
 20
2.479
 30
0.0
 40
0.047
100
AcDbArc
 50
297.339
 51
319.411
  0
ARC
  5
14C
330
18
100
AcDbEntity
  8
0
100
AcDbCircle
 10
2.658
 20
2.481
 30
0.0
 40
0.049
100
AcDbArc
 50
275.813
 51
297.339
  0
ARC
  5
14D
330
18
100
AcDbEntity
  8
0
100
AcDbCircle
 10
2.658
 20
2.481
 30
0.0
 40
0.049
100
AcDbArc
 50
268.755
 51
275.813
  0
ARC
  5
14E
330
18
100
AcDbEntity
  8
0
100
AcDbCircle
 10
2.42
 20
2.334
 30
0.0
 40
0.047
100
AcDbArc
 50
52.215
 51
65.44199999999999
  0
ARC
  5
14F
330
18
100
AcDbEntity
  8
0
100
AcDbCircle
 10
2.421
 20
2.335
 30
0.0
 40
0.045
100
AcDbArc
 50
29.322
 51
52.215
  0
ARC
  5
150
330
18
100
AcDbEntity
  8
0
100
AcDbCircle
 10
2.423
 20
2.336
 30
0.0
 40
0.043
100
AcDbArc
 50
5.813
 51
29.322
  0
ARC
  5
151
330
18
100
AcDbEntity
  8
0
100
AcDbCircle
 10
2.423
 20
2.336
 30
0.0
 40
0.043
100
AcDbArc
 50
342.304
 51
5.813
  0
ARC
  5
152
330
18
100
AcDbEntity
  8
0
100
AcDbCircle
 10
2.421
 20
2.337
 30
0.0
 40
0.045
100
AcDbArc
 50
319.411
 51
342.304
  0
ARC
  5
153
330
18
100
AcDbEntity
  8
0
100
AcDbCircle
 10
2.419
 20
2.338
 30
0.0
 40
0.047
100
AcDbArc
 50
297.339
 51
319.411
  0
ARC
  5
154
330
18
100
AcDbEntity
  8
0
100
AcDbCircle
 10
2.418
 20
2.341
 30
0.0
 40
0.049
100
AcDbArc
 50
275.813
 51
297.339
  0
ARC
  5
155
330
18
100
AcDbEntity
  8
0
100
AcDbCircle
 10
2.418
 20
2.341
 30
0.0
 40
0.049
100
AcDbArc
 50
268.755
 51
275.813
  0
ARC
  5
156
330
18
100
AcDbEntity
  8
0
100
AcDbCircle
 10
2.438
 20
2.327
 30
0.0
 40
0.049
100
AcDbArc
 50
74.288
 51
95.81299999999999
  0
ARC
  5
157
330
18
100
AcDbEntity
  8
0
100
AcDbCircle
 10
2.439
 20
2.329
 30
0.0
 40
0.047
100
AcDbArc
 50
52.215
 51
74.288
  0
ARC
  5
158
330
18
100
AcDbEntity
  8
0
100
AcDbCircle
 10
2.44
 20
2.331
 30
0.0
 40
0.045
100
AcDbArc
 50
29.322
 51
52.215
  0
ARC
  5
159
330
18
100
AcDbEntity
  8
0
100
AcDbCircle
 10
2.442
 20
2.332
 30
0.0
 40
0.043
100
AcDbArc
 50
5.813
 51
29.322
  0
ARC
  5
15A
330
18
100
AcDbEntity
  8
0
100
AcDbCircle
 10
2.442
 20
2.332
 30
0.0
 40
0.043
100
AcDbArc
 50
342.304
 51
5.813
  0
ARC
  5
15B
330
18
100
AcDbEntity
  8
0
100
AcDbCircle
 10
2.44
 20
2.333
 30
0.0
 40
0.045
100
AcDbArc
 50
319.411
 51
342.304
  0
ARC
  5
15C
330
18
100
AcDbEntity
  8
0
100
AcDbCircle
 10
2.438
 20
2.334
 30
0.0
 40
0.047
100
AcDbArc
 50
297.339
 51
319.411
  0
ARC
  5
15D
330
18
100
AcDbEntity
  8
0
100
AcDbCircle
 10
2.437
 20
2.336
 30
0.0
 40
0.049
100
AcDbArc
 50
275.813
 51
297.339
  0
ARC
  5
15E
330
18
100
AcDbEntity
  8
0
100
AcDbCircle
 10
2.437
 20
2.336
 30
0.0
 40
0.049
100
AcDbArc
 50
254.288
 51
275.813
  0
ARC
  5
15F
330
18
100
AcDbEntity
  8
0
100
AcDbCircle
 10
2.436
 20
2.334
 30
0.0
 40
0.047
100
AcDbArc
 50
232.215
 51
254.288
  0
ARC
  5
160
330
18
100
AcDbEntity
  8
0
100
AcDbCircle
 10
2.435
 20
2.332
 30
0.0
 40
0.045
100
AcDbArc
 50
209.322
 51
232.215
  0
ARC
  5
161
330
18
100
AcDbEntity
  8
0
100
AcDbCircle
 10
2.433
 20
2.331
 30
0.0
 40
0.043
100
AcDbArc
 50
185.813
 51
209.322
  0
ARC
  5
162
330
18
100
AcDbEntity
  8
0
100
AcDbCircle
 10
2.433
 20
2.331
 30
0.0
 40
0.043
100
AcDbArc
 50
162.304
 51
185.813
  0
ARC
  5
163
330
18
100
AcDbEntity
  8
0
100
AcDbCircle
 10
2.435
 20
2.33
 30
0.0
 40
0.045
100
AcDbArc
 50
139.411
 51
162.304
  0
ARC
  5
164
330
18
100
AcDbEntity
  8
0
100
AcDbCircle
 10
2.437
 20
2.329
 30
0.0
 40
0.047
100
AcDbArc
 50
117.339
 51
139.411
  0
ARC
  5
165
330
18
100
AcDbEntity
  8
0
100
AcDbCircle
 10
2.438
 20
2.327
 30
0.0
 40
0.049
100
AcDbArc
 50
95.81299999999999
 51
117.339
  0
ARC
  5
166
330
18
100
AcDbEntity
  8
0
100
AcDbCircle
 10
2.649
 20
1.879
 30
0.0
 40
0.047
100
AcDbArc
 50
52.215
 51
65.44199999999999
  0
ARC
  5
167
330
18
100
AcDbEntity
  8
0
100
AcDbCircle
 10
2.65
 20
1.88
 30
0.0
 40
0.045
100
AcDbArc
 50
29.322
 51
52.215
  0
ARC
  5
168
330
18
100
AcDbEntity
  8
0
100
AcDbCircle
 10
2.652
 20
1.881
 30
0.0
 40
0.043
100
AcDbArc
 50
5.813
 51
29.322
  0
ARC
  5
169
330
18
100
AcDbEntity
  8
0
100
AcDbCircle
 10
2.652
 20
1.881
 30
0.0
 40
0.043
100
AcDbArc
 50
342.304
 51
5.813
  0
ARC
  5
16A
330
18
100
AcDbEntity
  8
0
100
AcDbCircle
 10
2.65
 20
1.882
 30
0.0
 40
0.045
100
AcDbArc
 50
319.411
 51
342.304
  0
ARC
  5
16B
330
18
100
AcDbEntity
  8
0
100
AcDbCircle
 10
2.648
 20
1.883
 30
0.0
 40
0.047
100
AcDbArc
 50
297.339
 51
319.411
  0
ARC
  5
16C
330
18
100
AcDbEntity
  8
0
100
AcDbCircle
 10
2.647
 20
1.885
 30
0.0
 40
0.049
100
AcDbArc
 50
275.813
 51
297.339
  0
ARC
  5
16D
330
18
100
AcDbEntity
  8
0
100
AcDbCircle
 10
2.647
 20
1.885
 30
0.0
 40
0.049
100
AcDbArc
 50
268.755
 51
275.813
  0
ARC
  5
16E
330
18
100
AcDbEntity
  8
0
100
AcDbCircle
 10
2.667
 20
1.872
 30
0.0
 40
0.049
100
AcDbArc
 50
74.288
 51
95.81299999999999
  0
ARC
  5
16F
330
18
100
AcDbEntity
  8
0
100
AcDbCircle
 10
2.668
 20
1.874
 30
0.0
 40
0.047
100
AcDbArc
 50
52.215
 51
74.288
  0
ARC
  5
170
330
18
100
AcDbEntity
  8
0
100
AcDbCircle
 10
2.669
 20
1.876
 30
0.0
 40
0.045
100
AcDbArc
 50
29.322
 51
52.215
  0
ARC
  5
171
330
18
100
AcDbEntity
  8
0
100
AcDbCircle
 10
2.671
 20
1.877
 30
0.0
 40
0.043
100
AcDbArc
 50
5.813
 51
29.322
  0
ARC
  5
172
330
18
100
AcDbEntity
  8
0
100
AcDbCircle
 10
2.671
 20
1.877
 30
0.0
 40
0.043
100
AcDbArc
 50
342.304
 51
5.813
  0
ARC
  5
173
330
18
100
AcDbEntity
  8
0
100
AcDbCircle
 10
2.669
 20
1.878
 30
0.0
 40
0.045
100
AcDbArc
 50
319.411
 51
342.304
  0
ARC
  5
174
330
18
100
AcDbEntity
  8
0
100
AcDbCircle
 10
2.667
 20
1.879
 30
0.0
 40
0.047
100
AcDbArc
 50
297.339
 51
319.411
  0
ARC
  5
175
330
18
100
AcDbEntity
  8
0
100
AcDbCircle
 10
2.666
 20
1.881
 30
0.0
 40
0.049
100
AcDbArc
 50
275.813
 51
297.339
  0
ARC
  5
176
330
18
100
AcDbEntity
  8
0
100
AcDbCircle
 10
2.666
 20
1.881
 30
0.0
 40
0.049
100
AcDbArc
 50
254.288
 51
275.813
  0
ARC
  5
177
330
18
100
AcDbEntity
  8
0
100
AcDbCircle
 10
2.666
 20
1.879
 30
0.0
 40
0.047
100
AcDbArc
 50
232.215
 51
254.288
  0
ARC
  5
178
330
18
100
AcDbEntity
  8
0
100
AcDbCircle
 10
2.665
 20
1.877
 30
0.0
 40
0.045
100
AcDbArc
 50
209.322
 51
232.215
  0
ARC
  5
179
330
18
100
AcDbEntity
  8
0
100
AcDbCircle
 10
2.662
 20
1.876
 30
0.0
 40
0.043
100
AcDbArc
 50
185.813
 51
209.322
  0
ARC
  5
17A
330
18
100
AcDbEntity
  8
0
100
AcDbCircle
 10
2.662
 20
1.876
 30
0.0
 40
0.043
100
AcDbArc
 50
162.304
 51
185.813
  0
ARC
  5
17B
330
18
100
AcDbEntity
  8
0
100
AcDbCircle
 10
2.665
 20
1.875
 30
0.0
 40
0.045
100
AcDbArc
 50
139.411
 51
162.304
  0
ARC
  5
17C
330
18
100
AcDbEntity
  8
0
100
AcDbCircle
 10
2.666
 20
1.874
 30
0.0
 40
0.047
100
AcDbArc
 50
117.339
 51
139.411
  0
ARC
  5
17D
330
18
100
AcDbEntity
  8
0
100
AcDbCircle
 10
2.667
 20
1.872
 30
0.0
 40
0.049
100
AcDbArc
 50
95.81299999999999
 51
117.339
  0
ARC
  5
17E
330
18
100
AcDbEntity
  8
0
100
AcDbCircle
 10
2.399
 20
1.727
 30
0.0
 40
0.047
100
AcDbArc
 50
52.215
 51
65.44199999999999
  0
ARC
  5
17F
330
18
100
AcDbEntity
  8
0
100
AcDbCircle
 10
2.4
 20
1.729
 30
0.0
 40
0.045
100
AcDbArc
 50
29.322
 51
52.215
  0
ARC
  5
180
330
18
100
AcDbEntity
  8
0
100
AcDbCircle
 10
2.402
 20
1.73
 30
0.0
 40
0.043
100
AcDbArc
 50
5.813
 51
29.322
  0
ARC
  5
181
330
18
100
AcDbEntity
  8
0
100
AcDbCircle
 10
2.402
 20
1.73
 30
0.0
 40
0.043
100
AcDbArc
 50
342.304
 51
5.813
  0
ARC
  5
182
330
18
100
AcDbEntity
  8
0
100
AcDbCircle
 10
2.4
 20
1.73
 30
0.0
 40
0.045
100
AcDbArc
 50
319.411
 51
342.304
  0
ARC
  5
183
330
18
100
AcDbEntity
  8
0
100
AcDbCircle
 10
2.398
 20
1.732
 30
0.0
 40
0.047
100
AcDbArc
 50
297.339
 51
319.411
  0
ARC
  5
184
330
18
100
AcDbEntity
  8
0
100
AcDbCircle
 10
2.397
 20
1.734
 30
0.0
 40
0.049
100
AcDbArc
 50
275.813
 51
297.339
  0
ARC
  5
185
330
18
100
AcDbEntity
  8
0
100
AcDbCircle
 10
2.397
 20
1.734
 30
0.0
 40
0.049
100
AcDbArc
 50
268.755
 51
275.813
  0
ARC
  5
186
330
18
100
AcDbEntity
  8
0
100
AcDbCircle
 10
2.417
 20
1.72
 30
0.0
 40
0.049
100
AcDbArc
 50
74.288
 51
95.81299999999999
  0
ARC
  5
187
330
18
100
AcDbEntity
  8
0
100
AcDbCircle
 10
2.418
 20
1.723
 30
0.0
 40
0.047
100
AcDbArc
 50
52.215
 51
74.288
  0
ARC
  5
188
330
18
100
AcDbEntity
  8
0
100
AcDbCircle
 10
2.419
 20
1.724
 30
0.0
 40
0.045
100
AcDbArc
 50
29.322
 51
52.215
  0
ARC
  5
189
330
18
100
AcDbEntity
  8
0
100
AcDbCircle
 10
2.421
 20
1.725
 30
0.0
 40
0.043
100
AcDbArc
 50
5.813
 51
29.322
  0
ARC
  5
18A
330
18
100
AcDbEntity
  8
0
100
AcDbCircle
 10
2.421
 20
1.725
 30
0.0
 40
0.043
100
AcDbArc
 50
342.304
 51
5.813
  0
ARC
  5
18B
330
18
100
AcDbEntity
  8
0
100
AcDbCircle
 10
2.419
 20
1.726
 30
0.0
 40
0.045
100
AcDbArc
 50
319.411
 51
342.304
  0
ARC
  5
18C
330
18
100
AcDbEntity
  8
0
100
AcDbCircle
 10
2.418
 20
1.727
 30
0.0
 40
0.047
100
AcDbArc
 50
297.339
 51
319.411
  0
ARC
  5
18D
330
18
100
AcDbEntity
  8
0
100
AcDbCircle
 10
2.416
 20
1.729
 30
0.0
 40
0.049
100
AcDbArc
 50
275.813
 51
297.339
  0
ARC
  5
18E
330
18
100
AcDbEntity
  8
0
100
AcDbCircle
 10
2.416
 20
1.729
 30
0.0
 40
0.049
100
AcDbArc
 50
254.288
 51
275.813
  0
ARC
  5
18F
330
18
100
AcDbEntity
  8
0
100
AcDbCircle
 10
2.416
 20
1.727
 30
0.0
 40
0.047
100
AcDbArc
 50
232.215
 51
254.288
  0
ARC
  5
190
330
18
100
AcDbEntity
  8
0
100
AcDbCircle
 10
2.415
 20
1.726
 30
0.0
 40
0.045
100
AcDbArc
 50
209.322
 51
232.215
  0
ARC
  5
191
330
18
100
AcDbEntity
  8
0
100
AcDbCircle
 10
2.413
 20
1.725
 30
0.0
 40
0.043
100
AcDbArc
 50
185.813
 51
209.322
  0
ARC
  5
192
330
18
100
AcDbEntity
  8
0
100
AcDbCircle
 10
2.413
 20
1.725
 30
0.0
 40
0.043
100
AcDbArc
 50
162.304
 51
185.813
  0
ARC
  5
193
330
18
100
AcDbEntity
  8
0
100
AcDbCircle
 10
2.415
 20
1.724
 30
0.0
 40
0.045
100
AcDbArc
 50
139.411
 51
162.304
  0
ARC
  5
194
330
18
100
AcDbEntity
  8
0
100
AcDbCircle
 10
2.416
 20
1.723
 30
0.0
 40
0.047
100
AcDbArc
 50
117.339
 51
139.411
  0
ARC
  5
195
330
18
100
AcDbEntity
  8
0
100
AcDbCircle
 10
2.417
 20
1.72
 30
0.0
 40
0.049
100
AcDbArc
 50
95.81299999999999
 51
117.339
  0
LINE
  5
196
330
18
100
AcDbEntity
  8
0
100
AcDbLine
 10
1.665
 20
3.906
 30
0.0
 11
4.837
 21
2.176
 31
0.0
  0
LINE
  5
197
330
18
100
AcDbEntity
  8
0
100
AcDbLine
 10
1.665
 20
3.906
 30
0.0
 11
0.522
 21
3.648
 31
0.0
  0
LINE
  5
198
330
18
100
AcDbEntity
  8
0
100
AcDbLine
 10
0.522
 20
3.648
 30
0.0
 11
2.066
 21
2.913
 31
0.0
  0
LINE
  5
199
330
18
100
AcDbEntity
  8
0
100
AcDbLine
 10
1.665
 20
3.906
 30
0.0
 11
1.676
 21
4.453
 31
0.0
  0
LINE
  5
19A
330
18
100
AcDbEntity
  8
0
100
AcDbLine
 10
1.692
 20
5.32
 30
0.0
 11
4.846
 21
3.301
 31
0.0
  0
LINE
  5
19B
330
18
100
AcDbEntity
  8
0
100
AcDbLine
 10
4.837
 20
2.176
 30
0.0
 11
4.84
 21
2.579
 31
0.0
  0
LINE
  5
19C
330
18
100
AcDbEntity
  8
0
100
AcDbLine
 10
3.118
 20
0.9840000000000001
 30
0.0
 11
3.118
 21
3.114
 31
0.0
  0
LINE
  5
19D
330
18
100
AcDbEntity
  8
0
100
AcDbLine
 10
3.908
 20
0.6840000000000001
 30
0.0
 11
3.908
 21
2.682
 31
0.0
  0
LINE
  5
19E
330
18
100
AcDbEntity
  8
0
100
AcDbLine
 10
2.066
 20
0.883
 30
0.0
 11
2.066
 21
2.913
 31
0.0
  0
LINE
  5
19F
330
18
100
AcDbEntity
  8
0
100
AcDbLine
 10
3.118
 20
0.9840000000000001
 30
0.0
 11
3.463
 21
0.853
 31
0.0
  0
LINE
  5
1A0
330
18
100
AcDbEntity
  8
0
100
AcDbLine
 10
3.118
 20
0.9840000000000001
 30
0.0
 11
2.066
 21
0.883
 31
0.0
  0
LINE
  5
1A1
330
18
100
AcDbEntity
  8
0
100
AcDbLine
 10
3.908
 20
0.6840000000000001
 30
0.0
 11
2.856
 21
0.583
 31
0.0
  0
LINE
  5
1A2
330
18
100
AcDbEntity
  8
0
100
AcDbLine
 10
2.066
 20
0.883
 30
0.0
 11
2.411
 21
0.752
 31
0.0
  0
LINE
  5
1A3
330
18
100
AcDbEntity
  8
0
100
AcDbLine
 10
3.463
 20
0.853
 30
0.0
 11
3.511
 21
0.9390000000000001
 31
0.0
  0
LINE
  5
1A4
330
18
100
AcDbEntity
  8
0
100
AcDbLine
 10
3.511
 20
0.9390000000000001
 30
0.0
 11
3.554
 21
0.7
 31
0.0
  0
LINE
  5
1A5
330
18
100
AcDbEntity
  8
0
100
AcDbLine
 10
3.554
 20
0.7
 30
0.0
 11
3.608
 21
0.7979999999999999
 31
0.0
  0
LINE
  5
1A6
330
18
100
AcDbEntity
  8
0
100
AcDbLine
 10
3.608
 20
0.7979999999999999
 30
0.0
 11
3.908
 21
0.6840000000000001
 31
0.0
  0
LINE
  5
1A7
330
18
100
AcDbEntity
  8
0
100
AcDbLine
 10
3.554
 20
0.7
 30
0.0
 11
2.502
 21
0.599
 31
0.0
  0
LINE
  5
1A8
330
18
100
AcDbEntity
  8
0
100
AcDbLine
 10
3.463
 20
0.853
 30
0.0
 11
2.411
 21
0.752
 31
0.0
  0
LINE
  5
1A9
330
18
100
AcDbEntity
  8
0
100
AcDbLine
 10
2.473
 20
0.758
 30
0.0
 11
2.502
 21
0.599
 31
0.0
  0
LINE
  5
1AA
330
18
100
AcDbEntity
  8
0
100
AcDbLine
 10
2.75
 20
0.623
 30
0.0
 11
2.856
 21
0.583
 31
0.0
  0
LINE
  5
1AB
330
18
100
AcDbEntity
  8
0
100
AcDbLine
 10
4.842
 20
2.838
 30
0.0
 11
4.906000000000001
 21
2.732
 31
0.0
  0
LINE
  5
1AC
330
18
100
AcDbEntity
  8
0
100
AcDbLine
 10
4.906000000000001
 20
2.732
 30
0.0
 11
4.807
 21
2.666
 31
0.0
  0
LINE
  5
1AD
330
18
100
AcDbEntity
  8
0
100
AcDbLine
 10
4.807
 20
2.666
 30
0.0
 11
4.84
 21
2.579
 31
0.0
  0
LINE
  5
1AE
330
18
100
AcDbEntity
  8
0
100
AcDbLine
 10
4.842
 20
2.838
 30
0.0
 11
4.846
 21
3.301
 31
0.0
  0
LINE
  5
1AF
330
18
100
AcDbEntity
  8
0
100
AcDbLine
 10
1.692
 20
5.32
 30
0.0
 11
0.5489999999999999
 21
5.062
 31
0.0
  0
LINE
  5
1B0
330
18
100
AcDbEntity
  8
0
100
AcDbLine
 10
0.522
 20
3.648
 30
0.0
 11
0.532
 21
4.195
 31
0.0
  0
LINE
  5
1B1
330
18
100
AcDbEntity
  8
0
100
AcDbLine
 10
1.682
 20
4.79
 30
0.0
 11
1.812
 21
4.691
 31
0.0
  0
LINE
  5
1B2
330
18
100
AcDbEntity
  8
0
100
AcDbLine
 10
1.812
 20
4.691
 30
0.0
 11
1.612
 21
4.561
 31
0.0
  0
LINE
  5
1B3
330
18
100
AcDbEntity
  8
0
100
AcDbLine
 10
1.612
 20
4.561
 30
0.0
 11
1.676
 21
4.453
 31
0.0
  0
LINE
  5
1B4
330
18
100
AcDbEntity
  8
0
100
AcDbLine
 10
1.682
 20
4.79
 30
0.0
 11
1.692
 21
5.32
 31
0.0
  0
LINE
  5
1B5
330
18
100
AcDbEntity
  8
0
100
AcDbLine
 10
1.676
 20
4.453
 30
0.0
 11
0.532
 21
4.195
 31
0.0
  0
LINE
  5
1B6
330
18
100
AcDbEntity
  8
0
100
AcDbLine
 10
1.612
 20
4.561
 30
0.0
 11
0.469
 21
4.303
 31
0.0
  0
LINE
  5
1B7
330
18
100
AcDbEntity
  8
0
100
AcDbLine
 10
1.812
 20
4.691
 30
0.0
 11
0.6679999999999999
 21
4.432
 31
0.0
  0
LINE
  5
1B8
330
18
100
AcDbEntity
  8
0
100
AcDbLine
 10
1.682
 20
4.79
 30
0.0
 11
0.539
 21
4.532
 31
0.0
  0
LINE
  5
1B9
330
18
100
AcDbEntity
  8
0
100
AcDbLine
 10
0.469
 20
4.303
 30
0.0
 11
0.532
 21
4.195
 31
0.0
  0
LINE
  5
1BA
330
18
100
AcDbEntity
  8
0
100
AcDbLine
 10
0.6679999999999999
 20
4.432
 30
0.0
 11
0.469
 21
4.303
 31
0.0
  0
LINE
  5
1BB
330
18
100
AcDbEntity
  8
0
100
AcDbLine
 10
0.539
 20
4.532
 30
0.0
 11
0.6679999999999999
 21
4.432
 31
0.0
  0
LINE
  5
1BC
330
18
100
AcDbEntity
  8
0
100
AcDbLine
 10
0.539
 20
4.532
 30
0.0
 11
0.5489999999999999
 21
5.062
 31
0.0
  0
LINE
  5
1BD
330
18
100
AcDbEntity
  8
0
100
AcDbLine
 10
1.76
 20
3.655
 30
0.0
 11
2.795
 21
3.091
 31
0.0
  0
LINE
  5
1BE
330
18
100
AcDbEntity
  8
0
100
AcDbLine
 10
1.76
 20
3.655
 30
0.0
 11
1.3
 21
3.552
 31
0.0
  0
LINE
  5
1BF
330
18
100
AcDbEntity
  8
0
100
AcDbLine
 10
1.759
 20
3.599
 30
0.0
 11
2.758
 21
3.054
 31
0.0
  0
LINE
  5
1C0
330
18
100
AcDbEntity
  8
0
100
AcDbLine
 10
1.759
 20
3.599
 30
0.0
 11
1.76
 21
3.655
 31
0.0
  0
LINE
  5
1C1
330
18
100
AcDbEntity
  8
0
100
AcDbLine
 10
1.759
 20
3.599
 30
0.0
 11
1.299
 21
3.495
 31
0.0
  0
LINE
  5
1C2
330
18
100
AcDbEntity
  8
0
100
AcDbLine
 10
1.299
 20
3.495
 30
0.0
 11
1.3
 21
3.552
 31
0.0
  0
LINE
  5
1C3
330
18
100
AcDbEntity
  8
0
100
AcDbLine
 10
3.118
 20
3.114
 30
0.0
 11
2.82
 21
3.057
 31
0.0
  0
LINE
  5
1C4
330
18
100
AcDbEntity
  8
0
100
AcDbLine
 10
2.821
 20
3.047
 30
0.0
 11
2.821
 21
1.557
 31
0.0
  0
LINE
  5
1C5
330
18
100
AcDbEntity
  8
0
100
AcDbLine
 10
2.821
 20
1.557
 30
0.0
 11
2.365
 21
1.513
 31
0.0
  0
ARC
  5
1C6
330
18
100
AcDbEntity
  8
0
100
AcDbCircle
 10
2.771
 20
3.047
 30
0.0
 40
0.05
100
AcDbArc
 50
0.0
 51
61.38399999999999
  0
LINE
  5
1C7
330
18
100
AcDbEntity
  8
0
100
AcDbLine
 10
2.771
 20
3.032
 30
0.0
 11
2.771
 21
1.609
 31
0.0
  0
LINE
  5
1C8
330
18
100
AcDbEntity
  8
0
100
AcDbLine
 10
2.821
 20
1.557
 30
0.0
 11
2.771
 21
1.609
 31
0.0
  0
LINE
  5
1C9
330
18
100
AcDbEntity
  8
0
100
AcDbLine
 10
2.771
 20
1.609
 30
0.0
 11
2.315
 21
1.565
 31
0.0
  0
LINE
  5
1CA
330
18
100
AcDbEntity
  8
0
100
AcDbLine
 10
2.315
 20
2.936
 30
0.0
 11
2.315
 21
1.565
 31
0.0
  0
LINE
  5
1CB
330
18
100
AcDbEntity
  8
0
100
AcDbLine
 10
2.365
 20
1.513
 30
0.0
 11
2.315
 21
1.565
 31
0.0
  0
LINE
  5
1CC
330
18
100
AcDbEntity
  8
0
100
AcDbLine
 10
1.299
 20
3.495
 30
0.0
 11
2.274
 21
3.003
 31
0.0
  0
ARC
  5
1CD
330
18
100
AcDbEntity
  8
0
100
AcDbCircle
 10
2.24
 20
2.936
 30
0.0
 40
0.075
100
AcDbArc
 50
0.0
 51
63.19800000000001
  0
LINE
  5
1CE
330
18
100
AcDbEntity
  8
0
100
AcDbLine
 10
2.311
 20
2.96
 30
0.0
 11
2.066
 21
2.913
 31
0.0
  0
LINE
  5
1CF
330
18
100
AcDbEntity
  8
0
100
AcDbLine
 10
2.397
 20
2.97
 30
0.0
 11
2.724
 21
3.033
 31
0.0
  0
LINE
  5
1D0
330
18
100
AcDbEntity
  8
0
100
AcDbLine
 10
2.36
 20
2.992
 30
0.0
 11
2.696
 21
3.052
 31
0.0
  0
LINE
  5
1D1
330
18
100
AcDbEntity
  8
0
100
AcDbLine
 10
4.837
 20
2.176
 30
0.0
 11
3.908
 21
2.032
 31
0.0
  0
LINE
  5
1D2
330
18
100
AcDbEntity
  8
0
100
AcDbLine
 10
3.908
 20
2.462
 30
0.0
 11
4.39
 21
2.199
 31
0.0
  0
LINE
  5
1D3
330
18
100
AcDbEntity
  8
0
100
AcDbLine
 10
4.39
 20
2.199
 30
0.0
 11
4.391
 21
2.256
 31
0.0
  0
LINE
  5
1D4
330
18
100
AcDbEntity
  8
0
100
AcDbLine
 10
3.908
 20
2.519
 30
0.0
 11
4.391
 21
2.256
 31
0.0
  0
LINE
  5
1D5
330
18
100
AcDbEntity
  8
0
100
AcDbLine
 10
4.39
 20
2.199
 30
0.0
 11
3.996
 21
2.138
 31
0.0
  0
LINE
  5
1D6
330
18
100
AcDbEntity
  8
0
100
AcDbLine
 10
3.908
 20
2.186
 30
0.0
 11
3.996
 21
2.138
 31
0.0
  0
TEXT
  5
1D7
330
18
100
AcDbEntity
  8
0
100
AcDbText
 10
2.54
 20
0.21
 30
0.0
 40
0.125
  1
A44 Angle
100
AcDbText
  0
ARC
  5
1D8
330
18
100
AcDbEntity
  8
0
100
AcDbCircle
 10
2.746
 20
3.032
 30
0.0
 40
0.025
100
AcDbArc
 50
0.0
 51
61.38399999999999
  0
ARC
  5
1D9
330
18
100
AcDbEntity
  8
0
100
AcDbCircle
 10
1.945
 20
3.272
 30
0.0
 40
0.073
100
AcDbArc
 50
254.725
 51
270.236
  0
ARC
  5
1DA
330
18
100
AcDbEntity
  8
0
100
AcDbCircle
 10
1.945
 20
3.252
 30
0.0
 40
0.052
100
AcDbArc
 50
270.236
 51
288.549
  0
ARC
  5
1DB
330
18
100
AcDbEntity
  8
0
100
AcDbCircle
 10
1.95
 20
3.237
 30
0.0
 40
0.037
100
AcDbArc
 50
288.549
 51
313.001
  0
ARC
  5
1DC
330
18
100
AcDbEntity
  8
0
100
AcDbCircle
 10
1.96
 20
3.227
 30
0.0
 40
0.022
100
AcDbArc
 50
313.001
 51
344.725
  0
ARC
  5
1DD
330
18
100
AcDbEntity
  8
0
100
AcDbCircle
 10
1.96
 20
3.227
 30
0.0
 40
0.022
100
AcDbArc
 50
344.725
 51
16.449
  0
ARC
  5
1DE
330
18
100
AcDbEntity
  8
0
100
AcDbCircle
 10
1.946
 20
3.222
 30
0.0
 40
0.037
100
AcDbArc
 50
16.449
 51
40.902
  0
ARC
  5
1DF
330
18
100
AcDbEntity
  8
0
100
AcDbCircle
 10
1.934
 20
3.213
 30
0.0
 40
0.052
100
AcDbArc
 50
40.902
 51
59.214
  0
ARC
  5
1E0
330
18
100
AcDbEntity
  8
0
100
AcDbCircle
 10
1.924
 20
3.195
 30
0.0
 40
0.073
100
AcDbArc
 50
59.214
 51
74.72499999999999
  0
ARC
  5
1E1
330
18
100
AcDbEntity
  8
0
100
AcDbCircle
 10
1.924
 20
3.195
 30
0.0
 40
0.073
100
AcDbArc
 50
74.72499999999999
 51
90.236
  0
ARC
  5
1E2
330
18
100
AcDbEntity
  8
0
100
AcDbCircle
 10
1.924
 20
3.215
 30
0.0
 40
0.052
100
AcDbArc
 50
90.236
 51
108.549
  0
ARC
  5
1E3
330
18
100
AcDbEntity
  8
0
100
AcDbCircle
 10
1.919
 20
3.23
 30
0.0
 40
0.037
100
AcDbArc
 50
108.549
 51
133.001
  0
ARC
  5
1E4
330
18
100
AcDbEntity
  8
0
100
AcDbCircle
 10
1.909
 20
3.241
 30
0.0
 40
0.022
100
AcDbArc
 50
133.001
 51
164.725
  0
ARC
  5
1E5
330
18
100
AcDbEntity
  8
0
100
AcDbCircle
 10
1.909
 20
3.241
 30
0.0
 40
0.022
100
AcDbArc
 50
164.725
 51
196.449
  0
ARC
  5
1E6
330
18
100
AcDbEntity
  8
0
100
AcDbCircle
 10
1.923
 20
3.245
 30
0.0
 40
0.037
100
AcDbArc
 50
196.449
 51
220.902
  0
ARC
  5
1E7
330
18
100
AcDbEntity
  8
0
100
AcDbCircle
 10
1.934
 20
3.255
 30
0.0
 40
0.052
100
AcDbArc
 50
220.902
 51
239.214
  0
ARC
  5
1E8
330
18
100
AcDbEntity
  8
0
100
AcDbCircle
 10
1.945
 20
3.272
 30
0.0
 40
0.073
100
AcDbArc
 50
239.214
 51
254.725
  0
ARC
  5
1E9
330
18
100
AcDbEntity
  8
0
100
AcDbCircle
 10
1.965
 20
3.246
 30
0.0
 40
0.022
100
AcDbArc
 50
317.882
 51
344.725
  0
ARC
  5
1EA
330
18
100
AcDbEntity
  8
0
100
AcDbCircle
 10
1.965
 20
3.246
 30
0.0
 40
0.022
100
AcDbArc
 50
344.725
 51
16.449
  0
ARC
  5
1EB
330
18
100
AcDbEntity
  8
0
100
AcDbCircle
 10
1.951
 20
3.241
 30
0.0
 40
0.037
100
AcDbArc
 50
16.449
 51
40.902
  0
ARC
  5
1EC
330
18
100
AcDbEntity
  8
0
100
AcDbCircle
 10
1.94
 20
3.232
 30
0.0
 40
0.052
100
AcDbArc
 50
40.902
 51
59.214
  0
ARC
  5
1ED
330
18
100
AcDbEntity
  8
0
100
AcDbCircle
 10
1.929
 20
3.214
 30
0.0
 40
0.073
100
AcDbArc
 50
59.214
 51
74.72499999999999
  0
ARC
  5
1EE
330
18
100
AcDbEntity
  8
0
100
AcDbCircle
 10
1.929
 20
3.214
 30
0.0
 40
0.073
100
AcDbArc
 50
74.72499999999999
 51
90.236
  0
ARC
  5
1EF
330
18
100
AcDbEntity
  8
0
100
AcDbCircle
 10
1.929
 20
3.234
 30
0.0
 40
0.052
100
AcDbArc
 50
90.236
 51
108.549
  0
ARC
  5
1F0
330
18
100
AcDbEntity
  8
0
100
AcDbCircle
 10
1.924
 20
3.249
 30
0.0
 40
0.037
100
AcDbArc
 50
108.549
 51
133.001
  0
ARC
  5
1F1
330
18
100
AcDbEntity
  8
0
100
AcDbCircle
 10
1.914
 20
3.26
 30
0.0
 40
0.022
100
AcDbArc
 50
133.001
 51
164.725
  0
ARC
  5
1F2
330
18
100
AcDbEntity
  8
0
100
AcDbCircle
 10
1.914
 20
3.26
 30
0.0
 40
0.022
100
AcDbArc
 50
164.725
 51
190.231
  0
ARC
  5
1F3
330
18
100
AcDbEntity
  8
0
100
AcDbCircle
 10
2.28
 20
3.262
 30
0.0
 40
0.022
100
AcDbArc
 50
317.882
 51
344.725
  0
ARC
  5
1F4
330
18
100
AcDbEntity
  8
0
100
AcDbCircle
 10
2.28
 20
3.262
 30
0.0
 40
0.022
100
AcDbArc
 50
344.725
 51
16.449
  0
ARC
  5
1F5
330
18
100
AcDbEntity
  8
0
100
AcDbCircle
 10
2.266
 20
3.258
 30
0.0
 40
0.037
100
AcDbArc
 50
16.449
 51
40.902
  0
ARC
  5
1F6
330
18
100
AcDbEntity
  8
0
100
AcDbCircle
 10
2.254
 20
3.248
 30
0.0
 40
0.052
100
AcDbArc
 50
40.902
 51
59.214
  0
ARC
  5
1F7
330
18
100
AcDbEntity
  8
0
100
AcDbCircle
 10
2.244
 20
3.23
 30
0.0
 40
0.073
100
AcDbArc
 50
59.214
 51
74.72499999999999
  0
ARC
  5
1F8
330
18
100
AcDbEntity
  8
0
100
AcDbCircle
 10
2.244
 20
3.23
 30
0.0
 40
0.073
100
AcDbArc
 50
74.72499999999999
 51
90.236
  0
ARC
  5
1F9
330
18
100
AcDbEntity
  8
0
100
AcDbCircle
 10
2.244
 20
3.251
 30
0.0
 40
0.052
100
AcDbArc
 50
90.236
 51
108.549
  0
ARC
  5
1FA
330
18
100
AcDbEntity
  8
0
100
AcDbCircle
 10
2.239
 20
3.265
 30
0.0
 40
0.037
100
AcDbArc
 50
108.549
 51
133.001
  0
ARC
  5
1FB
330
18
100
AcDbEntity
  8
0
100
AcDbCircle
 10
2.229
 20
3.276
 30
0.0
 40
0.022
100
AcDbArc
 50
133.001
 51
164.725
  0
ARC
  5
1FC
330
18
100
AcDbEntity
  8
0
100
AcDbCircle
 10
2.229
 20
3.276
 30
0.0
 40
0.022
100
AcDbArc
 50
164.725
 51
190.231
  0
ARC
  5
1FD
330
18
100
AcDbEntity
  8
0
100
AcDbCircle
 10
2.259
 20
3.288
 30
0.0
 40
0.073
100
AcDbArc
 50
254.725
 51
270.236
  0
ARC
  5
1FE
330
18
100
AcDbEntity
  8
0
100
AcDbCircle
 10
2.259
 20
3.268
 30
0.0
 40
0.052
100
AcDbArc
 50
270.236
 51
288.549
  0
ARC
  5
1FF
330
18
100
AcDbEntity
  8
0
100
AcDbCircle
 10
2.264
 20
3.254
 30
0.0
 40
0.037
100
AcDbArc
 50
288.549
 51
313.001
  0
ARC
  5
200
330
18
100
AcDbEntity
  8
0
100
AcDbCircle
 10
2.274
 20
3.243
 30
0.0
 40
0.022
100
AcDbArc
 50
313.001
 51
344.725
  0
ARC
  5
201
330
18
100
AcDbEntity
  8
0
100
AcDbCircle
 10
2.274
 20
3.243
 30
0.0
 40
0.022
100
AcDbArc
 50
344.725
 51
16.449
  0
ARC
  5
202
330
18
100
AcDbEntity
  8
0
100
AcDbCircle
 10
2.26
 20
3.239
 30
0.0
 40
0.037
100
AcDbArc
 50
16.449
 51
40.902
  0
ARC
  5
203
330
18
100
AcDbEntity
  8
0
100
AcDbCircle
 10
2.249
 20
3.229
 30
0.0
 40
0.052
100
AcDbArc
 50
40.902
 51
59.214
  0
ARC
  5
204
330
18
100
AcDbEntity
  8
0
100
AcDbCircle
 10
2.238
 20
3.211
 30
0.0
 40
0.073
100
AcDbArc
 50
59.214
 51
74.72499999999999
  0
ARC
  5
205
330
18
100
AcDbEntity
  8
0
100
AcDbCircle
 10
2.238
 20
3.211
 30
0.0
 40
0.073
100
AcDbArc
 50
74.72499999999999
 51
90.236
  0
ARC
  5
206
330
18
100
AcDbEntity
  8
0
100
AcDbCircle
 10
2.238
 20
3.232
 30
0.0
 40
0.052
100
AcDbArc
 50
90.236
 51
108.549
  0
ARC
  5
207
330
18
100
AcDbEntity
  8
0
100
AcDbCircle
 10
2.234
 20
3.246
 30
0.0
 40
0.037
100
AcDbArc
 50
108.549
 51
133.001
  0
ARC
  5
208
330
18
100
AcDbEntity
  8
0
100
AcDbCircle
 10
2.223
 20
3.257
 30
0.0
 40
0.022
100
AcDbArc
 50
133.001
 51
164.725
  0
ARC
  5
209
330
18
100
AcDbEntity
  8
0
100
AcDbCircle
 10
2.223
 20
3.257
 30
0.0
 40
0.022
100
AcDbArc
 50
164.725
 51
196.449
  0
ARC
  5
20A
330
18
100
AcDbEntity
  8
0
100
AcDbCircle
 10
2.238
 20
3.261
 30
0.0
 40
0.037
100
AcDbArc
 50
196.449
 51
220.902
  0
ARC
  5
20B
330
18
100
AcDbEntity
  8
0
100
AcDbCircle
 10
2.249
 20
3.271
 30
0.0
 40
0.052
100
AcDbArc
 50
220.902
 51
239.214
  0
ARC
  5
20C
330
18
100
AcDbEntity
  8
0
100
AcDbCircle
 10
2.259
 20
3.288
 30
0.0
 40
0.073
100
AcDbArc
 50
239.214
 51
254.725
  0
ARC
  5
20D
330
18
100
AcDbEntity
  8
0
100
AcDbCircle
 10
1.898
 20
3.473
 30
0.0
 40
0.022
100
AcDbArc
 50
317.882
 51
344.725
  0
ARC
  5
20E
330
18
100
AcDbEntity
  8
0
100
AcDbCircle
 10
1.898
 20
3.473
 30
0.0
 40
0.022
100
AcDbArc
 50
344.725
 51
16.449
  0
ARC
  5
20F
330
18
100
AcDbEntity
  8
0
100
AcDbCircle
 10
1.883
 20
3.469
 30
0.0
 40
0.037
100
AcDbArc
 50
16.449
 51
40.902
  0
ARC
  5
210
330
18
100
AcDbEntity
  8
0
100
AcDbCircle
 10
1.872
 20
3.459
 30
0.0
 40
0.052
100
AcDbArc
 50
40.902
 51
59.214
  0
ARC
  5
211
330
18
100
AcDbEntity
  8
0
100
AcDbCircle
 10
1.861
 20
3.442
 30
0.0
 40
0.073
100
AcDbArc
 50
59.214
 51
74.72499999999999
  0
ARC
  5
212
330
18
100
AcDbEntity
  8
0
100
AcDbCircle
 10
1.861
 20
3.442
 30
0.0
 40
0.073
100
AcDbArc
 50
74.72499999999999
 51
90.236
  0
ARC
  5
213
330
18
100
AcDbEntity
  8
0
100
AcDbCircle
 10
1.861
 20
3.462
 30
0.0
 40
0.052
100
AcDbArc
 50
90.236
 51
108.549
  0
ARC
  5
214
330
18
100
AcDbEntity
  8
0
100
AcDbCircle
 10
1.857
 20
3.476
 30
0.0
 40
0.037
100
AcDbArc
 50
108.549
 51
133.001
  0
ARC
  5
215
330
18
100
AcDbEntity
  8
0
100
AcDbCircle
 10
1.846
 20
3.487
 30
0.0
 40
0.022
100
AcDbArc
 50
133.001
 51
164.725
  0
ARC
  5
216
330
18
100
AcDbEntity
  8
0
100
AcDbCircle
 10
1.846
 20
3.487
 30
0.0
 40
0.022
100
AcDbArc
 50
164.725
 51
190.231
  0
ARC
  5
217
330
18
100
AcDbEntity
  8
0
100
AcDbCircle
 10
1.877
 20
3.5
 30
0.0
 40
0.073
100
AcDbArc
 50
254.725
 51
270.236
  0
ARC
  5
218
330
18
100
AcDbEntity
  8
0
100
AcDbCircle
 10
1.877
 20
3.479
 30
0.0
 40
0.052
100
AcDbArc
 50
270.236
 51
288.549
  0
ARC
  5
219
330
18
100
AcDbEntity
  8
0
100
AcDbCircle
 10
1.882
 20
3.465
 30
0.0
 40
0.037
100
AcDbArc
 50
288.549
 51
313.001
  0
ARC
  5
21A
330
18
100
AcDbEntity
  8
0
100
AcDbCircle
 10
1.892
 20
3.454
 30
0.0
 40
0.022
100
AcDbArc
 50
313.001
 51
344.725
  0
ARC
  5
21B
330
18
100
AcDbEntity
  8
0
100
AcDbCircle
 10
1.892
 20
3.454
 30
0.0
 40
0.022
100
AcDbArc
 50
344.725
 51
16.449
  0
ARC
  5
21C
330
18
100
AcDbEntity
  8
0
100
AcDbCircle
 10
1.878
 20
3.45
 30
0.0
 40
0.037
100
AcDbArc
 50
16.449
 51
40.902
  0
ARC
  5
21D
330
18
100
AcDbEntity
  8
0
100
AcDbCircle
 10
1.866
 20
3.44
 30
0.0
 40
0.052
100
AcDbArc
 50
40.902
 51
59.214
  0
ARC
  5
21E
330
18
100
AcDbEntity
  8
0
100
AcDbCircle
 10
1.856
 20
3.423
 30
0.0
 40
0.073
100
AcDbArc
 50
59.214
 51
74.72499999999999
  0
ARC
  5
21F
330
18
100
AcDbEntity
  8
0
100
AcDbCircle
 10
1.856
 20
3.423
 30
0.0
 40
0.073
100
AcDbArc
 50
74.72499999999999
 51
90.236
  0
ARC
  5
220
330
18
100
AcDbEntity
  8
0
100
AcDbCircle
 10
1.856
 20
3.443
 30
0.0
 40
0.052
100
AcDbArc
 50
90.236
 51
108.549
  0
ARC
  5
221
330
18
100
AcDbEntity
  8
0
100
AcDbCircle
 10
1.851
 20
3.457
 30
0.0
 40
0.037
100
AcDbArc
 50
108.549
 51
133.001
  0
ARC
  5
222
330
18
100
AcDbEntity
  8
0
100
AcDbCircle
 10
1.841
 20
3.468
 30
0.0
 40
0.022
100
AcDbArc
 50
133.001
 51
164.725
  0
ARC
  5
223
330
18
100
AcDbEntity
  8
0
100
AcDbCircle
 10
1.841
 20
3.468
 30
0.0
 40
0.022
100
AcDbArc
 50
164.725
 51
196.449
  0
ARC
  5
224
330
18
100
AcDbEntity
  8
0
100
AcDbCircle
 10
1.855
 20
3.473
 30
0.0
 40
0.037
100
AcDbArc
 50
196.449
 51
220.902
  0
ARC
  5
225
330
18
100
AcDbEntity
  8
0
100
AcDbCircle
 10
1.867
 20
3.482
 30
0.0
 40
0.052
100
AcDbArc
 50
220.902
 51
239.214
  0
ARC
  5
226
330
18
100
AcDbEntity
  8
0
100
AcDbCircle
 10
1.877
 20
3.5
 30
0.0
 40
0.073
100
AcDbArc
 50
239.214
 51
254.725
  0
ARC
  5
227
330
18
100
AcDbEntity
  8
0
100
AcDbCircle
 10
1.538
 20
3.467
 30
0.0
 40
0.022
100
AcDbArc
 50
317.882
 51
344.725
  0
ARC
  5
228
330
18
100
AcDbEntity
  8
0
100
AcDbCircle
 10
1.538
 20
3.467
 30
0.0
 40
0.022
100
AcDbArc
 50
344.725
 51
16.449
  0
ARC
  5
229
330
18
100
AcDbEntity
  8
0
100
AcDbCircle
 10
1.524
 20
3.463
 30
0.0
 40
0.037
100
AcDbArc
 50
16.449
 51
40.902
  0
ARC
  5
22A
330
18
100
AcDbEntity
  8
0
100
AcDbCircle
 10
1.512
 20
3.453
 30
0.0
 40
0.052
100
AcDbArc
 50
40.902
 51
59.214
  0
ARC
  5
22B
330
18
100
AcDbEntity
  8
0
100
AcDbCircle
 10
1.502
 20
3.436
 30
0.0
 40
0.073
100
AcDbArc
 50
59.214
 51
74.72499999999999
  0
ARC
  5
22C
330
18
100
AcDbEntity
  8
0
100
AcDbCircle
 10
1.502
 20
3.436
 30
0.0
 40
0.073
100
AcDbArc
 50
74.72499999999999
 51
90.236
  0
ARC
  5
22D
330
18
100
AcDbEntity
  8
0
100
AcDbCircle
 10
1.502
 20
3.456
 30
0.0
 40
0.052
100
AcDbArc
 50
90.236
 51
108.549
  0
ARC
  5
22E
330
18
100
AcDbEntity
  8
0
100
AcDbCircle
 10
1.497
 20
3.47
 30
0.0
 40
0.037
100
AcDbArc
 50
108.549
 51
133.001
  0
ARC
  5
22F
330
18
100
AcDbEntity
  8
0
100
AcDbCircle
 10
1.487
 20
3.481
 30
0.0
 40
0.022
100
AcDbArc
 50
133.001
 51
164.725
  0
ARC
  5
230
330
18
100
AcDbEntity
  8
0
100
AcDbCircle
 10
1.487
 20
3.481
 30
0.0
 40
0.022
100
AcDbArc
 50
164.725
 51
190.231
  0
ARC
  5
231
330
18
100
AcDbEntity
  8
0
100
AcDbCircle
 10
1.517
 20
3.494
 30
0.0
 40
0.073
100
AcDbArc
 50
254.725
 51
270.236
  0
ARC
  5
232
330
18
100
AcDbEntity
  8
0
100
AcDbCircle
 10
1.517
 20
3.473
 30
0.0
 40
0.052
100
AcDbArc
 50
270.236
 51
288.549
  0
ARC
  5
233
330
18
100
AcDbEntity
  8
0
100
AcDbCircle
 10
1.522
 20
3.459
 30
0.0
 40
0.037
100
AcDbArc
 50
288.549
 51
313.001
  0
ARC
  5
234
330
18
100
AcDbEntity
  8
0
100
AcDbCircle
 10
1.532
 20
3.448
 30
0.0
 40
0.022
100
AcDbArc
 50
313.001
 51
344.725
  0
ARC
  5
235
330
18
100
AcDbEntity
  8
0
100
AcDbCircle
 10
1.532
 20
3.448
 30
0.0
 40
0.022
100
AcDbArc
 50
344.725
 51
16.449
  0
ARC
  5
236
330
18
100
AcDbEntity
  8
0
100
AcDbCircle
 10
1.518
 20
3.444
 30
0.0
 40
0.037
100
AcDbArc
 50
16.449
 51
40.902
  0
ARC
  5
237
330
18
100
AcDbEntity
  8
0
100
AcDbCircle
 10
1.507
 20
3.434
 30
0.0
 40
0.052
100
AcDbArc
 50
40.902
 51
59.214
  0
ARC
  5
238
330
18
100
AcDbEntity
  8
0
100
AcDbCircle
 10
1.496
 20
3.417
 30
0.0
 40
0.073
100
AcDbArc
 50
59.214
 51
74.72499999999999
  0
ARC
  5
239
330
18
100
AcDbEntity
  8
0
100
AcDbCircle
 10
1.496
 20
3.417
 30
0.0
 40
0.073
100
AcDbArc
 50
74.72499999999999
 51
90.236
  0
ARC
  5
23A
330
18
100
AcDbEntity
  8
0
100
AcDbCircle
 10
1.496
 20
3.437
 30
0.0
 40
0.052
100
AcDbArc
 50
90.236
 51
108.549
  0
ARC
  5
23B
330
18
100
AcDbEntity
  8
0
100
AcDbCircle
 10
1.492
 20
3.451
 30
0.0
 40
0.037
100
AcDbArc
 50
108.549
 51
133.001
  0
ARC
  5
23C
330
18
100
AcDbEntity
  8
0
100
AcDbCircle
 10
1.481
 20
3.462
 30
0.0
 40
0.022
100
AcDbArc
 50
133.001
 51
164.725
  0
ARC
  5
23D
330
18
100
AcDbEntity
  8
0
100
AcDbCircle
 10
1.481
 20
3.462
 30
0.0
 40
0.022
100
AcDbArc
 50
164.725
 51
196.449
  0
ARC
  5
23E
330
18
100
AcDbEntity
  8
0
100
AcDbCircle
 10
1.496
 20
3.466
 30
0.0
 40
0.037
100
AcDbArc
 50
196.449
 51
220.902
  0
ARC
  5
23F
330
18
100
AcDbEntity
  8
0
100
AcDbCircle
 10
1.507
 20
3.476
 30
0.0
 40
0.052
100
AcDbArc
 50
220.902
 51
239.214
  0
ARC
  5
240
330
18
100
AcDbEntity
  8
0
100
AcDbCircle
 10
1.517
 20
3.494
 30
0.0
 40
0.073
100
AcDbArc
 50
239.214
 51
254.725
  0
ARC
  5
241
330
18
100
AcDbEntity
  8
0
100
AcDbCircle
 10
3.92
 20
2.281
 30
0.0
 40
0.073
100
AcDbArc
 50
260.982
 51
270.236
  0
ARC
  5
242
330
18
100
AcDbEntity
  8
0
100
AcDbCircle
 10
3.92
 20
2.26
 30
0.0
 40
0.052
100
AcDbArc
 50
270.236
 51
288.549
  0
ARC
  5
243
330
18
100
AcDbEntity
  8
0
100
AcDbCircle
 10
3.924
 20
2.246
 30
0.0
 40
0.037
100
AcDbArc
 50
288.549
 51
313.001
  0
ARC
  5
244
330
18
100
AcDbEntity
  8
0
100
AcDbCircle
 10
3.935
 20
2.235
 30
0.0
 40
0.022
100
AcDbArc
 50
313.001
 51
344.725
  0
ARC
  5
245
330
18
100
AcDbEntity
  8
0
100
AcDbCircle
 10
3.935
 20
2.235
 30
0.0
 40
0.022
100
AcDbArc
 50
344.725
 51
16.449
  0
ARC
  5
246
330
18
100
AcDbEntity
  8
0
100
AcDbCircle
 10
3.92
 20
2.231
 30
0.0
 40
0.037
100
AcDbArc
 50
16.449
 51
40.902
  0
ARC
  5
247
330
18
100
AcDbEntity
  8
0
100
AcDbCircle
 10
3.909
 20
2.221
 30
0.0
 40
0.052
100
AcDbArc
 50
40.902
 51
59.214
  0
ARC
  5
248
330
18
100
AcDbEntity
  8
0
100
AcDbCircle
 10
3.899
 20
2.204
 30
0.0
 40
0.073
100
AcDbArc
 50
59.214
 51
74.72499999999999
  0
ARC
  5
249
330
18
100
AcDbEntity
  8
0
100
AcDbCircle
 10
3.899
 20
2.204
 30
0.0
 40
0.073
100
AcDbArc
 50
74.72499999999999
 51
82.369
  0
ARC
  5
24A
330
18
100
AcDbEntity
  8
0
100
AcDbCircle
 10
3.938
 20
2.256
 30
0.0
 40
0.022
100
AcDbArc
 50
322.969
 51
344.725
  0
ARC
  5
24B
330
18
100
AcDbEntity
  8
0
100
AcDbCircle
 10
3.938
 20
2.256
 30
0.0
 40
0.022
100
AcDbArc
 50
344.725
 51
16.449
  0
ARC
  5
24C
330
18
100
AcDbEntity
  8
0
100
AcDbCircle
 10
3.924
 20
2.251
 30
0.0
 40
0.037
100
AcDbArc
 50
16.449
 51
40.902
  0
ARC
  5
24D
330
18
100
AcDbEntity
  8
0
100
AcDbCircle
 10
3.912
 20
2.242
 30
0.0
 40
0.052
100
AcDbArc
 50
40.902
 51
59.214
  0
ARC
  5
24E
330
18
100
AcDbEntity
  8
0
100
AcDbCircle
 10
3.902
 20
2.224
 30
0.0
 40
0.073
100
AcDbArc
 50
59.214
 51
74.72499999999999
  0
ARC
  5
24F
330
18
100
AcDbEntity
  8
0
100
AcDbCircle
 10
3.902
 20
2.224
 30
0.0
 40
0.073
100
AcDbArc
 50
74.72499999999999
 51
85.071
  0
ARC
  5
250
330
18
100
AcDbEntity
  8
0
100
AcDbCircle
 10
4.217
 20
2.234
 30
0.0
 40
0.022
100
AcDbArc
 50
322.969
 51
344.725
  0
ARC
  5
251
330
18
100
AcDbEntity
  8
0
100
AcDbCircle
 10
4.217
 20
2.234
 30
0.0
 40
0.022
100
AcDbArc
 50
344.725
 51
16.449
  0
ARC
  5
252
330
18
100
AcDbEntity
  8
0
100
AcDbCircle
 10
4.203
 20
2.229
 30
0.0
 40
0.037
100
AcDbArc
 50
16.449
 51
40.902
  0
ARC
  5
253
330
18
100
AcDbEntity
  8
0
100
AcDbCircle
 10
4.192
 20
2.219
 30
0.0
 40
0.052
100
AcDbArc
 50
40.902
 51
59.214
  0
ARC
  5
254
330
18
100
AcDbEntity
  8
0
100
AcDbCircle
 10
4.181
 20
2.202
 30
0.0
 40
0.073
100
AcDbArc
 50
59.214
 51
74.72499999999999
  0
ARC
  5
255
330
18
100
AcDbEntity
  8
0
100
AcDbCircle
 10
4.181
 20
2.202
 30
0.0
 40
0.073
100
AcDbArc
 50
74.72499999999999
 51
90.236
  0
ARC
  5
256
330
18
100
AcDbEntity
  8
0
100
AcDbCircle
 10
4.181
 20
2.222
 30
0.0
 40
0.052
100
AcDbArc
 50
90.236
 51
108.549
  0
ARC
  5
257
330
18
100
AcDbEntity
  8
0
100
AcDbCircle
 10
4.176
 20
2.237
 30
0.0
 40
0.037
100
AcDbArc
 50
108.549
 51
133.001
  0
ARC
  5
258
330
18
100
AcDbEntity
  8
0
100
AcDbCircle
 10
4.166
 20
2.247
 30
0.0
 40
0.022
100
AcDbArc
 50
133.001
 51
164.725
  0
ARC
  5
259
330
18
100
AcDbEntity
  8
0
100
AcDbCircle
 10
4.166
 20
2.247
 30
0.0
 40
0.022
100
AcDbArc
 50
164.725
 51
196.449
  0
ARC
  5
25A
330
18
100
AcDbEntity
  8
0
100
AcDbCircle
 10
4.18
 20
2.252
 30
0.0
 40
0.037
100
AcDbArc
 50
196.449
 51
197.471
  0
ARC
  5
25B
330
18
100
AcDbEntity
  8
0
100
AcDbCircle
 10
4.199
 20
2.259
 30
0.0
 40
0.073
100
AcDbArc
 50
239.214
 51
254.725
  0
ARC
  5
25C
330
18
100
AcDbEntity
  8
0
100
AcDbCircle
 10
4.199
 20
2.259
 30
0.0
 40
0.073
100
AcDbArc
 50
254.725
 51
270.236
  0
ARC
  5
25D
330
18
100
AcDbEntity
  8
0
100
AcDbCircle
 10
4.199
 20
2.238
 30
0.0
 40
0.052
100
AcDbArc
 50
270.236
 51
288.549
  0
ARC
  5
25E
330
18
100
AcDbEntity
  8
0
100
AcDbCircle
 10
4.204
 20
2.224
 30
0.0
 40
0.037
100
AcDbArc
 50
288.549
 51
313.001
  0
ARC
  5
25F
330
18
100
AcDbEntity
  8
0
100
AcDbCircle
 10
4.214
 20
2.213
 30
0.0
 40
0.022
100
AcDbArc
 50
313.001
 51
344.725
  0
ARC
  5
260
330
18
100
AcDbEntity
  8
0
100
AcDbCircle
 10
4.214
 20
2.213
 30
0.0
 40
0.022
100
AcDbArc
 50
344.725
 51
16.449
  0
ARC
  5
261
330
18
100
AcDbEntity
  8
0
100
AcDbCircle
 10
4.199
 20
2.209
 30
0.0
 40
0.037
100
AcDbArc
 50
16.449
 51
40.902
  0
ARC
  5
262
330
18
100
AcDbEntity
  8
0
100
AcDbCircle
 10
4.188
 20
2.199
 30
0.0
 40
0.052
100
AcDbArc
 50
40.902
 51
59.214
  0
ARC
  5
263
330
18
100
AcDbEntity
  8
0
100
AcDbCircle
 10
4.178
 20
2.182
 30
0.0
 40
0.073
100
AcDbArc
 50
59.214
 51
74.72499999999999
  0
ARC
  5
264
330
18
100
AcDbEntity
  8
0
100
AcDbCircle
 10
4.178
 20
2.182
 30
0.0
 40
0.073
100
AcDbArc
 50
74.72499999999999
 51
90.236
  0
ARC
  5
265
330
18
100
AcDbEntity
  8
0
100
AcDbCircle
 10
4.178
 20
2.202
 30
0.0
 40
0.052
100
AcDbArc
 50
90.236
 51
108.549
  0
ARC
  5
266
330
18
100
AcDbEntity
  8
0
100
AcDbCircle
 10
4.173
 20
2.216
 30
0.0
 40
0.037
100
AcDbArc
 50
108.549
 51
133.001
  0
ARC
  5
267
330
18
100
AcDbEntity
  8
0
100
AcDbCircle
 10
4.163
 20
2.227
 30
0.0
 40
0.022
100
AcDbArc
 50
133.001
 51
164.725
  0
ARC
  5
268
330
18
100
AcDbEntity
  8
0
100
AcDbCircle
 10
4.163
 20
2.227
 30
0.0
 40
0.022
100
AcDbArc
 50
164.725
 51
196.449
  0
ARC
  5
269
330
18
100
AcDbEntity
  8
0
100
AcDbCircle
 10
4.177
 20
2.231
 30
0.0
 40
0.037
100
AcDbArc
 50
196.449
 51
220.902
  0
ARC
  5
26A
330
18
100
AcDbEntity
  8
0
100
AcDbCircle
 10
4.188
 20
2.241
 30
0.0
 40
0.052
100
AcDbArc
 50
220.902
 51
239.214
  0
TEXT
  5
26B
330
18
100
AcDbEntity
  8
0
100
AcDbText
 10
2.536
 20
0.385
 30
0.0
 40
0.125
  1
Simpson Strong-Tie
100
AcDbText
  0
ENDSEC
  0
SECTION
  2
OBJECTS
  0
DICTIONARY
  5
C
330
0
100
AcDbDictionary
281
     1
  3
ACAD_COLOR
350
271
  3
ACAD_GROUP
350
D
  3
ACAD_LAYOUT
350
15
  3
ACAD_MATERIAL
350
273
  3
ACAD_MLINESTYLE
350
12
  3
ACAD_PLOTSETTINGS
350
14
  3
ACAD_PLOTSTYLENAME
350
E
  3
ACDBHEADERROUNDTRIPXREC
350
270
  0
DICTIONARY
  5
271
102
{ACAD_REACTORS
330
C
102
}
330
C
100
AcDbDictionary
281
     1
  0
DICTIONARY
  5
D
102
{ACAD_REACTORS
330
C
102
}
330
C
100
AcDbDictionary
281
     1
  0
DICTIONARY
  5
15
102
{ACAD_REACTORS
330
C
102
}
330
C
100
AcDbDictionary
281
     1
  3
Layout1
350
17
  3
Model
350
19
  0
DICTIONARY
  5
273
102
{ACAD_REACTORS
330
C
102
}
330
C
100
AcDbDictionary
281
     1
  0
DICTIONARY
  5
12
102
{ACAD_REACTORS
330
C
102
}
330
C
100
AcDbDictionary
281
     1
  3
Standard
350
13
  0
DICTIONARY
  5
14
102
{ACAD_REACTORS
330
C
102
}
330
C
100
AcDbDictionary
281
     1
  0
ACDBDICTIONARYWDFLT
  5
E
102
{ACAD_REACTORS
330
C
102
}
330
C
100
AcDbDictionary
281
     1
  3
Normal
350
F
100
AcDbDictionaryWithDefault
340
F
  0
DICTIONARY
  5
270
102
{ACAD_REACTORS
330
C
102
}
330
C
100
AcDbDictionary
281
     1
  3
COLORDICT
350
272
  3
MATERIALDICT
350
274
  0
LAYOUT
  5
17
102
{ACAD_REACTORS
330
15
102
}
102
{ACAD_XDICTIONARY
360
275
102
}
330
15
100
AcDbPlotSettings
  1

  2

  4

  6

 40
0.0
 41
0.0
 42
0.0
 43
0.0
 44
0.0
 45
0.0
 46
0.0
 47
0.0
 48
0.0
 49
0.0
140
0.0
141
0.0
142
1.0
143
1.0
 70
   688
 72
     0
 73
     0
 74
     5
  7

 75
    16
147
1.0
148
0.0
149
0.0
100
AcDbLayout
  1
Layout1
 70
     1
 71
     1
 10
0.0
 20
0.0
 11
12.0
 21
9.0
 12
0.0
 22
0.0
 32
0.0
 14
1.000000000000000E+20
 24
1.000000000000000E+20
 34
1.000000000000000E+20
 15
-1.000000000000000E+20
 25
-1.000000000000000E+20
 35
-1.000000000000000E+20
146
0.0
 13
0.0
 23
0.0
 33
0.0
 16
1.0
 26
0.0
 36
0.0
 17
0.0
 27
1.0
 37
0.0
 76
     0
330
16
  0
LAYOUT
  5
19
102
{ACAD_REACTORS
330
15
102
}
102
{ACAD_XDICTIONARY
360
277
102
}
330
15
100
AcDbPlotSettings
  1

  2

  4

  6

 40
0.0
 41
0.0
 42
0.0
 43
0.0
 44
0.0
 45
0.0
 46
0.0
 47
0.0
 48
0.0
 49
0.0
140
0.0
141
0.0
142
1.0
143
1.0
 70
  1712
 72
     0
 73
     0
 74
     0
  7

 75
     0
147
1.0
148
0.0
149
0.0
100
AcDbLayout
  1
Model
 70
     1
 71
     0
 10
0.0
 20
0.0
 11
0.0
 21
0.0
 12
0.0
 22
0.0
 32
0.0
 14
0.0
 24
0.0
 34
0.0
 15
0.0
 25
0.0
 35
0.0
146
0.0
 13
0.0
 23
0.0
 33
0.0
 16
1.0
 26
0.0
 36
0.0
 17
0.0
 27
1.0
 37
0.0
 76
     0
330
18
  0
MLINESTYLE
  5
13
102
{ACAD_REACTORS
330
12
102
}
330
12
100
AcDbMlineStyle
  2
Standard
 70
     0
  3

 62
   256
 51
90.0
 52
90.0
 71
     2
 49
0.5
 62
   256
  6
BYLAYER
 49
-0.5
 62
   256
  6
BYLAYER
  0
ACDBPLACEHOLDER
  5
F
102
{ACAD_REACTORS
330
E
102
}
330
E
  0
XRECORD
  5
272
102
{ACAD_REACTORS
330
270
102
}
330
270
100
AcDbXrecord
340
271
  0
XRECORD
  5
274
102
{ACAD_REACTORS
330
270
102
}
330
270
100
AcDbXrecord
340
273
  0
DICTIONARY
  5
275
330
17
100
AcDbDictionary
280
     1
281
     1
  3
ACAD_XREC_ROUNDTRIP
360
276
  0
DICTIONARY
  5
277
330
19
100
AcDbDictionary
280
     1
281
     1
  3
ACAD_XREC_ROUNDTRIP
360
278
  0
XRECORD
  5
276
102
{ACAD_REACTORS
330
275
102
}
330
275
100
AcDbXrecord
102
SHADEPLOT
 70
-25416
102
SHADEPLOTRESLEVEL
 70
 -2880
102
SHADEPLOTCUSTOMDPI
 70
 20968
  0
XRECORD
  5
278
102
{ACAD_REACTORS
330
277
102
}
330
277
100
AcDbXrecord
102
SHADEPLOT
 70
     0
102
SHADEPLOTRESLEVEL
 70
     0
102
SHADEPLOTCUSTOMDPI
 70
     0
  0
ENDSEC
  0
EOF
