  0
SECTION
  2
HEADER
  9
$ACADVER
  1
AC1015
  9
$ACADMAINTVER
 70
     6
  9
$DWGCODEPAGE
  3
ANSI_1252
  9
$INSBASE
 10
0.0
 20
0.0
 30
0.0
  9
$EXTMIN
 10
9.431000000000001
 20
0.8683333333333335
 30
0.0
  9
$EXTMAX
 10
13.694
 20
8.074
 30
0.0
  9
$LIMMIN
 10
0.0
 20
0.0
  9
$LIMMAX
 10
17.0
 20
22.0
  9
$ORTHOMODE
 70
     0
  9
$REGENMODE
 70
     0
  9
$FILLMODE
 70
     1
  9
$QTEXTMODE
 70
     0
  9
$MIRRTEXT
 70
     1
  9
$LTSCALE
 40
0.25
  9
$ATTMODE
 70
     1
  9
$TEXTSIZE
 40
0.125
  9
$TRACEWID
 40
0.05
  9
$TEXTSTYLE
  7
STANDARD
  9
$CLAYER
  8
0
  9
$CELTYPE
  6
ByLayer
  9
$CECOLOR
 62
   256
  9
$CELTSCALE
 40
1.0
  9
$DISPSILH
 70
     0
  9
$DIMSCALE
 40
1.0
  9
$DIMASZ
 40
0.1
  9
$DIMEXO
 40
0.063
  9
$DIMDLI
 40
0.38
  9
$DIMRND
 40
0.0
  9
$DIMDLE
 40
0.0
  9
$DIMEXE
 40
0.18
  9
$DIMTP
 40
0.0
  9
$DIMTM
 40
0.0
  9
$DIMTXT
 40
0.1
  9
$DIMCEN
 40
0.09
  9
$DIMTSZ
 40
0.0
  9
$DIMTOL
 70
     0
  9
$DIMLIM
 70
     0
  9
$DIMTIH
 70
     1
  9
$DIMTOH
 70
     1
  9
$DIMSE1
 70
     0
  9
$DIMSE2
 70
     0
  9
$DIMTAD
 70
     0
  9
$DIMZIN
 70
     0
  9
$DIMBLK
  1

  9
$DIMASO
 70
     0
  9
$DIMSHO
 70
     0
  9
$DIMPOST
  1

  9
$DIMAPOST
  1

  9
$DIMALT
 70
     0
  9
$DIMALTD
 70
     2
  9
$DIMALTF
 40
25.4
  9
$DIMLFAC
 40
1.0
  9
$DIMTOFL
 70
     0
  9
$DIMTVP
 40
0.0
  9
$DIMTIX
 70
     0
  9
$DIMSOXD
 70
     0
  9
$DIMSAH
 70
     0
  9
$DIMBLK1
  1

  9
$DIMBLK2
  1

  9
$DIMSTYLE
  2
Standard
  9
$DIMCLRD
 70
     0
  9
$DIMCLRE
 70
     0
  9
$DIMCLRT
 70
     0
  9
$DIMTFAC
 40
1.0
  9
$DIMGAP
 40
0.09
  9
$DIMJUST
 70
     0
  9
$DIMSD1
 70
     0
  9
$DIMSD2
 70
     0
  9
$DIMTOLJ
 70
     1
  9
$DIMTZIN
 70
     0
  9
$DIMALTZ
 70
     0
  9
$DIMALTTZ
 70
     0
  9
$DIMUPT
 70
     0
  9
$DIMDEC
 70
     4
  9
$DIMTDEC
 70
     4
  9
$DIMALTU
 70
     2
  9
$DIMALTTD
 70
     2
  9
$DIMTXSTY
  7
STANDARD
  9
$DIMAUNIT
 70
     0
  9
$DIMADEC
 70
     0
  9
$DIMALTRND
 40
0.0
  9
$DIMAZIN
 70
     0
  9
$DIMDSEP
 70
    46
  9
$DIMATFIT
 70
     3
  9
$DIMFRAC
 70
     0
  9
$DIMLDRBLK
  1

  9
$DIMLUNIT
 70
     2
  9
$DIMLWD
 70
    -2
  9
$DIMLWE
 70
    -2
  9
$DIMTMOVE
 70
     0
  9
$LUNITS
 70
     2
  9
$LUPREC
 70
     4
  9
$SKETCHINC
 40
0.1
  9
$FILLETRAD
 40
0.0
  9
$AUNITS
 70
     0
  9
$AUPREC
 70
     0
  9
$MENU
  1
acad
  9
$ELEVATION
 40
0.0
  9
$PELEVATION
 40
0.0
  9
$THICKNESS
 40
0.0
  9
$LIMCHECK
 70
     0
  9
$CHAMFERA
 40
0.0
  9
$CHAMFERB
 40
0.0
  9
$CHAMFERC
 40
1.0
  9
$CHAMFERD
 40
0.0
  9
$SKPOLY
 70
     0
  9
$TDCREATE
 40
2453955.562608623
  9
$TDUCREATE
 40
2453955.895941956
  9
$TDUPDATE
 40
2453955.604275301
  9
$TDUUPDATE
 40
2453955.895941968
  9
$TDINDWG
 40
0.0000000116
  9
$TDUSRTIMER
 40
0.0000000116
  9
$USRTIMER
 70
     1
  9
$ANGBASE
 50
0.0
  9
$ANGDIR
 70
     0
  9
$PDMODE
 70
     0
  9
$PDSIZE
 40
0.0
  9
$PLINEWID
 40
0.0
  9
$SPLFRAME
 70
     0
  9
$SPLINETYPE
 70
     6
  9
$SPLINESEGS
 70
     8
  9
$HANDSEED
  5
38A
  9
$SURFTAB1
 70
     6
  9
$SURFTAB2
 70
     6
  9
$SURFTYPE
 70
     6
  9
$SURFU
 70
     6
  9
$SURFV
 70
     6
  9
$UCSBASE
  2

  9
$UCSNAME
  2

  9
$UCSORG
 10
0.0
 20
0.0
 30
0.0
  9
$UCSXDIR
 10
1.0
 20
0.0
 30
0.0
  9
$UCSYDIR
 10
0.0
 20
1.0
 30
0.0
  9
$UCSORTHOREF
  2

  9
$UCSORTHOVIEW
 70
     0
  9
$UCSORGTOP
 10
0.0
 20
0.0
 30
0.0
  9
$UCSORGBOTTOM
 10
0.0
 20
0.0
 30
0.0
  9
$UCSORGLEFT
 10
0.0
 20
0.0
 30
0.0
  9
$UCSORGRIGHT
 10
0.0
 20
0.0
 30
0.0
  9
$UCSORGFRONT
 10
0.0
 20
0.0
 30
0.0
  9
$UCSORGBACK
 10
0.0
 20
0.0
 30
0.0
  9
$PUCSBASE
  2

  9
$PUCSNAME
  2

  9
$PUCSORG
 10
0.0
 20
0.0
 30
0.0
  9
$PUCSXDIR
 10
1.0
 20
0.0
 30
0.0
  9
$PUCSYDIR
 10
0.0
 20
1.0
 30
0.0
  9
$PUCSORTHOREF
  2

  9
$PUCSORTHOVIEW
 70
     0
  9
$PUCSORGTOP
 10
0.0
 20
0.0
 30
0.0
  9
$PUCSORGBOTTOM
 10
0.0
 20
0.0
 30
0.0
  9
$PUCSORGLEFT
 10
0.0
 20
0.0
 30
0.0
  9
$PUCSORGRIGHT
 10
0.0
 20
0.0
 30
0.0
  9
$PUCSORGFRONT
 10
0.0
 20
0.0
 30
0.0
  9
$PUCSORGBACK
 10
0.0
 20
0.0
 30
0.0
  9
$USERI1
 70
     0
  9
$USERI2
 70
     0
  9
$USERI3
 70
     0
  9
$USERI4
 70
     0
  9
$USERI5
 70
     0
  9
$USERR1
 40
0.0
  9
$USERR2
 40
0.0
  9
$USERR3
 40
0.0
  9
$USERR4
 40
0.0
  9
$USERR5
 40
0.0
  9
$WORLDVIEW
 70
     1
  9
$SHADEDGE
 70
     3
  9
$SHADEDIF
 70
    70
  9
$TILEMODE
 70
     1
  9
$MAXACTVP
 70
    16
  9
$PINSBASE
 10
0.0
 20
0.0
 30
0.0
  9
$PLIMCHECK
 70
     0
  9
$PEXTMIN
 10
1.000000000000000E+20
 20
1.000000000000000E+20
 30
1.000000000000000E+20
  9
$PEXTMAX
 10
-1.000000000000000E+20
 20
-1.000000000000000E+20
 30
-1.000000000000000E+20
  9
$PLIMMIN
 10
0.0
 20
0.0
  9
$PLIMMAX
 10
12.0
 20
9.0
  9
$UNITMODE
 70
     0
  9
$VISRETAIN
 70
     0
  9
$PLINEGEN
 70
     0
  9
$PSLTSCALE
 70
     0
  9
$TREEDEPTH
 70
  3020
  9
$CMLSTYLE
  2
Standard
  9
$CMLJUST
 70
     0
  9
$CMLSCALE
 40
1.0
  9
$PROXYGRAPHICS
 70
     1
  9
$MEASUREMENT
 70
     0
  9
$CELWEIGHT
370
    -1
  9
$ENDCAPS
280
     0
  9
$JOINSTYLE
280
     0
  9
$LWDISPLAY
290
     0
  9
$INSUNITS
 70
     1
  9
$HYPERLINKBASE
  1

  9
$STYLESHEET
  1

  9
$XEDIT
290
     1
  9
$CEPSNTYPE
380
     0
  9
$PSTYLEMODE
290
     0
  9
$FINGERPRINTGUID
  2
{FAEB1C30-E019-11D5-929B-00C0DF256EC4}
  9
$VERSIONGUID
  2
{FAEB1C32-E019-11D5-929B-00C0DF256EC4}
  9
$EXTNAMES
290
     1
  9
$PSVPSCALE
 40
0.0
  9
$OLESTARTUP
290
     0
  0
ENDSEC
  0
SECTION
  2
CLASSES
  0
CLASS
  1
ACDBDICTIONARYWDFLT
  2
AcDbDictionaryWithDefault
  3
AutoCAD 2000
 90
        0
280
     0
281
     0
  0
CLASS
  1
ACDBPLACEHOLDER
  2
AcDbPlaceHolder
  3
ObjectDBX Classes
 90
        0
280
     0
281
     0
  0
CLASS
  1
LAYOUT
  2
AcDbLayout
  3
ObjectDBX Classes
 90
        0
280
     0
281
     0
  0
ENDSEC
  0
SECTION
  2
TABLES
  0
TABLE
  2
VPORT
  5
8
330
0
100
AcDbSymbolTable
 70
     2
  0
VPORT
  5
1E
330
8
100
AcDbSymbolTableRecord
100
AcDbViewportTableRecord
  2
*ACTIVE
 70
     0
 10
0.0
 20
0.0
 11
1.0
 21
1.0
 12
15.26150121065375
 22
11.0
 13
0.0
 23
0.0
 14
0.025
 24
0.025
 15
0.0
 25
0.0
 16
0.0
 26
0.0
 36
1.0
 17
0.0
 27
0.0
 37
0.0
 40
22.0
 41
0.7207678883071553
 42
50.0
 43
0.0
 44
0.0
 50
0.0
 51
0.0
 71
     0
 72
  2000
 73
     1
 74
     0
 75
     0
 76
     0
 77
     0
 78
     0
281
     0
 65
     1
110
0.0
120
0.0
130
0.0
111
1.0
121
0.0
131
0.0
112
0.0
122
1.0
132
0.0
 79
     0
146
0.0
  0
ENDTAB
  0
TABLE
  2
LTYPE
  5
5
330
0
100
AcDbSymbolTable
 70
     1
  0
LTYPE
  5
10
330
5
100
AcDbSymbolTableRecord
100
AcDbLinetypeTableRecord
  2
ByBlock
 70
     0
  3

 72
    65
 73
     0
 40
0.0
  0
LTYPE
  5
11
330
5
100
AcDbSymbolTableRecord
100
AcDbLinetypeTableRecord
  2
ByLayer
 70
     0
  3

 72
    65
 73
     0
 40
0.0
  0
LTYPE
  5
1B
330
5
100
AcDbSymbolTableRecord
100
AcDbLinetypeTableRecord
  2
CONTINUOUS
 70
     0
  3
Solid line
 72
    65
 73
     0
 40
0.0
  0
ENDTAB
  0
TABLE
  2
LAYER
  5
2
330
0
100
AcDbSymbolTable
 70
     1
  0
LAYER
  5
1C
330
2
100
AcDbSymbolTableRecord
100
AcDbLayerTableRecord
  2
0
 70
     0
 62
     7
  6
CONTINUOUS
370
    -3
390
F
  0
ENDTAB
  0
TABLE
  2
STYLE
  5
3
330
0
100
AcDbSymbolTable
 70
     1
  0
STYLE
  5
20
330
3
100
AcDbSymbolTableRecord
100
AcDbTextStyleTableRecord
  2
STANDARD
 70
     0
 40
0.0
 41
1.0
 50
0.0
 71
     0
 42
0.125
  3
romans
  4

  0
ENDTAB
  0
TABLE
  2
VIEW
  5
6
330
0
100
AcDbSymbolTable
 70
     0
  0
ENDTAB
  0
TABLE
  2
UCS
  5
7
330
0
100
AcDbSymbolTable
 70
     0
  0
ENDTAB
  0
TABLE
  2
APPID
  5
9
330
0
100
AcDbSymbolTable
 70
     1
  0
APPID
  5
1F
330
9
100
AcDbSymbolTableRecord
100
AcDbRegAppTableRecord
  2
ACAD
 70
     0
  0
ENDTAB
  0
TABLE
  2
DIMSTYLE
  5
A
330
0
100
AcDbSymbolTable
 70
     1
100
AcDbDimStyleTable
  0
DIMSTYLE
105
21
330
A
100
AcDbSymbolTableRecord
100
AcDbDimStyleTableRecord
  2
Standard
 70
     0
  3

  4

340
20
  0
ENDTAB
  0
TABLE
  2
BLOCK_RECORD
  5
1
330
0
100
AcDbSymbolTable
 70
     0
  0
BLOCK_RECORD
  5
18
330
1
100
AcDbSymbolTableRecord
100
AcDbBlockTableRecord
  2
*Model_Space
340
19
  0
BLOCK_RECORD
  5
16
330
1
100
AcDbSymbolTableRecord
100
AcDbBlockTableRecord
  2
*Paper_Space
340
17
  0
ENDTAB
  0
ENDSEC
  0
SECTION
  2
BLOCKS
  0
BLOCK
  5
37F
330
18
100
AcDbEntity
  8
0
100
AcDbBlockBegin
  2
*Model_Space
 70
     0
 10
0.0
 20
0.0
 30
0.0
  3
*Model_Space
  1

  4

  0
ENDBLK
  5
380
330
18
100
AcDbEntity
  8
0
100
AcDbBlockEnd
  0
BLOCK
  5
37D
330
16
100
AcDbEntity
 67
     1
  8
0
100
AcDbBlockBegin
  2
*Paper_Space
 70
     0
 10
0.0
 20
0.0
 30
0.0
  3
*Paper_Space
  1

  4

  0
ENDBLK
  5
37E
330
16
100
AcDbEntity
 67
     1
  8
0
100
AcDbBlockEnd
  0
ENDSEC
  0
SECTION
  2
ENTITIES
  0
LINE
  5
22
330
18
100
AcDbEntity
  8
0
100
AcDbLine
 10
12.689
 20
8.074
 30
0.0
 11
9.475
 21
4.171
 31
0.0
  0
LINE
  5
23
330
18
100
AcDbEntity
  8
0
100
AcDbLine
 10
9.503
 20
3.125
 30
0.0
 11
9.492000000000001
 21
3.527
 31
0.0
  0
LINE
  5
24
330
18
100
AcDbEntity
  8
0
100
AcDbLine
 10
12.731
 20
6.499
 30
0.0
 11
12.715
 21
7.092000000000001
 31
0.0
  0
LINE
  5
25
330
18
100
AcDbEntity
  8
0
100
AcDbLine
 10
9.503
 20
3.125
 30
0.0
 11
12.731
 21
6.499
 31
0.0
  0
LINE
  5
26
330
18
100
AcDbEntity
  8
0
100
AcDbLine
 10
13.643
 20
6.102
 30
0.0
 11
12.731
 21
6.499
 31
0.0
  0
LINE
  5
27
330
18
100
AcDbEntity
  8
0
100
AcDbLine
 10
13.601
 20
7.678
 30
0.0
 11
12.689
 21
8.074
 31
0.0
  0
LINE
  5
28
330
18
100
AcDbEntity
  8
0
100
AcDbLine
 10
13.643
 20
6.102
 30
0.0
 11
13.627
 21
6.695
 31
0.0
  0
LINE
  5
29
330
18
100
AcDbEntity
  8
0
100
AcDbLine
 10
13.643
 20
6.102
 30
0.0
 11
12.067
 21
4.641
 31
0.0
  0
LINE
  5
2A
330
18
100
AcDbEntity
  8
0
100
AcDbLine
 10
9.503
 20
3.125
 30
0.0
 11
10.23
 21
2.938
 31
0.0
  0
LINE
  5
2B
330
18
100
AcDbEntity
  8
0
100
AcDbLine
 10
11.225
 20
2.202
 30
0.0
 11
11.225
 21
4.925
 31
0.0
  0
LINE
  5
2C
330
18
100
AcDbEntity
  8
0
100
AcDbLine
 10
10.523
 20
1.692
 30
0.0
 11
10.523
 21
4.173
 31
0.0
  0
LINE
  5
2D
330
18
100
AcDbEntity
  8
0
100
AcDbLine
 10
12.067
 20
2.021
 30
0.0
 11
12.067
 21
4.641
 31
0.0
  0
LINE
  5
2E
330
18
100
AcDbEntity
  8
0
100
AcDbLine
 10
12.067
 20
2.021
 30
0.0
 11
11.225
 21
2.202
 31
0.0
  0
LINE
  5
2F
330
18
100
AcDbEntity
  8
0
100
AcDbLine
 10
11.225
 20
2.202
 30
0.0
 11
10.954
 21
2.012
 31
0.0
  0
LINE
  5
30
330
18
100
AcDbEntity
  8
0
100
AcDbLine
 10
11.346
 20
1.516
 30
0.0
 11
10.523
 21
1.692
 31
0.0
  0
LINE
  5
31
330
18
100
AcDbEntity
  8
0
100
AcDbLine
 10
12.067
 20
2.021
 30
0.0
 11
11.796
 21
1.831
 31
0.0
  0
LINE
  5
32
330
18
100
AcDbEntity
  8
0
100
AcDbLine
 10
10.954
 20
2.012
 30
0.0
 11
10.933
 21
1.87
 31
0.0
  0
LINE
  5
33
330
18
100
AcDbEntity
  8
0
100
AcDbLine
 10
10.933
 20
1.87
 30
0.0
 11
10.811
 21
1.998
 31
0.0
  0
LINE
  5
34
330
18
100
AcDbEntity
  8
0
100
AcDbLine
 10
10.811
 20
1.998
 30
0.0
 11
10.76
 21
1.858
 31
0.0
  0
LINE
  5
35
330
18
100
AcDbEntity
  8
0
100
AcDbLine
 10
10.76
 20
1.858
 30
0.0
 11
10.523
 21
1.692
 31
0.0
  0
LINE
  5
36
330
18
100
AcDbEntity
  8
0
100
AcDbLine
 10
11.796
 20
1.831
 30
0.0
 11
10.954
 21
2.012
 31
0.0
  0
LINE
  5
37
330
18
100
AcDbEntity
  8
0
100
AcDbLine
 10
11.775
 20
1.69
 30
0.0
 11
10.933
 21
1.87
 31
0.0
  0
LINE
  5
38
330
18
100
AcDbEntity
  8
0
100
AcDbLine
 10
11.796
 20
1.831
 30
0.0
 11
11.775
 21
1.69
 31
0.0
  0
LINE
  5
39
330
18
100
AcDbEntity
  8
0
100
AcDbLine
 10
11.583
 20
1.681
 30
0.0
 11
11.346
 21
1.516
 31
0.0
  0
LWPOLYLINE
  5
3A
330
18
100
AcDbEntity
  8
0
100
AcDbPolyline
 90
        5
 70
     0
 43
0.0
 10
11.873
 20
2.063
 10
11.699
 20
1.982
 10
11.642
 20
1.94
 10
11.556
 20
1.906
 10
11.519
 20
1.889
  0
LWPOLYLINE
  5
42
330
18
100
AcDbEntity
  8
0
100
AcDbPolyline
 90
        5
 70
     0
 43
0.0
 10
11.796
 20
2.079
 10
11.651
 20
2.014
 10
11.56
 20
1.976
 10
11.516
 20
1.953
 10
11.441
 20
1.908
  0
LWPOLYLINE
  5
4A
330
18
100
AcDbEntity
  8
0
100
AcDbPolyline
 90
        4
 70
     0
 43
0.0
 10
11.473
 20
2.148
 10
11.276
 20
2.082
 10
11.182
 20
2.039
 10
11.08
 20
1.985
  0
LWPOLYLINE
  5
51
330
18
100
AcDbEntity
  8
0
100
AcDbPolyline
 90
        4
 70
     0
 43
0.0
 10
11.393
 20
2.165
 10
11.219
 20
2.109
 10
11.146
 20
2.07
 10
11.008
 20
2.0
  0
LWPOLYLINE
  5
58
330
18
100
AcDbEntity
  8
0
100
AcDbPolyline
 90
        3
 70
     0
 43
0.0
 10
11.313
 20
2.183
 10
11.192
 20
2.126
 10
11.031
 20
2.065
  0
LWPOLYLINE
  5
5E
330
18
100
AcDbEntity
  8
0
100
AcDbPolyline
 90
        4
 70
     0
 43
0.0
 10
10.84
 20
1.841
 10
10.72
 20
1.768
 10
10.651
 20
1.718
 10
10.571
 20
1.682
  0
LWPOLYLINE
  5
65
330
18
100
AcDbEntity
  8
0
100
AcDbPolyline
 90
        4
 70
     0
 43
0.0
 10
10.927
 20
1.822
 10
10.812
 20
1.758
 10
10.731
 20
1.707
 10
10.671
 20
1.661
  0
LWPOLYLINE
  5
6C
330
18
100
AcDbEntity
  8
0
100
AcDbPolyline
 90
        4
 70
     0
 43
0.0
 10
11.038
 20
1.798
 10
10.912
 20
1.733
 10
10.834
 20
1.694
 10
10.757
 20
1.642
  0
LWPOLYLINE
  5
73
330
18
100
AcDbEntity
  8
0
100
AcDbPolyline
 90
        4
 70
     0
 43
0.0
 10
11.107
 20
1.783
 10
10.981
 20
1.726
 10
10.925
 20
1.694
 10
10.803
 20
1.632
  0
LWPOLYLINE
  5
7A
330
18
100
AcDbEntity
  8
0
100
AcDbPolyline
 90
        4
 70
     0
 43
0.0
 10
11.199
 20
1.764
 10
11.057
 20
1.688
 10
10.986
 20
1.649
 10
10.918
 20
1.607
  0
LWPOLYLINE
  5
81
330
18
100
AcDbEntity
  8
0
100
AcDbPolyline
 90
        4
 70
     0
 43
0.0
 10
11.284
 20
1.745
 10
11.169
 20
1.68
 10
11.111
 20
1.644
 10
11.032
 20
1.583
  0
LWPOLYLINE
  5
88
330
18
100
AcDbEntity
  8
0
100
AcDbPolyline
 90
        3
 70
     0
 43
0.0
 10
11.364
 20
1.728
 10
11.225
 20
1.657
 10
11.086
 20
1.571
  0
LWPOLYLINE
  5
8E
330
18
100
AcDbEntity
  8
0
100
AcDbPolyline
 90
        4
 70
     0
 43
0.0
 10
11.474
 20
1.705
 10
11.332
 20
1.646
 10
11.268
 20
1.61
 10
11.195
 20
1.548
  0
LWPOLYLINE
  5
95
330
18
100
AcDbEntity
  8
0
100
AcDbPolyline
 90
        4
 70
     0
 43
0.0
 10
11.574
 20
1.683
 10
11.426
 20
1.619
 10
11.379
 20
1.59
 10
11.291
 20
1.527
  0
LINE
  5
9C
330
18
100
AcDbEntity
  8
0
100
AcDbLine
 10
11.583
 20
1.681
 30
0.0
 11
10.76
 21
1.858
 31
0.0
  0
LINE
  5
9D
330
18
100
AcDbEntity
  8
0
100
AcDbLine
 10
11.6
 20
1.727
 30
0.0
 11
11.583
 21
1.681
 31
0.0
  0
LWPOLYLINE
  5
9E
330
18
100
AcDbEntity
  8
0
100
AcDbPolyline
 90
        6
 70
     0
 43
0.0
 10
11.613
 20
2.118
 10
11.451
 20
2.034
 10
11.35
 20
1.991
 10
11.305
 20
1.97
 10
11.266
 20
1.958
 10
11.258
 20
1.947
  0
LWPOLYLINE
  5
A7
330
18
100
AcDbEntity
  8
0
100
AcDbPolyline
 90
        6
 70
     0
 43
0.0
 10
11.684
 20
2.103
 10
11.538
 20
2.035
 10
11.442
 20
1.979
 10
11.391
 20
1.955
 10
11.352
 20
1.935
 10
11.348
 20
1.927
  0
LWPOLYLINE
  5
B0
330
18
100
AcDbEntity
  8
0
100
AcDbPolyline
 90
        3
 70
     0
 43
0.0
 10
11.89
 20
1.897
 10
11.824
 20
1.865
 10
11.768
 20
1.837
  0
LWPOLYLINE
  5
B6
330
18
100
AcDbEntity
  8
0
100
AcDbPolyline
 90
        7
 70
     0
 43
0.0
 10
12.005
 20
1.978
 10
11.959
 20
1.968
 10
11.843
 20
1.916
 10
11.761
 20
1.896
 10
11.709
 20
1.88
 10
11.679
 20
1.857
 10
11.679
 20
1.857
  0
LWPOLYLINE
  5
C0
330
18
100
AcDbEntity
  8
0
100
AcDbPolyline
 90
        5
 70
     0
 43
0.0
 10
11.981
 20
2.039
 10
11.901
 20
2.005
 10
11.77
 20
1.951
 10
11.674
 20
1.909
 10
11.599
 20
1.874
  0
LWPOLYLINE
  5
C8
330
18
100
AcDbEntity
  8
0
100
AcDbPolyline
 90
        2
 70
     0
 43
0.0
 10
11.008
 20
2.0
 10
10.951
 20
1.867
  0
LWPOLYLINE
  5
CD
330
18
100
AcDbEntity
  8
0
100
AcDbPolyline
 90
        2
 70
     0
 43
0.0
 10
11.08
 20
1.985
 10
11.017
 20
1.852
  0
LWPOLYLINE
  5
D2
330
18
100
AcDbEntity
  8
0
100
AcDbPolyline
 90
        3
 70
     0
 43
0.0
 10
11.258
 20
1.947
 10
11.217
 20
1.843
 10
11.204
 20
1.812
  0
LWPOLYLINE
  5
D8
330
18
100
AcDbEntity
  8
0
100
AcDbPolyline
 90
        3
 70
     0
 43
0.0
 10
11.349
 20
1.927
 10
11.314
 20
1.857
 10
11.291
 20
1.794
  0
LWPOLYLINE
  5
DE
330
18
100
AcDbEntity
  8
0
100
AcDbPolyline
 90
        3
 70
     0
 43
0.0
 10
11.441
 20
1.908
 10
11.395
 20
1.823
 10
11.375
 20
1.776
  0
LWPOLYLINE
  5
E4
330
18
100
AcDbEntity
  8
0
100
AcDbPolyline
 90
        3
 70
     0
 43
0.0
 10
11.519
 20
1.889
 10
11.468
 20
1.802
 10
11.452
 20
1.759
  0
LWPOLYLINE
  5
EA
330
18
100
AcDbEntity
  8
0
100
AcDbPolyline
 90
        3
 70
     0
 43
0.0
 10
11.599
 20
1.874
 10
11.574
 20
1.782
 10
11.546
 20
1.739
  0
LWPOLYLINE
  5
F0
330
18
100
AcDbEntity
  8
0
100
AcDbPolyline
 90
        3
 70
     0
 43
0.0
 10
11.679
 20
1.857
 10
11.645
 20
1.772
 10
11.618
 20
1.723
  0
LWPOLYLINE
  5
F6
330
18
100
AcDbEntity
  8
0
100
AcDbPolyline
 90
        3
 70
     0
 43
0.0
 10
11.768
 20
1.837
 10
11.743
 20
1.754
 10
11.718
 20
1.702
  0
LWPOLYLINE
  5
FC
330
18
100
AcDbEntity
  8
0
100
AcDbPolyline
 90
        4
 70
     0
 43
0.0
 10
11.165
 20
1.967
 10
11.117
 20
1.895
 10
11.089
 20
1.861
 10
11.077
 20
1.839
  0
LWPOLYLINE
  5
103
330
18
100
AcDbEntity
  8
0
100
AcDbPolyline
 90
        2
 70
     0
 43
0.0
 10
11.107
 20
1.783
 10
11.067
 20
1.842
  0
LWPOLYLINE
  5
108
330
18
100
AcDbEntity
  8
0
100
AcDbPolyline
 90
        2
 70
     0
 43
0.0
 10
11.199
 20
1.764
 10
11.174
 20
1.819
  0
LWPOLYLINE
  5
10D
330
18
100
AcDbEntity
  8
0
100
AcDbPolyline
 90
        2
 70
     0
 43
0.0
 10
11.284
 20
1.745
 10
11.263
 20
1.799
  0
LWPOLYLINE
  5
112
330
18
100
AcDbEntity
  8
0
100
AcDbPolyline
 90
        2
 70
     0
 43
0.0
 10
11.364
 20
1.728
 10
11.348
 20
1.781
  0
LWPOLYLINE
  5
117
330
18
100
AcDbEntity
  8
0
100
AcDbPolyline
 90
        2
 70
     0
 43
0.0
 10
11.474
 20
1.705
 10
11.475
 20
1.754
  0
LWPOLYLINE
  5
11C
330
18
100
AcDbEntity
  8
0
100
AcDbPolyline
 90
        2
 70
     0
 43
0.0
 10
11.574
 20
1.683
 10
11.573
 20
1.733
  0
LWPOLYLINE
  5
121
330
18
100
AcDbEntity
  8
0
100
AcDbPolyline
 90
        5
 70
     0
 43
0.0
 10
11.565
 20
2.129
 10
11.398
 20
2.075
 10
11.299
 20
2.031
 10
11.247
 20
2.008
 10
11.165
 20
1.967
  0
LINE
  5
129
330
18
100
AcDbEntity
  8
0
100
AcDbLine
 10
11.038
 20
1.798
 30
0.0
 11
10.993
 21
1.857
 31
0.0
  0
LINE
  5
12A
330
18
100
AcDbEntity
  8
0
100
AcDbLine
 10
10.927
 20
1.822
 30
0.0
 11
10.874
 21
1.932
 31
0.0
  0
LINE
  5
12B
330
18
100
AcDbEntity
  8
0
100
AcDbLine
 10
10.84
 20
1.841
 30
0.0
 11
10.787
 21
1.932
 31
0.0
  0
LINE
  5
12C
330
18
100
AcDbEntity
  8
0
100
AcDbLine
 10
12.704
 20
7.509
 30
0.0
 11
12.782
 21
7.371
 31
0.0
  0
LINE
  5
12D
330
18
100
AcDbEntity
  8
0
100
AcDbLine
 10
12.782
 20
7.371
 30
0.0
 11
12.605
 21
7.247999999999999
 31
0.0
  0
LINE
  5
12E
330
18
100
AcDbEntity
  8
0
100
AcDbLine
 10
12.605
 20
7.247999999999999
 30
0.0
 11
12.715
 21
7.092000000000001
 31
0.0
  0
LINE
  5
12F
330
18
100
AcDbEntity
  8
0
100
AcDbLine
 10
12.704
 20
7.509
 30
0.0
 11
12.689
 21
8.074
 31
0.0
  0
LINE
  5
130
330
18
100
AcDbEntity
  8
0
100
AcDbLine
 10
13.627
 20
6.695
 30
0.0
 11
12.715
 21
7.092000000000001
 31
0.0
  0
LINE
  5
131
330
18
100
AcDbEntity
  8
0
100
AcDbLine
 10
13.694
 20
6.975
 30
0.0
 11
12.782
 21
7.371
 31
0.0
  0
LINE
  5
132
330
18
100
AcDbEntity
  8
0
100
AcDbLine
 10
13.616
 20
7.112
 30
0.0
 11
12.704
 21
7.509
 31
0.0
  0
LINE
  5
133
330
18
100
AcDbEntity
  8
0
100
AcDbLine
 10
13.518
 20
6.851
 30
0.0
 11
12.605
 21
7.247999999999999
 31
0.0
  0
LINE
  5
134
330
18
100
AcDbEntity
  8
0
100
AcDbLine
 10
13.518
 20
6.851
 30
0.0
 11
13.627
 21
6.695
 31
0.0
  0
LINE
  5
135
330
18
100
AcDbEntity
  8
0
100
AcDbLine
 10
13.694
 20
6.975
 30
0.0
 11
13.518
 21
6.851
 31
0.0
  0
LINE
  5
136
330
18
100
AcDbEntity
  8
0
100
AcDbLine
 10
13.616
 20
7.112
 30
0.0
 11
13.694
 21
6.975
 31
0.0
  0
LINE
  5
137
330
18
100
AcDbEntity
  8
0
100
AcDbLine
 10
13.616
 20
7.112
 30
0.0
 11
13.601
 21
7.678
 31
0.0
  0
LWPOLYLINE
  5
138
330
18
100
AcDbEntity
  8
0
100
AcDbPolyline
 90
        3
 70
     0
 43
0.0
 10
13.64
 20
6.242000000000001
 10
13.627
 20
6.223
 10
13.595
 20
6.122999999999999
  0
LWPOLYLINE
  5
13E
330
18
100
AcDbEntity
  8
0
100
AcDbPolyline
 90
        4
 70
     0
 43
0.0
 10
13.633
 20
6.502000000000001
 10
13.597
 20
6.459
 10
13.566
 20
6.263
 10
13.545
 20
6.145
  0
LWPOLYLINE
  5
145
330
18
100
AcDbEntity
  8
0
100
AcDbPolyline
 90
        5
 70
     0
 43
0.0
 10
13.6
 20
6.707000000000001
 10
13.545
 20
6.52
 10
13.516
 20
6.357
 10
13.485
 20
6.225
 10
13.48
 20
6.172999999999999
  0
LWPOLYLINE
  5
14D
330
18
100
AcDbEntity
  8
0
100
AcDbPolyline
 90
        5
 70
     0
 43
0.0
 10
13.511
 20
6.746
 10
13.473
 20
6.559
 10
13.444
 20
6.391
 10
13.428
 20
6.25
 10
13.425
 20
6.197
  0
LWPOLYLINE
  5
155
330
18
100
AcDbEntity
  8
0
100
AcDbPolyline
 90
        5
 70
     0
 43
0.0
 10
13.377
 20
6.803999999999999
 10
13.331
 20
6.587000000000001
 10
13.299
 20
6.417000000000001
 10
13.285
 20
6.303
 10
13.286
 20
6.257000000000001
  0
LWPOLYLINE
  5
15D
330
18
100
AcDbEntity
  8
0
100
AcDbPolyline
 90
        5
 70
     0
 43
0.0
 10
13.45
 20
6.772
 10
13.401
 20
6.566
 10
13.375
 20
6.398
 10
13.359
 20
6.249
 10
13.359
 20
6.226
  0
LWPOLYLINE
  5
165
330
18
100
AcDbEntity
  8
0
100
AcDbPolyline
 90
        5
 70
     0
 43
0.0
 10
13.313
 20
6.832000000000001
 10
13.257
 20
6.654
 10
13.224
 20
6.475
 10
13.211
 20
6.371
 10
13.208
 20
6.291
  0
LWPOLYLINE
  5
16D
330
18
100
AcDbEntity
  8
0
100
AcDbPolyline
 90
        4
 70
     0
 43
0.0
 10
13.237
 20
6.865
 10
13.151
 20
6.577999999999999
 10
13.124
 20
6.445
 10
13.117
 20
6.331
  0
LWPOLYLINE
  5
174
330
18
100
AcDbEntity
  8
0
100
AcDbPolyline
 90
        5
 70
     0
 43
0.0
 10
13.145
 20
6.905
 10
13.114
 20
6.709
 10
13.074
 20
6.525
 10
13.048
 20
6.435
 10
13.034
 20
6.367000000000001
  0
LWPOLYLINE
  5
17C
330
18
100
AcDbEntity
  8
0
100
AcDbPolyline
 90
        5
 70
     0
 43
0.0
 10
13.06
 20
6.942
 10
13.032
 20
6.776
 10
12.991
 20
6.63
 10
12.974
 20
6.489
 10
12.961
 20
6.399
  0
LWPOLYLINE
  5
184
330
18
100
AcDbEntity
  8
0
100
AcDbPolyline
 90
        5
 70
     0
 43
0.0
 10
12.982
 20
6.976
 10
12.948
 20
6.832000000000001
 10
12.919
 20
6.65
 10
12.907
 20
6.472
 10
12.906
 20
6.422999999999999
  0
LWPOLYLINE
  5
18C
330
18
100
AcDbEntity
  8
0
100
AcDbPolyline
 90
        4
 70
     0
 43
0.0
 10
12.92
 20
7.002999999999999
 10
12.877
 20
6.767
 10
12.824
 20
6.562
 10
12.807
 20
6.466
  0
LWPOLYLINE
  5
193
330
18
100
AcDbEntity
  8
0
100
AcDbPolyline
 90
        5
 70
     0
 43
0.0
 10
12.84
 20
7.037999999999999
 10
12.794
 20
6.83
 10
12.754
 20
6.659
 10
12.735
 20
6.584
 10
12.729
 20
6.566
  0
LWPOLYLINE
  5
19B
330
18
100
AcDbEntity
  8
0
100
AcDbPolyline
 90
        3
 70
     0
 43
0.0
 10
12.755
 20
7.074
 10
12.724
 20
6.941
 10
12.72
 20
6.926
  0
LWPOLYLINE
  5
1A1
330
18
100
AcDbEntity
  8
0
100
AcDbPolyline
 90
        5
 70
     0
 43
0.0
 10
12.948
 20
7.962000000000001
 10
12.92
 20
7.863
 10
12.875
 20
7.691
 10
12.842
 20
7.533
 10
12.822
 20
7.456
  0
LWPOLYLINE
  5
1A9
330
18
100
AcDbEntity
  8
0
100
AcDbPolyline
 90
        6
 70
     0
 43
0.0
 10
13.038
 20
7.922999999999999
 10
13.024
 20
7.862
 10
12.994
 20
7.7
 10
12.96
 20
7.544
 10
12.935
 20
7.466
 10
12.922
 20
7.414
  0
LWPOLYLINE
  5
1B2
330
18
100
AcDbEntity
  8
0
100
AcDbPolyline
 90
        6
 70
     0
 43
0.0
 10
13.254
 20
7.827999999999999
 10
13.233
 20
7.786000000000001
 10
13.172
 20
7.665
 10
13.132
 20
7.559
 10
13.105
 20
7.484
 10
13.066
 20
7.352
  0
LWPOLYLINE
  5
1BB
330
18
100
AcDbEntity
  8
0
100
AcDbPolyline
 90
        6
 70
     0
 43
0.0
 10
13.139
 20
7.877999999999999
 10
13.118
 20
7.821000000000001
 10
13.082
 20
7.68
 10
13.055
 20
7.553999999999999
 10
13.027
 20
7.459
 10
13.007
 20
7.377000000000001
  0
LWPOLYLINE
  5
1C4
330
18
100
AcDbEntity
  8
0
100
AcDbPolyline
 90
        5
 70
     0
 43
0.0
 10
13.318
 20
7.801
 10
13.278
 20
7.701000000000001
 10
13.215
 20
7.546
 10
13.184
 20
7.437
 10
13.152
 20
7.314
  0
LWPOLYLINE
  5
1CC
330
18
100
AcDbEntity
  8
0
100
AcDbPolyline
 90
        6
 70
     0
 43
0.0
 10
13.41
 20
7.761
 10
13.408
 20
7.756
 10
13.363
 20
7.645
 10
13.32
 20
7.505
 10
13.284
 20
7.398
 10
13.236
 20
7.278
  0
LWPOLYLINE
  5
1D5
330
18
100
AcDbEntity
  8
0
100
AcDbPolyline
 90
        6
 70
     0
 43
0.0
 10
13.478
 20
7.731
 10
13.467
 20
7.705
 10
13.417
 20
7.575
 10
13.357
 20
7.428
 10
13.318
 20
7.303
 10
13.303
 20
7.249
  0
LWPOLYLINE
  5
1DE
330
18
100
AcDbEntity
  8
0
100
AcDbPolyline
 90
        6
 70
     0
 43
0.0
 10
13.557
 20
7.697
 10
13.547
 20
7.67
 10
13.478
 20
7.536000000000001
 10
13.433
 20
7.38
 10
13.409
 20
7.295
 10
13.389
 20
7.211
  0
LWPOLYLINE
  5
1E7
330
18
100
AcDbEntity
  8
0
100
AcDbPolyline
 90
        3
 70
     0
 43
0.0
 10
13.611
 20
7.291
 10
13.576
 20
7.221
 10
13.539
 20
7.146
  0
LWPOLYLINE
  5
1ED
330
18
100
AcDbEntity
  8
0
100
AcDbPolyline
 90
        4
 70
     0
 43
0.0
 10
12.789
 20
8.031000000000001
 10
12.779
 20
7.997999999999999
 10
12.722
 20
7.819
 10
12.698
 20
7.736000000000001
  0
LWPOLYLINE
  5
1F4
330
18
100
AcDbEntity
  8
0
100
AcDbPolyline
 90
        6
 70
     0
 43
0.0
 10
12.85
 20
8.004
 10
12.826
 20
7.936
 10
12.797
 20
7.794
 10
12.775
 20
7.68
 10
12.753
 20
7.587999999999999
 10
12.739
 20
7.494
  0
LWPOLYLINE
  5
1FD
330
18
100
AcDbEntity
  8
0
100
AcDbPolyline
 90
        2
 70
     0
 43
0.0
 10
13.615
 20
7.161000000000001
 10
13.595
 20
7.121
  0
LWPOLYLINE
  5
202
330
18
100
AcDbEntity
  8
0
100
AcDbPolyline
 90
        6
 70
     0
 43
0.0
 10
13.604
 20
7.562
 10
13.599
 20
7.553
 10
13.541
 20
7.444
 10
13.49
 20
7.34
 10
13.474
 20
7.232
 10
13.46
 20
7.18
  0
LINE
  5
20B
330
18
100
AcDbEntity
  8
0
100
AcDbLine
 10
12.739
 20
7.494
 30
0.0
 11
12.837
 21
7.348
 31
0.0
  0
LINE
  5
20C
330
18
100
AcDbEntity
  8
0
100
AcDbLine
 10
12.822
 20
7.456
 30
0.0
 11
12.914
 21
7.314
 31
0.0
  0
LINE
  5
20D
330
18
100
AcDbEntity
  8
0
100
AcDbLine
 10
12.922
 20
7.414
 30
0.0
 11
12.996
 21
7.278
 31
0.0
  0
LINE
  5
20E
330
18
100
AcDbEntity
  8
0
100
AcDbLine
 10
13.007
 20
7.377000000000001
 30
0.0
 11
13.083
 21
7.241000000000001
 31
0.0
  0
LINE
  5
20F
330
18
100
AcDbEntity
  8
0
100
AcDbLine
 10
13.066
 20
7.352
 30
0.0
 11
13.155
 21
7.209
 31
0.0
  0
LINE
  5
210
330
18
100
AcDbEntity
  8
0
100
AcDbLine
 10
13.152
 20
7.314
 30
0.0
 11
13.225
 21
7.178999999999999
 31
0.0
  0
LINE
  5
211
330
18
100
AcDbEntity
  8
0
100
AcDbLine
 10
13.236
 20
7.278
 30
0.0
 11
13.306
 21
7.143
 31
0.0
  0
LINE
  5
212
330
18
100
AcDbEntity
  8
0
100
AcDbLine
 10
13.303
 20
7.249
 30
0.0
 11
13.373
 21
7.114
 31
0.0
  0
LINE
  5
213
330
18
100
AcDbEntity
  8
0
100
AcDbLine
 10
13.389
 20
7.211
 30
0.0
 11
13.437
 21
7.087000000000001
 31
0.0
  0
LINE
  5
214
330
18
100
AcDbEntity
  8
0
100
AcDbLine
 10
13.46
 20
7.18
 30
0.0
 11
13.521
 21
7.05
 31
0.0
  0
LINE
  5
215
330
18
100
AcDbEntity
  8
0
100
AcDbLine
 10
13.539
 20
7.146
 30
0.0
 11
13.58
 21
7.025
 31
0.0
  0
LINE
  5
216
330
18
100
AcDbEntity
  8
0
100
AcDbLine
 10
13.595
 20
7.121
 30
0.0
 11
13.649
 21
6.994
 31
0.0
  0
LWPOLYLINE
  5
217
330
18
100
AcDbEntity
  8
0
100
AcDbPolyline
 90
        5
 70
     0
 43
0.0
 10
12.755
 20
7.074
 10
12.731
 20
7.121
 10
12.694
 20
7.171
 10
12.667
 20
7.197
 10
12.641
 20
7.232
  0
LWPOLYLINE
  5
21F
330
18
100
AcDbEntity
  8
0
100
AcDbPolyline
 90
        3
 70
     0
 43
0.0
 10
12.84
 20
7.037999999999999
 10
12.813
 20
7.102
 10
12.772
 20
7.176
  0
LWPOLYLINE
  5
225
330
18
100
AcDbEntity
  8
0
100
AcDbPolyline
 90
        3
 70
     0
 43
0.0
 10
12.982
 20
6.976
 10
12.957
 20
7.051
 10
12.914
 20
7.114
  0
LWPOLYLINE
  5
22B
330
18
100
AcDbEntity
  8
0
100
AcDbPolyline
 90
        4
 70
     0
 43
0.0
 10
12.92
 20
7.002999999999999
 10
12.897
 20
7.067
 10
12.862
 20
7.125
 10
12.85
 20
7.142
  0
LWPOLYLINE
  5
232
330
18
100
AcDbEntity
  8
0
100
AcDbPolyline
 90
        3
 70
     0
 43
0.0
 10
13.06
 20
6.942
 10
13.029
 20
7.031000000000001
 10
13.012
 20
7.071000000000001
  0
LWPOLYLINE
  5
238
330
18
100
AcDbEntity
  8
0
100
AcDbPolyline
 90
        3
 70
     0
 43
0.0
 10
13.237
 20
6.865
 10
13.215
 20
6.932
 10
13.185
 20
6.996
  0
LWPOLYLINE
  5
23E
330
18
100
AcDbEntity
  8
0
100
AcDbPolyline
 90
        3
 70
     0
 43
0.0
 10
13.145
 20
6.905
 10
13.113
 20
6.986000000000001
 10
13.091
 20
7.037000000000001
  0
LWPOLYLINE
  5
244
330
18
100
AcDbEntity
  8
0
100
AcDbPolyline
 90
        4
 70
     0
 43
0.0
 10
13.313
 20
6.832000000000001
 10
13.3
 20
6.881
 10
13.273
 20
6.943
 10
13.263
 20
6.962000000000001
  0
LWPOLYLINE
  5
24B
330
18
100
AcDbEntity
  8
0
100
AcDbPolyline
 90
        3
 70
     0
 43
0.0
 10
13.377
 20
6.803999999999999
 10
13.363
 20
6.867999999999999
 10
13.331
 20
6.932
  0
LWPOLYLINE
  5
251
330
18
100
AcDbEntity
  8
0
100
AcDbPolyline
 90
        3
 70
     0
 43
0.0
 10
13.45
 20
6.772
 10
13.43
 20
6.848
 10
13.405
 20
6.9
  0
LWPOLYLINE
  5
257
330
18
100
AcDbEntity
  8
0
100
AcDbPolyline
 90
        3
 70
     0
 43
0.0
 10
13.511
 20
6.746
 10
13.49
 20
6.808
 10
13.47
 20
6.872000000000001
  0
LWPOLYLINE
  5
25D
330
18
100
AcDbEntity
  8
0
100
AcDbPolyline
 90
        3
 70
     0
 43
0.0
 10
13.6
 20
6.707000000000001
 10
13.554
 20
6.78
 10
13.535
 20
6.827000000000001
  0
LWPOLYLINE
  5
263
330
18
100
AcDbEntity
  8
0
100
AcDbPolyline
 90
        7
 70
     0
 43
0.0
 10
12.996
 20
7.278
 10
12.912
 20
7.263999999999999
 10
12.828
 20
7.25
 10
12.772
 20
7.247999999999999
 10
12.733
 20
7.236000000000001
 10
12.696
 20
7.227
 10
12.641
 20
7.232
  0
LWPOLYLINE
  5
26D
330
18
100
AcDbEntity
  8
0
100
AcDbPolyline
 90
        6
 70
     0
 43
0.0
 10
13.083
 20
7.241000000000001
 10
12.99
 20
7.234
 10
12.912
 20
7.21
 10
12.857
 20
7.197
 10
12.805
 20
7.187
 10
12.772
 20
7.176
  0
LWPOLYLINE
  5
276
330
18
100
AcDbEntity
  8
0
100
AcDbPolyline
 90
        6
 70
     0
 43
0.0
 10
13.155
 20
7.209
 10
13.068
 20
7.18
 10
12.996
 20
7.176
 10
12.93
 20
7.161000000000001
 10
12.876
 20
7.143
 10
12.85
 20
7.142
  0
LWPOLYLINE
  5
27F
330
18
100
AcDbEntity
  8
0
100
AcDbPolyline
 90
        6
 70
     0
 43
0.0
 10
13.225
 20
7.178999999999999
 10
13.137
 20
7.157
 10
13.074
 20
7.14
 10
13.03
 20
7.127999999999999
 10
12.98
 20
7.115
 10
12.914
 20
7.114
  0
LWPOLYLINE
  5
288
330
18
100
AcDbEntity
  8
0
100
AcDbPolyline
 90
        6
 70
     0
 43
0.0
 10
13.306
 20
7.143
 10
13.221
 20
7.122000000000001
 10
13.153
 20
7.105
 10
13.08
 20
7.087000000000001
 10
13.027
 20
7.072
 10
13.012
 20
7.071000000000001
  0
LWPOLYLINE
  5
291
330
18
100
AcDbEntity
  8
0
100
AcDbPolyline
 90
        5
 70
     0
 43
0.0
 10
13.373
 20
7.114
 10
13.278
 20
7.085
 10
13.207
 20
7.07
 10
13.147
 20
7.056
 10
13.091
 20
7.037000000000001
  0
LWPOLYLINE
  5
299
330
18
100
AcDbEntity
  8
0
100
AcDbPolyline
 90
        5
 70
     0
 43
0.0
 10
13.437
 20
7.087000000000001
 10
13.34
 20
7.053
 10
13.281
 20
7.024
 10
13.25
 20
7.015
 10
13.185
 20
6.996
  0
LWPOLYLINE
  5
2A1
330
18
100
AcDbEntity
  8
0
100
AcDbPolyline
 90
        6
 70
     0
 43
0.0
 10
13.521
 20
7.05
 10
13.455
 20
7.027
 10
13.379
 20
7.006
 10
13.325
 20
6.988
 10
13.289
 20
6.974
 10
13.263
 20
6.962000000000001
  0
LWPOLYLINE
  5
2AA
330
18
100
AcDbEntity
  8
0
100
AcDbPolyline
 90
        5
 70
     0
 43
0.0
 10
13.58
 20
7.025
 10
13.486
 20
6.982
 10
13.423
 20
6.965
 10
13.382
 20
6.956
 10
13.331
 20
6.932
  0
LWPOLYLINE
  5
2B2
330
18
100
AcDbEntity
  8
0
100
AcDbPolyline
 90
        5
 70
     0
 43
0.0
 10
13.649
 20
6.994
 10
13.558
 20
6.962000000000001
 10
13.488
 20
6.936
 10
13.436
 20
6.915
 10
13.405
 20
6.9
  0
LWPOLYLINE
  5
2BA
330
18
100
AcDbEntity
  8
0
100
AcDbPolyline
 90
        4
 70
     0
 43
0.0
 10
13.47
 20
6.872000000000001
 10
13.544
 20
6.91
 10
13.601
 20
6.931
 10
13.662
 20
6.952000000000001
  0
LWPOLYLINE
  5
2C1
330
18
100
AcDbEntity
  8
0
100
AcDbPolyline
 90
        4
 70
     0
 43
0.0
 10
12.837
 20
7.348
 10
12.793
 20
7.337999999999999
 10
12.722
 20
7.318
 10
12.692
 20
7.309
  0
LWPOLYLINE
  5
2C8
330
18
100
AcDbEntity
  8
0
100
AcDbPolyline
 90
        5
 70
     0
 43
0.0
 10
12.914
 20
7.314
 10
12.818
 20
7.297999999999999
 10
12.737
 20
7.282
 10
12.634
 20
7.259
 10
12.618
 20
7.257000000000001
  0
LINE
  5
2D0
330
18
100
AcDbEntity
  8
0
100
AcDbLine
 10
10.523
 20
3.21
 30
0.0
 11
10.23
 21
2.938
 31
0.0
  0
LINE
  5
2D1
330
18
100
AcDbEntity
  8
0
100
AcDbLine
 10
12.067
 20
4.641
 30
0.0
 11
11.927
 21
4.688
 31
0.0
  0
LINE
  5
2D2
330
18
100
AcDbEntity
  8
0
100
AcDbLine
 10
9.486000000000001
 20
3.732
 30
0.0
 11
9.431000000000001
 21
3.68
 31
0.0
  0
LINE
  5
2D3
330
18
100
AcDbEntity
  8
0
100
AcDbLine
 10
9.431000000000001
 20
3.68
 30
0.0
 11
9.539999999999999
 21
3.575
 31
0.0
  0
LINE
  5
2D4
330
18
100
AcDbEntity
  8
0
100
AcDbLine
 10
9.539999999999999
 20
3.575
 30
0.0
 11
9.492000000000001
 21
3.527
 31
0.0
  0
LINE
  5
2D5
330
18
100
AcDbEntity
  8
0
100
AcDbLine
 10
9.486000000000001
 20
3.732
 30
0.0
 11
9.475
 21
4.171
 31
0.0
  0
LINE
  5
2D6
330
18
100
AcDbEntity
  8
0
100
AcDbLine
 10
11.408
 20
2.944
 30
0.0
 11
11.408
 21
4.793
 31
0.0
  0
LINE
  5
2D7
330
18
100
AcDbEntity
  8
0
100
AcDbLine
 10
11.871
 20
2.844
 30
0.0
 11
11.408
 21
2.944
 31
0.0
  0
LINE
  5
2D8
330
18
100
AcDbEntity
  8
0
100
AcDbLine
 10
11.921
 20
2.879
 30
0.0
 11
11.921
 21
4.664
 31
0.0
  0
LINE
  5
2D9
330
18
100
AcDbEntity
  8
0
100
AcDbLine
 10
11.458
 20
2.979
 30
0.0
 11
11.408
 21
2.944
 31
0.0
  0
LINE
  5
2DA
330
18
100
AcDbEntity
  8
0
100
AcDbLine
 10
11.458
 20
2.979
 30
0.0
 11
11.458
 21
4.783
 31
0.0
  0
LINE
  5
2DB
330
18
100
AcDbEntity
  8
0
100
AcDbLine
 10
11.921
 20
2.879
 30
0.0
 11
11.458
 21
2.979
 31
0.0
  0
LINE
  5
2DC
330
18
100
AcDbEntity
  8
0
100
AcDbLine
 10
11.921
 20
2.879
 30
0.0
 11
11.871
 21
2.844
 31
0.0
  0
LINE
  5
2DD
330
18
100
AcDbEntity
  8
0
100
AcDbLine
 10
12.545
 20
6.002000000000001
 30
0.0
 11
11.421
 21
4.828
 31
0.0
  0
ARC
  5
2DE
330
18
100
AcDbEntity
  8
0
100
AcDbCircle
 10
11.458
 20
4.793
 30
0.0
 40
0.05
100
AcDbArc
 50
136.261
 51
180.0
  0
LINE
  5
2DF
330
18
100
AcDbEntity
  8
0
100
AcDbLine
 10
11.444
 20
4.851
 30
0.0
 11
11.225
 21
4.925
 31
0.0
  0
LINE
  5
2E0
330
18
100
AcDbEntity
  8
0
100
AcDbLine
 10
12.547
 20
5.932
 30
0.0
 11
11.464
 21
4.8
 31
0.0
  0
ARC
  5
2E1
330
18
100
AcDbEntity
  8
0
100
AcDbCircle
 10
11.483
 20
4.783
 30
0.0
 40
0.025
100
AcDbArc
 50
136.261
 51
180.0
  0
LINE
  5
2E2
330
18
100
AcDbEntity
  8
0
100
AcDbLine
 10
12.547
 20
5.932
 30
0.0
 11
12.545
 21
6.002000000000001
 31
0.0
  0
LINE
  5
2E3
330
18
100
AcDbEntity
  8
0
100
AcDbLine
 10
13.034
 20
5.789
 30
0.0
 11
12.545
 21
6.002000000000001
 31
0.0
  0
LINE
  5
2E4
330
18
100
AcDbEntity
  8
0
100
AcDbLine
 10
13.036
 20
5.718999999999999
 30
0.0
 11
12.547
 21
5.932
 31
0.0
  0
LINE
  5
2E5
330
18
100
AcDbEntity
  8
0
100
AcDbLine
 10
13.036
 20
5.718999999999999
 30
0.0
 11
11.937
 21
4.701000000000001
 31
0.0
  0
LINE
  5
2E6
330
18
100
AcDbEntity
  8
0
100
AcDbLine
 10
13.036
 20
5.718999999999999
 30
0.0
 11
13.034
 21
5.789
 31
0.0
  0
ARC
  5
2E7
330
18
100
AcDbEntity
  8
0
100
AcDbCircle
 10
11.971
 20
4.664
 30
0.0
 40
0.05
100
AcDbArc
 50
132.829
 51
180.0
  0
LINE
  5
2E8
330
18
100
AcDbEntity
  8
0
100
AcDbLine
 10
11.883
 20
4.689
 30
0.0
 11
11.535
 21
4.807
 31
0.0
  0
LINE
  5
2E9
330
18
100
AcDbEntity
  8
0
100
AcDbLine
 10
11.847
 20
4.724
 30
0.0
 11
11.621
 21
4.8
 31
0.0
  0
LWPOLYLINE
  5
2EA
330
18
100
AcDbEntity
  8
0
100
AcDbPolyline
 90
        6
 70
     1
 43
0.0
 10
11.793
 20
3.348
 10
11.774
 20
3.428
 10
11.696
 20
3.452
 10
11.636
 20
3.396
 10
11.655
 20
3.316
 10
11.733
 20
3.292
  0
LINE
  5
2F3
330
18
100
AcDbEntity
  8
0
100
AcDbLine
 10
11.733
 20
3.292
 30
0.0
 11
11.697
 21
3.28
 31
0.0
  0
LINE
  5
2F4
330
18
100
AcDbEntity
  8
0
100
AcDbLine
 10
11.655
 20
3.316
 30
0.0
 11
11.619
 21
3.304
 31
0.0
  0
LINE
  5
2F5
330
18
100
AcDbEntity
  8
0
100
AcDbLine
 10
11.636
 20
3.396
 30
0.0
 11
11.6
 21
3.383
 31
0.0
  0
LINE
  5
2F6
330
18
100
AcDbEntity
  8
0
100
AcDbLine
 10
11.696
 20
3.452
 30
0.0
 11
11.66
 21
3.44
 31
0.0
  0
LWPOLYLINE
  5
2F7
330
18
100
AcDbEntity
  8
0
100
AcDbPolyline
 90
        4
 70
     0
 43
0.0
 10
11.66
 20
3.44
 10
11.6
 20
3.383
 10
11.619
 20
3.304
 10
11.697
 20
3.28
  0
LWPOLYLINE
  5
2FE
330
18
100
AcDbEntity
  8
0
100
AcDbPolyline
 90
        4
 70
     0
 43
0.0
 10
11.66
 20
3.876
 10
11.6
 20
3.82
 10
11.619
 20
3.74
 10
11.697
 20
3.716
  0
LINE
  5
305
330
18
100
AcDbEntity
  8
0
100
AcDbLine
 10
11.696
 20
3.888
 30
0.0
 11
11.66
 21
3.876
 31
0.0
  0
LINE
  5
306
330
18
100
AcDbEntity
  8
0
100
AcDbLine
 10
11.636
 20
3.832
 30
0.0
 11
11.6
 21
3.82
 31
0.0
  0
LINE
  5
307
330
18
100
AcDbEntity
  8
0
100
AcDbLine
 10
11.655
 20
3.752
 30
0.0
 11
11.619
 21
3.74
 31
0.0
  0
LINE
  5
308
330
18
100
AcDbEntity
  8
0
100
AcDbLine
 10
11.733
 20
3.728
 30
0.0
 11
11.697
 21
3.716
 31
0.0
  0
LWPOLYLINE
  5
309
330
18
100
AcDbEntity
  8
0
100
AcDbPolyline
 90
        6
 70
     1
 43
0.0
 10
11.793
 20
3.785
 10
11.774
 20
3.864
 10
11.696
 20
3.888
 10
11.636
 20
3.832
 10
11.655
 20
3.752
 10
11.733
 20
3.728
  0
LWPOLYLINE
  5
312
330
18
100
AcDbEntity
  8
0
100
AcDbPolyline
 90
        4
 70
     0
 43
0.0
 10
11.66
 20
4.291
 10
11.6
 20
4.235
 10
11.619
 20
4.155
 10
11.697
 20
4.131
  0
LINE
  5
319
330
18
100
AcDbEntity
  8
0
100
AcDbLine
 10
11.696
 20
4.303
 30
0.0
 11
11.66
 21
4.291
 31
0.0
  0
LINE
  5
31A
330
18
100
AcDbEntity
  8
0
100
AcDbLine
 10
11.636
 20
4.247
 30
0.0
 11
11.6
 21
4.235
 31
0.0
  0
LINE
  5
31B
330
18
100
AcDbEntity
  8
0
100
AcDbLine
 10
11.655
 20
4.167
 30
0.0
 11
11.619
 21
4.155
 31
0.0
  0
LINE
  5
31C
330
18
100
AcDbEntity
  8
0
100
AcDbLine
 10
11.733
 20
4.144
 30
0.0
 11
11.697
 21
4.131
 31
0.0
  0
LWPOLYLINE
  5
31D
330
18
100
AcDbEntity
  8
0
100
AcDbPolyline
 90
        6
 70
     1
 43
0.0
 10
11.793
 20
4.2
 10
11.774
 20
4.28
 10
11.696
 20
4.303
 10
11.636
 20
4.247
 10
11.655
 20
4.167
 10
11.733
 20
4.144
  0
LWPOLYLINE
  5
326
330
18
100
AcDbEntity
  8
0
100
AcDbPolyline
 90
        6
 70
     1
 43
0.0
 10
12.557
 20
5.499
 10
12.627
 20
5.547999999999999
 10
12.586
 20
5.598
 10
12.497
 20
5.607
 10
12.437
 20
5.561
 10
12.465
 20
5.515
  0
LINE
  5
32F
330
18
100
AcDbEntity
  8
0
100
AcDbLine
 10
12.5
 20
5.658
 30
0.0
 11
12.497
 21
5.607
 31
0.0
  0
LINE
  5
330
330
18
100
AcDbEntity
  8
0
100
AcDbLine
 10
12.586
 20
5.598
 30
0.0
 11
12.588
 21
5.649
 31
0.0
  0
LINE
  5
331
330
18
100
AcDbEntity
  8
0
100
AcDbLine
 10
12.629
 20
5.599
 30
0.0
 11
12.627
 21
5.547999999999999
 31
0.0
  0
LINE
  5
332
330
18
100
AcDbEntity
  8
0
100
AcDbLine
 10
12.437
 20
5.561
 30
0.0
 11
12.44
 21
5.612
 31
0.0
  0
LWPOLYLINE
  5
333
330
18
100
AcDbEntity
  8
0
100
AcDbPolyline
 90
        4
 70
     0
 43
0.0
 10
12.629
 20
5.599
 10
12.588
 20
5.649
 10
12.5
 20
5.658
 10
12.44
 20
5.612
  0
LWPOLYLINE
  5
33A
330
18
100
AcDbEntity
  8
0
100
AcDbPolyline
 90
        4
 70
     0
 43
0.0
 10
12.34
 20
5.297000000000001
 10
12.299
 20
5.347
 10
12.211
 20
5.356
 10
12.15
 20
5.31
  0
LINE
  5
341
330
18
100
AcDbEntity
  8
0
100
AcDbLine
 10
12.148
 20
5.259
 30
0.0
 11
12.15
 21
5.31
 31
0.0
  0
LINE
  5
342
330
18
100
AcDbEntity
  8
0
100
AcDbLine
 10
12.34
 20
5.297000000000001
 30
0.0
 11
12.337
 21
5.246
 31
0.0
  0
LINE
  5
343
330
18
100
AcDbEntity
  8
0
100
AcDbLine
 10
12.296
 20
5.296
 30
0.0
 11
12.299
 21
5.347
 31
0.0
  0
LINE
  5
344
330
18
100
AcDbEntity
  8
0
100
AcDbLine
 10
12.211
 20
5.356
 30
0.0
 11
12.208
 21
5.305
 31
0.0
  0
LWPOLYLINE
  5
345
330
18
100
AcDbEntity
  8
0
100
AcDbPolyline
 90
        6
 70
     1
 43
0.0
 10
12.267
 20
5.197
 10
12.337
 20
5.246
 10
12.296
 20
5.296
 10
12.208
 20
5.305
 10
12.148
 20
5.259
 10
12.176
 20
5.212999999999999
  0
LWPOLYLINE
  5
34E
330
18
100
AcDbEntity
  8
0
100
AcDbPolyline
 90
        4
 70
     0
 43
0.0
 10
12.029
 20
4.972
 10
11.988
 20
5.021
 10
11.899
 20
5.03
 10
11.839
 20
4.984
  0
LINE
  5
355
330
18
100
AcDbEntity
  8
0
100
AcDbLine
 10
11.836
 20
4.934
 30
0.0
 11
11.839
 21
4.984
 31
0.0
  0
LINE
  5
356
330
18
100
AcDbEntity
  8
0
100
AcDbLine
 10
12.029
 20
4.972
 30
0.0
 11
12.026
 21
4.921
 31
0.0
  0
LINE
  5
357
330
18
100
AcDbEntity
  8
0
100
AcDbLine
 10
11.985
 20
4.97
 30
0.0
 11
11.988
 21
5.021
 31
0.0
  0
LINE
  5
358
330
18
100
AcDbEntity
  8
0
100
AcDbLine
 10
11.899
 20
5.03
 30
0.0
 11
11.897
 21
4.979
 31
0.0
  0
LWPOLYLINE
  5
359
330
18
100
AcDbEntity
  8
0
100
AcDbPolyline
 90
        6
 70
     1
 43
0.0
 10
11.956
 20
4.871
 10
12.026
 20
4.921
 10
11.985
 20
4.97
 10
11.897
 20
4.979
 10
11.836
 20
4.934
 10
11.864
 20
4.888
  0
LINE
  5
362
330
18
100
AcDbEntity
  8
0
100
AcDbLine
 10
9.972999999999999
 20
3.321
 30
0.0
 11
10.523
 21
3.895
 31
0.0
  0
LINE
  5
363
330
18
100
AcDbEntity
  8
0
100
AcDbLine
 10
9.972999999999999
 20
3.321
 30
0.0
 11
9.972999999999999
 21
3.393
 31
0.0
  0
LINE
  5
364
330
18
100
AcDbEntity
  8
0
100
AcDbLine
 10
9.972999999999999
 20
3.393
 30
0.0
 11
10.523
 21
3.968
 31
0.0
  0
LINE
  5
365
330
18
100
AcDbEntity
  8
0
100
AcDbLine
 10
9.972999999999999
 20
3.321
 30
0.0
 11
10.365
 21
3.22
 31
0.0
  0
LINE
  5
366
330
18
100
AcDbEntity
  8
0
100
AcDbLine
 10
10.523
 20
3.367
 30
0.0
 11
10.365
 21
3.22
 31
0.0
  0
LWPOLYLINE
  5
367
330
18
100
AcDbEntity
  8
0
100
AcDbPolyline
 90
        6
 70
     1
 43
0.0
 10
10.379
 20
3.366
 10
10.45
 20
3.415
 10
10.408
 20
3.465
 10
10.32
 20
3.474
 10
10.26
 20
3.428
 10
10.288
 20
3.382
  0
LINE
  5
370
330
18
100
AcDbEntity
  8
0
100
AcDbLine
 10
10.323
 20
3.525
 30
0.0
 11
10.32
 21
3.474
 31
0.0
  0
LINE
  5
371
330
18
100
AcDbEntity
  8
0
100
AcDbLine
 10
10.408
 20
3.465
 30
0.0
 11
10.411
 21
3.516
 31
0.0
  0
LINE
  5
372
330
18
100
AcDbEntity
  8
0
100
AcDbLine
 10
10.452
 20
3.466
 30
0.0
 11
10.45
 21
3.415
 31
0.0
  0
LINE
  5
373
330
18
100
AcDbEntity
  8
0
100
AcDbLine
 10
10.26
 20
3.428
 30
0.0
 11
10.262
 21
3.479
 31
0.0
  0
LWPOLYLINE
  5
374
330
18
100
AcDbEntity
  8
0
100
AcDbPolyline
 90
        4
 70
     0
 43
0.0
 10
10.452
 20
3.466
 10
10.411
 20
3.516
 10
10.323
 20
3.525
 10
10.262
 20
3.479
  0
TEXT
  5
37B
330
18
100
AcDbEntity
  8
0
100
AcDbText
 10
10.727
 20
0.91
 30
0.0
 40
0.125
  1
A88 Angle
100
AcDbText
  0
TEXT
  5
37C
330
18
100
AcDbEntity
  8
0
100
AcDbText
 10
10.727
 20
1.147
 30
0.0
 40
0.125
  1
Simpson Strong-Tie
100
AcDbText
  0
ENDSEC
  0
SECTION
  2
OBJECTS
  0
DICTIONARY
  5
C
330
0
100
AcDbDictionary
281
     1
  3
ACAD_COLOR
350
382
  3
ACAD_GROUP
350
D
  3
ACAD_LAYOUT
350
15
  3
ACAD_MATERIAL
350
384
  3
ACAD_MLINESTYLE
350
12
  3
ACAD_PLOTSETTINGS
350
14
  3
ACAD_PLOTSTYLENAME
350
E
  3
ACDBHEADERROUNDTRIPXREC
350
381
  0
DICTIONARY
  5
382
102
{ACAD_REACTORS
330
C
102
}
330
C
100
AcDbDictionary
281
     1
  0
DICTIONARY
  5
D
102
{ACAD_REACTORS
330
C
102
}
330
C
100
AcDbDictionary
281
     1
  0
DICTIONARY
  5
15
102
{ACAD_REACTORS
330
C
102
}
330
C
100
AcDbDictionary
281
     1
  3
Layout1
350
17
  3
Model
350
19
  0
DICTIONARY
  5
384
102
{ACAD_REACTORS
330
C
102
}
330
C
100
AcDbDictionary
281
     1
  0
DICTIONARY
  5
12
102
{ACAD_REACTORS
330
C
102
}
330
C
100
AcDbDictionary
281
     1
  3
Standard
350
13
  0
DICTIONARY
  5
14
102
{ACAD_REACTORS
330
C
102
}
330
C
100
AcDbDictionary
281
     1
  0
ACDBDICTIONARYWDFLT
  5
E
102
{ACAD_REACTORS
330
C
102
}
330
C
100
AcDbDictionary
281
     1
  3
Normal
350
F
100
AcDbDictionaryWithDefault
340
F
  0
DICTIONARY
  5
381
102
{ACAD_REACTORS
330
C
102
}
330
C
100
AcDbDictionary
281
     1
  3
COLORDICT
350
383
  3
MATERIALDICT
350
385
  0
LAYOUT
  5
17
102
{ACAD_REACTORS
330
15
102
}
102
{ACAD_XDICTIONARY
360
386
102
}
330
15
100
AcDbPlotSettings
  1

  2

  4

  6

 40
0.0
 41
0.0
 42
0.0
 43
0.0
 44
0.0
 45
0.0
 46
0.0
 47
0.0
 48
0.0
 49
0.0
140
0.0
141
0.0
142
1.0
143
1.0
 70
   688
 72
     0
 73
     0
 74
     5
  7

 75
    16
147
1.0
148
0.0
149
0.0
100
AcDbLayout
  1
Layout1
 70
     1
 71
     1
 10
0.0
 20
0.0
 11
12.0
 21
9.0
 12
0.0
 22
0.0
 32
0.0
 14
1.000000000000000E+20
 24
1.000000000000000E+20
 34
1.000000000000000E+20
 15
-1.000000000000000E+20
 25
-1.000000000000000E+20
 35
-1.000000000000000E+20
146
0.0
 13
0.0
 23
0.0
 33
0.0
 16
1.0
 26
0.0
 36
0.0
 17
0.0
 27
1.0
 37
0.0
 76
     0
330
16
  0
LAYOUT
  5
19
102
{ACAD_REACTORS
330
15
102
}
102
{ACAD_XDICTIONARY
360
388
102
}
330
15
100
AcDbPlotSettings
  1

  2

  4

  6

 40
0.0
 41
0.0
 42
0.0
 43
0.0
 44
0.0
 45
0.0
 46
0.0
 47
0.0
 48
0.0
 49
0.0
140
0.0
141
0.0
142
1.0
143
1.0
 70
  1712
 72
     0
 73
     0
 74
     0
  7

 75
     0
147
1.0
148
0.0
149
0.0
100
AcDbLayout
  1
Model
 70
     1
 71
     0
 10
0.0
 20
0.0
 11
0.0
 21
0.0
 12
0.0
 22
0.0
 32
0.0
 14
0.0
 24
0.0
 34
0.0
 15
0.0
 25
0.0
 35
0.0
146
0.0
 13
0.0
 23
0.0
 33
0.0
 16
1.0
 26
0.0
 36
0.0
 17
0.0
 27
1.0
 37
0.0
 76
     0
330
18
  0
MLINESTYLE
  5
13
102
{ACAD_REACTORS
330
12
102
}
330
12
100
AcDbMlineStyle
  2
Standard
 70
     0
  3

 62
   256
 51
90.0
 52
90.0
 71
     2
 49
0.5
 62
   256
  6
BYLAYER
 49
-0.5
 62
   256
  6
BYLAYER
  0
ACDBPLACEHOLDER
  5
F
102
{ACAD_REACTORS
330
E
102
}
330
E
  0
XRECORD
  5
383
102
{ACAD_REACTORS
330
381
102
}
330
381
100
AcDbXrecord
340
382
  0
XRECORD
  5
385
102
{ACAD_REACTORS
330
381
102
}
330
381
100
AcDbXrecord
340
384
  0
DICTIONARY
  5
386
330
17
100
AcDbDictionary
280
     1
281
     1
  3
ACAD_XREC_ROUNDTRIP
360
387
  0
DICTIONARY
  5
388
330
19
100
AcDbDictionary
280
     1
281
     1
  3
ACAD_XREC_ROUNDTRIP
360
389
  0
XRECORD
  5
387
102
{ACAD_REACTORS
330
386
102
}
330
386
100
AcDbXrecord
102
SHADEPLOT
 70
     0
102
SHADEPLOTRESLEVEL
 70
     0
102
SHADEPLOTCUSTOMDPI
 70
     0
  0
XRECORD
  5
389
102
{ACAD_REACTORS
330
388
102
}
330
388
100
AcDbXrecord
102
SHADEPLOT
 70
-25416
102
SHADEPLOTRESLEVEL
 70
 -2880
102
SHADEPLOTCUSTOMDPI
 70
 20968
  0
ENDSEC
  0
EOF
