  0
SECTION
  2
HEADER
  9
$ACADVER
  1
AC1015
  9
$ACADMAINTVER
 70
    20
  9
$DWGCODEPAGE
  3
ANSI_1252
  9
$INSBASE
 10
0.0
 20
0.0
 30
0.0
  9
$EXTMIN
 10
0.4999999999999984
 20
0.4999999999999984
 30
0.0
  9
$EXTMAX
 10
21.5
 20
16.49999999999999
 30
0.0
  9
$LIMMIN
 10
0.0
 20
0.0
  9
$LIMMAX
 10
22.0
 20
17.0
  9
$ORTHOMODE
 70
     0
  9
$REGENMODE
 70
     1
  9
$FILLMODE
 70
     1
  9
$QTEXTMODE
 70
     0
  9
$MIRRTEXT
 70
     0
  9
$LTSCALE
 40
1.0
  9
$ATTMODE
 70
     1
  9
$TEXTSIZE
 40
0.2
  9
$TRACEWID
 40
0.05
  9
$TEXTSTYLE
  7
Standard
  9
$CLAYER
  8
0
  9
$CELTYPE
  6
ByLayer
  9
$CECOLOR
 62
   256
  9
$CELTSCALE
 40
1.0
  9
$DISPSILH
 70
     0
  9
$DIMSCALE
 40
1.0
  9
$DIMASZ
 40
0.0708661417322835
  9
$DIMEXO
 40
0.0625
  9
$DIMDLI
 40
0.38
  9
$DIMRND
 40
0.0
  9
$DIMDLE
 40
0.0
  9
$DIMEXE
 40
0.18
  9
$DIMTP
 40
0.0
  9
$DIMTM
 40
0.0
  9
$DIMTXT
 40
0.0708661417322835
  9
$DIMCEN
 40
0.09
  9
$DIMTSZ
 40
0.0
  9
$DIMTOL
 70
     0
  9
$DIMLIM
 70
     0
  9
$DIMTIH
 70
     1
  9
$DIMTOH
 70
     1
  9
$DIMSE1
 70
     0
  9
$DIMSE2
 70
     0
  9
$DIMTAD
 70
     0
  9
$DIMZIN
 70
     0
  9
$DIMBLK
  1

  9
$DIMASO
 70
     1
  9
$DIMSHO
 70
     1
  9
$DIMPOST
  1

  9
$DIMAPOST
  1

  9
$DIMALT
 70
     0
  9
$DIMALTD
 70
     2
  9
$DIMALTF
 40
25.4
  9
$DIMLFAC
 40
1.0
  9
$DIMTOFL
 70
     0
  9
$DIMTVP
 40
0.0
  9
$DIMTIX
 70
     0
  9
$DIMSOXD
 70
     0
  9
$DIMSAH
 70
     0
  9
$DIMBLK1
  1

  9
$DIMBLK2
  1

  9
$DIMSTYLE
  2
Standard
  9
$DIMCLRD
 70
     0
  9
$DIMCLRE
 70
     0
  9
$DIMCLRT
 70
     0
  9
$DIMTFAC
 40
1.0
  9
$DIMGAP
 40
0.09
  9
$DIMJUST
 70
     0
  9
$DIMSD1
 70
     0
  9
$DIMSD2
 70
     0
  9
$DIMTOLJ
 70
     1
  9
$DIMTZIN
 70
     0
  9
$DIMALTZ
 70
     0
  9
$DIMALTTZ
 70
     0
  9
$DIMUPT
 70
     0
  9
$DIMDEC
 70
     4
  9
$DIMTDEC
 70
     4
  9
$DIMALTU
 70
     2
  9
$DIMALTTD
 70
     2
  9
$DIMTXSTY
  7
Standard
  9
$DIMAUNIT
 70
     0
  9
$DIMADEC
 70
     0
  9
$DIMALTRND
 40
0.0
  9
$DIMAZIN
 70
     0
  9
$DIMDSEP
 70
    46
  9
$DIMATFIT
 70
     3
  9
$DIMFRAC
 70
     0
  9
$DIMLDRBLK
  1

  9
$DIMLUNIT
 70
     2
  9
$DIMLWD
 70
    -2
  9
$DIMLWE
 70
    -2
  9
$DIMTMOVE
 70
     0
  9
$LUNITS
 70
     2
  9
$LUPREC
 70
     4
  9
$SKETCHINC
 40
0.1
  9
$FILLETRAD
 40
0.0
  9
$AUNITS
 70
     0
  9
$AUPREC
 70
     0
  9
$MENU
  1
.
  9
$ELEVATION
 40
0.0
  9
$PELEVATION
 40
0.0
  9
$THICKNESS
 40
0.0
  9
$LIMCHECK
 70
     0
  9
$CHAMFERA
 40
0.0
  9
$CHAMFERB
 40
0.0
  9
$CHAMFERC
 40
0.0
  9
$CHAMFERD
 40
0.0
  9
$SKPOLY
 70
     0
  9
$TDCREATE
 40
2456240.497702893
  9
$TDUCREATE
 40
2456240.831036227
  9
$TDUPDATE
 40
2456240.522255972
  9
$TDUUPDATE
 40
2456240.855589306
  9
$TDINDWG
 40
0.0007648958
  9
$TDUSRTIMER
 40
0.0007648958
  9
$USRTIMER
 70
     1
  9
$ANGBASE
 50
0.0
  9
$ANGDIR
 70
     0
  9
$PDMODE
 70
     0
  9
$PDSIZE
 40
0.0
  9
$PLINEWID
 40
0.0
  9
$SPLFRAME
 70
     0
  9
$SPLINETYPE
 70
     6
  9
$SPLINESEGS
 70
     8
  9
$HANDSEED
  5
28B
  9
$SURFTAB1
 70
     6
  9
$SURFTAB2
 70
     6
  9
$SURFTYPE
 70
     6
  9
$SURFU
 70
     6
  9
$SURFV
 70
     6
  9
$UCSBASE
  2

  9
$UCSNAME
  2

  9
$UCSORG
 10
0.0
 20
0.0
 30
0.0
  9
$UCSXDIR
 10
1.0
 20
0.0
 30
0.0
  9
$UCSYDIR
 10
0.0
 20
1.0
 30
0.0
  9
$UCSORTHOREF
  2

  9
$UCSORTHOVIEW
 70
     0
  9
$UCSORGTOP
 10
0.0
 20
0.0
 30
0.0
  9
$UCSORGBOTTOM
 10
0.0
 20
0.0
 30
0.0
  9
$UCSORGLEFT
 10
0.0
 20
0.0
 30
0.0
  9
$UCSORGRIGHT
 10
0.0
 20
0.0
 30
0.0
  9
$UCSORGFRONT
 10
0.0
 20
0.0
 30
0.0
  9
$UCSORGBACK
 10
0.0
 20
0.0
 30
0.0
  9
$PUCSBASE
  2

  9
$PUCSNAME
  2

  9
$PUCSORG
 10
0.0
 20
0.0
 30
0.0
  9
$PUCSXDIR
 10
1.0
 20
0.0
 30
0.0
  9
$PUCSYDIR
 10
0.0
 20
1.0
 30
0.0
  9
$PUCSORTHOREF
  2

  9
$PUCSORTHOVIEW
 70
     0
  9
$PUCSORGTOP
 10
0.0
 20
0.0
 30
0.0
  9
$PUCSORGBOTTOM
 10
0.0
 20
0.0
 30
0.0
  9
$PUCSORGLEFT
 10
0.0
 20
0.0
 30
0.0
  9
$PUCSORGRIGHT
 10
0.0
 20
0.0
 30
0.0
  9
$PUCSORGFRONT
 10
0.0
 20
0.0
 30
0.0
  9
$PUCSORGBACK
 10
0.0
 20
0.0
 30
0.0
  9
$USERI1
 70
     0
  9
$USERI2
 70
     0
  9
$USERI3
 70
     0
  9
$USERI4
 70
     0
  9
$USERI5
 70
     0
  9
$USERR1
 40
0.0
  9
$USERR2
 40
0.0
  9
$USERR3
 40
0.0
  9
$USERR4
 40
0.0
  9
$USERR5
 40
0.0
  9
$WORLDVIEW
 70
     1
  9
$SHADEDGE
 70
     3
  9
$SHADEDIF
 70
    70
  9
$TILEMODE
 70
     1
  9
$MAXACTVP
 70
    64
  9
$PINSBASE
 10
0.0
 20
0.0
 30
0.0
  9
$PLIMCHECK
 70
     0
  9
$PEXTMIN
 10
0.0
 20
0.0
 30
0.0
  9
$PEXTMAX
 10
22.0
 20
17.0
 30
0.0
  9
$PLIMMIN
 10
0.0
 20
0.0
  9
$PLIMMAX
 10
22.0
 20
17.0
  9
$UNITMODE
 70
     0
  9
$VISRETAIN
 70
     1
  9
$PLINEGEN
 70
     0
  9
$PSLTSCALE
 70
     1
  9
$TREEDEPTH
 70
  3020
  9
$CMLSTYLE
  2
Standard
  9
$CMLJUST
 70
     0
  9
$CMLSCALE
 40
1.0
  9
$PROXYGRAPHICS
 70
     1
  9
$MEASUREMENT
 70
     0
  9
$CELWEIGHT
370
    -1
  9
$ENDCAPS
280
     0
  9
$JOINSTYLE
280
     0
  9
$LWDISPLAY
290
     0
  9
$INSUNITS
 70
     1
  9
$HYPERLINKBASE
  1

  9
$STYLESHEET
  1

  9
$XEDIT
290
     1
  9
$CEPSNTYPE
380
     0
  9
$PSTYLEMODE
290
     1
  9
$FINGERPRINTGUID
  2
{2AE42DBE-E3A4-425F-A162-5429E7B41D1E}
  9
$VERSIONGUID
  2
{6BD06E34-D2DD-406F-80FD-C0C6DFD60B00}
  9
$EXTNAMES
290
     1
  9
$PSVPSCALE
 40
0.0
  9
$OLESTARTUP
290
     0
  0
ENDSEC
  0
SECTION
  2
CLASSES
  0
CLASS
  1
ACDBDICTIONARYWDFLT
  2
AcDbDictionaryWithDefault
  3
ObjectDBX Classes
 90
        0
280
     0
281
     0
  0
CLASS
  1
MATERIAL
  2
AcDbMaterial
  3
ObjectDBX Classes
 90
     1153
280
     0
281
     0
  0
CLASS
  1
VISUALSTYLE
  2
AcDbVisualStyle
  3
ObjectDBX Classes
 90
     4095
280
     0
281
     0
  0
CLASS
  1
SCALE
  2
AcDbScale
  3
ObjectDBX Classes
 90
     1153
280
     0
281
     0
  0
CLASS
  1
TABLESTYLE
  2
AcDbTableStyle
  3
ObjectDBX Classes
 90
     4095
280
     0
281
     0
  0
CLASS
  1
MLEADERSTYLE
  2
AcDbMLeaderStyle
  3
ACDB_MLEADERSTYLE_CLASS
 90
     4095
280
     0
281
     0
  0
CLASS
  1
DICTIONARYVAR
  2
AcDbDictionaryVar
  3
ObjectDBX Classes
 90
        0
280
     0
281
     0
  0
CLASS
  1
CELLSTYLEMAP
  2
AcDbCellStyleMap
  3
ObjectDBX Classes
 90
     1152
280
     0
281
     0
  0
CLASS
  1
ACDBPLACEHOLDER
  2
AcDbPlaceHolder
  3
ObjectDBX Classes
 90
        0
280
     0
281
     0
  0
CLASS
  1
LAYOUT
  2
AcDbLayout
  3
ObjectDBX Classes
 90
        0
280
     0
281
     0
  0
ENDSEC
  0
SECTION
  2
TABLES
  0
TABLE
  2
VPORT
  5
8
102
{ACAD_XDICTIONARY
360
1FD
102
}
330
0
100
AcDbSymbolTable
 70
     1
  0
VPORT
  5
57
330
8
100
AcDbSymbolTableRecord
100
AcDbViewportTableRecord
  2
*Active
 70
     0
 10
0.0
 20
0.0
 11
1.0
 21
1.0
 12
18.14834437086092
 22
8.5
 13
0.0
 23
0.0
 14
1.0
 24
1.0
 15
0.0
 25
0.0
 16
0.0
 26
0.0
 36
1.0
 17
0.0
 27
0.0
 37
0.0
 40
17.00194523510148
 41
2.135099337748344
 42
50.0
 43
0.0
 44
0.0
 50
0.0
 51
0.0
 71
     0
 72
   100
 73
     1
 74
     1
 75
     0
 76
     0
 77
     0
 78
     0
281
     0
 65
     1
110
0.0
120
0.0
130
0.0
111
1.0
121
0.0
131
0.0
112
0.0
122
1.0
132
0.0
 79
     0
146
0.0
1001
ACAD_NAV_VCDISPLAY
1070
     3
  0
ENDTAB
  0
TABLE
  2
LTYPE
  5
5
330
0
100
AcDbSymbolTable
 70
    59
  0
LTYPE
  5
5B
330
5
100
AcDbSymbolTableRecord
100
AcDbLinetypeTableRecord
  2
ByBlock
 70
     0
  3

 72
    65
 73
     0
 40
0.0
  0
LTYPE
  5
5C
330
5
100
AcDbSymbolTableRecord
100
AcDbLinetypeTableRecord
  2
ByLayer
 70
     0
  3

 72
    65
 73
     0
 40
0.0
  0
LTYPE
  5
5D
330
5
100
AcDbSymbolTableRecord
100
AcDbLinetypeTableRecord
  2
Continuous
 70
     0
  3
Solid line
 72
    65
 73
     0
 40
0.0
  0
LTYPE
  5
7C
330
5
100
AcDbSymbolTableRecord
100
AcDbLinetypeTableRecord
  2
BY_STANDARD
 70
     0
  3
By Standard ____________    ____    ____   _
 72
    65
 73
     6
 40
1.240299999999999
 49
0.6614
 74
     0
 49
-0.0827
 74
     0
 49
0.1654
 74
     0
 49
-0.0827
 74
     0
 49
0.1654
 74
     0
 49
-0.0827
 74
     0
  0
LTYPE
  5
7D
330
5
100
AcDbSymbolTableRecord
100
AcDbLinetypeTableRecord
  2
CHAIN
 70
     0
  3
Chain ____ _ ____ _ ____ _ ____ _ ____ _ ____
 72
    65
 73
     4
 40
0.7087
 49
0.4724000000000001
 74
     0
 49
-0.0591
 74
     0
 49
0.1181
 74
     0
 49
-0.0591
 74
     0
  0
LTYPE
  5
7E
330
5
100
AcDbSymbolTableRecord
100
AcDbLinetypeTableRecord
  2
DASH_DOT
 70
     0
  3
Dash dot __ . __ . __ . __ . __ . __ . __ . __
 72
    65
 73
     4
 40
0.37
 49
0.24
 74
     0
 49
-0.06
 74
     0
 49
0.01
 74
     0
 49
-0.06
 74
     0
  0
LTYPE
  5
7F
330
5
100
AcDbSymbolTableRecord
100
AcDbLinetypeTableRecord
  2
DOUBLE_DASH_DOT
 70
     0
  3
Double-Dash Dot __ __ . __ __ . __ __ . __ _
 72
    65
 73
     6
 40
0.4398
 49
0.24
 74
     0
 49
-0.06
 74
     0
 49
0.0098
 74
     0
 49
-0.06
 74
     0
 49
0.01
 74
     0
 49
-0.06
 74
     0
  0
LTYPE
  5
80
330
5
100
AcDbSymbolTableRecord
100
AcDbLinetypeTableRecord
  2
DASH_TRIPLE_DOT
 70
     0
  3
Dash Triple-Dot _ . . . _ . . . _ . . . _
 72
    65
 73
     8
 40
0.51
 49
0.24
 74
     0
 49
-0.06
 74
     0
 49
0.01
 74
     0
 49
-0.06
 74
     0
 49
0.01
 74
     0
 49
-0.06
 74
     0
 49
0.01
 74
     0
 49
-0.06
 74
     0
  0
LTYPE
  5
81
330
5
100
AcDbSymbolTableRecord
100
AcDbLinetypeTableRecord
  2
DASHED
 70
     0
  3
Dashed __ __ __ __ __ __ __ __ __ __ __ __ __ _
 72
    65
 73
     2
 40
0.2067
 49
0.1654
 74
     0
 49
-0.0413
 74
     0
  0
LTYPE
  5
82
330
5
100
AcDbSymbolTableRecord
100
AcDbLinetypeTableRecord
  2
DASH_DOUBLE_DOT
 70
     0
  3
Dash Double-Dot __ . . __ . . __ . . __ . .
 72
    65
 73
     6
 40
0.4398
 49
0.24
 74
     0
 49
-0.06
 74
     0
 49
0.0098
 74
     0
 49
-0.06
 74
     0
 49
0.01
 74
     0
 49
-0.06
 74
     0
  0
LTYPE
  5
83
330
5
100
AcDbSymbolTableRecord
100
AcDbLinetypeTableRecord
  2
DASHED_SPACE
 70
     0
  3
Dashed Space __ __ __ __ __ __ __ __ __ __ __ _
 72
    65
 73
     2
 40
0.2067
 49
0.1654
 74
     0
 49
-0.0413
 74
     0
  0
LTYPE
  5
84
330
5
100
AcDbSymbolTableRecord
100
AcDbLinetypeTableRecord
  2
DOTTED
 70
     0
  3
Dotted . . . . . . . . . . . . . . . . . . . . 
 72
    65
 73
     2
 40
0.0482
 49
0.0069
 74
     0
 49
-0.0413
 74
     0
  0
LTYPE
  5
85
330
5
100
AcDbSymbolTableRecord
100
AcDbLinetypeTableRecord
  2
DOUBLE_DASH_CHAIN
 70
     0
  3
Double-Dash Chain ______  __  __  ______  __  _
 72
    65
 73
     6
 40
1.240299999999999
 49
0.6614
 74
     0
 49
-0.0827
 74
     0
 49
0.1654
 74
     0
 49
-0.0827
 74
     0
 49
0.1654
 74
     0
 49
-0.0827
 74
     0
  0
LTYPE
  5
87
330
5
100
AcDbSymbolTableRecord
100
AcDbLinetypeTableRecord
  2
DOUBLE_DASH_DOUBLE_DOT
 70
     0
  3
Double-Dash Double-dot _ _ . . _ _ . . _
 72
    65
 73
     8
 40
0.7400000000000001
 49
0.24
 74
     0
 49
-0.06
 74
     0
 49
0.24
 74
     0
 49
-0.06
 74
     0
 49
0.01
 74
     0
 49
-0.06
 74
     0
 49
0.01
 74
     0
 49
-0.06
 74
     0
  0
LTYPE
  5
88
330
5
100
AcDbSymbolTableRecord
100
AcDbLinetypeTableRecord
  2
DOUBLE_DASH_TRIPLE_DOT
 70
     0
  3
Double Dash Triple Dot __ __ . . . __ __ . .
 72
    65
 73
    10
 40
0.8100000000000001
 49
0.24
 74
     0
 49
-0.06
 74
     0
 49
0.24
 74
     0
 49
-0.06
 74
     0
 49
0.01
 74
     0
 49
-0.06
 74
     0
 49
0.01
 74
     0
 49
-0.06
 74
     0
 49
0.01
 74
     0
 49
-0.06
 74
     0
  0
LTYPE
  5
89
330
5
100
AcDbSymbolTableRecord
100
AcDbLinetypeTableRecord
  2
LONG_DASH_DOTTED
 70
     0
  3
Long Dash Dotted ____ . ____ . ____ . ____ . _
 72
    65
 73
     4
 40
0.3543
 49
0.2362
 74
     0
 49
-0.0295
 74
     0
 49
0.0591
 74
     0
 49
-0.0295
 74
     0
  0
LTYPE
  5
8A
330
5
100
AcDbSymbolTableRecord
100
AcDbLinetypeTableRecord
  2
LONG_DASH_DOUBLE_DOT
 70
     0
  3
Long Dash Double Dot ________  .  .  ________  
 72
    65
 73
     6
 40
0.6799999999999999
 49
0.48
 74
     0
 49
-0.06
 74
     0
 49
0.01
 74
     0
 49
-0.06
 74
     0
 49
0.01
 74
     0
 49
-0.06
 74
     0
  0
LTYPE
  5
8B
330
5
100
AcDbSymbolTableRecord
100
AcDbLinetypeTableRecord
  2
LONG_DASH_TRIPLE_DOT
 70
     0
  3
Long Dash Triple Dot ____ ... ____ ... ____
 72
    65
 73
     8
 40
0.3689
 49
0.2362
 74
     0
 49
-0.0295
 74
     0
 49
0.0049
 74
     0
 49
-0.0295
 74
     0
 49
0.0049
 74
     0
 49
-0.0295
 74
     0
 49
0.0049
 74
     0
 49
-0.0295
 74
     0
  0
LTYPE
  5
8C
330
5
100
AcDbSymbolTableRecord
100
AcDbLinetypeTableRecord
  2
BORDER
 70
     0
  3
Border __ __ . __ __ . __ __ . __ __ . __ __ .
 72
    65
 73
     6
 40
1.75
 49
0.5
 74
     0
 49
-0.25
 74
     0
 49
0.5
 74
     0
 49
-0.25
 74
     0
 49
0.0
 74
     0
 49
-0.25
 74
     0
  0
LTYPE
  5
8D
330
5
100
AcDbSymbolTableRecord
100
AcDbLinetypeTableRecord
  2
BORDER2
 70
     0
  3
Border (.5x) __.__.__.__.__.__.__.__.__.__.__.
 72
    65
 73
     6
 40
0.875
 49
0.25
 74
     0
 49
-0.125
 74
     0
 49
0.25
 74
     0
 49
-0.125
 74
     0
 49
0.0
 74
     0
 49
-0.125
 74
     0
  0
LTYPE
  5
8E
330
5
100
AcDbSymbolTableRecord
100
AcDbLinetypeTableRecord
  2
BORDERX2
 70
     0
  3
Border (2x) ____  ____  .  ____  ____  .  ___
 72
    65
 73
     6
 40
3.5
 49
1.0
 74
     0
 49
-0.5
 74
     0
 49
1.0
 74
     0
 49
-0.5
 74
     0
 49
0.0
 74
     0
 49
-0.5
 74
     0
  0
LTYPE
  5
8F
330
5
100
AcDbSymbolTableRecord
100
AcDbLinetypeTableRecord
  2
CENTER
 70
     0
  3
Center ____ _ ____ _ ____ _ ____ _ ____ _ ____
 72
    65
 73
     4
 40
2.0
 49
1.25
 74
     0
 49
-0.25
 74
     0
 49
0.25
 74
     0
 49
-0.25
 74
     0
  0
LTYPE
  5
90
330
5
100
AcDbSymbolTableRecord
100
AcDbLinetypeTableRecord
  2
CENTER2
 70
     0
  3
Center (.5x) ___ _ ___ _ ___ _ ___ _ ___ _ ___
 72
    65
 73
     4
 40
1.125
 49
0.75
 74
     0
 49
-0.125
 74
     0
 49
0.125
 74
     0
 49
-0.125
 74
     0
  0
LTYPE
  5
91
330
5
100
AcDbSymbolTableRecord
100
AcDbLinetypeTableRecord
  2
CENTERX2
 70
     0
  3
Center (2x) ________  __  ________  __  _____
 72
    65
 73
     4
 40
4.0
 49
2.5
 74
     0
 49
-0.5
 74
     0
 49
0.5
 74
     0
 49
-0.5
 74
     0
  0
LTYPE
  5
92
330
5
100
AcDbSymbolTableRecord
100
AcDbLinetypeTableRecord
  2
DASHDOT2
 70
     0
  3
Dash dot (.5x) _._._._._._._._._._._._._._._.
 72
    65
 73
     4
 40
0.5
 49
0.25
 74
     0
 49
-0.125
 74
     0
 49
0.0
 74
     0
 49
-0.125
 74
     0
  0
LTYPE
  5
93
330
5
100
AcDbSymbolTableRecord
100
AcDbLinetypeTableRecord
  2
DASHDOTX2
 70
     0
  3
Dash dot (2x) ____  .  ____  .  ____  .  ___
 72
    65
 73
     4
 40
2.0
 49
1.0
 74
     0
 49
-0.5
 74
     0
 49
0.0
 74
     0
 49
-0.5
 74
     0
  0
LTYPE
  5
95
330
5
100
AcDbSymbolTableRecord
100
AcDbLinetypeTableRecord
  2
DASHED2
 70
     0
  3
Dashed (.5x) _ _ _ _ _ _ _ _ _ _ _ _ _ _ _ _ _
 72
    65
 73
     2
 40
0.375
 49
0.25
 74
     0
 49
-0.125
 74
     0
  0
LTYPE
  5
96
330
5
100
AcDbSymbolTableRecord
100
AcDbLinetypeTableRecord
  2
DASHEDX2
 70
     0
  3
Dashed (2x) ____  ____  ____  ____  ____  ___
 72
    65
 73
     2
 40
1.5
 49
1.0
 74
     0
 49
-0.5
 74
     0
  0
LTYPE
  5
97
330
5
100
AcDbSymbolTableRecord
100
AcDbLinetypeTableRecord
  2
DIVIDE
 70
     0
  3
Divide ____ . . ____ . . ____ . . ____ . . ____
 72
    65
 73
     6
 40
1.25
 49
0.5
 74
     0
 49
-0.25
 74
     0
 49
0.0
 74
     0
 49
-0.25
 74
     0
 49
0.0
 74
     0
 49
-0.25
 74
     0
  0
LTYPE
  5
98
330
5
100
AcDbSymbolTableRecord
100
AcDbLinetypeTableRecord
  2
DIVIDE2
 70
     0
  3
Divide (.5x) __..__..__..__..__..__..__..__.._
 72
    65
 73
     6
 40
0.625
 49
0.25
 74
     0
 49
-0.125
 74
     0
 49
0.0
 74
     0
 49
-0.125
 74
     0
 49
0.0
 74
     0
 49
-0.125
 74
     0
  0
LTYPE
  5
99
330
5
100
AcDbSymbolTableRecord
100
AcDbLinetypeTableRecord
  2
DIVIDEX2
 70
     0
  3
Divide (2x) ________  .  .  ________  .  .  _
 72
    65
 73
     6
 40
2.5
 49
1.0
 74
     0
 49
-0.5
 74
     0
 49
0.0
 74
     0
 49
-0.5
 74
     0
 49
0.0
 74
     0
 49
-0.5
 74
     0
  0
LTYPE
  5
9A
330
5
100
AcDbSymbolTableRecord
100
AcDbLinetypeTableRecord
  2
DOT
 70
     0
  3
Dot . . . . . . . . . . . . . . . . . . . . . .
 72
    65
 73
     2
 40
0.25
 49
0.0
 74
     0
 49
-0.25
 74
     0
  0
LTYPE
  5
9B
330
5
100
AcDbSymbolTableRecord
100
AcDbLinetypeTableRecord
  2
DOT2
 70
     0
  3
Dot (.5x) .....................................
 72
    65
 73
     2
 40
0.125
 49
0.0
 74
     0
 49
-0.125
 74
     0
  0
LTYPE
  5
9C
330
5
100
AcDbSymbolTableRecord
100
AcDbLinetypeTableRecord
  2
DOTX2
 70
     0
  3
Dot (2x) .  .  .  .  .  .  .  .  .  .  .  .  . 
 72
    65
 73
     2
 40
0.5
 49
0.0
 74
     0
 49
-0.5
 74
     0
  0
LTYPE
  5
9D
330
5
100
AcDbSymbolTableRecord
100
AcDbLinetypeTableRecord
  2
HIDDEN
 70
     0
  3
Hidden __ __ __ __ __ __ __ __ __ __ __ __ __ _
 72
    65
 73
     2
 40
0.375
 49
0.25
 74
     0
 49
-0.125
 74
     0
  0
LTYPE
  5
9E
330
5
100
AcDbSymbolTableRecord
100
AcDbLinetypeTableRecord
  2
HIDDEN2
 70
     0
  3
Hidden (.5x) _ _ _ _ _ _ _ _ _ _ _ _ _ _ _ _ _
 72
    65
 73
     2
 40
0.1875
 49
0.125
 74
     0
 49
-0.0625
 74
     0
  0
LTYPE
  5
9F
330
5
100
AcDbSymbolTableRecord
100
AcDbLinetypeTableRecord
  2
HIDDENX2
 70
     0
  3
Hidden (2x) ____ ____ ____ ____ ____ ____ ____
 72
    65
 73
     2
 40
0.75
 49
0.5
 74
     0
 49
-0.25
 74
     0
  0
LTYPE
  5
A0
330
5
100
AcDbSymbolTableRecord
100
AcDbLinetypeTableRecord
  2
PHANTOM
 70
     0
  3
Phantom ______  __  __  ______  __  __  ______
 72
    65
 73
     6
 40
2.5
 49
1.25
 74
     0
 49
-0.25
 74
     0
 49
0.25
 74
     0
 49
-0.25
 74
     0
 49
0.25
 74
     0
 49
-0.25
 74
     0
  0
LTYPE
  5
A1
330
5
100
AcDbSymbolTableRecord
100
AcDbLinetypeTableRecord
  2
PHANTOM2
 70
     0
  3
Phantom (.5x) ___ _ _ ___ _ _ ___ _ _ ___ _ _
 72
    65
 73
     6
 40
1.25
 49
0.625
 74
     0
 49
-0.125
 74
     0
 49
0.125
 74
     0
 49
-0.125
 74
     0
 49
0.125
 74
     0
 49
-0.125
 74
     0
  0
LTYPE
  5
A2
330
5
100
AcDbSymbolTableRecord
100
AcDbLinetypeTableRecord
  2
PHANTOMX2
 70
     0
  3
Phantom (2x) ____________    ____    ____   _
 72
    65
 73
     6
 40
5.0
 49
2.5
 74
     0
 49
-0.5
 74
     0
 49
0.5
 74
     0
 49
-0.5
 74
     0
 49
0.5
 74
     0
 49
-0.5
 74
     0
  0
LTYPE
  5
A3
330
5
100
AcDbSymbolTableRecord
100
AcDbLinetypeTableRecord
  2
ACAD_ISO02W100
 70
     0
  3
ISO dash __ __ __ __ __ __ __ __ __ __ __ __ __
 72
    65
 73
     2
 40
0.59
 49
0.47
 74
     0
 49
-0.12
 74
     0
  0
LTYPE
  5
A4
330
5
100
AcDbSymbolTableRecord
100
AcDbLinetypeTableRecord
  2
ACAD_ISO03W100
 70
     0
  3
ISO dash space __    __    __    __    __    __
 72
    65
 73
     2
 40
1.179999999999999
 49
0.47
 74
     0
 49
-0.71
 74
     0
  0
LTYPE
  5
A5
330
5
100
AcDbSymbolTableRecord
100
AcDbLinetypeTableRecord
  2
ACAD_ISO04W100
 70
     0
  3
ISO long-dash dot ____ . ____ . ____ . ____ . _
 72
    65
 73
     4
 40
1.179999999999999
 49
0.9399999999999998
 74
     0
 49
-0.12
 74
     0
 49
0.0
 74
     0
 49
-0.12
 74
     0
  0
LTYPE
  5
A6
330
5
100
AcDbSymbolTableRecord
100
AcDbLinetypeTableRecord
  2
ACAD_ISO05W100
 70
     0
  3
ISO long-dash double-dot ____ .. ____ .. ____ .
 72
    65
 73
     6
 40
1.299999999999999
 49
0.9399999999999998
 74
     0
 49
-0.12
 74
     0
 49
0.0
 74
     0
 49
-0.12
 74
     0
 49
0.0
 74
     0
 49
-0.12
 74
     0
  0
LTYPE
  5
A7
330
5
100
AcDbSymbolTableRecord
100
AcDbLinetypeTableRecord
  2
ACAD_ISO06W100
 70
     0
  3
ISO long-dash triple-dot ____ ... ____ ... ____
 72
    65
 73
     8
 40
1.419999999999999
 49
0.9399999999999998
 74
     0
 49
-0.12
 74
     0
 49
0.0
 74
     0
 49
-0.12
 74
     0
 49
0.0
 74
     0
 49
-0.12
 74
     0
 49
0.0
 74
     0
 49
-0.12
 74
     0
  0
LTYPE
  5
A8
330
5
100
AcDbSymbolTableRecord
100
AcDbLinetypeTableRecord
  2
ACAD_ISO07W100
 70
     0
  3
ISO dot . . . . . . . . . . . . . . . . . . . .
 72
    65
 73
     2
 40
0.12
 49
0.0
 74
     0
 49
-0.12
 74
     0
  0
LTYPE
  5
A9
330
5
100
AcDbSymbolTableRecord
100
AcDbLinetypeTableRecord
  2
ACAD_ISO08W100
 70
     0
  3
ISO long-dash short-dash ____ __ ____ __ ____ _
 72
    65
 73
     4
 40
0.95
 49
0.47
 74
     0
 49
-0.12
 74
     0
 49
0.24
 74
     0
 49
-0.12
 74
     0
  0
LTYPE
  5
AA
330
5
100
AcDbSymbolTableRecord
100
AcDbLinetypeTableRecord
  2
ACAD_ISO09W100
 70
     0
  3
ISO long-dash double-short-dash ____ __ __ ____
 72
    65
 73
     6
 40
1.31
 49
0.47
 74
     0
 49
-0.12
 74
     0
 49
0.24
 74
     0
 49
-0.12
 74
     0
 49
0.24
 74
     0
 49
-0.12
 74
     0
  0
LTYPE
  5
AB
330
5
100
AcDbSymbolTableRecord
100
AcDbLinetypeTableRecord
  2
ACAD_ISO10W100
 70
     0
  3
ISO dash dot __ . __ . __ . __ . __ . __ . __ .
 72
    65
 73
     4
 40
0.71
 49
0.47
 74
     0
 49
-0.12
 74
     0
 49
0.0
 74
     0
 49
-0.12
 74
     0
  0
LTYPE
  5
AC
330
5
100
AcDbSymbolTableRecord
100
AcDbLinetypeTableRecord
  2
ACAD_ISO11W100
 70
     0
  3
ISO double-dash dot __ __ . __ __ . __ __ . __ 
 72
    65
 73
     6
 40
1.299999999999999
 49
0.47
 74
     0
 49
-0.12
 74
     0
 49
0.47
 74
     0
 49
-0.12
 74
     0
 49
0.0
 74
     0
 49
-0.12
 74
     0
  0
LTYPE
  5
AD
330
5
100
AcDbSymbolTableRecord
100
AcDbLinetypeTableRecord
  2
ACAD_ISO12W100
 70
     0
  3
ISO dash double-dot __ . . __ . . __ . . __ . .
 72
    65
 73
     6
 40
0.8299999999999998
 49
0.47
 74
     0
 49
-0.12
 74
     0
 49
0.0
 74
     0
 49
-0.12
 74
     0
 49
0.0
 74
     0
 49
-0.12
 74
     0
  0
LTYPE
  5
AE
330
5
100
AcDbSymbolTableRecord
100
AcDbLinetypeTableRecord
  2
ACAD_ISO13W100
 70
     0
  3
ISO double-dash double-dot __ __ . . __ __ . . 
 72
    65
 73
     8
 40
1.419999999999999
 49
0.47
 74
     0
 49
-0.12
 74
     0
 49
0.47
 74
     0
 49
-0.12
 74
     0
 49
0.0
 74
     0
 49
-0.12
 74
     0
 49
0.0
 74
     0
 49
-0.12
 74
     0
  0
LTYPE
  5
AF
330
5
100
AcDbSymbolTableRecord
100
AcDbLinetypeTableRecord
  2
ACAD_ISO14W100
 70
     0
  3
ISO dash triple-dot __ . . . __ . . . __ . . . 
 72
    65
 73
     8
 40
0.95
 49
0.47
 74
     0
 49
-0.12
 74
     0
 49
0.0
 74
     0
 49
-0.12
 74
     0
 49
0.0
 74
     0
 49
-0.12
 74
     0
 49
0.0
 74
     0
 49
-0.12
 74
     0
  0
LTYPE
  5
B0
330
5
100
AcDbSymbolTableRecord
100
AcDbLinetypeTableRecord
  2
ACAD_ISO15W100
 70
     0
  3
ISO double-dash triple-dot __ __ . . . __ __ . 
 72
    65
 73
    10
 40
1.539999999999999
 49
0.47
 74
     0
 49
-0.12
 74
     0
 49
0.47
 74
     0
 49
-0.12
 74
     0
 49
0.0
 74
     0
 49
-0.12
 74
     0
 49
0.0
 74
     0
 49
-0.12
 74
     0
 49
0.0
 74
     0
 49
-0.12
 74
     0
  0
LTYPE
  5
B3
330
5
100
AcDbSymbolTableRecord
100
AcDbLinetypeTableRecord
  2
FENCELINE1
 70
     0
  3
Fenceline circle ----0-----0----0-----0----0---
 72
    65
 73
     4
 40
1.45
 49
0.25
 74
     0
 49
-0.1
 74
     4
 75
   133
340
B2
 46
0.1
 50
0.0
 44
-0.1
 45
0.0
 49
-0.1
 74
     0
 49
1.0
 74
     0
  0
LTYPE
  5
B4
330
5
100
AcDbSymbolTableRecord
100
AcDbLinetypeTableRecord
  2
FENCELINE2
 70
     0
  3
Fenceline square ----[]-----[]----[]-----[]----
 72
    65
 73
     4
 40
1.45
 49
0.25
 74
     0
 49
-0.1
 74
     4
 75
   132
340
B2
 46
0.1
 50
0.0
 44
-0.1
 45
0.0
 49
-0.1
 74
     0
 49
1.0
 74
     0
  0
LTYPE
  5
B5
330
5
100
AcDbSymbolTableRecord
100
AcDbLinetypeTableRecord
  2
TRACKS
 70
     0
  3
Tracks -|-|-|-|-|-|-|-|-|-|-|-|-|-|-|-|-|-|-|-|
 72
    65
 73
     2
 40
0.3
 49
0.15
 74
     4
 75
   130
340
B2
 46
0.25
 50
0.0
 44
0.0
 45
0.0
 49
0.15
 74
     0
  0
LTYPE
  5
B6
330
5
100
AcDbSymbolTableRecord
100
AcDbLinetypeTableRecord
  2
BATTING
 70
     0
  3
Batting SSSSSSSSSSSSSSSSSSSSSSSSSSSSSSSSSSSSSSS
 72
    65
 73
     4
 40
0.4001000000000001
 49
0.0001
 74
     0
 49
-0.1
 74
     4
 75
   134
340
B2
 46
0.1
 50
0.0
 44
-0.1
 45
0.0
 49
-0.2
 74
     4
 75
   134
340
B2
 46
0.1
 50
180.0
 44
0.1
 45
0.0
 49
-0.1
 74
     0
  0
LTYPE
  5
B7
330
5
100
AcDbSymbolTableRecord
100
AcDbLinetypeTableRecord
  2
HOT_WATER_SUPPLY
 70
     0
  3
Hot water supply ---- HW ---- HW ---- HW ----
 72
    65
 73
     3
 40
0.9
 49
0.5
 74
     0
 49
-0.2
 74
     2
 75
     0
340
55
 46
0.1
 50
0.0
 44
-0.1
 45
-0.05
  9
HW
 49
-0.2
 74
     0
  0
LTYPE
  5
B8
330
5
100
AcDbSymbolTableRecord
100
AcDbLinetypeTableRecord
  2
GAS_LINE
 70
     0
  3
Gas line ----GAS----GAS----GAS----GAS----GAS---
 72
    65
 73
     3
 40
0.95
 49
0.5
 74
     0
 49
-0.2
 74
     2
 75
     0
340
55
 46
0.1
 50
0.0
 44
-0.1
 45
-0.05
  9
GAS
 49
-0.25
 74
     0
  0
LTYPE
  5
B9
330
5
100
AcDbSymbolTableRecord
100
AcDbLinetypeTableRecord
  2
ZIGZAG
 70
     0
  3
Zig zag /\/\/\/\/\/\/\/\/\/\/\/\/\/\/\/\/\/\/\/
 72
    65
 73
     4
 40
0.8001000000000001
 49
0.0001
 74
     0
 49
-0.2
 74
     4
 75
   131
340
B2
 46
0.2
 50
0.0
 44
-0.2
 45
0.0
 49
-0.4
 74
     4
 75
   131
340
B2
 46
0.2
 50
180.0
 44
0.2
 45
0.0
 49
-0.2
 74
     0
  0
ENDTAB
  0
TABLE
  2
LAYER
  5
2
330
0
100
AcDbSymbolTable
 70
     4
  0
LAYER
  5
54
330
2
100
AcDbSymbolTableRecord
100
AcDbLayerTableRecord
  2
0
 70
     0
 62
     7
  6
Continuous
370
    -3
390
F
  0
LAYER
  5
BE
330
2
100
AcDbSymbolTableRecord
100
AcDbLayerTableRecord
  2
Border (ANSI)
 70
     0
 62
     7
  6
Continuous
370
    25
390
F
  0
LAYER
  5
D0
330
2
100
AcDbSymbolTableRecord
100
AcDbLayerTableRecord
  2
Visible (ANSI)
 70
     0
 62
     7
  6
Continuous
370
    18
390
F
  0
LAYER
  5
D1
330
2
100
AcDbSymbolTableRecord
100
AcDbLayerTableRecord
  2
Visible Narrow (ANSI)
 70
     0
 62
     7
  6
Continuous
370
     9
390
F
  0
ENDTAB
  0
TABLE
  2
STYLE
  5
3
330
0
100
AcDbSymbolTable
 70
     5
  0
STYLE
  5
55
330
3
100
AcDbSymbolTableRecord
100
AcDbTextStyleTableRecord
  2
Standard
 70
     0
 40
0.0
 41
0.899999976158142
 50
0.0
 71
     0
 42
0.2
  3
txt
  4

  0
STYLE
  5
5A
330
3
100
AcDbSymbolTableRecord
100
AcDbTextStyleTableRecord
  2
Annotative
 70
     0
 40
0.0
 41
1.0
 50
0.0
 71
     0
 42
0.2
  3
txt
  4

1001
AcadAnnotative
1000
AnnotativeData
1002
{
1070
     1
1070
     1
1002
}
  0
STYLE
  5
B2
330
3
100
AcDbSymbolTableRecord
100
AcDbTextStyleTableRecord
  2

 70
     1
 40
0.0
 41
1.0
 50
0.0
 71
     0
 42
0.2
  3
ltypeshp.shx
  4

  0
STYLE
  5
D5
330
3
100
AcDbSymbolTableRecord
100
AcDbTextStyleTableRecord
  2
Label Text (ANSI)
 70
     0
 40
0.0
 41
0.899999976158142
 50
0.0
 71
     0
 42
0.2
  3
txt_IV25.ttf
  4

1001
ACAD
1000
Txt_IV25
1071
      256
  0
STYLE
  5
D6
330
3
100
AcDbSymbolTableRecord
100
AcDbTextStyleTableRecord
  2
Note Text (ANSI)
 70
     0
 40
0.0
 41
0.899999976158142
 50
0.0
 71
     0
 42
0.2
  3
txt_IV25.ttf
  4

1001
ACAD
1000
Txt_IV25
1071
      256
  0
ENDTAB
  0
TABLE
  2
VIEW
  5
6
330
0
100
AcDbSymbolTable
 70
     0
  0
ENDTAB
  0
TABLE
  2
UCS
  5
7
330
0
100
AcDbSymbolTable
 70
     0
  0
ENDTAB
  0
TABLE
  2
APPID
  5
9
330
0
100
AcDbSymbolTable
 70
     4
  0
APPID
  5
56
330
9
100
AcDbSymbolTableRecord
100
AcDbRegAppTableRecord
  2
ACAD
 70
     0
  0
APPID
  5
5E
330
9
100
AcDbSymbolTableRecord
100
AcDbRegAppTableRecord
  2
AcadAnnotative
 70
     0
  0
APPID
  5
233
330
9
100
AcDbSymbolTableRecord
100
AcDbRegAppTableRecord
  2
ACAD_MLEADERVER
 70
     0
  0
APPID
  5
24B
330
9
100
AcDbSymbolTableRecord
100
AcDbRegAppTableRecord
  2
ACAD_NAV_VCDISPLAY
 70
     0
  0
ENDTAB
  0
TABLE
  2
DIMSTYLE
  5
A
330
0
100
AcDbSymbolTable
 70
    17
100
AcDbDimStyleTable
 71
     0
  0
DIMSTYLE
105
58
330
A
100
AcDbSymbolTableRecord
100
AcDbDimStyleTableRecord
  2
Standard
 70
     0
340
55
  0
DIMSTYLE
105
59
330
A
100
AcDbSymbolTableRecord
100
AcDbDimStyleTableRecord
  2
Annotative
 70
     0
340
55
1001
AcadAnnotative
1000
AnnotativeData
1002
{
1070
     1
1070
     1
1002
}
  0
DIMSTYLE
105
D7
330
A
100
AcDbSymbolTableRecord
100
AcDbDimStyleTableRecord
  2
Architectural (ANSI)
 70
     0
 41
0.0984251946210861
 43
0.2362204724409449
 44
0.125
 45
0.00000001
 46
0.3937007874015748
 78
     3
 79
     3
140
0.0899999961256981
146
1.333333492279052
147
0.031496062992126
171
     1
176
   256
177
   256
178
     5
272
     2
274
     1
276
     2
277
     4
284
    12
285
     4
286
    12
340
D6
371
    -1
372
    -1
  0
DIMSTYLE
105
D8
330
A
100
AcDbSymbolTableRecord
100
AcDbDimStyleTableRecord
  2
Architectural (ANSI)$7
 70
     0
 41
0.0984251946210861
 43
0.2362204724409449
 44
0.125
 45
0.00000001
 46
0.3937007874015748
 78
     3
 79
     3
140
0.0899999961256981
146
1.333333492279052
147
0.031496062992126
171
     1
176
     5
177
   256
178
     5
272
     2
274
     1
276
     2
277
     4
284
    12
285
     4
286
    12
340
D6
371
    -1
372
    -1
  0
DIMSTYLE
105
D9
330
A
100
AcDbSymbolTableRecord
100
AcDbDimStyleTableRecord
  2
Default - Fraction (ANSI)
 70
     0
 41
0.0984251946210861
 43
0.2362204724409449
 44
0.125
 45
0.00000001
 46
0.3937007874015748
 79
     3
140
0.0899999961256981
146
1.333333492279052
147
0.031496062992126
171
     1
176
   256
177
   256
178
     5
272
     2
274
     1
276
     2
277
     5
284
    12
285
     4
286
    12
340
D6
371
    -1
372
    -1
  0
DIMSTYLE
105
DA
330
A
100
AcDbSymbolTableRecord
100
AcDbDimStyleTableRecord
  2
Default - Fraction (ANSI)$7
 70
     0
 41
0.0984251946210861
 43
0.2362204724409449
 44
0.125
 45
0.00000001
 46
0.3937007874015748
 79
     3
140
0.0899999961256981
146
1.333333492279052
147
0.031496062992126
171
     1
176
     5
177
   256
178
     5
272
     2
274
     1
276
     2
277
     5
284
    12
285
     4
286
    12
340
D6
371
    -1
372
    -1
  0
DIMSTYLE
105
DB
330
A
100
AcDbSymbolTableRecord
100
AcDbDimStyleTableRecord
  2
Default - mm (ANSI)
 70
     0
 41
0.0984251946210861
 42
0.063
 43
0.2362204724409449
 44
0.125
 45
0.00000001
 46
0.3937007874015748
 73
     0
 78
     4
 79
     1
140
0.0899999961256981
143
1.0
144
25.4
146
1.333333492279052
147
0.031496062992126
171
     1
176
   256
177
   256
178
     5
179
     1
271
     2
272
     2
274
     1
284
     4
285
     4
340
D6
371
    -1
372
    -1
  0
DIMSTYLE
105
DC
330
A
100
AcDbSymbolTableRecord
100
AcDbDimStyleTableRecord
  2
Default - mm (ANSI)$7
 70
     0
 41
0.0984251946210861
 42
0.063
 43
0.2362204724409449
 44
0.125
 45
0.00000001
 46
0.3937007874015748
 73
     0
 78
     4
 79
     1
140
0.0899999961256981
143
1.0
144
25.4
146
1.333333492279052
147
0.031496062992126
171
     1
176
     5
177
   256
178
     5
179
     1
271
     2
272
     2
274
     1
284
     4
285
     4
340
D6
371
    -1
372
    -1
  0
DIMSTYLE
105
DD
330
A
100
AcDbSymbolTableRecord
100
AcDbDimStyleTableRecord
  2
Default - mm [in] (ANSI)
 70
     0
  4
 in
 41
0.0984251946210861
 42
0.063
 43
0.25
 44
0.125
 45
0.00000001
 46
0.3937007874015748
 73
     0
 78
     4
 79
     1
140
0.0899999961256981
143
0.03937
144
25.4
146
1.333333492279052
147
0.031496062992126
170
     1
171
     3
176
   256
177
   256
178
     5
179
     1
271
     2
272
     2
274
     3
284
     4
285
     4
286
     4
340
D6
371
    -1
372
    -1
  0
DIMSTYLE
105
DE
330
A
100
AcDbSymbolTableRecord
100
AcDbDimStyleTableRecord
  2
Default - mm [in] (ANSI)$7
 70
     0
  4
 in
 41
0.0984251946210861
 42
0.063
 43
0.25
 44
0.125
 45
0.00000001
 46
0.3937007874015748
 73
     0
 78
     4
 79
     1
140
0.0899999961256981
143
0.03937
144
25.4
146
1.333333492279052
147
0.031496062992126
170
     1
171
     3
176
     5
177
   256
178
     5
179
     1
271
     2
272
     2
274
     3
284
     4
285
     4
286
     4
340
D6
371
    -1
372
    -1
  0
DIMSTYLE
105
DF
330
A
100
AcDbSymbolTableRecord
100
AcDbDimStyleTableRecord
  2
Default (ANSI)
 70
     0
 41
0.0984251946210861
 43
0.2362204724409449
 44
0.125
 45
0.00000001
 46
0.3937007874015748
 78
     4
 79
     1
140
0.0899999961256981
146
1.333333492279052
147
0.031496062992126
171
     1
176
   256
177
   256
178
     5
271
     2
272
     2
274
     1
284
     4
285
     4
340
D6
371
    -1
372
    -1
  0
DIMSTYLE
105
E0
330
A
100
AcDbSymbolTableRecord
100
AcDbDimStyleTableRecord
  2
Default (ANSI)$7
 70
     0
 41
0.0984251946210861
 43
0.2362204724409449
 44
0.125
 45
0.00000001
 46
0.3937007874015748
 78
     4
 79
     1
140
0.0899999961256981
146
1.333333492279052
147
0.031496062992126
171
     1
176
     5
177
   256
178
     5
271
     2
272
     2
274
     1
284
     4
285
     4
340
D6
371
    -1
372
    -1
  0
DIMSTYLE
105
E1
330
A
100
AcDbSymbolTableRecord
100
AcDbDimStyleTableRecord
  2
SST-STANDARD DIMENSIONS - DECIMAL
 70
     0
 41
0.0984251946210861
 43
0.2362204724409449
 44
0.062
 45
0.00000001
 46
0.3937007874015748
140
0.0899999961256981
147
0.031496062992126
171
     1
176
     5
177
     5
178
     5
179
     1
271
     3
272
     3
274
     1
286
    12
340
D6
371
     9
372
     9
  0
DIMSTYLE
105
E2
330
A
100
AcDbSymbolTableRecord
100
AcDbDimStyleTableRecord
  2
SST-STANDARD DIMENSIONS - DECIMAL$7
 70
     0
 41
0.0984251946210861
 43
0.2362204724409449
 44
0.062
 45
0.00000001
 46
0.3937007874015748
140
0.0899999961256981
147
0.031496062992126
171
     1
176
     5
177
     5
178
     5
179
     1
271
     3
272
     3
274
     1
286
    12
340
D6
371
    -1
372
     9
  0
DIMSTYLE
105
E3
330
A
100
AcDbSymbolTableRecord
100
AcDbDimStyleTableRecord
  2
Alternate (ANSI)
 70
     0
 41
0.0979999974370003
340
55
342
E4
  0
DIMSTYLE
105
F6
330
A
100
AcDbSymbolTableRecord
100
AcDbDimStyleTableRecord
  2
Datum (ANSI)
 70
     0
 41
0.0979999974370003
340
55
342
E4
  0
DIMSTYLE
105
105
330
A
100
AcDbSymbolTableRecord
100
AcDbDimStyleTableRecord
  2
Large (ANSI)
 70
     0
 41
0.1959999948740005
340
55
342
E4
  0
ENDTAB
  0
TABLE
  2
BLOCK_RECORD
  5
1
330
0
100
AcDbSymbolTable
 70
     5
  0
BLOCK_RECORD
  5
6C
330
1
100
AcDbSymbolTableRecord
100
AcDbBlockTableRecord
  2
*Model_Space
340
6F
  0
BLOCK_RECORD
  5
68
330
1
100
AcDbSymbolTableRecord
100
AcDbBlockTableRecord
  2
*Paper_Space
340
6B
  0
BLOCK_RECORD
  5
70
330
1
100
AcDbSymbolTableRecord
100
AcDbBlockTableRecord
  2
*Paper_Space0
340
73
  0
BLOCK_RECORD
  5
E4
330
1
100
AcDbSymbolTableRecord
100
AcDbBlockTableRecord
  2
_Closed
340
0
  0
BLOCK_RECORD
  5
EB
330
1
100
AcDbSymbolTableRecord
100
AcDbBlockTableRecord
  2
DatumFilled45
340
0
  0
BLOCK_RECORD
  5
F7
330
1
100
AcDbSymbolTableRecord
100
AcDbBlockTableRecord
  2
Filled-1
340
0
  0
BLOCK_RECORD
  5
106
330
1
100
AcDbSymbolTableRecord
100
AcDbBlockTableRecord
  2
Borders SST-LAND
340
0
102
{BLKREFS
331
10D
102
}
  0
ENDTAB
  0
ENDSEC
  0
SECTION
  2
BLOCKS
  0
BLOCK
  5
6D
330
6C
100
AcDbEntity
  8
0
100
AcDbBlockBegin
  2
*Model_Space
 70
     0
 10
0.0
 20
0.0
 30
0.0
  3
*Model_Space
  1

  0
ENDBLK
  5
6E
330
6C
100
AcDbEntity
  8
0
100
AcDbBlockEnd
  0
BLOCK
  5
69
330
68
100
AcDbEntity
 67
     1
  8
0
100
AcDbBlockBegin
  2
*Paper_Space
 70
     0
 10
0.0
 20
0.0
 30
0.0
  3
*Paper_Space
  1

  0
ENDBLK
  5
6A
330
68
100
AcDbEntity
 67
     1
  8
0
100
AcDbBlockEnd
  0
BLOCK
  5
71
330
70
100
AcDbEntity
 67
     1
  8
0
100
AcDbBlockBegin
  2
*Paper_Space0
 70
     0
 10
0.0
 20
0.0
 30
0.0
  3
*Paper_Space0
  1

  0
ENDBLK
  5
72
330
70
100
AcDbEntity
 67
     1
  8
0
100
AcDbBlockEnd
  0
BLOCK
  5
E9
330
E4
100
AcDbEntity
  8
0
100
AcDbBlockBegin
  2
_Closed
 70
     0
 10
0.0
 20
0.0
 30
0.0
  3
_Closed
  1

  0
LINE
  5
E5
330
E4
100
AcDbEntity
  8
0
  6
ByBlock
 62
     0
370
    -2
100
AcDbLine
 10
-1.0
 20
0.1666666666666666
 30
0.0
 11
0.0
 21
0.0
 31
0.0
  0
LINE
  5
E6
330
E4
100
AcDbEntity
  8
0
  6
ByBlock
 62
     0
370
    -2
100
AcDbLine
 10
0.0
 20
0.0
 30
0.0
 11
-1.0
 21
-0.1666666666666666
 31
0.0
  0
LINE
  5
E7
330
E4
100
AcDbEntity
  8
0
  6
ByBlock
 62
     0
370
    -2
100
AcDbLine
 10
-1.0
 20
0.1666666666666666
 30
0.0
 11
-1.0
 21
-0.1666666666666666
 31
0.0
  0
LINE
  5
E8
330
E4
100
AcDbEntity
  8
0
  6
ByBlock
 62
     0
370
    -2
100
AcDbLine
 10
0.0
 20
0.0
 30
0.0
 11
-1.0
 21
0.0
 31
0.0
  0
ENDBLK
  5
EA
330
E4
100
AcDbEntity
  8
0
100
AcDbBlockEnd
  0
BLOCK
  5
EC
330
EB
100
AcDbEntity
  8
0
100
AcDbBlockBegin
  2
DatumFilled45
 70
     0
 10
0.0
 20
0.0
 30
0.0
  3
DatumFilled45
  1

  0
POLYLINE
  5
EE
330
EB
100
AcDbEntity
  8
0
 62
     0
100
AcDb2dPolyline
 66
     1
 10
0.0
 20
0.0
 30
0.0
 70
   128
  0
VERTEX
  5
EF
330
EE
100
AcDbEntity
  8
0
 62
     0
100
AcDbVertex
100
AcDb2dVertex
 10
0.0
 20
0.9999999999999998
 30
0.0
  0
VERTEX
  5
F0
330
EE
100
AcDbEntity
  8
0
 62
     0
100
AcDbVertex
100
AcDb2dVertex
 10
0.0
 20
-0.9999999999999998
 30
0.0
  0
VERTEX
  5
F2
330
EE
100
AcDbEntity
  8
0
 62
     0
100
AcDbVertex
100
AcDb2dVertex
 10
-0.9999999999999998
 20
0.0
 30
0.0
  0
VERTEX
  5
F3
330
EE
100
AcDbEntity
  8
0
 62
     0
100
AcDbVertex
100
AcDb2dVertex
 10
0.0
 20
0.9999999999999998
 30
0.0
  0
SEQEND
  5
F1
330
EE
100
AcDbEntity
  8
0
 62
     0
  0
SOLID
  5
F5
330
EB
100
AcDbEntity
  8
0
 62
     0
100
AcDbTrace
 10
0.0
 20
0.9999999999999998
 30
0.0
 11
0.0
 21
-0.9999999999999998
 31
0.0
 12
-0.9999999999999998
 22
0.0
 32
0.0
 13
0.0
 23
0.9999999999999998
 33
0.0
  0
ENDBLK
  5
ED
330
EB
100
AcDbEntity
  8
0
100
AcDbBlockEnd
  0
BLOCK
  5
F8
330
F7
100
AcDbEntity
  8
0
100
AcDbBlockBegin
  2
Filled-1
 70
     0
 10
0.0
 20
0.0
 30
0.0
  3
Filled-1
  1

  0
LINE
  5
FA
330
F7
100
AcDbEntity
  8
0
 62
     0
100
AcDbLine
 10
-0.9999999999999998
 20
0.0
 30
0.0
 11
0.0
 21
0.0
 31
0.0
  0
POLYLINE
  5
FB
330
F7
100
AcDbEntity
  8
0
 62
     0
100
AcDb2dPolyline
 66
     1
 10
0.0
 20
0.0
 30
0.0
 70
   128
  0
VERTEX
  5
FC
330
FB
100
AcDbEntity
  8
0
 62
     0
100
AcDbVertex
100
AcDb2dVertex
 10
-0.9999999999999998
 20
-0.0994897959183674
 30
0.0
  0
VERTEX
  5
FD
330
FB
100
AcDbEntity
  8
0
 62
     0
100
AcDbVertex
100
AcDb2dVertex
 10
0.0
 20
0.0
 30
0.0
  0
VERTEX
  5
FF
330
FB
100
AcDbEntity
  8
0
 62
     0
100
AcDbVertex
100
AcDb2dVertex
 10
-0.9999999999999998
 20
0.0994897959183674
 30
0.0
  0
VERTEX
  5
100
330
FB
100
AcDbEntity
  8
0
 62
     0
100
AcDbVertex
100
AcDb2dVertex
 10
-0.9999999999999998
 20
-0.0994897959183674
 30
0.0
  0
SEQEND
  5
FE
330
FB
100
AcDbEntity
  8
0
 62
     0
  0
SOLID
  5
101
330
F7
100
AcDbEntity
  8
0
 62
     0
100
AcDbTrace
 10
-0.9999999999999998
 20
-0.0994897959183674
 30
0.0
 11
0.0
 21
0.0
 31
0.0
 12
-0.9999999999999998
 22
0.0994897959183674
 32
0.0
 13
-0.9999999999999998
 23
-0.0994897959183674
 33
0.0
  0
LINE
  5
102
330
F7
100
AcDbEntity
  8
0
 62
     0
100
AcDbLine
 10
-0.9999999999999998
 20
-0.0994897959183674
 30
0.0
 11
0.0
 21
0.0
 31
0.0
  0
LINE
  5
103
330
F7
100
AcDbEntity
  8
0
 62
     0
100
AcDbLine
 10
0.0
 20
0.0
 30
0.0
 11
-0.9999999999999998
 21
0.0994897959183674
 31
0.0
  0
LINE
  5
104
330
F7
100
AcDbEntity
  8
0
 62
     0
100
AcDbLine
 10
-0.9999999999999998
 20
0.0994897959183674
 30
0.0
 11
-0.9999999999999998
 21
-0.0994897959183674
 31
0.0
  0
ENDBLK
  5
F9
330
F7
100
AcDbEntity
  8
0
100
AcDbBlockEnd
  0
BLOCK
  5
107
330
106
100
AcDbEntity
  8
0
100
AcDbBlockBegin
  2
Borders SST-LAND
 70
     0
 10
0.0
 20
0.0
 30
0.0
  3
Borders SST-LAND
  1

  0
LINE
  5
109
330
106
100
AcDbEntity
  8
Border (ANSI)
 62
     7
370
    50
100
AcDbLine
 10
0.4999999999999999
 20
16.49999999999999
 30
0.0
 11
0.500000000000005
 21
0.4999999999999984
 31
0.0
  0
LINE
  5
10A
330
106
100
AcDbEntity
  8
Border (ANSI)
 62
     7
370
    50
100
AcDbLine
 10
21.5
 20
16.49999999999999
 30
0.0
 11
0.4999999999999984
 21
16.49999999999999
 31
0.0
  0
LINE
  5
10B
330
106
100
AcDbEntity
  8
Border (ANSI)
 62
     7
370
    50
100
AcDbLine
 10
21.5
 20
0.4999999999999999
 30
0.0
 11
21.5
 21
16.49999999999999
 31
0.0
  0
LINE
  5
10C
330
106
100
AcDbEntity
  8
Border (ANSI)
 62
     7
370
    50
100
AcDbLine
 10
0.500000000000005
 20
0.4999999999999999
 30
0.0
 11
21.5
 21
0.4999999999999999
 31
0.0
  0
ENDBLK
  5
108
330
106
100
AcDbEntity
  8
0
100
AcDbBlockEnd
  0
ENDSEC
  0
SECTION
  2
ENTITIES
  0
INSERT
  5
10D
330
6C
100
AcDbEntity
  8
0
100
AcDbBlockReference
  2
Borders SST-LAND
 10
0.0
 20
0.0
 30
0.0
  0
ELLIPSE
  5
10E
330
6C
100
AcDbEntity
  8
Visible (ANSI)
100
AcDbEllipse
 10
11.75299080905241
 20
2.097797345838254
 30
0.0
 11
0.1293749999999987
 21
-0.2240840732292245
 31
0.0
210
0.0
220
0.0
230
1.0
 40
0.5773502691896237
 41
5.497787143782151
 42
7.06858347057704
  0
ELLIPSE
  5
10F
330
6C
100
AcDbEntity
  8
Visible (ANSI)
100
AcDbEllipse
 10
11.75299080905241
 20
2.097797345838252
 30
0.0
 11
0.0781250000000009
 21
-0.135316469341318
 31
0.0
210
0.0
220
0.0
230
1.0
 40
0.577350269189625
 41
5.497787143782142
 42
7.068583470577023
  0
ELLIPSE
  5
110
330
6C
100
AcDbEntity
  8
Visible (ANSI)
100
AcDbEllipse
 10
18.11695183973133
 20
5.772031960013014
 30
0.0
 11
0.1293749999999973
 21
-0.2240840732292261
 31
0.0
210
0.0
220
0.0
230
0.9999999999999998
 40
0.5773502691896175
 41
0.0
 42
0.7853981633974181
  0
LINE
  5
111
330
6C
100
AcDbEntity
  8
Visible Narrow (ANSI)
100
AcDbLine
 10
11.93595468868443
 20
1.99216310068073
 30
0.0
 11
18.29991571936334
 21
5.66639771485549
 31
0.0
  0
LINE
  5
112
330
6C
100
AcDbEntity
  8
Visible Narrow (ANSI)
100
AcDbLine
 10
11.75299080905241
 20
1.970219755068296
 30
0.0
 11
11.86347624361281
 21
2.034008550453276
 31
0.0
  0
LINE
  5
113
330
6C
100
AcDbEntity
  8
Visible (ANSI)
100
AcDbLine
 10
18.24632683973132
 20
5.547947886783789
 30
0.0
 11
11.8823658090524
 21
1.873713272609023
 31
0.0
  0
LINE
  5
114
330
6C
100
AcDbEntity
  8
Visible Narrow (ANSI)
100
AcDbLine
 10
5.910002342816381
 20
6.516554612779668
 30
0.0
 11
5.505860236626586
 21
6.283223058980127
 31
0.0
  0
LINE
  5
115
330
6C
100
AcDbEntity
  8
Visible Narrow (ANSI)
100
AcDbLine
 10
5.16250208675455
 20
6.084985138723055
 30
0.0
 11
4.894255095045624
 21
5.9301126658506
 31
0.0
  0
ELLIPSE
  5
116
330
6C
100
AcDbEntity
  8
Visible (ANSI)
100
AcDbEllipse
 10
4.894255095045625
 20
6.057690256620558
 30
0.0
 11
-0.1293749999999981
 21
0.2240840732292253
 31
0.0
210
0.0
220
0.0
230
0.9999999999999998
 40
0.5773502691896591
 41
0.7853981633976455
 42
2.356194490192553
  0
ELLIPSE
  5
117
330
6C
100
AcDbEntity
  8
Visible (ANSI)
100
AcDbEllipse
 10
4.894255095045624
 20
6.057690256620556
 30
0.0
 11
0.0781250000000145
 21
-0.13531646934131
 31
0.0
210
0.0
220
0.0
230
1.0
 40
0.5773502691896556
 41
3.926990816986936
 42
5.497787143781866
  0
LINE
  5
118
330
6C
100
AcDbEntity
  8
Visible Narrow (ANSI)
100
AcDbLine
 10
4.783769660485227
 20
6.121479052005539
 30
0.0
 11
5.162502086754551
 21
6.340140320262974
 31
0.0
  0
LINE
  5
119
330
6C
100
AcDbEntity
  8
Visible Narrow (ANSI)
100
AcDbLine
 10
5.284889367505788
 20
6.410800649750086
 30
0.0
 11
5.910002342816381
 21
6.771709794319585
 31
0.0
  0
LINE
  5
11A
330
6C
100
AcDbEntity
  8
Visible (ANSI)
100
AcDbLine
 10
5.162828276539602
 20
5.775051867217938
 30
0.0
 11
4.894255095045624
 21
5.9301126658506
 31
0.0
  0
LINE
  5
11B
330
6C
100
AcDbEntity
  8
Visible (ANSI)
100
AcDbLine
 10
11.50206793348255
 20
2.213069734535704
 30
0.0
 11
11.4992395063578
 21
2.211436741373852
 31
0.0
  0
LINE
  5
11C
330
6C
100
AcDbEntity
  8
Visible (ANSI)
100
AcDbLine
 10
11.75299080905241
 20
1.970219755068296
 30
0.0
 11
11.41756867313076
 21
2.163875815534808
 31
0.0
  0
LINE
  5
11D
330
6C
100
AcDbEntity
  8
Visible (ANSI)
100
AcDbLine
 10
4.894255095045624
 20
5.846421766305509
 30
0.0
 11
5.229677230967268
 21
5.652765705838988
 31
0.0
  0
LINE
  5
11E
330
6C
100
AcDbEntity
  8
Visible (ANSI)
100
AcDbLine
 10
11.41756867313076
 20
2.080184915989716
 30
0.0
 11
11.75299080905241
 21
1.886528855523204
 31
0.0
  0
LINE
  5
11F
330
6C
100
AcDbEntity
  8
Visible (ANSI)
100
AcDbLine
 10
11.58904206756848
 20
10.10813466757292
 30
0.0
 11
12.83708759456242
 21
9.387575246602063
 31
0.0
  0
LINE
  5
120
330
6C
100
AcDbEntity
  8
Visible (ANSI)
100
AcDbLine
 10
15.62654429100325
 20
7.86077257156424
 30
0.0
 11
15.61542009758363
 21
7.867195127629575
 31
0.0
  0
LINE
  5
121
330
6C
100
AcDbEntity
  8
Visible (ANSI)
100
AcDbLine
 10
13.9588682205698
 20
8.82360579975009
 30
0.0
 11
11.6615205126401
 21
10.14998011734547
 31
0.0
  0
LINE
  5
122
330
6C
100
AcDbEntity
  8
Visible (ANSI)
100
AcDbLine
 10
11.6615205126401
 20
10.14998011734547
 30
0.0
 11
11.58904206756848
 21
10.10813466757292
 31
0.0
  0
LINE
  5
123
330
6C
100
AcDbEntity
  8
Visible (ANSI)
100
AcDbLine
 10
11.58904206756848
 20
9.927576462537997
 30
0.0
 11
11.58904206756848
 21
10.10813466757292
 31
0.0
  0
LINE
  5
124
330
6C
100
AcDbEntity
  8
Visible (ANSI)
100
AcDbLine
 10
11.42216486720846
 20
2.867442987905847
 30
0.0
 11
5.234980531826172
 21
6.43961552946465
 31
0.0
  0
LINE
  5
125
330
6C
100
AcDbEntity
  8
Visible (ANSI)
100
AcDbLine
 10
5.162502086754551
 20
6.397770079692103
 30
0.0
 11
5.234980531826172
 21
6.43961552946465
 31
0.0
  0
LINE
  5
126
330
6C
100
AcDbEntity
  8
Visible (ANSI)
100
AcDbLine
 10
5.162502086754551
 20
6.397770079692103
 30
0.0
 11
11.34968642213684
 21
2.8255975381333
 31
0.0
  0
LINE
  5
127
330
6C
100
AcDbEntity
  8
Visible (ANSI)
100
AcDbLine
 10
11.34968642213684
 20
2.8255975381333
 30
0.0
 11
11.42216486720846
 21
2.867442987905847
 31
0.0
  0
LINE
  5
128
330
6C
100
AcDbEntity
  8
Visible (ANSI)
100
AcDbLine
 10
11.42216486720846
 20
2.255935805034412
 30
0.0
 11
11.42216486720846
 21
2.867442987905847
 31
0.0
  0
LINE
  5
129
330
6C
100
AcDbEntity
  8
Visible (ANSI)
100
AcDbLine
 10
11.34968642213684
 20
2.8255975381333
 30
0.0
 11
11.34968642213684
 21
2.214090355261867
 31
0.0
  0
LINE
  5
12A
330
6C
100
AcDbEntity
  8
Visible (ANSI)
100
AcDbLine
 10
5.162502086754551
 20
6.397770079692103
 30
0.0
 11
5.162502086754546
 21
5.786262896820672
 31
0.0
  0
LINE
  5
12B
330
6C
100
AcDbEntity
  8
Visible (ANSI)
100
AcDbLine
 10
4.783769660485227
 20
6.121479052005539
 30
0.0
 11
4.783769660485236
 21
11.54861631871498
 31
0.0
  0
LINE
  5
12C
330
6C
100
AcDbEntity
  8
Visible (ANSI)
100
AcDbLine
 10
4.711291215413615
 20
11.59046176848753
 30
0.0
 11
4.783769660485236
 21
11.54861631871498
 31
0.0
  0
LINE
  5
12D
330
6C
100
AcDbEntity
  8
Visible (ANSI)
100
AcDbLine
 10
4.711291215413615
 20
11.59046176848753
 30
0.0
 11
4.711291215413606
 21
6.163324501778085
 31
0.0
  0
LINE
  5
12E
330
6C
100
AcDbEntity
  8
Visible (ANSI)
100
AcDbLine
 10
11.01550172308226
 20
15.29919336320648
 30
0.0
 11
11.14773069116415
 21
15.22285093288974
 31
0.0
  0
LINE
  5
12F
330
6C
100
AcDbEntity
  8
Visible (ANSI)
100
AcDbLine
 10
10.94302327801064
 20
15.34103881297903
 30
0.0
 11
11.01550172308226
 21
15.29919336320648
 31
0.0
  0
LINE
  5
130
330
6C
100
AcDbEntity
  8
Visible (ANSI)
100
AcDbLine
 10
4.915998628567119
 20
11.77764360966521
 30
0.0
 11
11.01550172308226
 21
15.29919336320648
 31
0.0
  0
LINE
  5
131
330
6C
100
AcDbEntity
  8
Visible (ANSI)
100
AcDbLine
 10
10.94302327801064
 20
15.34103881297903
 30
0.0
 11
4.843520183495498
 21
11.81948905943776
 31
0.0
  0
LINE
  5
132
330
6C
100
AcDbEntity
  8
Visible (ANSI)
100
AcDbLine
 10
4.843520183495498
 20
11.81948905943775
 30
0.0
 11
4.915998628567119
 21
11.77764360966521
 31
0.0
  0
LINE
  5
133
330
6C
100
AcDbEntity
  8
Visible (ANSI)
100
AcDbLine
 10
4.783769660485236
 20
11.54861631871498
 30
0.0
 11
4.915998628567119
 21
11.77764360966521
 31
0.0
  0
LINE
  5
134
330
6C
100
AcDbEntity
  8
Visible (ANSI)
100
AcDbLine
 10
4.843520183495498
 20
11.81948905943775
 30
0.0
 11
4.711291215413615
 21
11.59046176848753
 31
0.0
  0
ELLIPSE
  5
135
330
6C
100
AcDbEntity
  8
Visible (ANSI)
100
AcDbEllipse
 10
5.844429832265056
 20
10.88480459842074
 30
0.0
 11
0.0427500000000044
 21
0.074045172023567
 31
0.0
210
0.0
220
0.0
230
0.9999999999999998
 40
0.5773502691896259
 41
0.0
 42
6.283185307179586
  0
ELLIPSE
  5
136
330
6C
100
AcDbEntity
  8
Visible (ANSI)
100
AcDbEllipse
 10
5.771951387193436
 20
10.92665004819328
 30
0.0
 11
0.042749999999996
 21
0.0740451720235729
 31
0.0
210
0.0
220
0.0
230
1.0
 40
0.5773502691896258
 41
4.15322917548015
 42
5.271548785289002
  0
ELLIPSE
  5
137
330
6C
100
AcDbEntity
  8
Visible (ANSI)
100
AcDbEllipse
 10
5.667653136968419
 20
11.44655424609901
 30
0.0
 11
0.0427500000000044
 21
0.074045172023567
 31
0.0
210
0.0
220
0.0
230
0.9999999999999998
 40
0.5773502691896259
 41
0.0
 42
6.283185307179586
  0
ELLIPSE
  5
138
330
6C
100
AcDbEntity
  8
Visible (ANSI)
100
AcDbEllipse
 10
5.595174691896799
 20
11.48839969587156
 30
0.0
 11
0.0427499999999952
 21
0.0740451720235714
 31
0.0
210
0.0
220
0.0
230
1.0
 40
0.5773502691896258
 41
4.153229175480134
 42
5.271548785288992
  0
ELLIPSE
  5
139
330
6C
100
AcDbEntity
  8
Visible (ANSI)
100
AcDbEllipse
 10
5.66765313696842
 20
10.11974730209146
 30
0.0
 11
0.0427500000000044
 21
0.074045172023567
 31
0.0
210
0.0
220
0.0
230
0.9999999999999998
 40
0.5773502691896259
 41
0.0
 42
6.283185307179586
  0
ELLIPSE
  5
13A
330
6C
100
AcDbEntity
  8
Visible (ANSI)
100
AcDbEllipse
 10
5.595174691896798
 20
10.161592751864
 30
0.0
 11
0.0427499999999948
 21
0.0740451720235708
 31
0.0
210
0.0
220
0.0
230
1.0
 40
0.5773502691896259
 41
4.153229175480134
 42
5.271548785289008
  0
ELLIPSE
  5
13B
330
6C
100
AcDbEntity
  8
Visible (ANSI)
100
AcDbEllipse
 10
7.081866699341516
 20
12.46717497225867
 30
0.0
 11
0.0427500000000044
 21
0.074045172023567
 31
0.0
210
0.0
220
0.0
230
0.9999999999999998
 40
0.5773502691896259
 41
0.0
 42
6.283185307179586
  0
ELLIPSE
  5
13C
330
6C
100
AcDbEntity
  8
Visible (ANSI)
100
AcDbEllipse
 10
7.009388254269891
 20
12.50902042203122
 30
0.0
 11
0.0427499999999968
 21
0.0740451720235742
 31
0.0
210
0.0
220
0.0
230
0.9999999999999998
 40
0.5773502691896258
 41
4.15322917548017
 42
5.271548785288995
  0
ELLIPSE
  5
13D
330
6C
100
AcDbEntity
  8
Visible (ANSI)
100
AcDbEllipse
 10
7.081866699341514
 20
11.14036802825111
 30
0.0
 11
0.0427500000000044
 21
0.074045172023567
 31
0.0
210
0.0
220
0.0
230
0.9999999999999998
 40
0.5773502691896259
 41
0.0
 42
6.283185307179586
  0
ELLIPSE
  5
13E
330
6C
100
AcDbEntity
  8
Visible (ANSI)
100
AcDbEllipse
 10
7.009388254269893
 20
11.18221347802366
 30
0.0
 11
0.0427499999999956
 21
0.0740451720235722
 31
0.0
210
0.0
220
0.0
230
1.0
 40
0.5773502691896257
 41
4.15322917548015
 42
5.271548785288982
  0
ELLIPSE
  5
13F
330
6C
100
AcDbEntity
  8
Visible (ANSI)
100
AcDbEllipse
 10
8.496080261714599
 20
13.28367155318639
 30
0.0
 11
0.0427500000000044
 21
0.074045172023567
 31
0.0
210
0.0
220
0.0
230
0.9999999999999998
 40
0.5773502691896259
 41
0.0
 42
6.283185307179586
  0
ELLIPSE
  5
140
330
6C
100
AcDbEntity
  8
Visible (ANSI)
100
AcDbEllipse
 10
8.423601816642975
 20
13.32551700295894
 30
0.0
 11
0.0427499999999976
 21
0.0740451720235756
 31
0.0
210
0.0
220
0.0
230
0.9999999999999998
 40
0.5773502691896259
 41
4.15322917548017
 42
5.271548785288976
  0
ELLIPSE
  5
141
330
6C
100
AcDbEntity
  8
Visible (ANSI)
100
AcDbEllipse
 10
8.849633652307872
 20
12.82398397812408
 30
0.0
 11
0.0427500000000044
 21
0.074045172023567
 31
0.0
210
0.0
220
0.0
230
0.9999999999999998
 40
0.5773502691896259
 41
0.0
 42
6.283185307179586
  0
ELLIPSE
  5
142
330
6C
100
AcDbEntity
  8
Visible (ANSI)
100
AcDbEllipse
 10
8.777155207236251
 20
12.86582942789663
 30
0.0
 11
0.0427499999999959
 21
0.0740451720235726
 31
0.0
210
0.0
220
0.0
230
0.9999999999999998
 40
0.5773502691896258
 41
4.153229175480131
 42
5.271548785288983
  0
ELLIPSE
  5
143
330
6C
100
AcDbEntity
  8
Visible (ANSI)
100
AcDbEllipse
 10
8.496080261714599
 20
11.95686460917884
 30
0.0
 11
0.0427500000000044
 21
0.074045172023567
 31
0.0
210
0.0
220
0.0
230
0.9999999999999998
 40
0.5773502691896259
 41
0.0
 42
6.283185307179586
  0
ELLIPSE
  5
144
330
6C
100
AcDbEntity
  8
Visible (ANSI)
100
AcDbEllipse
 10
8.423601816642978
 20
11.99871005895138
 30
0.0
 11
0.0427499999999955
 21
0.074045172023572
 31
0.0
210
0.0
220
0.0
230
1.0
 40
0.5773502691896259
 41
4.15322917548015
 42
5.271548785289008
  0
ELLIPSE
  5
145
330
6C
100
AcDbEntity
  8
Visible (ANSI)
100
AcDbEllipse
 10
10.26384721468097
 20
13.43635641381988
 30
0.0
 11
0.0427500000000044
 21
0.074045172023567
 31
0.0
210
0.0
220
0.0
230
0.9999999999999998
 40
0.5773502691896259
 41
0.0
 42
6.283185307179586
  0
ELLIPSE
  5
146
330
6C
100
AcDbEntity
  8
Visible (ANSI)
100
AcDbEllipse
 10
10.19136876960934
 20
13.47820186359242
 30
0.0
 11
0.0427499999999952
 21
0.0740451720235714
 31
0.0
210
0.0
220
0.0
230
1.0
 40
0.5773502691896258
 41
4.15322917548015
 42
5.271548785288988
  0
ELLIPSE
  5
147
330
6C
100
AcDbEntity
  8
Visible (ANSI)
100
AcDbEllipse
 10
10.08707051938433
 20
13.99810606149815
 30
0.0
 11
0.0427500000000044
 21
0.074045172023567
 31
0.0
210
0.0
220
0.0
230
0.9999999999999998
 40
0.5773502691896259
 41
0.0
 42
6.283185307179586
  0
ELLIPSE
  5
148
330
6C
100
AcDbEntity
  8
Visible (ANSI)
100
AcDbEllipse
 10
10.01459207431271
 20
14.0399515112707
 30
0.0
 11
0.042749999999996
 21
0.0740451720235729
 31
0.0
210
0.0
220
0.0
230
1.0
 40
0.5773502691896258
 41
4.153229175480131
 42
5.271548785288983
  0
ELLIPSE
  5
149
330
6C
100
AcDbEntity
  8
Visible (ANSI)
100
AcDbEllipse
 10
10.08707051938433
 20
12.67129911749059
 30
0.0
 11
0.0427500000000044
 21
0.074045172023567
 31
0.0
210
0.0
220
0.0
230
0.9999999999999998
 40
0.5773502691896259
 41
0.0
 42
6.283185307179586
  0
ELLIPSE
  5
14A
330
6C
100
AcDbEntity
  8
Visible (ANSI)
100
AcDbEllipse
 10
10.01459207431271
 20
12.71314456726314
 30
0.0
 11
0.0427499999999956
 21
0.0740451720235721
 31
0.0
210
0.0
220
0.0
230
0.9999999999999998
 40
0.5773502691896257
 41
4.15322917548015
 42
5.271548785288983
  0
ELLIPSE
  5
14B
330
6C
100
AcDbEntity
  8
Visible (ANSI)
100
AcDbEllipse
 10
6.463148265803286
 20
11.90583357287086
 30
0.0
 11
0.078000000000008
 21
0.1350999629903678
 31
0.0
210
0.0
220
0.0
230
0.9999999999999998
 40
0.577350269189626
 41
0.0
 42
6.283185307179586
  0
ELLIPSE
  5
14C
330
6C
100
AcDbEntity
  8
Visible (ANSI)
100
AcDbEllipse
 10
6.390669820731665
 20
11.9476790226434
 30
0.0
 11
0.0779999999999916
 21
0.1350999629903765
 31
0.0
210
0.0
220
0.0
230
1.0
 40
0.5773502691896259
 41
3.624781617057807
 42
5.799996343710756
  0
ELLIPSE
  5
14D
330
6C
100
AcDbEntity
  8
Visible (ANSI)
100
AcDbEllipse
 10
6.197983222858329
 20
10.42593351993936
 30
0.0
 11
0.078000000000008
 21
0.1350999629903678
 31
0.0
210
0.0
220
0.0
230
0.9999999999999998
 40
0.577350269189626
 41
0.0
 42
6.283185307179586
  0
ELLIPSE
  5
14E
330
6C
100
AcDbEntity
  8
Visible (ANSI)
100
AcDbEllipse
 10
6.125504777786709
 20
10.4677789697119
 30
0.0
 11
0.0779999999999916
 21
0.1350999629903765
 31
0.0
210
0.0
220
0.0
230
1.0
 40
0.5773502691896259
 41
3.624781617057813
 42
5.799996343710775
  0
ELLIPSE
  5
14F
330
6C
100
AcDbEntity
  8
Visible (ANSI)
100
AcDbEllipse
 10
9.733517128791055
 20
13.99810606149815
 30
0.0
 11
0.078000000000008
 21
0.1350999629903678
 31
0.0
210
0.0
220
0.0
230
0.9999999999999998
 40
0.577350269189626
 41
0.0
 42
6.283185307179586
  0
ELLIPSE
  5
150
330
6C
100
AcDbEntity
  8
Visible (ANSI)
100
AcDbEllipse
 10
9.661038683719434
 20
14.0399515112707
 30
0.0
 11
0.0779999999999919
 21
0.1350999629903771
 31
0.0
210
0.0
220
0.0
230
0.9999999999999998
 40
0.5773502691896259
 41
3.624781617057827
 42
5.799996343710756
  0
ELLIPSE
  5
151
330
6C
100
AcDbEntity
  8
Visible (ANSI)
100
AcDbEllipse
 10
9.468352085846099
 20
12.31408186333472
 30
0.0
 11
0.078000000000008
 21
0.1350999629903678
 31
0.0
210
0.0
220
0.0
230
0.9999999999999998
 40
0.577350269189626
 41
0.0
 42
6.283185307179586
  0
ELLIPSE
  5
152
330
6C
100
AcDbEntity
  8
Visible (ANSI)
100
AcDbEllipse
 10
9.395873640774478
 20
12.35592731310726
 30
0.0
 11
0.0779999999999916
 21
0.1350999629903765
 31
0.0
210
0.0
220
0.0
230
1.0
 40
0.5773502691896259
 41
3.624781617057807
 42
5.799996343710756
  0
LINE
  5
153
330
6C
100
AcDbEntity
  8
Visible (ANSI)
100
AcDbLine
 10
11.14773069116415
 20
15.22285093288974
 30
0.0
 11
11.14773069116415
 21
9.927576462537997
 31
0.0
  0
LINE
  5
154
330
6C
100
AcDbEntity
  8
Visible (ANSI)
100
AcDbLine
 10
11.99570521169469
 20
7.690173108112935
 30
0.0
 11
11.86347624361281
 21
7.461145817162708
 31
0.0
  0
LINE
  5
155
330
6C
100
AcDbEntity
  8
Visible (ANSI)
100
AcDbLine
 10
11.93595468868443
 20
7.419300367390163
 30
0.0
 11
11.86347624361281
 21
7.461145817162708
 31
0.0
  0
LINE
  5
156
330
6C
100
AcDbEntity
  8
Visible (ANSI)
100
AcDbLine
 10
11.93595468868443
 20
7.419300367390163
 30
0.0
 11
12.06818365676632
 21
7.64832765834039
 31
0.0
  0
LINE
  5
157
330
6C
100
AcDbEntity
  8
Visible (ANSI)
100
AcDbLine
 10
12.06818365676632
 20
7.64832765834039
 30
0.0
 11
11.99570521169469
 21
7.690173108112935
 31
0.0
  0
LINE
  5
158
330
6C
100
AcDbEntity
  8
Visible (ANSI)
100
AcDbLine
 10
18.09520830620984
 20
11.21172286165421
 30
0.0
 11
11.99570521169469
 21
7.690173108112935
 31
0.0
  0
LINE
  5
159
330
6C
100
AcDbEntity
  8
Visible (ANSI)
100
AcDbLine
 10
12.06818365676632
 20
7.64832765834039
 30
0.0
 11
18.16768675128146
 21
11.16987741188166
 31
0.0
  0
LINE
  5
15A
330
6C
100
AcDbEntity
  8
Visible (ANSI)
100
AcDbLine
 10
18.16768675128146
 20
11.16987741188166
 30
0.0
 11
18.09520830620984
 21
11.21172286165421
 31
0.0
  0
LINE
  5
15B
330
6C
100
AcDbEntity
  8
Visible (ANSI)
100
AcDbLine
 10
18.16768675128146
 20
11.16987741188166
 30
0.0
 11
18.29991571936335
 21
11.09353498156492
 31
0.0
  0
LINE
  5
15C
330
6C
100
AcDbEntity
  8
Visible (ANSI)
100
AcDbLine
 10
18.29991571936335
 20
11.09353498156492
 30
0.0
 11
18.29991571936334
 21
5.666397714855489
 31
0.0
  0
ELLIPSE
  5
15D
330
6C
100
AcDbEntity
  8
Visible (ANSI)
100
AcDbEllipse
 10
12.74735972009599
 20
6.032276800539195
 30
0.0
 11
0.0427499999999964
 21
0.0740451720235734
 31
0.0
210
0.0
220
0.0
230
1.0
 40
0.5773502691896259
 41
4.153229175480171
 42
5.271548785289002
  0
ELLIPSE
  5
15E
330
6C
100
AcDbEntity
  8
Visible (ANSI)
100
AcDbEllipse
 10
12.81983816516761
 20
5.990431350766647
 30
0.0
 11
0.0427500000000044
 21
0.074045172023567
 31
0.0
210
0.0
220
0.0
230
0.9999999999999998
 40
0.5773502691896255
 41
0.0
 42
6.283185307179586
  0
ELLIPSE
  5
15F
330
6C
100
AcDbEntity
  8
Visible (ANSI)
100
AcDbEllipse
 10
14.16157328246909
 20
7.052897526698854
 30
0.0
 11
0.0427499999999959
 21
0.0740451720235727
 31
0.0
210
0.0
220
0.0
230
1.0
 40
0.5773502691896258
 41
4.153229175480086
 42
5.271548785288982
  0
ELLIPSE
  5
160
330
6C
100
AcDbEntity
  8
Visible (ANSI)
100
AcDbEllipse
 10
14.23405172754071
 20
7.011052076926308
 30
0.0
 11
0.0427500000000044
 21
0.074045172023567
 31
0.0
210
0.0
220
0.0
230
0.9999999999999998
 40
0.5773502691896255
 41
0.0
 42
6.283185307179586
  0
ELLIPSE
  5
161
330
6C
100
AcDbEntity
  8
Visible (ANSI)
100
AcDbEllipse
 10
15.57578684484217
 20
7.869394107626574
 30
0.0
 11
0.0427499999999959
 21
0.0740451720235726
 31
0.0
210
0.0
220
0.0
230
0.9999999999999998
 40
0.5773502691896258
 41
4.153229175480086
 42
5.271548785288983
  0
ELLIPSE
  5
162
330
6C
100
AcDbEntity
  8
Visible (ANSI)
100
AcDbEllipse
 10
15.64826528991379
 20
7.827548657854028
 30
0.0
 11
0.0427500000000044
 21
0.074045172023567
 31
0.0
210
0.0
220
0.0
230
0.9999999999999998
 40
0.5773502691896255
 41
0.0
 42
6.283185307179586
  0
ELLIPSE
  5
163
330
6C
100
AcDbEntity
  8
Visible (ANSI)
100
AcDbEllipse
 10
17.1667771025119
 20
8.583828615938331
 30
0.0
 11
0.0427499999999952
 21
0.0740451720235714
 31
0.0
210
0.0
220
0.0
230
1.0
 40
0.5773502691896258
 41
4.153229175480131
 42
5.271548785288975
  0
ELLIPSE
  5
164
330
6C
100
AcDbEntity
  8
Visible (ANSI)
100
AcDbEllipse
 10
17.23925554758352
 20
8.541983166165787
 30
0.0
 11
0.0427500000000044
 21
0.074045172023567
 31
0.0
210
0.0
220
0.0
230
0.9999999999999998
 40
0.5773502691896255
 41
0.0
 42
6.283185307179586
  0
ELLIPSE
  5
165
330
6C
100
AcDbEntity
  8
Visible (ANSI)
100
AcDbEllipse
 10
12.92413641539263
 20
6.797334096868471
 30
0.0
 11
0.0427499999999952
 21
0.0740451720235714
 31
0.0
210
0.0
220
0.0
230
1.0
 40
0.5773502691896258
 41
4.153229175480131
 42
5.271548785288975
  0
ELLIPSE
  5
166
330
6C
100
AcDbEntity
  8
Visible (ANSI)
100
AcDbEllipse
 10
12.99661486046425
 20
6.755488647095925
 30
0.0
 11
0.0427500000000044
 21
0.074045172023567
 31
0.0
210
0.0
220
0.0
230
0.9999999999999998
 40
0.5773502691896255
 41
0.0
 42
6.283185307179586
  0
ELLIPSE
  5
167
330
6C
100
AcDbEntity
  8
Visible (ANSI)
100
AcDbEllipse
 10
12.74735972009599
 20
7.359083744546749
 30
0.0
 11
0.0427499999999964
 21
0.0740451720235734
 31
0.0
210
0.0
220
0.0
230
1.0
 40
0.5773502691896259
 41
4.153229175480171
 42
5.271548785289002
  0
ELLIPSE
  5
168
330
6C
100
AcDbEntity
  8
Visible (ANSI)
100
AcDbEllipse
 10
12.81983816516761
 20
7.317238294774203
 30
0.0
 11
0.0427500000000044
 21
0.074045172023567
 31
0.0
210
0.0
220
0.0
230
0.9999999999999998
 40
0.5773502691896255
 41
0.0
 42
6.283185307179586
  0
ELLIPSE
  5
169
330
6C
100
AcDbEntity
  8
Visible (ANSI)
100
AcDbEllipse
 10
14.16157328246909
 20
8.379704470706409
 30
0.0
 11
0.0427499999999958
 21
0.0740451720235725
 31
0.0
210
0.0
220
0.0
230
1.0
 40
0.5773502691896259
 41
4.153229175480085
 42
5.271548785288994
  0
ELLIPSE
  5
16A
330
6C
100
AcDbEntity
  8
Visible (ANSI)
100
AcDbEllipse
 10
14.23405172754071
 20
8.337859020933864
 30
0.0
 11
0.0427500000000044
 21
0.074045172023567
 31
0.0
210
0.0
220
0.0
230
0.9999999999999998
 40
0.5773502691896255
 41
0.0
 42
6.283185307179586
  0
ELLIPSE
  5
16B
330
6C
100
AcDbEntity
  8
Visible (ANSI)
100
AcDbEllipse
 10
15.57578684484217
 20
9.19620105163413
 30
0.0
 11
0.0427499999999959
 21
0.0740451720235726
 31
0.0
210
0.0
220
0.0
230
1.0
 40
0.577350269189626
 41
4.153229175480086
 42
5.271548785288994
  0
ELLIPSE
  5
16C
330
6C
100
AcDbEntity
  8
Visible (ANSI)
100
AcDbEllipse
 10
15.64826528991379
 20
9.154355601861583
 30
0.0
 11
0.0427500000000044
 21
0.074045172023567
 31
0.0
210
0.0
220
0.0
230
0.9999999999999998
 40
0.5773502691896255
 41
0.0
 42
6.283185307179586
  0
ELLIPSE
  5
16D
330
6C
100
AcDbEntity
  8
Visible (ANSI)
100
AcDbEllipse
 10
15.92934023543545
 20
8.736513476571815
 30
0.0
 11
0.0427499999999948
 21
0.0740451720235707
 31
0.0
210
0.0
220
0.0
230
1.0
 40
0.5773502691896258
 41
4.153229175480134
 42
5.271548785288975
  0
ELLIPSE
  5
16E
330
6C
100
AcDbEntity
  8
Visible (ANSI)
100
AcDbEllipse
 10
16.00181868050707
 20
8.69466802679927
 30
0.0
 11
0.0427500000000044
 21
0.074045172023567
 31
0.0
210
0.0
220
0.0
230
0.9999999999999998
 40
0.5773502691896255
 41
0.0
 42
6.283185307179586
  0
ELLIPSE
  5
16F
330
6C
100
AcDbEntity
  8
Visible (ANSI)
100
AcDbEllipse
 10
17.34355379780854
 20
9.34888591226761
 30
0.0
 11
0.0427499999999964
 21
0.0740451720235734
 31
0.0
210
0.0
220
0.0
230
1.0
 40
0.5773502691896259
 41
4.153229175480171
 42
5.271548785289002
  0
ELLIPSE
  5
170
330
6C
100
AcDbEntity
  8
Visible (ANSI)
100
AcDbEllipse
 10
17.41603224288016
 20
9.307040462495065
 30
0.0
 11
0.0427500000000044
 21
0.074045172023567
 31
0.0
210
0.0
220
0.0
230
0.9999999999999998
 40
0.5773502691896255
 41
0.0
 42
6.283185307179586
  0
ELLIPSE
  5
171
330
6C
100
AcDbEntity
  8
Visible (ANSI)
100
AcDbEllipse
 10
17.16677710251191
 20
9.910635559945889
 30
0.0
 11
0.0427499999999952
 21
0.0740451720235714
 31
0.0
210
0.0
220
0.0
230
1.0
 40
0.5773502691896258
 41
4.153229175480131
 42
5.271548785288975
  0
ELLIPSE
  5
172
330
6C
100
AcDbEntity
  8
Visible (ANSI)
100
AcDbEllipse
 10
17.23925554758353
 20
9.868790110173341
 30
0.0
 11
0.0427500000000044
 21
0.074045172023567
 31
0.0
210
0.0
220
0.0
230
0.9999999999999998
 40
0.5773502691896255
 41
0.0
 42
6.283185307179586
  0
ELLIPSE
  5
173
330
6C
100
AcDbEntity
  8
Visible (ANSI)
100
AcDbEllipse
 10
13.2776898059859
 20
6.338463018387092
 30
0.0
 11
0.0779999999999916
 21
0.1350999629903765
 31
0.0
210
0.0
220
0.0
230
1.0
 40
0.5773502691896259
 41
3.624781617057807
 42
5.799996343710795
  0
ELLIPSE
  5
174
330
6C
100
AcDbEntity
  8
Visible (ANSI)
100
AcDbEllipse
 10
13.35016825105752
 20
6.296617568614546
 30
0.0
 11
0.0780000000000081
 21
0.1350999629903677
 31
0.0
210
0.0
220
0.0
230
0.9999999999999998
 40
0.5773502691896255
 41
0.0
 42
6.283185307179586
  0
ELLIPSE
  5
175
330
6C
100
AcDbEntity
  8
Visible (ANSI)
100
AcDbEllipse
 10
16.54805866897367
 20
8.226611361782451
 30
0.0
 11
0.0779999999999916
 21
0.1350999629903764
 31
0.0
210
0.0
220
0.0
230
1.0
 40
0.5773502691896259
 41
3.624781617057809
 42
5.799996343710786
  0
ELLIPSE
  5
176
330
6C
100
AcDbEntity
  8
Visible (ANSI)
100
AcDbEllipse
 10
16.62053711404529
 20
8.184765912009906
 30
0.0
 11
0.0780000000000081
 21
0.1350999629903677
 31
0.0
210
0.0
220
0.0
230
0.9999999999999998
 40
0.5773502691896255
 41
0.0
 42
6.283185307179586
  0
ELLIPSE
  5
177
330
6C
100
AcDbEntity
  8
Visible (ANSI)
100
AcDbEllipse
 10
13.54285484893086
 20
7.818363071318595
 30
0.0
 11
0.0779999999999916
 21
0.1350999629903765
 31
0.0
210
0.0
220
0.0
230
1.0
 40
0.5773502691896259
 41
3.624781617057809
 42
5.799996343710795
  0
ELLIPSE
  5
178
330
6C
100
AcDbEntity
  8
Visible (ANSI)
100
AcDbEllipse
 10
13.61533329400248
 20
7.776517621546049
 30
0.0
 11
0.0780000000000081
 21
0.1350999629903677
 31
0.0
210
0.0
220
0.0
230
0.9999999999999998
 40
0.5773502691896255
 41
0.0
 42
6.283185307179586
  0
ELLIPSE
  5
179
330
6C
100
AcDbEntity
  8
Visible (ANSI)
100
AcDbEllipse
 10
16.81322371191863
 20
9.910635559945889
 30
0.0
 11
0.0779999999999919
 21
0.1350999629903771
 31
0.0
210
0.0
220
0.0
230
0.9999999999999998
 40
0.5773502691896259
 41
3.624781617057809
 42
5.799996343710765
  0
ELLIPSE
  5
17A
330
6C
100
AcDbEntity
  8
Visible (ANSI)
100
AcDbEllipse
 10
16.88570215699025
 20
9.868790110173344
 30
0.0
 11
0.0780000000000081
 21
0.1350999629903677
 31
0.0
210
0.0
220
0.0
230
0.9999999999999998
 40
0.5773502691896255
 41
0.0
 42
6.283185307179586
  0
LINE
  5
17B
330
6C
100
AcDbEntity
  8
Visible (ANSI)
100
AcDbLine
 10
11.93595468868443
 20
1.99216310068073
 30
0.0
 11
11.93595468868443
 21
7.419300367390163
 31
0.0
  0
LINE
  5
17C
330
6C
100
AcDbEntity
  8
Visible (ANSI)
100
AcDbLine
 10
11.86347624361281
 20
7.461145817162708
 30
0.0
 11
11.86347624361281
 21
2.034008550453276
 31
0.0
  0
ELLIPSE
  5
17D
330
6C
100
AcDbEntity
  8
Visible (ANSI)
100
AcDbEllipse
 10
5.312055170975497
 20
5.872607410253782
 30
0.0
 11
-0.1057499999999952
 21
-0.1831643729004124
 31
0.0
210
0.0
220
0.0
230
1.0
 40
0.5773502691896216
 41
5.497787143782121
 42
6.283185307179564
  0
ELLIPSE
  5
17E
330
6C
100
AcDbEntity
  8
Visible (ANSI)
100
AcDbEllipse
 10
11.49923950635779
 20
2.300434868694972
 30
0.0
 11
-0.1057500000000064
 21
-0.1831643729004032
 31
0.0
210
0.0
220
0.0
230
1.0
 40
0.5773502691896595
 41
5.497787143782154
 42
6.490882675670836
  0
LINE
  5
17F
330
6C
100
AcDbEntity
  8
Visible Narrow (ANSI)
100
AcDbLine
 10
11.4992395063578
 20
2.211436741373852
 30
0.0
 11
11.4992395063578
 21
2.211028493083381
 31
0.0
  0
ELLIPSE
  5
180
330
6C
100
AcDbEntity
  8
Visible (ANSI)
100
AcDbEllipse
 10
11.4992395063578
 20
2.300434868694973
 30
0.0
 11
-0.054500000000005
 21
-0.0943967690125006
 31
0.0
210
0.0
220
0.0
230
0.9999999999999998
 40
0.5773502691896633
 41
5.497787143782163
 42
7.068583470577064
  0
LINE
  5
181
330
6C
100
AcDbEntity
  8
Visible Narrow (ANSI)
100
AcDbLine
 10
5.162502086754546
 20
5.786262896820672
 30
0.0
 11
11.34968642213684
 21
2.214090355261867
 31
0.0
  0
LINE
  5
182
330
6C
100
AcDbEntity
  8
Visible (ANSI)
100
AcDbLine
 10
11.39348950635779
 20
2.117270495794569
 30
0.0
 11
5.206305170975499
 21
5.689443037353371
 31
0.0
  0
LINE
  5
183
330
6C
100
AcDbEntity
  8
Visible (ANSI)
100
AcDbLine
 10
11.50206793348255
 20
2.213069734535704
 30
0.0
 11
11.50242148687314
 21
2.212865610390472
 31
0.0
  0
LINE
  5
184
330
6C
100
AcDbEntity
  8
Visible (ANSI)
100
AcDbLine
 10
11.50242148687314
 20
2.212865610390472
 30
0.0
 11
11.41756867313076
 21
2.163875815534808
 31
0.0
  0
LINE
  5
185
330
6C
100
AcDbEntity
  8
Visible (ANSI)
100
AcDbLine
 10
5.229677230967268
 20
5.652765705838988
 30
0.0
 11
5.229677230967268
 21
5.675949172225608
 31
0.0
  0
LINE
  5
186
330
6C
100
AcDbEntity
  8
Visible (ANSI)
100
AcDbLine
 10
11.50206793348255
 20
2.213069734535704
 30
0.0
 11
11.50206793348255
 21
2.21266148624524
 31
0.0
  0
LINE
  5
187
330
6C
100
AcDbEntity
  8
Visible (ANSI)
100
AcDbLine
 10
11.41756867313076
 20
2.163875815534808
 30
0.0
 11
11.41756867313076
 21
2.080184915989716
 31
0.0
  0
LINE
  5
188
330
6C
100
AcDbEntity
  8
Visible (ANSI)
100
AcDbLine
 10
5.249754701805863
 20
5.664357439032298
 30
0.0
 11
5.229677230967268
 21
5.652765705838988
 31
0.0
  0
SPLINE
  5
189
330
6C
100
AcDbEntity
  8
Visible (ANSI)
100
AcDbSpline
210
0.0
220
0.0
230
1.0
 70
     8
 71
     3
 72
    10
 73
     6
 74
     0
 42
0.0000000001
 43
0.0000000001
 40
0.0
 40
0.0
 40
0.0
 40
0.0
 40
0.0941668376053523
 40
0.0941668376053523
 40
0.1883314096296751
 40
0.1883314096296751
 40
0.1883314096296751
 40
0.1883314096296751
 10
6.691637703460617
 20
5.795306297909367
 30
0.0
 10
6.682979313934255
 20
5.798943579023871
 30
0.0
 10
6.6755217620297
 20
5.8038979141869
 30
0.0
 10
6.663253592984812
 20
5.816192518255599
 30
0.0
 10
6.658571864039005
 20
5.823402581918908
 30
0.0
 10
6.655403037146263
 20
5.831618859825077
 30
0.0
  0
LINE
  5
18A
330
6C
100
AcDbEntity
  8
Visible (ANSI)
100
AcDbLine
 10
6.719356289283129
 20
5.81130963089555
 30
0.0
 11
6.691637703460617
 21
5.795306297909367
 31
0.0
  0
LINE
  5
18B
330
6C
100
AcDbEntity
  8
Visible (ANSI)
100
AcDbLine
 10
6.741135178143675
 20
5.823883678241837
 30
0.0
 11
6.719356289283129
 21
5.81130963089555
 31
0.0
  0
SPLINE
  5
18C
330
6C
100
AcDbEntity
  8
Visible (ANSI)
100
AcDbSpline
210
0.0
220
0.0
230
1.0
 70
     8
 71
     3
 72
    12
 73
     8
 74
     0
 42
0.0000000001
 43
0.0000000001
 40
0.0
 40
0.0
 40
0.0
 40
0.0
 40
0.0240013933946242
 40
0.0240013933946242
 40
0.0595864904019255
 40
0.0595864904019255
 40
0.0871237424083781
 40
0.0871237424083781
 40
0.0871237424083781
 40
0.0871237424083781
 10
6.723017844986499
 20
5.84207890700037
 30
0.0
 10
6.723803320491927
 20
5.839698018322594
 30
0.0
 10
6.724773316455554
 20
5.837527360895856
 30
0.0
 10
6.727702315760566
 20
5.832573704501641
 30
0.0
 10
6.729875335885224
 20
5.830083586054796
 30
0.0
 10
6.734417318632814
 20
5.826596056162784
 30
0.0
 10
6.73720764349942
 20
5.824915721419671
 30
0.0
 10
6.741135178143675
 20
5.823883678241837
 30
0.0
  0
LINE
  5
18D
330
6C
100
AcDbEntity
  8
Visible (ANSI)
100
AcDbLine
 10
6.693369949881693
 20
5.837492361665845
 30
0.0
 11
6.723017844986499
 21
5.842078907000371
 31
0.0
  0
LINE
  5
18E
330
6C
100
AcDbEntity
  8
Visible (ANSI)
100
AcDbLine
 10
6.655403037146267
 20
5.831618859825076
 30
0.0
 11
6.693369949881693
 21
5.837492361665845
 31
0.0
  0
LINE
  5
18F
330
6C
100
AcDbEntity
  8
Visible Narrow (ANSI)
100
AcDbLine
 10
6.655403037146265
 20
5.619534213655105
 30
0.0
 11
6.655403037146267
 21
5.831618859825076
 31
0.0
  0
LINE
  5
190
330
6C
100
AcDbEntity
  8
Visible Narrow (ANSI)
100
AcDbLine
 10
6.691637703460617
 20
5.795306297909367
 30
0.0
 11
6.691637703460617
 21
5.598614119304518
 31
0.0
  0
ELLIPSE
  5
191
330
6C
100
AcDbEntity
  8
Visible (ANSI)
100
AcDbEllipse
 10
6.722651454564197
 20
5.947270104548058
 30
0.0
 11
0.070250000000004
 21
-0.1216765692317215
 31
0.0
210
0.0
220
0.0
230
1.0
 40
0.5773502691896259
 41
5.684926887132789
 42
5.891917353919465
  0
ELLIPSE
  5
192
330
6C
100
AcDbEntity
  8
Visible (ANSI)
100
AcDbEllipse
 10
10.25677122369678
 20
3.90684510449098
 30
0.0
 11
-0.0702499999999947
 21
0.1216765692317221
 31
0.0
210
0.0
220
0.0
230
1.0
 40
0.5773502691896259
 41
1.546296888001256
 42
2.169061990750396
  0
ELLIPSE
  5
193
330
6C
100
AcDbEntity
  8
Visible (ANSI)
100
AcDbEllipse
 10
6.67315397988114
 20
5.918692724215578
 30
0.0
 11
0.0702499999999985
 21
-0.121676569231712
 31
0.0
210
0.0
220
0.0
230
0.9999999999999998
 40
0.5773502691896259
 41
5.684926887132789
 42
6.307684745973284
  0
ELLIPSE
  5
194
330
6C
100
AcDbEntity
  8
Visible (ANSI)
100
AcDbEllipse
 10
10.20727374901372
 20
3.87826772415851
 30
0.0
 11
-0.0702499999999947
 21
0.1216765692317221
 31
0.0
210
0.0
220
0.0
230
1.0
 40
0.5773502691896259
 41
1.546296888001256
 42
2.169061990750396
  0
ELLIPSE
  5
195
330
6C
100
AcDbEntity
  8
Visible (ANSI)
100
AcDbEllipse
 10
10.26604496479618
 20
3.883715859366857
 30
0.0
 11
0.1405000000000006
 21
-0.0000000000000083
 31
0.0
210
0.0
220
0.0
230
1.0
 40
0.5773502691896252
 41
0.2390470935001847
 42
2.000826289150502
  0
LINE
  5
196
330
6C
100
AcDbEntity
  8
Visible (ANSI)
100
AcDbLine
 10
10.40254971272433
 20
3.921663817477549
 30
0.0
 11
10.40254971272433
 21
3.864509056812609
 31
0.0
  0
ELLIPSE
  5
197
330
6C
100
AcDbEntity
  8
Visible (ANSI)
100
AcDbEllipse
 10
10.26604496479618
 20
3.940870620031799
 30
0.0
 11
0.1404999999999997
 21
-0.0000000000000083
 31
0.0
210
0.0
220
0.0
230
1.0
 40
0.5773502691896251
 41
6.044138213679952
 42
8.284011596330092
  0
ELLIPSE
  5
198
330
6C
100
AcDbEntity
  8
Visible (ANSI)
100
AcDbEllipse
 10
6.731925195663603
 20
5.92414085942393
 30
0.0
 11
0.1404999999999994
 21
0.0000000000000001
 31
0.0
210
0.0
220
0.0
230
1.0
 40
0.5773502691896252
 41
0.3600223959377296
 42
1.809843420294814
  0
LINE
  5
199
330
6C
100
AcDbEntity
  8
Visible (ANSI)
100
AcDbLine
 10
5.9100023428164
 20
6.458282490176092
 30
0.0
 11
6.698658037788696
 21
6.002951912385906
 31
0.0
  0
ELLIPSE
  5
19A
330
6C
100
AcDbEntity
  8
Visible (ANSI)
100
AcDbEllipse
 10
6.61065638269012
 20
7.42588174332826
 30
0.0
 11
0.1404999999999879
 21
0.0000000000000001
 31
0.0
210
0.0
220
0.0
230
1.0
 40
0.5773502691896252
 41
0.3600223959377136
 42
0.7435001441859522
  0
LINE
  5
19B
330
6C
100
AcDbEntity
  8
Visible (ANSI)
100
AcDbLine
 10
11.19120611480341
 20
3.409178070774129
 30
0.0
 11
11.86347624361281
 21
3.409178070774131
 31
0.0
  0
LINE
  5
19C
330
6C
100
AcDbEntity
  8
Visible (ANSI)
100
AcDbLine
 10
10.40254971272433
 20
3.864509056812609
 30
0.0
 11
11.19120611480341
 21
3.409178070774129
 31
0.0
  0
ELLIPSE
  5
19D
330
6C
100
AcDbEntity
  8
Visible (ANSI)
100
AcDbEllipse
 10
6.731925195663603
 20
5.981295620088872
 30
0.0
 11
0.1404999999999991
 21
0.0000000000000001
 31
0.0
210
0.0
220
0.0
230
1.0
 40
0.5773502691896251
 41
5.853155344824017
 42
8.093028727474402
  0
LINE
  5
19E
330
6C
100
AcDbEntity
  8
Visible (ANSI)
100
AcDbLine
 10
6.698658037788697
 20
6.060106673050847
 30
0.0
 11
6.698658037788697
 21
6.002951912385906
 31
0.0
  0
LINE
  5
19F
330
6C
100
AcDbEntity
  8
Visible (ANSI)
100
AcDbLine
 10
10.40254971272433
 20
3.921663817477549
 30
0.0
 11
11.19120611480341
 21
3.466332831439069
 31
0.0
  0
LINE
  5
1A0
330
6C
100
AcDbEntity
  8
Visible (ANSI)
100
AcDbLine
 10
11.19120611480341
 20
3.466332831439069
 30
0.0
 11
11.86347624361281
 21
3.466332831439072
 31
0.0
  0
ELLIPSE
  5
1A1
330
6C
100
AcDbEntity
  8
Visible (ANSI)
100
AcDbEllipse
 10
12.74516126287398
 20
9.45303908219355
 30
0.0
 11
-0.1404999999999993
 21
0.0000000000000083
 31
0.0
210
0.0
220
0.0
230
1.0
 40
0.5773502691896254
 41
6.044138213679932
 42
8.284011596330129
  0
LINE
  5
1A2
330
6C
100
AcDbEntity
  8
Visible (ANSI)
100
AcDbLine
 10
12.60865651494584
 20
9.472245884747801
 30
0.0
 11
11.82000081997354
 21
9.927576462537986
 31
0.0
  0
LINE
  5
1A3
330
6C
100
AcDbEntity
  8
Visible (ANSI)
100
AcDbLine
 10
11.82000081997354
 20
9.927576462537986
 30
0.0
 11
10.93611734349036
 21
9.927576462537986
 31
0.0
  0
LINE
  5
1A4
330
6C
100
AcDbEntity
  8
Visible (ANSI)
100
AcDbLine
 10
10.93611734349036
 20
9.927576462537986
 30
0.0
 11
10.27798177422629
 21
9.547601714460105
 31
0.0
  0
ELLIPSE
  5
1A5
330
6C
100
AcDbEntity
  8
Visible (ANSI)
100
AcDbEllipse
 10
10.14406975214829
 20
9.5230536640081
 30
0.0
 11
0.1404999999999993
 21
0.0000000000000001
 31
0.0
210
0.0
220
0.0
230
1.0
 40
0.577350269189625
 41
3.968888836198784
 42
6.590628350964582
  0
ELLIPSE
  5
1A6
330
6C
100
AcDbEntity
  8
Visible (ANSI)
100
AcDbEllipse
 10
6.610656382690108
 20
7.483036503993198
 30
0.0
 11
0.1404999999999992
 21
0.0000000000000001
 31
0.0
210
0.0
220
0.0
230
1.0
 40
0.5773502691896252
 41
4.404945936599702
 42
7.026685451365529
  0
LINE
  5
1A7
330
6C
100
AcDbEntity
  8
Visible (ANSI)
100
AcDbLine
 10
6.568137912080474
 20
7.405722361998742
 30
0.0
 11
5.9100023428164
 21
7.025747613920859
 31
0.0
  0
LINE
  5
1A8
330
6C
100
AcDbEntity
  8
Visible (ANSI)
100
AcDbLine
 10
5.910002342816401
 20
7.025747613920861
 30
0.0
 11
5.910002342816401
 21
6.515437250841032
 31
0.0
  0
LINE
  5
1A9
330
6C
100
AcDbEntity
  8
Visible (ANSI)
100
AcDbLine
 10
5.910002342816401
 20
6.515437250841032
 30
0.0
 11
6.698658037788697
 21
6.060106673050847
 31
0.0
  0
LINE
  5
1AA
330
6C
100
AcDbEntity
  8
Visible (ANSI)
100
AcDbLine
 10
12.60865651494584
 20
9.472245884747801
 30
0.0
 11
12.60865651494584
 21
9.433832279639299
 31
0.0
  0
LINE
  5
1AB
330
6C
100
AcDbEntity
  8
Visible (ANSI)
100
AcDbLine
 10
10.27798177422629
 20
9.547601714460105
 30
0.0
 11
10.27798177422629
 21
9.498505613556098
 31
0.0
  0
LINE
  5
1AC
330
6C
100
AcDbEntity
  8
Visible (ANSI)
100
AcDbLine
 10
5.910002342816401
 20
6.515437250841032
 30
0.0
 11
5.910002342816401
 21
6.458282490176092
 31
0.0
  0
LINE
  5
1AD
330
6C
100
AcDbEntity
  8
Visible (ANSI)
100
AcDbLine
 10
11.19120611480341
 20
3.466332831439069
 30
0.0
 11
11.19120611480341
 21
3.409178070774129
 31
0.0
  0
LINE
  5
1AE
330
6C
100
AcDbEntity
  8
Visible (ANSI)
100
AcDbLine
 10
10.34850868585183
 20
3.949391792832262
 30
0.0
 11
10.34850868585183
 21
3.82173991232836
 31
0.0
  0
LINE
  5
1AF
330
6C
100
AcDbEntity
  8
Visible (ANSI)
100
AcDbLine
 10
11.66288172408186
 20
3.236097860610104
 30
0.0
 11
11.86347624361281
 21
3.182093231974241
 31
0.0
  0
ELLIPSE
  5
1B0
330
6C
100
AcDbEntity
  8
Visible (ANSI)
100
AcDbEllipse
 10
10.11255493088481
 20
9.586848082401591
 30
0.0
 11
0.1093020048151949
 21
-0.0882797923840564
 31
0.0
210
0.0
220
0.0
230
1.0
 40
0.7399972093834045
 41
5.666407283116818
 42
5.837852980864938
  0
LINE
  5
1B1
330
6C
100
AcDbEntity
  8
Visible (ANSI)
100
AcDbLine
 10
10.18305641499374
 20
9.47233737181383
 30
0.0
 11
10.23114240169328
 21
9.459391525335222
 31
0.0
  0
LINE
  5
1B2
330
6C
100
AcDbEntity
  8
Visible (ANSI)
100
AcDbLine
 10
10.18305641499374
 20
9.47233737181383
 30
0.0
 11
10.15886648367944
 21
9.442387052294632
 31
0.0
  0
LINE
  5
1B3
330
6C
100
AcDbEntity
  8
Visible (ANSI)
100
AcDbLine
 10
12.6701059042399
 20
9.421965837556276
 30
0.0
 11
12.65553480979177
 21
9.390569492504109
 31
0.0
  0
LINE
  5
1B4
330
6C
100
AcDbEntity
  8
Visible (ANSI)
100
AcDbLine
 10
12.6098032393915
 20
9.431294692274027
 30
0.0
 11
12.6701059042399
 21
9.421965837556276
 31
0.0
  0
ELLIPSE
  5
1B5
330
6C
100
AcDbEntity
  8
Visible (ANSI)
100
AcDbEllipse
 10
12.78546935786784
 20
9.464539796159396
 30
0.0
 11
0.1274437199654885
 21
-0.0591468362751322
 31
0.0
210
0.0
220
0.0
230
0.9999999999999996
 40
0.7886751345948332
 41
4.047174517349704
 42
4.575427617081031
  0
ELLIPSE
  5
1B6
330
6C
100
AcDbEntity
  8
Visible (ANSI)
100
AcDbEllipse
 10
10.24393625472989
 20
3.911037000650161
 30
0.0
 11
0.1274437199654874
 21
-0.059146836275143
 31
0.0
210
0.0
220
0.0
230
1.0
 40
0.7886751345948115
 41
5.254030555265593
 42
6.079362265164075
  0
LINE
  5
1B7
330
6C
100
AcDbEntity
  8
Visible (ANSI)
100
AcDbLine
 10
10.49347699291766
 20
3.81201216711631
 30
0.0
 11
10.35929970835783
 21
3.83276946527598
 31
0.0
  0
LINE
  5
1B8
330
6C
100
AcDbEntity
  8
Visible (ANSI)
100
AcDbLine
 10
11.66288172408186
 20
2.810525561789599
 30
0.0
 11
11.66288172408186
 21
3.409178070774129
 31
0.0
  0
LINE
  5
1B9
330
6C
100
AcDbEntity
  8
Visible (ANSI)
100
AcDbLine
 10
11.64476439092468
 20
2.771488134281834
 30
0.0
 11
11.66288172408186
 21
2.810525561789599
 31
0.0
  0
LINE
  5
1BA
330
6C
100
AcDbEntity
  8
Visible (ANSI)
100
AcDbLine
 10
11.42216486720846
 20
2.805924400443699
 30
0.0
 11
11.64476439092468
 21
2.771488134281834
 31
0.0
  0
LINE
  5
1BB
330
6C
100
AcDbEntity
  8
Visible (ANSI)
100
AcDbLine
 10
11.64476439092468
 20
2.771488134281834
 30
0.0
 11
11.64476439092468
 21
3.409178070774129
 31
0.0
  0
LINE
  5
1BC
330
6C
100
AcDbEntity
  8
Visible (ANSI)
100
AcDbLine
 10
10.34118237520066
 20
3.793732037768216
 30
0.0
 11
10.35929970835783
 21
3.83276946527598
 31
0.0
  0
LINE
  5
1BD
330
6C
100
AcDbEntity
  8
Visible (ANSI)
100
AcDbLine
 10
10.59247194228377
 20
3.75485740645137
 30
0.0
 11
10.34118237520066
 21
3.793732037768216
 31
0.0
  0
ELLIPSE
  5
1BE
330
6C
100
AcDbEntity
  8
Visible (ANSI)
100
AcDbEllipse
 10
10.22581892157272
 20
3.871999573142398
 30
0.0
 11
0.1274437199654873
 21
-0.0591468362751431
 31
0.0
210
0.0
220
0.0
230
1.0
 40
0.7886751345948117
 41
5.254030555265593
 42
6.079362265164076
  0
LINE
  5
1BF
330
6C
100
AcDbEntity
  8
Visible (ANSI)
100
AcDbLine
 10
6.699000935744024
 20
5.946044355207307
 30
0.0
 11
6.663048499522663
 21
6.023511088889518
 31
0.0
  0
LINE
  5
1C0
330
6C
100
AcDbEntity
  8
Visible (ANSI)
100
AcDbLine
 10
6.631386127903789
 20
5.935584308032013
 30
0.0
 11
6.564053550156546
 21
6.08066584955446
 31
0.0
  0
LINE
  5
1C1
330
6C
100
AcDbEntity
  8
Visible (ANSI)
100
AcDbLine
 10
6.631386127903789
 20
5.935584308032013
 30
0.0
 11
6.699000935744024
 21
5.946044355207307
 31
0.0
  0
LINE
  5
1C2
330
6C
100
AcDbEntity
  8
Visible (ANSI)
100
AcDbLine
 10
6.282092638341846
 20
6.243456057891626
 30
0.0
 11
6.282092638341846
 21
5.867628114211132
 31
0.0
  0
ELLIPSE
  5
1C3
330
6C
100
AcDbEntity
  8
Visible (ANSI)
100
AcDbEllipse
 10
6.729912479979691
 20
5.93985998118922
 30
0.0
 11
-0.0214799139406396
 21
0.1388483463967171
 31
0.0
210
0.0
220
0.0
230
0.9999999999999998
 40
0.2113248654051604
 41
1.49358446730859
 42
2.318923426136345
  0
ELLIPSE
  5
1C4
330
6C
100
AcDbEntity
  8
Visible (ANSI)
100
AcDbEllipse
 10
6.662297672139461
 20
5.929399934013926
 30
0.0
 11
-0.0214799139406383
 21
0.1388483463967155
 31
0.0
210
0.0
220
0.0
230
0.9999999999999998
 40
0.2113248654051769
 41
1.493584467308565
 42
2.318923426136331
  0
LINE
  5
1C5
330
6C
100
AcDbEntity
  8
Visible (ANSI)
100
AcDbLine
 10
6.282092638341846
 20
5.867628114211132
 30
0.0
 11
6.302736779311081
 21
5.823146172550345
 31
0.0
  0
LINE
  5
1C6
330
6C
100
AcDbEntity
  8
Visible Narrow (ANSI)
100
AcDbLine
 10
10.18879073254102
 20
3.579531876567628
 30
0.0
 11
10.18879073254103
 21
3.776223900567497
 31
0.0
  0
SPLINE
  5
1C7
330
6C
100
AcDbEntity
  8
Visible (ANSI)
100
AcDbSpline
210
0.0
220
0.0
230
1.0
 70
     8
 71
     3
 72
    10
 73
     6
 74
     0
 42
0.0000000001
 43
0.0000000001
 40
0.0
 40
0.0
 40
0.0
 40
0.0
 40
0.0941903114288604
 40
0.0941903114288604
 40
0.1883828983551291
 40
0.1883828983551291
 40
0.1883828983551291
 40
0.1883828983551291
 10
10.2515510155928
 20
3.755382014094084
 30
0.0
 10
10.23972479532451
 20
3.755823078146169
 30
0.0
 10
10.22841321903751
 20
3.757846704944096
 30
0.0
 10
10.20716307947443
 20
3.764903800157854
 30
0.0
 10
10.19744912409636
 20
3.76986338705209
 30
0.0
 10
10.18879073254102
 20
3.776223900567497
 30
0.0
  0
LINE
  5
1C8
330
6C
100
AcDbEntity
  8
Visible (ANSI)
100
AcDbLine
 10
10.26172422014593
 20
3.777302223421771
 30
0.0
 11
10.25155101559279
 21
3.755382014094085
 31
0.0
  0
LINE
  5
1C9
330
6C
100
AcDbEntity
  8
Visible (ANSI)
100
AcDbLine
 10
10.26966834874996
 20
3.794419441601849
 30
0.0
 11
10.26172422014593
 21
3.777302223421771
 31
0.0
  0
SPLINE
  5
1CA
330
6C
100
AcDbEntity
  8
Visible (ANSI)
100
AcDbSpline
210
0.0
220
0.0
230
1.0
 70
     8
 71
     3
 72
    12
 73
     8
 74
     0
 42
0.0000000001
 43
0.0000000001
 40
0.0
 40
0.0
 40
0.0
 40
0.0
 40
0.0239739502168358
 40
0.0239739502168358
 40
0.0595399672300437
 40
0.0595399672300437
 40
0.0871668035964014
 40
0.0871668035964014
 40
0.0871668035964014
 40
0.0871668035964014
 10
10.23828820722408
 20
3.804801280899967
 30
0.0
 10
10.24043467418067
 20
3.802886810888537
 30
0.0
 10
10.24271060770961
 20
3.801230326032822
 30
0.0
 10
10.24878784053433
 20
3.797701308504653
 30
0.0
 10
10.25270681351305
 20
3.796173407172886
 30
0.0
 10
10.2600466790175
 20
3.794555500994754
 30
0.0
 10
10.26431291250939
 20
3.793990199729432
 30
0.0
 10
10.26966834874997
 20
3.794419441601849
 30
0.0
  0
LINE
  5
1CB
330
6C
100
AcDbEntity
  8
Visible (ANSI)
100
AcDbLine
 10
10.21650931836354
 20
3.79222723355368
 30
0.0
 11
10.23828820722408
 21
3.804801280899967
 31
0.0
  0
LINE
  5
1CC
330
6C
100
AcDbEntity
  8
Visible (ANSI)
100
AcDbLine
 10
10.18879073254103
 20
3.776223900567497
 30
0.0
 11
10.21650931836354
 21
3.79222723355368
 31
0.0
  0
LINE
  5
1CD
330
6C
100
AcDbEntity
  8
Visible Narrow (ANSI)
100
AcDbLine
 10
10.25155101559279
 20
3.755382014094085
 30
0.0
 11
10.25155101559279
 21
3.543297210253274
 31
0.0
  0
LINE
  5
1CE
330
6C
100
AcDbEntity
  8
Visible Narrow (ANSI)
100
AcDbLine
 10
10.13532391736652
 20
3.840701748766393
 30
0.0
 11
6.74510381152834
 21
5.798046239484147
 31
0.0
  0
LINE
  5
1CF
330
6C
100
AcDbEntity
  8
Visible (ANSI)
100
AcDbLine
 10
10.18482139204958
 20
3.869279129098863
 30
0.0
 11
10.16352999414918
 21
3.856986534789642
 31
0.0
  0
LINE
  5
1D0
330
6C
100
AcDbEntity
  8
Visible (ANSI)
100
AcDbLine
 10
10.16352999414918
 20
3.856986534789642
 30
0.0
 11
10.13532391736652
 21
3.840701748766393
 31
0.0
  0
SPLINE
  5
1D1
330
6C
100
AcDbEntity
  8
Visible (ANSI)
100
AcDbSpline
210
0.0
220
0.0
230
1.0
 70
     8
 71
     3
 72
    18
 73
    14
 74
     0
 42
0.0000000001
 43
0.0000000001
 40
0.0
 40
0.0
 40
0.0
 40
0.0
 40
0.0463207571304404
 40
0.0463207571304404
 40
0.1157911957626123
 40
0.1157911957626123
 40
0.1821423663504913
 40
0.1821423663504913
 40
0.2467684427687855
 40
0.2467684427687855
 40
0.2771222946568108
 40
0.2771222946568108
 40
0.3075316189092152
 40
0.3075316189092152
 40
0.3075316189092152
 40
0.3075316189092152
 10
10.13532391736652
 20
3.840701748766393
 30
0.0
 10
10.13294556696885
 20
3.846209233057103
 30
0.0
 10
10.12968740407508
 20
3.854645495166202
 30
0.0
 10
10.12396731358981
 20
3.881697596282006
 30
0.0
 10
10.12372758148137
 20
3.898424509968018
 30
0.0
 10
10.12939589805743
 20
3.930762140679552
 30
0.0
 10
10.13495212044704
 20
3.945950438829664
 30
0.0
 10
10.15067772514198
 20
3.973191433127427
 30
0.0
 10
10.16053814101493
 20
3.984991300170015
 30
0.0
 10
10.17736089728067
 20
3.999004359368178
 30
0.0
 10
10.18304693085009
 20
4.002947020504803
 30
0.0
 10
10.1949392735294
 20
4.009680162197862
 30
0.0
 10
10.2010624722469
 20
4.012427712062669
 30
0.0
 10
10.2074707905981
 20
4.014602829449872
 30
0.0
  0
SPLINE
  5
1D2
330
6C
100
AcDbEntity
  8
Visible (ANSI)
100
AcDbSpline
210
0.0
220
0.0
230
1.0
 70
     8
 71
     3
 72
    20
 73
    16
 74
     0
 42
0.0000000001
 43
0.0000000001
 40
0.0
 40
0.0
 40
0.0
 40
0.0
 40
0.0260425780366636
 40
0.0260425780366636
 40
0.0735977552005927
 40
0.0735977552005927
 40
0.1182658399326466
 40
0.1182658399326466
 40
0.165322417512308
 40
0.165322417512308
 40
0.2184850279651738
 40
0.2184850279651738
 40
0.2463872432247554
 40
0.2463872432247554
 40
0.2837815477723094
 40
0.2837815477723094
 40
0.2837815477723094
 40
0.2837815477723094
 10
10.2074707905981
 20
3.957448068784932
 30
0.0
 10
10.20418623866284
 20
3.956902747354684
 30
0.0
 10
10.20103323643141
 20
3.956079924406969
 30
0.0
 10
10.19233161729801
 20
3.952803361079611
 30
0.0
 10
10.18723627581544
 20
3.949656981268134
 30
0.0
 10
10.17883835885799
 20
3.941561800469832
 30
0.0
 10
10.17560197812253
 20
3.936878553656544
 30
0.0
 10
10.1708921196619
 20
3.926107690003772
 30
0.0
 10
10.16960831118319
 20
3.920161917560663
 30
0.0
 10
10.16909504380681
 20
3.90719149060729
 30
0.0
 10
10.17013803887615
 20
3.899912998833316
 30
0.0
 10
10.17397252633337
 20
3.888453622648011
 30
0.0
 10
10.17563741243771
 20
3.884629538926112
 30
0.0
 10
10.18014275721726
 20
3.876028279060397
 30
0.0
 10
10.18282821207497
 20
3.87205237982955
 30
0.0
 10
10.18482139204958
 20
3.869279129098863
 30
0.0
  0
LINE
  5
1D3
330
6C
100
AcDbEntity
  8
Visible (ANSI)
100
AcDbLine
 10
10.2074707905981
 20
3.982596163477506
 30
0.0
 11
10.2074707905981
 21
3.957448068784932
 31
0.0
  0
LINE
  5
1D4
330
6C
100
AcDbEntity
  8
Visible (ANSI)
100
AcDbLine
 10
10.2074707905981
 20
4.014602829449873
 30
0.0
 11
10.2074707905981
 21
3.982596163477506
 31
0.0
  0
SPLINE
  5
1D5
330
6C
100
AcDbEntity
  8
Visible (ANSI)
100
AcDbSpline
210
0.0
220
0.0
230
1.0
 70
     8
 71
     3
 72
    18
 73
    14
 74
     0
 42
0.0000000001
 43
0.0000000001
 40
0.0
 40
0.0
 40
0.0
 40
0.0
 40
0.0620230107299532
 40
0.0620230107299532
 40
0.1837535745295689
 40
0.1837535745295689
 40
0.3039232809933684
 40
0.3039232809933684
 40
0.4264916256442615
 40
0.4264916256442615
 40
0.4899131265969898
 40
0.4899131265969898
 40
0.5722117100995145
 40
0.5722117100995145
 40
0.5722117100995145
 40
0.5722117100995145
 10
6.859633128530014
 20
5.947477804848045
 30
0.0
 10
6.855508014557354
 20
5.943426675818212
 30
0.0
 10
6.851171919054712
 20
5.939006618894378
 30
0.0
 10
6.837559284243714
 20
5.924539088340989
 30
0.0
 10
6.827897990238403
 20
5.913453350493988
 30
0.0
 10
6.808706862701607
 20
5.889394612033165
 30
0.0
 10
6.799399178652964
 20
5.876728054864396
 30
0.0
 10
6.781736601607064
 20
5.851236709818398
 30
0.0
 10
6.773629708035318
 20
5.838737405136154
 30
0.0
 10
6.762390987658624
 20
5.821665815564676
 30
0.0
 10
6.758779122103095
 20
5.816241676256973
 30
0.0
 10
6.750821648660499
 20
5.804948892587438
 30
0.0
 10
6.74738789618721
 20
5.800698001264686
 30
0.0
 10
6.745103811528339
 20
5.798046239484148
 30
0.0
  0
LINE
  5
1D6
330
6C
100
AcDbEntity
  8
Visible Narrow (ANSI)
100
AcDbLine
 10
6.859633128530015
 20
5.947477804848045
 30
0.0
 11
10.2074707905981
 21
4.014602829449874
 31
0.0
  0
LINE
  5
1D7
330
6C
100
AcDbEntity
  8
Visible Narrow (ANSI)
100
AcDbLine
 10
13.86255307497119
 20
8.767998224511696
 30
0.0
 11
12.80373543707207
 21
9.379306872775478
 31
0.0
  0
SPLINE
  5
1D8
330
6C
100
AcDbEntity
  8
Visible (ANSI)
100
AcDbSpline
210
0.0
220
0.0
230
1.0
 70
     8
 71
     3
 72
    14
 73
    10
 74
     0
 42
0.0000000001
 43
0.0000000001
 40
0.1632942207531305
 40
0.1632942207531305
 40
0.1632942207531305
 40
0.1632942207531305
 40
0.1821423663529776
 40
0.1821423663529776
 40
0.2467684427721877
 40
0.2467684427721877
 40
0.2771222946606678
 40
0.2771222946606678
 40
0.3075316189135009
 40
0.3075316189135009
 40
0.3075316189135009
 40
0.3075316189135009
 10
12.87448458299274
 20
9.383100809949482
 30
0.0
 10
12.87261921481888
 20
9.384178636058656
 30
0.0
 10
12.87055072125457
 20
9.385107508754678
 30
0.0
 10
12.86052850252825
 20
9.388503616575031
 30
0.0
 10
12.85066808665533
 20
9.389165018665019
 30
0.0
 10
12.83384533038957
 20
9.387220756557422
 30
0.0
 10
12.82815929682015
 20
9.386170164005726
 30
0.0
 10
12.8162669541408
 20
9.383285772945678
 30
0.0
 10
12.81014375542329
 20
9.381481990162685
 30
0.0
 10
12.80373543707207
 20
9.379306872775476
 30
0.0
  0
LINE
  5
1D9
330
6C
100
AcDbEntity
  8
Visible (ANSI)
100
AcDbLine
 10
15.59376771848714
 20
7.813123906436342
 30
0.0
 11
15.59054342938448
 21
7.814985450617706
 31
0.0
  0
LINE
  5
1DA
330
6C
100
AcDbEntity
  8
Visible (ANSI)
100
AcDbLine
 10
13.90121497985457
 20
8.790319685703497
 30
0.0
 11
12.87448271330763
 21
9.383103836180046
 31
0.0
  0
LINE
  5
1DB
330
6C
100
AcDbEntity
  8
Visible Narrow (ANSI)
100
AcDbLine
 10
10.04896972474641
 20
9.463342596390333
 30
0.0
 11
6.714078985578264
 21
7.537942530413616
 31
0.0
  0
LINE
  5
1DC
330
6C
100
AcDbEntity
  8
Visible Narrow (ANSI)
100
AcDbLine
 10
6.714078985578264
 20
7.480787769748673
 30
0.0
 11
6.611061727175064
 21
7.421310727878409
 31
0.0
  0
SPLINE
  5
1DD
330
6C
100
AcDbEntity
  8
Visible (ANSI)
100
AcDbSpline
210
0.0
220
0.0
230
1.0
 70
     8
 71
     3
 72
    18
 73
    14
 74
     0
 42
0.0000000001
 43
0.0000000001
 40
0.0
 40
0.0
 40
0.0
 40
0.0
 40
0.0825085194092507
 40
0.0825085194092507
 40
0.1675381341389686
 40
0.1675381341389686
 40
0.2693387279903901
 40
0.2693387279903901
 40
0.374394066003397
 40
0.374394066003397
 40
0.4661749579255999
 40
0.4661749579255999
 40
0.5577143937407123
 40
0.5577143937407123
 40
0.5577143937407123
 40
0.5577143937407123
 10
6.530765340919876
 20
7.432106348323962
 30
0.0
 10
6.538353740142636
 20
7.437663831642376
 30
0.0
 10
6.54645747982276
 20
7.445088221623593
 30
0.0
 10
6.564070767314563
 20
7.464322270721457
 30
0.0
 10
6.57254562488044
 20
7.47495559214064
 30
0.0
 10
6.591529981181636
 20
7.498059231331414
 30
0.0
 10
6.60179726397667
 20
7.510037720130073
 30
0.0
 10
6.624297827843446
 20
7.530638790679033
 30
0.0
 10
6.63616951077163
 20
7.538753522954442
 30
0.0
 10
6.659651192752046
 20
7.547984383403077
 30
0.0
 10
6.670820695556465
 20
7.549748150432224
 30
0.0
 10
6.693087555050596
 20
7.547813304319667
 30
0.0
 10
6.703945022568725
 20
7.544149241544715
 30
0.0
 10
6.714078985578264
 20
7.537942530413616
 30
0.0
  0
SPLINE
  5
1DE
330
6C
100
AcDbEntity
  8
Visible (ANSI)
100
AcDbSpline
210
0.0
220
0.0
230
1.0
 70
     8
 71
     3
 72
    18
 73
    14
 74
     0
 42
0.0000000001
 43
0.0000000001
 40
0.0
 40
0.0
 40
0.0
 40
0.0
 40
0.0437974267573149
 40
0.0437974267573149
 40
0.0907018522358021
 40
0.0907018522358021
 40
0.144497773897534
 40
0.144497773897534
 40
0.2103288059396452
 40
0.2103288059396452
 40
0.2698796928579882
 40
0.2698796928579882
 40
0.352984042710908
 40
0.352984042710908
 40
0.352984042710908
 40
0.352984042710908
 10
6.714078985578264
 20
7.480787769748675
 30
0.0
 10
6.710278456284698
 20
7.483277211527419
 30
0.0
 10
6.705947480468809
 20
7.484773211186962
 30
0.0
 10
6.696239473492948
 20
7.485758622782626
 30
0.0
 10
6.690995862518554
 20
7.485084580582685
 30
0.0
 10
6.679585621719461
 20
7.481616876226437
 30
0.0
 10
6.673227454982212
 20
7.478475051793267
 30
0.0
 10
6.658399843299282
 20
7.468873599459926
 30
0.0
 10
6.6500727129637
 20
7.462015769280628
 30
0.0
 10
6.633187497787709
 20
7.446994914675975
 30
0.0
 10
6.624987146349973
 20
7.439270887411749
 30
0.0
 10
6.603725524269901
 20
7.420458062055298
 30
0.0
 10
6.591761744635152
 20
7.411041508802237
 30
0.0
 10
6.580661668687863
 20
7.40378888243409
 30
0.0
  0
LINE
  5
1DF
330
6C
100
AcDbEntity
  8
Visible Narrow (ANSI)
100
AcDbLine
 10
6.714078985578264
 20
7.537942530413616
 30
0.0
 11
6.714078985578264
 21
7.480787769748675
 31
0.0
  0
SPLINE
  5
1E0
330
6C
100
AcDbEntity
  8
Visible (ANSI)
100
AcDbSpline
210
0.0
220
0.0
230
1.0
 70
     8
 71
     3
 72
    12
 73
     8
 74
     0
 42
0.0000000001
 43
0.0000000001
 40
0.0
 40
0.0
 40
0.0
 40
0.0
 40
0.1188717060401955
 40
0.1188717060401955
 40
0.2392425706074543
 40
0.2392425706074543
 40
0.2694054084688397
 40
0.2694054084688397
 40
0.2694054084688397
 40
0.2694054084688397
 10
10.04896972474641
 20
9.463342596390333
 30
0.0
 10
10.03761826666301
 20
9.469520600268809
 30
0.0
 10
10.02725989911098
 20
9.473893648023175
 30
0.0
 10
10.00961355015047
 20
9.478784445605329
 30
0.0
 10
10.00258437552075
 20
9.479193031591066
 30
0.0
 10
9.996762170323044
 20
9.477665768963534
 30
0.0
 10
9.99575286374632
 20
9.47725930624078
 30
0.0
 10
9.994904779992097
 20
9.476768195604124
 30
0.0
  0
LINE
  5
1E1
330
6C
100
AcDbEntity
  8
Visible (ANSI)
100
AcDbLine
 10
9.994906211027313
 20
9.476771934574873
 30
0.0
 11
6.636142499297364
 21
7.537588801463246
 31
0.0
  0
LINE
  5
1E2
330
6C
100
AcDbEntity
  8
Visible (ANSI)
100
AcDbLine
 10
6.563374763290171
 20
7.413279289540351
 30
0.0
 11
6.558738212790241
 21
7.415956203219602
 31
0.0
  0
LINE
  5
1E3
330
6C
100
AcDbEntity
  8
Visible (ANSI)
100
AcDbLine
 10
6.558738212790241
 20
7.415956203219602
 30
0.0
 11
6.558483926742386
 21
7.416103015337778
 31
0.0
  0
LINE
  5
1E4
330
6C
100
AcDbEntity
  8
Visible (ANSI)
100
AcDbLine
 10
6.558483926742386
 20
7.416103015337778
 30
0.0
 11
6.535993124233783
 21
7.429088086220414
 31
0.0
  0
ELLIPSE
  5
1E5
330
6C
100
AcDbEntity
  8
Visible (ANSI)
100
AcDbEllipse
 10
6.654902347608618
 20
7.395999333869648
 30
0.0
 11
-0.1319999999999878
 21
0.0000000000000053
 31
0.0
210
0.0
220
0.0
230
1.0
 40
0.5773502691896394
 41
5.834060531432125
 42
5.967143161579944
  0
LINE
  5
1E6
330
6C
100
AcDbEntity
  8
Visible (ANSI)
100
AcDbLine
 10
6.563374763290171
 20
7.413279289540351
 30
0.0
 11
6.529439913088898
 21
7.419686021582243
 31
0.0
  0
LINE
  5
1E7
330
6C
100
AcDbEntity
  8
Visible (ANSI)
100
AcDbLine
 10
6.611061727175064
 20
7.421310727878409
 30
0.0
 11
6.588827692888805
 21
7.408473902198067
 31
0.0
  0
LINE
  5
1E8
330
6C
100
AcDbEntity
  8
Visible (ANSI)
100
AcDbLine
 10
6.595973022303907
 20
7.407124899310413
 30
0.0
 11
6.588827692888805
 21
7.408473902198067
 31
0.0
  0
ELLIPSE
  5
1E9
330
6C
100
AcDbEntity
  8
Visible (ANSI)
100
AcDbEllipse
 10
6.654902347608627
 20
7.395999333869649
 30
0.0
 11
-0.0619999999999982
 21
-0.0000000000000002
 31
0.0
210
0.0
220
0.0
230
1.0
 40
0.5773502691896283
 41
5.497787143782148
 42
5.967143161579914
  0
SPLINE
  5
1EA
330
6C
100
AcDbEntity
  8
Visible (ANSI)
100
AcDbSpline
210
0.0
220
0.0
230
1.0
 70
     8
 71
     3
 72
    10
 73
     6
 74
     0
 42
0.0000000001
 43
0.0000000001
 40
0.0464495604332353
 40
0.0464495604332353
 40
0.0464495604332353
 40
0.0464495604332353
 40
0.0963149875354558
 40
0.0963149875354558
 40
0.149543791433186
 40
0.149543791433186
 40
0.149543791433186
 40
0.149543791433186
 10
6.526674931567439
 20
7.381783554842828
 30
0.0
 10
6.523904489853307
 20
7.386424110730171
 30
0.0
 10
6.522622390235745
 20
7.391964005739798
 30
0.0
 10
6.523307142786093
 20
7.404774203684313
 30
0.0
 10
6.525489773039228
 20
7.412027348639878
 30
0.0
 10
6.529439913088898
 20
7.419686021582243
 30
0.0
  0
SPLINE
  5
1EB
330
6C
100
AcDbEntity
  8
Visible (ANSI)
100
AcDbSpline
210
0.0
220
0.0
230
1.0
 70
     8
 71
     3
 72
     8
 73
     4
 74
     0
 42
0.0000000001
 43
0.0000000001
 40
0.0
 40
0.0
 40
0.0
 40
0.0
 40
0.0190871282151804
 40
0.0190871282151804
 40
0.0190871282151804
 40
0.0190871282151804
 10
6.595973022303907
 20
7.407124899310413
 30
0.0
 10
6.595202054429068
 20
7.405479279620175
 30
0.0
 10
6.594574113334124
 20
7.403929105143234
 30
0.0
 10
6.594091649197178
 20
7.402483393277634
 30
0.0
  0
LINE
  5
1EC
330
6C
100
AcDbEntity
  8
Visible Narrow (ANSI)
100
AcDbLine
 10
6.611061727175064
 20
7.421310727878409
 30
0.0
 11
6.611061727175064
 21
7.401919128756552
 31
0.0
  0
LINE
  5
1ED
330
6C
100
AcDbEntity
  8
Visible (ANSI)
100
AcDbLine
 10
6.535993124233783
 20
7.429088086220414
 30
0.0
 11
6.530765340919876
 21
7.432106348323962
 31
0.0
  0
LINE
  5
1EE
330
6C
100
AcDbEntity
  8
Visible (ANSI)
100
AcDbLine
 10
6.588827692888805
 20
7.408473902198067
 30
0.0
 11
6.580703769007016
 21
7.403783552558039
 31
0.0
  0
LINE
  5
1EF
330
6C
100
AcDbEntity
  8
Visible (ANSI)
100
AcDbLine
 10
6.579569427747069
 20
7.403929295656729
 30
0.0
 11
6.563374763290171
 21
7.413279289540351
 31
0.0
  0
LINE
  5
1F0
330
6C
100
AcDbEntity
  8
Visible (ANSI)
100
AcDbLine
 10
6.52290234760863
 20
7.379605596673977
 30
0.0
 11
6.52290234760863
 21
7.396261948972892
 31
0.0
  0
SPLINE
  5
1F1
330
6C
100
AcDbEntity
  8
Visible (ANSI)
100
AcDbSpline
210
0.0
220
0.0
230
1.0
 70
     8
 71
     3
 72
    12
 73
     8
 74
     0
 42
0.0000000001
 43
0.0000000001
 40
0.0
 40
0.0
 40
0.0
 40
0.0
 40
0.1195541800790786
 40
0.1195541800790786
 40
0.1877678317403692
 40
0.1877678317403692
 40
0.2766736471331273
 40
0.2766736471331273
 40
0.2766736471331273
 40
0.2766736471331273
 10
10.06711981613477
 20
9.462166465912522
 30
0.0
 10
10.08199996070149
 20
9.464132741819989
 30
0.0
 10
10.09764480078786
 20
9.465597835824
 30
0.0
 10
10.12210956180242
 20
9.467051284858815
 30
0.0
 10
10.13088540874767
 20
9.467404284930836
 30
0.0
 10
10.15050245561305
 20
9.467935314564604
 30
0.0
 10
10.15879645795947
 20
9.468002756744999
 30
0.0
 10
10.16393197326593
 20
9.468050540134459
 30
0.0
  0
LINE
  5
1F2
330
6C
100
AcDbEntity
  8
Visible (ANSI)
100
AcDbLine
 10
10.07209098674683
 20
9.453389451935043
 30
0.0
 11
10.06711981613477
 21
9.462166465912522
 31
0.0
  0
LINE
  5
1F3
330
6C
100
AcDbEntity
  8
Visible (ANSI)
100
AcDbLine
 10
10.14725943226666
 20
9.447407739473566
 30
0.0
 11
10.14284254019593
 21
9.441939045615724
 31
0.0
  0
LINE
  5
1F4
330
6C
100
AcDbEntity
  8
Visible (ANSI)
100
AcDbLine
 10
10.16393197326582
 20
9.468050540134459
 30
0.0
 11
10.14725943226666
 21
9.447407739473566
 31
0.0
  0
ELLIPSE
  5
1F5
330
6C
100
AcDbEntity
  8
Visible (ANSI)
100
AcDbEllipse
 10
10.10814636271618
 20
9.389730695569181
 30
0.0
 11
0.1320000000003624
 21
-0.0000000000000084
 31
0.0
210
0.0
220
0.0
230
1.0
 40
0.5773502691896243
 41
1.886838472395107
 42
1.975661458032963
  0
ENDSEC
  0
SECTION
  2
OBJECTS
  0
DICTIONARY
  5
C
330
0
100
AcDbDictionary
281
     1
  3
ACAD_CIP_PREVIOUS_PRODUCT_INFO
350
1F6
  3
ACAD_COLOR
350
63
  3
ACAD_GROUP
350
D
  3
ACAD_LAYOUT
350
62
  3
ACAD_MATERIAL
350
10
  3
ACAD_MLEADERSTYLE
350
66
  3
ACAD_MLINESTYLE
350
5F
  3
ACAD_PLOTSETTINGS
350
61
  3
ACAD_PLOTSTYLENAME
350
E
  3
ACAD_SCALELIST
350
42
  3
ACAD_TABLESTYLE
350
64
  3
ACAD_VISUALSTYLE
350
29
  3
ACDB_RECOMPOSE_DATA
350
24F
  3
AcDbVariableDictionary
350
76
  3
DWGPROPS
350
250
  0
DICTIONARY
  5
1FD
330
8
100
AcDbDictionary
280
     1
281
     1
  0
XRECORD
  5
1F6
102
{ACAD_REACTORS
330
C
102
}
330
C
100
AcDbXrecord
280
     1
300
AMECH_PP
300
2012
300
85794PDSS_2012_0F
  0
DICTIONARY
  5
63
102
{ACAD_REACTORS
330
C
102
}
330
C
100
AcDbDictionary
281
     1
  0
DICTIONARY
  5
D
102
{ACAD_REACTORS
330
C
102
}
330
C
100
AcDbDictionary
281
     1
  0
DICTIONARY
  5
62
102
{ACAD_REACTORS
330
C
102
}
330
C
100
AcDbDictionary
281
     1
  3
Layout1
350
6B
  3
Layout2
350
73
  3
Model
350
6F
  0
DICTIONARY
  5
10
102
{ACAD_REACTORS
330
C
102
}
330
C
100
AcDbDictionary
281
     1
  3
ByBlock
350
19
  3
ByLayer
350
11
  3
Global
350
21
  0
DICTIONARY
  5
66
102
{ACAD_REACTORS
330
C
102
}
330
C
100
AcDbDictionary
281
     1
  3
Standard
350
67
  0
DICTIONARY
  5
5F
102
{ACAD_REACTORS
330
C
102
}
330
C
100
AcDbDictionary
281
     1
  3
Standard
350
60
  0
DICTIONARY
  5
61
102
{ACAD_REACTORS
330
C
102
}
330
C
100
AcDbDictionary
281
     1
  0
ACDBDICTIONARYWDFLT
  5
E
102
{ACAD_REACTORS
330
C
102
}
330
C
100
AcDbDictionary
281
     1
  3
Normal
350
F
100
AcDbDictionaryWithDefault
340
F
  0
DICTIONARY
  5
42
102
{ACAD_REACTORS
330
C
102
}
330
C
100
AcDbDictionary
281
     1
  3
A0
350
43
  3
A1
350
44
  3
A2
350
45
  3
A3
350
46
  3
A4
350
47
  3
A5
350
48
  3
A6
350
49
  3
A7
350
4A
  3
A8
350
4B
  3
A9
350
4C
  3
B0
350
4D
  3
B1
350
4E
  3
B2
350
4F
  3
B3
350
50
  3
B4
350
51
  3
B5
350
52
  3
B6
350
53
  0
DICTIONARY
  5
64
102
{ACAD_REACTORS
330
C
102
}
330
C
100
AcDbDictionary
281
     1
  3
Standard
350
65
  0
DICTIONARY
  5
29
102
{ACAD_REACTORS
330
C
102
}
330
C
100
AcDbDictionary
281
     1
  3
2dWireframe
350
2F
  3
Basic
350
2E
  3
Brighten
350
35
  3
ColorChange
350
39
  3
Conceptual
350
32
  3
Dim
350
34
  3
EdgeColorOff
350
41
  3
Facepattern
350
38
  3
Flat
350
2A
  3
FlatWithEdges
350
2B
  3
Gouraud
350
2C
  3
GouraudWithEdges
350
2D
  3
Hidden
350
31
  3
JitterOff
350
3F
  3
Linepattern
350
37
  3
OverhangOff
350
40
  3
Realistic
350
33
  3
Shaded
350
3E
  3
Shaded with edges
350
3D
  3
Shades of Gray
350
3A
  3
Sketchy
350
3B
  3
Thicken
350
36
  3
Wireframe
350
30
  3
X-Ray
350
3C
  0
XRECORD
  5
24F
102
{ACAD_REACTORS
330
C
102
}
330
C
100
AcDbXrecord
280
     1
 90
        1
330
65
  0
DICTIONARY
  5
76
102
{ACAD_REACTORS
330
C
102
}
330
C
100
AcDbDictionary
281
     1
  3
CANNOSCALE
350
79
  3
CMLEADERSTYLE
350
78
  3
CTABLESTYLE
350
77
  3
DIMASSOC
350
241
  3
HIDETEXT
350
240
  3
INDEXCTL
350
23F
  3
LAYEREVAL
350
23C
  3
LAYERNOTIFY
350
23D
  3
LIGHTINGUNITS
350
23B
  3
MSLTSCALE
350
23A
  3
SORTENTS
350
23E
  3
XCLIPFRAME
350
24A
  0
XRECORD
  5
250
102
{ACAD_REACTORS
330
C
102
}
330
C
100
AcDbXrecord
280
     1
  1
DWGPROPS COOKIE
  2

  3

  4
JIM WALLS
  6

  7

  8
jwalls
  9

300
Manager=
301
Company=
302
Category=
303
Part Number=
304
Description=
305
Project=
306
Designer=JIM WALLS
307
Engineer=
308
Authority=
309
Cost Center=
 40
0.0007647800925926
 41
2456240.497702893
 42
2456240.522255972
  1

 90
       16
300
Vendor=
300
User Status=
300
Design Status=WorkInProgress
300
Checked by=
300
Engr Approved by=
300
Mfg Approved by=
  0
LAYOUT
  5
6B
102
{ACAD_XDICTIONARY
360
285
102
}
102
{ACAD_REACTORS
330
62
102
}
330
62
100
AcDbPlotSettings
  1

  2

  4

  6

 40
0.0
 41
0.0
 42
0.0
 43
0.0
 44
0.0
 45
0.0
 46
0.0
 47
0.0
 48
0.0
 49
0.0
140
0.0
141
0.0
142
1.0
143
1.0
 70
   688
 72
     0
 73
     0
 74
     5
  7

 75
    16
147
1.0
148
0.0
149
0.0
100
AcDbLayout
  1
Layout1
 70
     1
 71
     1
 10
0.0
 20
0.0
 11
22.0
 21
17.0
 12
0.0
 22
0.0
 32
0.0
 14
0.0
 24
0.0
 34
0.0
 15
22.0
 25
17.0
 35
0.0
146
0.0
 13
0.0
 23
0.0
 33
0.0
 16
1.0
 26
0.0
 36
0.0
 17
0.0
 27
1.0
 37
0.0
 76
     0
330
68
  0
LAYOUT
  5
73
102
{ACAD_XDICTIONARY
360
289
102
}
102
{ACAD_REACTORS
330
62
102
}
330
62
100
AcDbPlotSettings
  1

  2

  4

  6

 40
0.0
 41
0.0
 42
0.0
 43
0.0
 44
0.0
 45
0.0
 46
0.0
 47
0.0
 48
0.0
 49
0.0
140
0.0
141
0.0
142
1.0
143
1.0
 70
   688
 72
     0
 73
     0
 74
     5
  7

 75
    16
147
1.0
148
0.0
149
0.0
100
AcDbLayout
  1
Layout2
 70
     1
 71
     2
 10
0.0
 20
0.0
 11
12.0
 21
9.0
 12
0.0
 22
0.0
 32
0.0
 14
0.0
 24
0.0
 34
0.0
 15
0.0
 25
0.0
 35
0.0
146
0.0
 13
0.0
 23
0.0
 33
0.0
 16
1.0
 26
0.0
 36
0.0
 17
0.0
 27
1.0
 37
0.0
 76
     0
330
70
  0
LAYOUT
  5
6F
102
{ACAD_XDICTIONARY
360
287
102
}
102
{ACAD_REACTORS
330
62
102
}
330
62
100
AcDbPlotSettings
  1

  2

  4

  6

 40
0.0
 41
0.0
 42
0.0
 43
0.0
 44
0.0
 45
0.0
 46
0.0
 47
0.0
 48
0.0
 49
0.0
140
0.0
141
0.0
142
1.0
143
1.0
 70
  1712
 72
     0
 73
     0
 74
     0
  7

 75
     0
147
1.0
148
0.0
149
0.0
100
AcDbLayout
  1
Model
 70
     1
 71
     0
 10
0.0
 20
0.0
 11
12.0
 21
9.0
 12
0.0
 22
0.0
 32
0.0
 14
0.0
 24
0.0
 34
0.0
 15
0.0
 25
0.0
 35
0.0
146
0.0
 13
0.0
 23
0.0
 33
0.0
 16
1.0
 26
0.0
 36
0.0
 17
0.0
 27
1.0
 37
0.0
 76
     0
330
6C
331
57
  0
MATERIAL
  5
19
102
{ACAD_XDICTIONARY
360
1A
102
}
102
{ACAD_REACTORS
330
10
102
}
330
10
100
AcDbMaterial
  1
ByBlock
 72
     0
 43
0.0208333333333333
 43
0.0
 43
0.0
 43
0.0
 43
0.0
 43
0.0208333333333333
 43
0.0
 43
0.0
 43
0.0
 43
0.0
 43
1.0
 43
0.0
 43
0.0
 43
0.0
 43
0.0
 43
1.0
 77
     0
 47
0.0208333333333333
 47
0.0
 47
0.0
 47
0.0
 47
0.0
 47
0.0208333333333333
 47
0.0
 47
0.0
 47
0.0
 47
0.0
 47
1.0
 47
0.0
 47
0.0
 47
0.0
 47
0.0
 47
1.0
171
     0
 49
0.0208333333333333
 49
0.0
 49
0.0
 49
0.0
 49
0.0
 49
0.0208333333333333
 49
0.0
 49
0.0
 49
0.0
 49
0.0
 49
1.0
 49
0.0
 49
0.0
 49
0.0
 49
0.0
 49
1.0
175
     0
142
0.0208333333333333
142
0.0
142
0.0
142
0.0
142
0.0
142
0.0208333333333333
142
0.0
142
0.0
142
0.0
142
0.0
142
1.0
142
0.0
142
0.0
142
0.0
142
0.0
142
1.0
179
     0
144
0.0208333333333333
144
0.0
144
0.0
144
0.0
144
0.0
144
0.0208333333333333
144
0.0
144
0.0
144
0.0
144
0.0
144
1.0
144
0.0
144
0.0
144
0.0
144
0.0
144
1.0
147
0.0208333333333333
147
0.0
147
0.0
147
0.0
147
0.0
147
0.0208333333333333
147
0.0
147
0.0
147
0.0
147
0.0
147
1.0
147
0.0
147
0.0
147
0.0
147
0.0
147
1.0
  0
MATERIAL
  5
11
102
{ACAD_XDICTIONARY
360
12
102
}
102
{ACAD_REACTORS
330
10
102
}
330
10
100
AcDbMaterial
  1
ByLayer
 72
     0
 43
0.0208333333333333
 43
0.0
 43
0.0
 43
0.0
 43
0.0
 43
0.0208333333333333
 43
0.0
 43
0.0
 43
0.0
 43
0.0
 43
1.0
 43
0.0
 43
0.0
 43
0.0
 43
0.0
 43
1.0
 77
     0
 47
0.0208333333333333
 47
0.0
 47
0.0
 47
0.0
 47
0.0
 47
0.0208333333333333
 47
0.0
 47
0.0
 47
0.0
 47
0.0
 47
1.0
 47
0.0
 47
0.0
 47
0.0
 47
0.0
 47
1.0
171
     0
 49
0.0208333333333333
 49
0.0
 49
0.0
 49
0.0
 49
0.0
 49
0.0208333333333333
 49
0.0
 49
0.0
 49
0.0
 49
0.0
 49
1.0
 49
0.0
 49
0.0
 49
0.0
 49
0.0
 49
1.0
175
     0
142
0.0208333333333333
142
0.0
142
0.0
142
0.0
142
0.0
142
0.0208333333333333
142
0.0
142
0.0
142
0.0
142
0.0
142
1.0
142
0.0
142
0.0
142
0.0
142
0.0
142
1.0
179
     0
144
0.0208333333333333
144
0.0
144
0.0
144
0.0
144
0.0
144
0.0208333333333333
144
0.0
144
0.0
144
0.0
144
0.0
144
1.0
144
0.0
144
0.0
144
0.0
144
0.0
144
1.0
147
0.0208333333333333
147
0.0
147
0.0
147
0.0
147
0.0
147
0.0208333333333333
147
0.0
147
0.0
147
0.0
147
0.0
147
1.0
147
0.0
147
0.0
147
0.0
147
0.0
147
1.0
  0
MATERIAL
  5
21
102
{ACAD_XDICTIONARY
360
22
102
}
102
{ACAD_REACTORS
330
10
102
}
330
10
100
AcDbMaterial
  1
Global
 72
     0
 43
0.0208333333333333
 43
0.0
 43
0.0
 43
0.0
 43
0.0
 43
0.0208333333333333
 43
0.0
 43
0.0
 43
0.0
 43
0.0
 43
1.0
 43
0.0
 43
0.0
 43
0.0
 43
0.0
 43
1.0
 77
     0
 47
0.0208333333333333
 47
0.0
 47
0.0
 47
0.0
 47
0.0
 47
0.0208333333333333
 47
0.0
 47
0.0
 47
0.0
 47
0.0
 47
1.0
 47
0.0
 47
0.0
 47
0.0
 47
0.0
 47
1.0
171
     0
 49
0.0208333333333333
 49
0.0
 49
0.0
 49
0.0
 49
0.0
 49
0.0208333333333333
 49
0.0
 49
0.0
 49
0.0
 49
0.0
 49
1.0
 49
0.0
 49
0.0
 49
0.0
 49
0.0
 49
1.0
175
     0
142
0.0208333333333333
142
0.0
142
0.0
142
0.0
142
0.0
142
0.0208333333333333
142
0.0
142
0.0
142
0.0
142
0.0
142
1.0
142
0.0
142
0.0
142
0.0
142
0.0
142
1.0
179
     0
144
0.0208333333333333
144
0.0
144
0.0
144
0.0
144
0.0
144
0.0208333333333333
144
0.0
144
0.0
144
0.0
144
0.0
144
1.0
144
0.0
144
0.0
144
0.0
144
0.0
144
1.0
147
0.0208333333333333
147
0.0
147
0.0
147
0.0
147
0.0
147
0.0208333333333333
147
0.0
147
0.0
147
0.0
147
0.0
147
1.0
147
0.0
147
0.0
147
0.0
147
0.0
147
1.0
  0
MLEADERSTYLE
  5
67
102
{ACAD_XDICTIONARY
360
24D
102
}
102
{ACAD_REACTORS
330
66
102
}
330
66
100
AcDbMLeaderStyle
170
     2
171
     1
172
     0
 90
        2
 40
0.0
 41
0.0
173
     1
 91
-1056964608
340
5B
 92
       -2
290
     1
 42
0.09
291
     1
 43
0.36
  3
Standard
 44
0.18
300

342
55
174
     1
178
     6
175
     1
176
     0
 93
-1056964608
 45
0.18
292
     0
297
     0
 46
0.18
 94
-1056964608
 47
1.0
 49
1.0
140
1.0
293
     1
141
0.0
294
     1
177
     0
142
1.0
295
     0
296
     0
143
0.125
1001
ACAD_MLEADERVER
1070
     2
  0
MLINESTYLE
  5
60
102
{ACAD_REACTORS
330
5F
102
}
330
5F
100
AcDbMlineStyle
  2
STANDARD
 70
     0
  3

 62
   256
 51
90.0
 52
90.0
 71
     2
 49
0.5
 62
   256
  6
BYLAYER
 49
-0.5
 62
   256
  6
BYLAYER
  0
ACDBPLACEHOLDER
  5
F
102
{ACAD_REACTORS
330
E
102
}
330
E
  0
SCALE
  5
43
102
{ACAD_REACTORS
330
42
102
}
330
42
100
AcDbScale
 70
     0
300
1:1
140
1.0
141
1.0
290
     1
  0
SCALE
  5
44
102
{ACAD_REACTORS
330
42
102
}
330
42
100
AcDbScale
 70
     0
300
1/128" = 1'-0"
140
0.0078125
141
12.0
290
     0
  0
SCALE
  5
45
102
{ACAD_REACTORS
330
42
102
}
330
42
100
AcDbScale
 70
     0
300
1/64" = 1'-0"
140
0.015625
141
12.0
290
     0
  0
SCALE
  5
46
102
{ACAD_REACTORS
330
42
102
}
330
42
100
AcDbScale
 70
     0
300
1/32" = 1'-0"
140
0.03125
141
12.0
290
     0
  0
SCALE
  5
47
102
{ACAD_REACTORS
330
42
102
}
330
42
100
AcDbScale
 70
     0
300
1/16" = 1'-0"
140
0.0625
141
12.0
290
     0
  0
SCALE
  5
48
102
{ACAD_REACTORS
330
42
102
}
330
42
100
AcDbScale
 70
     0
300
3/32" = 1'-0"
140
0.09375
141
12.0
290
     0
  0
SCALE
  5
49
102
{ACAD_REACTORS
330
42
102
}
330
42
100
AcDbScale
 70
     0
300
1/8" = 1'-0"
140
0.125
141
12.0
290
     0
  0
SCALE
  5
4A
102
{ACAD_REACTORS
330
42
102
}
330
42
100
AcDbScale
 70
     0
300
3/16" = 1'-0"
140
0.1875
141
12.0
290
     0
  0
SCALE
  5
4B
102
{ACAD_REACTORS
330
42
102
}
330
42
100
AcDbScale
 70
     0
300
1/4" = 1'-0"
140
0.25
141
12.0
290
     0
  0
SCALE
  5
4C
102
{ACAD_REACTORS
330
42
102
}
330
42
100
AcDbScale
 70
     0
300
3/8" = 1'-0"
140
0.375
141
12.0
290
     0
  0
SCALE
  5
4D
102
{ACAD_REACTORS
330
42
102
}
330
42
100
AcDbScale
 70
     0
300
1/2" = 1'-0"
140
0.5
141
12.0
290
     0
  0
SCALE
  5
4E
102
{ACAD_REACTORS
330
42
102
}
330
42
100
AcDbScale
 70
     0
300
3/4" = 1'-0"
140
0.75
141
12.0
290
     0
  0
SCALE
  5
4F
102
{ACAD_REACTORS
330
42
102
}
330
42
100
AcDbScale
 70
     0
300
1" = 1'-0"
140
1.0
141
12.0
290
     0
  0
SCALE
  5
50
102
{ACAD_REACTORS
330
42
102
}
330
42
100
AcDbScale
 70
     0
300
1-1/2" = 1'-0"
140
1.5
141
12.0
290
     0
  0
SCALE
  5
51
102
{ACAD_REACTORS
330
42
102
}
330
42
100
AcDbScale
 70
     0
300
3" = 1'-0"
140
3.0
141
12.0
290
     0
  0
SCALE
  5
52
102
{ACAD_REACTORS
330
42
102
}
330
42
100
AcDbScale
 70
     0
300
6" = 1'-0"
140
6.0
141
12.0
290
     0
  0
SCALE
  5
53
102
{ACAD_REACTORS
330
42
102
}
330
42
100
AcDbScale
 70
     0
300
1'-0" = 1'-0"
140
12.0
141
12.0
290
     0
  0
TABLESTYLE
  5
65
102
{ACAD_XDICTIONARY
360
1F7
102
}
102
{ACAD_REACTORS
330
64
102
}
330
64
100
AcDbTableStyle
  3
Standard
 70
     0
 71
     0
 40
0.06
 41
0.06
280
     0
281
     0
  7
Standard
140
0.18
170
     2
 62
     0
 63
     7
283
     0
274
    -2
284
     1
 64
     0
275
    -2
285
     1
 65
     0
276
    -2
286
     1
 66
     0
277
    -2
287
     1
 67
     0
278
    -2
288
     1
 68
     0
279
    -2
289
     1
 69
     0
  7
Standard
140
0.25
170
     5
 62
     0
 63
     7
283
     0
274
    -2
284
     1
 64
     0
275
    -2
285
     1
 65
     0
276
    -2
286
     1
 66
     0
277
    -2
287
     1
 67
     0
278
    -2
288
     1
 68
     0
279
    -2
289
     1
 69
     0
  7
Standard
140
0.18
170
     5
 62
     0
 63
     7
283
     0
274
    -2
284
     1
 64
     0
275
    -2
285
     1
 65
     0
276
    -2
286
     1
 66
     0
277
    -2
287
     1
 67
     0
278
    -2
288
     1
 68
     0
279
    -2
289
     1
 69
     0
  0
VISUALSTYLE
  5
2F
102
{ACAD_XDICTIONARY
360
25E
102
}
102
{ACAD_REACTORS
330
29
102
}
330
29
100
AcDbVisualStyle
  2
2dWireframe
 70
     4
 71
     0
 72
     2
 73
     0
 90
        0
 40
-0.6
 41
-30.0
 62
     5
 63
     7
 74
     1
 91
        4
 64
     7
 65
   257
 75
     1
175
     1
 42
1.0
 92
        0
 66
   257
 43
1.0
 76
     1
 77
     6
 78
     2
 67
     7
 79
     5
170
     0
171
     0
290
     0
174
     0
 93
        1
 44
0.0
173
     0
291
     0
 45
0.0
1001
ACAD
1000
AcDbSavedByObjectVersion
1070
     0
  0
VISUALSTYLE
  5
2E
102
{ACAD_XDICTIONARY
360
25C
102
}
102
{ACAD_REACTORS
330
29
102
}
330
29
100
AcDbVisualStyle
  2
Basic
 70
     7
 71
     1
 72
     0
 73
     1
 90
        0
 40
-0.6
 41
-30.0
 62
     5
 63
     7
 74
     0
 91
        4
 64
     7
 65
   257
 75
     1
175
     1
 42
1.0
 92
        8
 66
     7
 43
1.0
 76
     1
 77
     6
 78
     2
 67
     7
 79
     5
170
     0
171
     0
290
     0
174
     0
 93
        1
 44
0.0
173
     0
291
     1
 45
0.0
1001
ACAD
1000
AcDbSavedByObjectVersion
1070
     0
  0
VISUALSTYLE
  5
35
102
{ACAD_XDICTIONARY
360
26A
102
}
102
{ACAD_REACTORS
330
29
102
}
330
29
100
AcDbVisualStyle
  2
Brighten
 70
    12
 71
     2
 72
     2
 73
     0
 90
        0
 40
-0.6
 41
-30.0
 62
     5
 63
     7
 74
     1
 91
        4
 64
     7
 65
   257
 75
     1
175
     1
 42
1.0
 92
        8
 66
     7
 43
1.0
 76
     1
 77
     6
 78
     2
 67
     7
 79
     5
170
     0
171
     0
290
     0
174
     0
 93
        1
 44
50.0
173
     0
291
     1
 45
0.0
1001
ACAD
1000
AcDbSavedByObjectVersion
1070
     0
  0
VISUALSTYLE
  5
39
102
{ACAD_XDICTIONARY
360
272
102
}
102
{ACAD_REACTORS
330
29
102
}
330
29
100
AcDbVisualStyle
  2
ColorChange
 70
    16
 71
     2
 72
     2
 73
     3
 90
        0
 40
-0.6
 41
-30.0
 62
     5
 63
     8
 74
     1
 91
        4
 64
     7
 65
   257
 75
     1
175
     1
 42
1.0
 92
        8
 66
     8
 43
1.0
 76
     1
 77
     6
 78
     2
 67
     7
 79
     5
170
     0
171
     0
290
     0
174
     0
 93
        1
 44
0.0
173
     0
291
     1
 45
0.0
1001
ACAD
1000
AcDbSavedByObjectVersion
1070
     0
  0
VISUALSTYLE
  5
32
102
{ACAD_XDICTIONARY
360
264
102
}
102
{ACAD_REACTORS
330
29
102
}
330
29
100
AcDbVisualStyle
  2
Conceptual
 70
     9
 71
     3
 72
     2
 73
     0
 90
        0
 40
-0.6
 41
-30.0
 62
     5
 63
     7
 74
     2
 91
        2
 64
     7
 65
   257
 75
     1
175
     1
 42
179.0
 92
        8
 66
     7
 43
1.0
 76
     1
 77
     6
 78
     2
 67
     7
 79
     3
170
     0
171
     0
290
     0
174
     0
 93
        1
 44
0.0
173
     0
291
     0
 45
0.0
1001
ACAD
1000
AcDbSavedByObjectVersion
1070
     0
  0
VISUALSTYLE
  5
34
102
{ACAD_XDICTIONARY
360
268
102
}
102
{ACAD_REACTORS
330
29
102
}
330
29
100
AcDbVisualStyle
  2
Dim
 70
    11
 71
     2
 72
     2
 73
     0
 90
        0
 40
-0.6
 41
-30.0
 62
     5
 63
     7
 74
     1
 91
        4
 64
     7
 65
   257
 75
     1
175
     1
 42
1.0
 92
        8
 66
     7
 43
1.0
 76
     1
 77
     6
 78
     2
 67
     7
 79
     5
170
     0
171
     0
290
     0
174
     0
 93
        1
 44
-50.0
173
     0
291
     1
 45
0.0
1001
ACAD
1000
AcDbSavedByObjectVersion
1070
     0
  0
VISUALSTYLE
  5
41
102
{ACAD_XDICTIONARY
360
282
102
}
102
{ACAD_REACTORS
330
29
102
}
330
29
100
AcDbVisualStyle
  2
EdgeColorOff
 70
    22
 71
     2
 72
     2
 73
     0
 90
        0
 40
-0.6
 41
-30.0
 62
     5
 63
     7
 74
     1
 91
        4
 64
     7
 65
   257
 75
     1
175
     1
 42
1.0
 92
        8
 66
     7
 43
1.0
 76
     1
 77
     6
 78
     2
 67
     7
 79
     5
170
     0
171
     0
290
     0
174
     0
 93
        1
 44
0.0
173
     0
291
     1
 45
0.0
1001
ACAD
1000
AcDbSavedByObjectVersion
1070
     0
  0
VISUALSTYLE
  5
38
102
{ACAD_XDICTIONARY
360
270
102
}
102
{ACAD_REACTORS
330
29
102
}
330
29
100
AcDbVisualStyle
  2
Facepattern
 70
    15
 71
     2
 72
     2
 73
     0
 90
        0
 40
-0.6
 41
-30.0
 62
     5
 63
     7
 74
     1
 91
        4
 64
     7
 65
   257
 75
     1
175
     1
 42
1.0
 92
        8
 66
     7
 43
1.0
 76
     1
 77
     6
 78
     2
 67
     7
 79
     5
170
     0
171
     0
290
     0
174
     0
 93
        1
 44
0.0
173
     0
291
     1
 45
0.0
1001
ACAD
1000
AcDbSavedByObjectVersion
1070
     0
  0
VISUALSTYLE
  5
2A
102
{ACAD_XDICTIONARY
360
254
102
}
102
{ACAD_REACTORS
330
29
102
}
330
29
100
AcDbVisualStyle
  2
Flat
 70
     0
 71
     2
 72
     1
 73
     1
 90
        2
 40
-0.6
 41
30.0
 62
     5
 63
     7
 74
     0
 91
        0
 64
     7
 65
   257
 75
     1
175
     1
 42
1.0
 92
        8
 66
     7
 43
1.0
 76
     1
 77
     6
 78
     2
 67
     7
 79
     5
170
     0
171
     0
290
     0
174
     0
 93
       13
 44
0.0
173
     0
291
     1
 45
0.0
1001
ACAD
1000
AcDbSavedByObjectVersion
1070
     0
  0
VISUALSTYLE
  5
2B
102
{ACAD_XDICTIONARY
360
256
102
}
102
{ACAD_REACTORS
330
29
102
}
330
29
100
AcDbVisualStyle
  2
FlatWithEdges
 70
     1
 71
     2
 72
     1
 73
     1
 90
        2
 40
-0.6
 41
30.0
 62
     5
 63
     7
 74
     1
 91
        0
 64
     7
 65
   257
 75
     1
175
     1
 42
1.0
 92
        0
 66
   257
 43
1.0
 76
     1
 77
     6
 78
     2
 67
     7
 79
     5
170
     0
171
     0
290
     0
174
     0
 93
       13
 44
0.0
173
     0
291
     1
 45
0.0
1001
ACAD
1000
AcDbSavedByObjectVersion
1070
     0
  0
VISUALSTYLE
  5
2C
102
{ACAD_XDICTIONARY
360
258
102
}
102
{ACAD_REACTORS
330
29
102
}
330
29
100
AcDbVisualStyle
  2
Gouraud
 70
     2
 71
     2
 72
     2
 73
     1
 90
        2
 40
-0.6
 41
30.0
 62
     5
 63
     7
 74
     0
 91
        0
 64
     7
 65
   257
 75
     1
175
     1
 42
1.0
 92
        0
 66
     7
 43
1.0
 76
     1
 77
     6
 78
     2
 67
     7
 79
     5
170
     0
171
     0
290
     0
174
     0
 93
       13
 44
0.0
173
     0
291
     1
 45
0.0
1001
ACAD
1000
AcDbSavedByObjectVersion
1070
     0
  0
VISUALSTYLE
  5
2D
102
{ACAD_XDICTIONARY
360
25A
102
}
102
{ACAD_REACTORS
330
29
102
}
330
29
100
AcDbVisualStyle
  2
GouraudWithEdges
 70
     3
 71
     2
 72
     2
 73
     1
 90
        2
 40
-0.6
 41
30.0
 62
     5
 63
     7
 74
     1
 91
        0
 64
     7
 65
   257
 75
     1
175
     1
 42
1.0
 92
        0
 66
   257
 43
1.0
 76
     1
 77
     6
 78
     2
 67
     7
 79
     5
170
     0
171
     0
290
     0
174
     0
 93
       13
 44
0.0
173
     0
291
     1
 45
0.0
1001
ACAD
1000
AcDbSavedByObjectVersion
1070
     0
  0
VISUALSTYLE
  5
31
102
{ACAD_XDICTIONARY
360
262
102
}
102
{ACAD_REACTORS
330
29
102
}
330
29
100
AcDbVisualStyle
  2
Hidden
 70
     6
 71
     1
 72
     2
 73
     2
 90
        0
 40
-0.6
 41
-30.0
 62
     5
 63
     7
 74
     2
 91
        2
 64
     7
 65
   257
 75
     2
175
     1
 42
40.0
 92
        0
 66
   257
 43
1.0
 76
     1
 77
     6
 78
     2
 67
     7
 79
     3
170
     0
171
     0
290
     0
174
     0
 93
        1
 44
0.0
173
     0
291
     0
 45
0.0
1001
ACAD
1000
AcDbSavedByObjectVersion
1070
     0
  0
VISUALSTYLE
  5
3F
102
{ACAD_XDICTIONARY
360
27E
102
}
102
{ACAD_REACTORS
330
29
102
}
330
29
100
AcDbVisualStyle
  2
JitterOff
 70
    20
 71
     2
 72
     2
 73
     0
 90
        0
 40
-0.6
 41
-30.0
 62
     5
 63
     7
 74
     1
 91
        4
 64
     7
 65
   257
 75
     1
175
     1
 42
1.0
 92
       10
 66
     7
 43
1.0
 76
     1
 77
     6
 78
     2
 67
     7
 79
     5
170
     0
171
     0
290
     0
174
     0
 93
        1
 44
0.0
173
     0
291
     1
 45
0.0
1001
ACAD
1000
AcDbSavedByObjectVersion
1070
     0
  0
VISUALSTYLE
  5
37
102
{ACAD_XDICTIONARY
360
26E
102
}
102
{ACAD_REACTORS
330
29
102
}
330
29
100
AcDbVisualStyle
  2
Linepattern
 70
    14
 71
     2
 72
     2
 73
     0
 90
        0
 40
-0.6
 41
-30.0
 62
     5
 63
     7
 74
     1
 91
        4
 64
     7
 65
   257
 75
     7
175
     7
 42
1.0
 92
        8
 66
     7
 43
1.0
 76
     1
 77
     6
 78
     2
 67
     7
 79
     5
170
     0
171
     0
290
     0
174
     0
 93
        1
 44
0.0
173
     0
291
     1
 45
0.0
1001
ACAD
1000
AcDbSavedByObjectVersion
1070
     0
  0
VISUALSTYLE
  5
40
102
{ACAD_XDICTIONARY
360
280
102
}
102
{ACAD_REACTORS
330
29
102
}
330
29
100
AcDbVisualStyle
  2
OverhangOff
 70
    21
 71
     2
 72
     2
 73
     0
 90
        0
 40
-0.6
 41
-30.0
 62
     5
 63
     7
 74
     1
 91
        4
 64
     7
 65
   257
 75
     1
175
     1
 42
1.0
 92
        9
 66
     7
 43
1.0
 76
     1
 77
     6
 78
     2
 67
     7
 79
     5
170
     0
171
     0
290
     0
174
     0
 93
        1
 44
0.0
173
     0
291
     1
 45
0.0
1001
ACAD
1000
AcDbSavedByObjectVersion
1070
     0
  0
VISUALSTYLE
  5
33
102
{ACAD_XDICTIONARY
360
266
102
}
102
{ACAD_REACTORS
330
29
102
}
330
29
100
AcDbVisualStyle
  2
Realistic
 70
     8
 71
     2
 72
     2
 73
     0
 90
        2
 40
-0.6
 41
30.0
 62
     5
 63
     7
 74
     0
 91
        0
 64
     7
 65
   257
 75
     1
175
     1
 42
1.0
 92
        8
 66
   257
 43
1.0
 76
     1
 77
     6
 78
     2
 67
     7
 79
     3
170
     0
171
     0
290
     0
174
     0
 93
       13
 44
0.0
173
     0
291
     0
 45
0.0
1001
ACAD
1000
AcDbSavedByObjectVersion
1070
     0
  0
VISUALSTYLE
  5
3E
102
{ACAD_XDICTIONARY
360
27C
102
}
102
{ACAD_REACTORS
330
29
102
}
330
29
100
AcDbVisualStyle
  2
Shaded
 70
    27
 71
     2
 72
     2
 73
     1
 90
        2
 40
-0.6
 41
30.0
 62
     5
 63
     7
 74
     0
 91
        4
 64
     7
 65
   257
 75
     1
175
     1
 42
1.0
 92
        8
 66
   257
 43
1.0
 76
     1
 77
     6
 78
     2
 67
     8
 79
     3
170
     0
171
     0
290
     0
174
     0
 93
        5
 44
0.0
173
     0
291
     0
 45
0.0
1001
ACAD
1000
AcDbSavedByObjectVersion
1070
     0
  0
VISUALSTYLE
  5
3D
102
{ACAD_XDICTIONARY
360
27A
102
}
102
{ACAD_REACTORS
330
29
102
}
330
29
100
AcDbVisualStyle
  2
Shaded with edges
 70
    26
 71
     2
 72
     2
 73
     1
 90
        2
 40
-0.6
 41
30.0
 62
     5
 63
     7
 74
     1
 91
       10
 64
     7
 65
   257
 75
     2
175
     1
 42
1.0
 92
        8
 66
   257
 43
1.0
 76
     1
 77
     6
 78
     2
 67
     7
 79
     3
170
     0
171
     0
290
     0
174
     0
 93
        5
 44
0.0
173
     0
291
     0
 45
0.0
1001
ACAD
1000
AcDbSavedByObjectVersion
1070
     0
  0
VISUALSTYLE
  5
3A
102
{ACAD_XDICTIONARY
360
274
102
}
102
{ACAD_REACTORS
330
29
102
}
330
29
100
AcDbVisualStyle
  2
Shades of Gray
 70
    23
 71
     2
 72
     2
 73
     3
 90
        0
 40
-0.6
 41
-30.0
 62
     5
 63
     7
 74
     2
 91
        2
 64
     7
 65
     7
 75
     1
175
     1
 42
40.0
 92
        8
 66
     7
 43
1.0
 76
     1
 77
     6
 78
     2
 67
     7
 79
     3
170
     0
171
     0
290
     0
174
     0
 93
        1
 44
0.0
173
     0
291
     0
 45
0.0
1001
ACAD
1000
AcDbSavedByObjectVersion
1070
     0
  0
VISUALSTYLE
  5
3B
102
{ACAD_XDICTIONARY
360
276
102
}
102
{ACAD_REACTORS
330
29
102
}
330
29
100
AcDbVisualStyle
  2
Sketchy
 70
    24
 71
     1
 72
     2
 73
     2
 90
        0
 40
-0.6
 41
-30.0
 62
     5
 63
     7
 74
     2
 91
        2
 64
     7
 65
     7
 75
     1
175
     1
 42
40.0
 92
       11
 66
     7
 43
1.0
 76
     1
 77
     6
 78
     2
 67
     7
 79
     6
170
     0
171
     0
290
     0
174
     0
 93
        1
 44
0.0
173
     0
291
     0
 45
0.0
1001
ACAD
1000
AcDbSavedByObjectVersion
1070
     0
  0
VISUALSTYLE
  5
36
102
{ACAD_XDICTIONARY
360
26C
102
}
102
{ACAD_REACTORS
330
29
102
}
330
29
100
AcDbVisualStyle
  2
Thicken
 70
    13
 71
     2
 72
     2
 73
     0
 90
        0
 40
-0.6
 41
-30.0
 62
     5
 63
     7
 74
     1
 91
        4
 64
     7
 65
   257
 75
     1
175
     1
 42
1.0
 92
       12
 66
     7
 43
1.0
 76
     1
 77
     6
 78
     2
 67
     7
 79
     5
170
     0
171
     0
290
     0
174
     0
 93
        1
 44
0.0
173
     0
291
     1
 45
0.0
1001
ACAD
1000
AcDbSavedByObjectVersion
1070
     0
  0
VISUALSTYLE
  5
30
102
{ACAD_XDICTIONARY
360
260
102
}
102
{ACAD_REACTORS
330
29
102
}
330
29
100
AcDbVisualStyle
  2
Wireframe
 70
     5
 71
     0
 72
     2
 73
     0
 90
        0
 40
-0.6
 41
-30.0
 62
     5
 63
     7
 74
     1
 91
        4
 64
     7
 65
   257
 75
     1
175
     1
 42
1.0
 92
        0
 66
   257
 43
1.0
 76
     1
 77
     6
 78
     2
 67
     7
 79
     3
170
     0
171
     0
290
     0
174
     0
 93
        1
 44
0.0
173
     0
291
     0
 45
0.0
1001
ACAD
1000
AcDbSavedByObjectVersion
1070
     0
  0
VISUALSTYLE
  5
3C
102
{ACAD_XDICTIONARY
360
278
102
}
102
{ACAD_REACTORS
330
29
102
}
330
29
100
AcDbVisualStyle
  2
X-Ray
 70
    25
 71
     2
 72
     2
 73
     1
 90
        1
 40
0.5
 41
-30.0
 62
     5
 63
     7
 74
     1
 91
        0
 64
     7
 65
   257
 75
     1
175
     1
 42
1.0
 92
        8
 66
     7
 43
1.0
 76
     1
 77
     6
 78
     2
 67
     7
 79
     3
170
     0
171
     0
290
     0
174
     0
 93
       13
 44
0.0
173
     0
291
     0
 45
0.0
1001
ACAD
1000
AcDbSavedByObjectVersion
1070
     0
  0
DICTIONARYVAR
  5
79
102
{ACAD_REACTORS
330
76
102
}
330
76
100
DictionaryVariables
280
     0
  1
1:1
  0
DICTIONARYVAR
  5
78
102
{ACAD_REACTORS
330
76
102
}
330
76
100
DictionaryVariables
280
     0
  1
STANDARD
  0
DICTIONARYVAR
  5
77
102
{ACAD_REACTORS
330
76
102
}
330
76
100
DictionaryVariables
280
     0
  1
STANDARD
  0
DICTIONARYVAR
  5
241
102
{ACAD_REACTORS
330
76
102
}
330
76
100
DictionaryVariables
280
     0
  1
1
  0
DICTIONARYVAR
  5
240
102
{ACAD_REACTORS
330
76
102
}
330
76
100
DictionaryVariables
280
     0
  1
1
  0
DICTIONARYVAR
  5
23F
102
{ACAD_REACTORS
330
76
102
}
330
76
100
DictionaryVariables
280
     0
  1
0
  0
DICTIONARYVAR
  5
23C
102
{ACAD_REACTORS
330
76
102
}
330
76
100
DictionaryVariables
280
     0
  1
0
  0
DICTIONARYVAR
  5
23D
102
{ACAD_REACTORS
330
76
102
}
330
76
100
DictionaryVariables
280
     0
  1
0
  0
DICTIONARYVAR
  5
23B
102
{ACAD_REACTORS
330
76
102
}
330
76
100
DictionaryVariables
280
     0
  1
2
  0
DICTIONARYVAR
  5
23A
102
{ACAD_REACTORS
330
76
102
}
330
76
100
DictionaryVariables
280
     0
  1
1
  0
DICTIONARYVAR
  5
23E
102
{ACAD_REACTORS
330
76
102
}
330
76
100
DictionaryVariables
280
     0
  1
127
  0
DICTIONARYVAR
  5
24A
102
{ACAD_REACTORS
330
76
102
}
330
76
100
DictionaryVariables
280
     0
  1
2
  0
DICTIONARY
  5
285
330
6B
100
AcDbDictionary
280
     1
281
     1
  3
ACAD_XREC_ROUNDTRIP
360
286
  0
DICTIONARY
  5
289
330
73
100
AcDbDictionary
280
     1
281
     1
  3
ACAD_XREC_ROUNDTRIP
360
28A
  0
DICTIONARY
  5
287
330
6F
100
AcDbDictionary
280
     1
281
     1
  3
ACAD_XREC_ROUNDTRIP
360
288
  0
DICTIONARY
  5
1A
330
19
100
AcDbDictionary
280
     1
281
     1
  3
ACAD_XREC_ROUNDTRIP
360
252
  3
BUMPTILE
360
1C
  3
DIFFUSETILE
360
1B
  3
OPACITYTILE
360
1F
  3
REFLECTIONTILE
360
1E
  3
REFRACTIONTILE
360
20
  3
SPECULARTILE
360
1D
  0
DICTIONARY
  5
12
330
11
100
AcDbDictionary
280
     1
281
     1
  3
ACAD_XREC_ROUNDTRIP
360
251
  3
BUMPTILE
360
14
  3
DIFFUSETILE
360
13
  3
FBXASSET
360
F4
  3
OPACITYTILE
360
17
  3
REFLECTIONTILE
360
16
  3
REFRACTIONTILE
360
18
  3
SPECULARTILE
360
15
  0
DICTIONARY
  5
22
330
21
100
AcDbDictionary
280
     1
281
     1
  3
ACAD_XREC_ROUNDTRIP
360
253
  3
BUMPTILE
360
24
  3
DIFFUSETILE
360
23
  3
FBXASSET
360
BA
  3
OPACITYTILE
360
27
  3
REFLECTIONTILE
360
26
  3
REFRACTIONTILE
360
28
  3
SPECULARTILE
360
25
  0
DICTIONARY
  5
24D
330
67
100
AcDbDictionary
280
     1
281
     1
  3
ACAD_XREC_ROUNDTRIP
360
24E
  0
DICTIONARY
  5
1F7
330
65
100
AcDbDictionary
280
     1
281
     1
  3
ACAD_ROUNDTRIP_2008_TABLESTYLE_CELLSTYLEMAP
360
24C
  3
ACAD_XREC_ROUNDTRIP
360
284
  0
DICTIONARY
  5
25E
330
2F
100
AcDbDictionary
280
     1
281
     1
  3
ACAD_XREC_ROUNDTRIP
360
25F
  0
DICTIONARY
  5
25C
330
2E
100
AcDbDictionary
280
     1
281
     1
  3
ACAD_XREC_ROUNDTRIP
360
25D
  0
DICTIONARY
  5
26A
330
35
100
AcDbDictionary
280
     1
281
     1
  3
ACAD_XREC_ROUNDTRIP
360
26B
  0
DICTIONARY
  5
272
330
39
100
AcDbDictionary
280
     1
281
     1
  3
ACAD_XREC_ROUNDTRIP
360
273
  0
DICTIONARY
  5
264
330
32
100
AcDbDictionary
280
     1
281
     1
  3
ACAD_XREC_ROUNDTRIP
360
265
  0
DICTIONARY
  5
268
330
34
100
AcDbDictionary
280
     1
281
     1
  3
ACAD_XREC_ROUNDTRIP
360
269
  0
DICTIONARY
  5
282
330
41
100
AcDbDictionary
280
     1
281
     1
  3
ACAD_XREC_ROUNDTRIP
360
283
  0
DICTIONARY
  5
270
330
38
100
AcDbDictionary
280
     1
281
     1
  3
ACAD_XREC_ROUNDTRIP
360
271
  0
DICTIONARY
  5
254
330
2A
100
AcDbDictionary
280
     1
281
     1
  3
ACAD_XREC_ROUNDTRIP
360
255
  0
DICTIONARY
  5
256
330
2B
100
AcDbDictionary
280
     1
281
     1
  3
ACAD_XREC_ROUNDTRIP
360
257
  0
DICTIONARY
  5
258
330
2C
100
AcDbDictionary
280
     1
281
     1
  3
ACAD_XREC_ROUNDTRIP
360
259
  0
DICTIONARY
  5
25A
330
2D
100
AcDbDictionary
280
     1
281
     1
  3
ACAD_XREC_ROUNDTRIP
360
25B
  0
DICTIONARY
  5
262
330
31
100
AcDbDictionary
280
     1
281
     1
  3
ACAD_XREC_ROUNDTRIP
360
263
  0
DICTIONARY
  5
27E
330
3F
100
AcDbDictionary
280
     1
281
     1
  3
ACAD_XREC_ROUNDTRIP
360
27F
  0
DICTIONARY
  5
26E
330
37
100
AcDbDictionary
280
     1
281
     1
  3
ACAD_XREC_ROUNDTRIP
360
26F
  0
DICTIONARY
  5
280
330
40
100
AcDbDictionary
280
     1
281
     1
  3
ACAD_XREC_ROUNDTRIP
360
281
  0
DICTIONARY
  5
266
330
33
100
AcDbDictionary
280
     1
281
     1
  3
ACAD_XREC_ROUNDTRIP
360
267
  0
DICTIONARY
  5
27C
330
3E
100
AcDbDictionary
280
     1
281
     1
  3
ACAD_XREC_ROUNDTRIP
360
27D
  0
DICTIONARY
  5
27A
330
3D
100
AcDbDictionary
280
     1
281
     1
  3
ACAD_XREC_ROUNDTRIP
360
27B
  0
DICTIONARY
  5
274
330
3A
100
AcDbDictionary
280
     1
281
     1
  3
ACAD_XREC_ROUNDTRIP
360
275
  0
DICTIONARY
  5
276
330
3B
100
AcDbDictionary
280
     1
281
     1
  3
ACAD_XREC_ROUNDTRIP
360
277
  0
DICTIONARY
  5
26C
330
36
100
AcDbDictionary
280
     1
281
     1
  3
ACAD_XREC_ROUNDTRIP
360
26D
  0
DICTIONARY
  5
260
330
30
100
AcDbDictionary
280
     1
281
     1
  3
ACAD_XREC_ROUNDTRIP
360
261
  0
DICTIONARY
  5
278
330
3C
100
AcDbDictionary
280
     1
281
     1
  3
ACAD_XREC_ROUNDTRIP
360
279
  0
XRECORD
  5
286
102
{ACAD_REACTORS
330
285
102
}
330
285
100
AcDbXrecord
280
     1
102
SHADEPLOT
 70
     0
102
SHADEPLOTRESLEVEL
 70
     2
102
SHADEPLOTCUSTOMDPI
 70
   300
  0
XRECORD
  5
28A
102
{ACAD_REACTORS
330
289
102
}
330
289
100
AcDbXrecord
280
     1
102
SHADEPLOT
 70
     0
102
SHADEPLOTRESLEVEL
 70
     2
102
SHADEPLOTCUSTOMDPI
 70
   300
  0
XRECORD
  5
288
102
{ACAD_REACTORS
330
287
102
}
330
287
100
AcDbXrecord
280
     1
102
SHADEPLOT
 70
     0
102
SHADEPLOTRESLEVEL
 70
     2
102
SHADEPLOTCUSTOMDPI
 70
   300
  0
XRECORD
  5
252
102
{ACAD_REACTORS
330
1A
102
}
330
1A
100
AcDbXrecord
280
     1
102
MATERIAL
148
0.0
149
0.0
149
0.0
 93
        0
 94
      127
282
     0
 72
     0
 77
     0
171
     0
175
     0
179
     0
273
     0
  0
XRECORD
  5
1C
102
{ACAD_REACTORS
330
1A
102
}
330
1A
100
AcDbXrecord
280
     1
270
     1
271
     1
  0
XRECORD
  5
1B
102
{ACAD_REACTORS
330
1A
102
}
330
1A
100
AcDbXrecord
280
     1
270
     1
271
     1
  0
XRECORD
  5
1F
102
{ACAD_REACTORS
330
1A
102
}
330
1A
100
AcDbXrecord
280
     1
270
     1
271
     1
  0
XRECORD
  5
1E
102
{ACAD_REACTORS
330
1A
102
}
330
1A
100
AcDbXrecord
280
     1
270
     1
271
     1
  0
XRECORD
  5
20
102
{ACAD_REACTORS
330
1A
102
}
330
1A
100
AcDbXrecord
280
     1
270
     1
271
     1
  0
XRECORD
  5
1D
102
{ACAD_REACTORS
330
1A
102
}
330
1A
100
AcDbXrecord
280
     1
270
     1
271
     1
  0
XRECORD
  5
251
102
{ACAD_REACTORS
330
12
102
}
330
12
100
AcDbXrecord
280
     1
102
MATERIAL
148
0.0
149
0.0
149
0.0
 93
        0
 94
      127
282
     0
 72
     0
 77
     0
171
     0
175
     0
179
     0
273
     0
  0
XRECORD
  5
14
102
{ACAD_REACTORS
330
12
102
}
330
12
100
AcDbXrecord
280
     1
270
     1
271
     1
  0
XRECORD
  5
13
102
{ACAD_REACTORS
330
12
102
}
330
12
100
AcDbXrecord
280
     1
270
     1
271
     1
  0
XRECORD
  5
F4
102
{ACAD_REACTORS
330
12
102
}
330
12
100
AcDbXrecord
280
     1
 70
     1
 90
1959938040
 71
     1
  1
98A0554B-4FB2-4E03-89B4-7F7A048BA258
311
504B03040A0000080000155F68413DEE336E79000000790000001B0000006175746F6465736B2D64657369676E2D7061636B6167652E786D6C3C3F786D6C2076657273696F6E3D22312E302220656E636F64696E673D227574662D3822203F3E3C666F726D6174733E3C666F726D61743E687474703A2F2F736368656D612E
311
6175746F6465736B2E636F6D2F64657369676E2D7061636B6167652F323030393C2F666F726D61743E3C2F666F726D6174733E504B0304140006080800155F6841D486FD9CA0000000F4000000130000005B436F6E74656E745F54797065735D2E786D6C7D8EC10E82300C865F65E91D8A1E8C310C0EEA1BF002731658846E
311
D98AC1B77784ABF1D8FE5FBFBF75BBCE937A534CCEB38643598122B6FEE978D0B0485F9C41B54DDD7D022595594E1A469170414C76A4D9A4D207E29CF43ECE46F218070CC6BECC4078ACAA135ACF422C856C0E68EA1BF5669944DDD7BCDE7B1F8E415D77AECB980613C2E4AC91FC167A2B244592486606FC29C8FD7F045B9A
311
EF7053A7E60B504B0304140006080800155F6841F9CCBC1AE90000007C01000008000000636F72652E786D6C8D90516EC3201044AF82F8C76671EA3A1626AAE3FA04BD0002E2A2C46019A87AFCE2C491DABF7EED6898C7AE869FBEE71BFA326BB0DE75180A8A9171CA6BEBA60EA778210D4627C157EFE3AF18464ECEA6C39B
311
8D059F569F96DD52DE45E362769DD7663765082662A46E597438A84F33CB42A69813E15A2C525DE5640A78AA0CA764357A2CB13AFF672FD6AC585463DFF7301C0963742487B11FC8B1AE2B02CD3B9CDF5ECF50B381971B2C78B4F373BF5A8D8C4663C12830024068F301D0BED4ED8165DD52CACB2DFE074A8BFE2794AC8B15
311
DBCF7D60010BC887DC1F042FB72EF2B81795E7D69BF801504B0304140006080800155F684155019EA25F0000007C00000007000000636E782E786D6C4DCB3B0E80201045D1AD90E915ED2CF8AC45050C11660C8261F98AB1B07AC9C97D42D718D865D3E909258CFD00CCE24AC6E326A164D74DC0B4128928FF326038472BA1
311
3128B1252AC747C6BAB984FC68F0B87FE8960A5C09FE86CFB69FBA01504B0304140006080800155F68415DE76A8866010000020300000C0000006662782F636F72652E786D6C8D52ED8E8320107C15C27F4568CF6B1BA439DBEB13DC0B50A49EA98241307DFC5B3F1AAF974BD3982099D9D99D1DE5FB5B53A35EBBAEB226C3
311
344E30D246D9A232658683BF441B8CF6823B6BFDAF328C8C6C748607180B5E3A1BDA1952D6786D3CA0C6167A0665D7698F91AAE192E14E7DEB46C63278A8E8AE712BD555963AA631D0502778E71D1840D390E1C4E272BE7132E182875015335B1530ADBA54DA61B13AE5794E8FDB88B1E414AD4FF931DAA6E92AA29B4F7AF8
311
783FD0941D3919C482FBAAB9BB534E4BAF0B2C5842594469946CBE28DDBDA5BB3583FB2E493819CA1F44A12D5E1485CAF8159BED4EB20E0B0A4646E2CFB61091479DECC10F119C0C21C26B4CF83168080442F6F25CDFF7B802D46BE5AD5B0353D8B050BDAC8386A9091A1F4E26163A8F0D60B37FFBB0277D9EF7800F284D09
311
D6A487EB39F8613A9FA6CE51B4DA45BDBF21635D23EBC5DC6471399741FFCA95ADAD7B454DE655C91C2619FE5EF103504B0304140006080800155F6841A53642F47E0000009D0000000B0000006662782F636E782E786D6C4DCCD10A83201886E15B91FFDC956C4B0535A6D97DC4B290990E976397BF1A1DECE883878F57B4
311
9F25A0B7CB2F9FA20472AA01B9784FA38FB384B24E98016A95C829AD7F374071589C849D418939A7F23C6874D350C2BA69F0F171A026D4D25A73CC0CEBF0A56934E6374AB1B1E7AB311DE9B9EDA152A2FA95B6DDC3EA0B504B0304140006080800155F68419C08E5B22D01000015020000310000006662782F423137453730
311
42392D384338442D343636422D394137372D4345333543434431463945462F636F72652E786D6C8D51CB6EC32010FC15C4293D6083436C27C2448D937C417FC00592A2C460F1A8F2F985DA91DA5B2E2C9A9D991DEDB2FD63BC836FE5BCB6A683A4C0102823ACD4E6DAC1182EA88560CF99B336FCA1416086517530C390B3AB
311
B3715A20614D502624D458A91670F05E0508C43D7D3AE8C5971A8762882131FCAD9806711BAEAA20456A271E673EB81400CC43F20BF98134A7061FB6A8EDDB23A2757D40DBF7A641FD69BDE9FB23396F4F6756CE42CE62D472916B99E2E88B56EE55932CE62CE8F1195F3835042521AF30A9102108B71F84EC36F58E56E9BF
311
C3989599FE4F1427F9A2286A13D6D512779679C8092BE70667D2C6CFFB338C7A4CD60590E7ADBC126F90E302E386D2A625949533376D2099D67431F5C1BAB4E1D5ED33D1C96676AE2967653E522ABF174C351F94FF00504B0304140006080800155F6841DB2D1A8C4C01000033030000300000006662782F42313745373042
311
392D384338442D343636422D394137372D4345333543434431463945462F636E782E786D6CD593BD6E032110845F05D1DF0FCEC5B22C0E4B29F20429D272B0B6893938F113C56F9FC5268E1B1729D32034FB31B31ADDF1DDD76CC9278468BC1B296B7B4AC029AF8D3B8C34A77DB3A1642778F03EDD61943839C3488B4C053F
311
049F972A69D8CB6C13AAD6B8531503449F838288727949AC57D2A201B826A308F3045A832637106F7B08B80A8AD399A42390D79777E2A70F5029F2AEB808DE950CC1CB5993EE204A9495318E34AA23CCB29539790DF1D46A9964CBDA9FAC073BFD3A91F2E0273207434AF848CB4945DDA8C51E798743C1630AD85E85D27901
311
2AE4B258A364C292BB0B786504CFC6A5F5505983C507A4D9FA6918D0EC32133C99192AA102C8049A8A55CF560D634DBF79636CFBBCDE0E2BBC6FFB9E7705177CF2DED6476803C12F447997C0252A18EFCAF8517D9523DA04ECDA87F31F8AC4026AEAB59D9BC77FEEA7BB7CDF5857C0BF407C03504B0304140006080800155F
311
68416D30D3B2A405000081100000340000006662782F42313745373042392D384338442D343636422D394137372D4345333543434431463945462F6F626A656374732E786D6CAD57D96EDB3814FD1541F332F360CB5B5A67A0A8F0D214469BB6A8D1621E0C18B444299C500B482A75E6EBE750A464C9B113CFA02F5AB85CDE
311
7BEEB90BFD77FB943B8F5448966737EEB03F701D9A8579C4B2E4C62D55DC9BBACEBBC01779AE5ACB5C272329BD71F5B01BF889C8CBC20E453426255747A3B7F3BF1C19D28CBA4EC8899437AE0CEF694AFAA4547944E5433F228AF49378DF1FF6CDC2AED84490E2FE48684104CD1434C57806298E516AD8FD1DB85EE07B7A3E
311
F0F5D3AE1A9F5FE555F674CF679954240B9F1D7624663C9C2CDF8FAEAE7B5793C9B83779331AF6E6B7F3656FF8763C58BC592CAE67EFAF71B0540292AC2682C66EF001D80816FA9E990AFC92656A3CB24BAC833C411F99F6941B8C9CA1EF99358D75D6C853EA877996D1B0C20A6854F659D1112D6816C1E78C4A68D64268D0
311
FD1D6A1C5BD363FD6F8F6C0F5F86407B474B50AD7BFD6E6B9AEFFE8609F21206094935030D96D650C3D5C101E15D9E733BC7A49312450523DCE16C27887872032CD54B02BF23463359E868D016B801BC60A6BB744118BDCEF3535AC625E79AC66E5045C116B14295AC3463FF5071D0BE8D0C7482AF341BA6D620F5545037B8
311
3614991EB1C900E9C49C247039CCD43BC7A32343173A4E574B37F878BBDBAF75EC9E3EBC10794185D2F401B56AC7D56F8D92D5697891E7F406F748950328DF80FC6784FA4115F84DB0FD643FB1A728413219E722856F9C81D31BE0317086D5537FB7BE7CAFD9DCF5DE393CE16C0DD52FC0B36B43DB972D3803FF1184CFC5D8
311
9AB60E0947DAB8631900D22471788E21E4E178B7778315B21CB23276111E0C6132D47DC4A7EF59314814D549AD77062C8FD2E205091AB0558C841A86FC56C1839F9EA5B3EA60BBEC1CBC57BF84AEB3E5FAE3BA143109E99D8DE9258D59C6144ADC81376D853A98772C7AA04F3F7311C1D0E778AFDB78A7F62809B435E61AF8
311
A4CEE9FAE77072E78010FB925CA71BFF951360842EAC2DF9774C86947392D1BCACCF7DB17EA06C188875B06B263705E65058401A3373148328D2A1608506B1A9564DD2EC9FB1EEFBEA3318E906F3A74FE4A99DBD7687DC1BE63C17DBDDD3D6A4A59350FFE872DB62E06929A07B152475FC5BD0B7118BE35222099EC0F5C76A
311
D1F69D4E0B4811B554132D13D88FE022C292B6968B6A2D082A699E6D19EA26E2EEE4016DF980D432A012784E634979BC659C97E936661CD5689B92E20C1CFF5FFF5D99165B92E665A6CEC8EEA88EEAD0D5BDC35EF993A8F0DE0DD6D5BB3747EE8D6874860CBA969CC0AAE3DAEBE96C70753599F726B7F3516FF27E30EE4DAF
311
E793DEDBDBB7B3C1643A9F8DAEA6B59F8C26815F979A7644C34B286D7E299875DFF715E2C7260137B8234A6E3E98F0ACDFDF577DF4C2BE873DA897CDC659F488BE8F46AF0B38AC3C296895169CA6345344C7D09DFEE0DF08FA8C8E32667C9592845E20E5CB87F5913118B960DF571DEFF4E7D15E3BBAD001795288BA2FD35D
311
46183FDA981824FB459658FC6A9F346F5368EA5FFD671D83CE54E69C45C8839193D03CA50AD9F0822224522A41BD764F1FD9BBC705BB1F4D87A8C88ED35A937B8226994B8405A85586AA3BEEFC86A64EF755372ECA6DFF010F9B295C079CB971D1A42B1652D9DFA140EB56A8120E2EB53B7934FE244B387A6DB3A9F96F7669
311
6C3A25B9597249FF64ED3229DC1A803452A06F404304EF54CA047EA59B9D0FFF93E1B53A0E51F8DC95AAB1E530D018531D83103546D9DB029A98077BF41E81FAB259C37EB5A683C845B7AC174960A4F61411497553D0FA599566CBAF1E3A1467F5C5297899C097974BEA090A32973AC0C122B0C2CA2C880255177F6EBE8A1C
311
37D9D4B965A080F3FB7EFAE68FCD224FD33C33439B99BD0F3BEB7BDC6EA30D9203D5D712B9190D86A34D751DB03794ED8E48DA27917CC0003C2B580374C7FDE0A5B933A20E9989669DA75D71C4D0D5D2B1856D02A1962EEDDCAAC141E391510731A4AF943A62DA0B8A176F045EB5142A08F4F2C1BF504B0304140006080000
311
155F6841000000000000000000000000350000006662782F42313745373042392D384338442D343636422D394137372D4345333543434431463945462F76657274696365732E62696E504B0304140006080800155F6841F270F1330600000004000000360000006662782F42313745373042392D384338442D343636422D39
311
4137372D4345333543434431463945462F747269616E676C65732E62696E636660600000504B0304140006080000155F6841000000000000000000000000370000006662782F42313745373042392D384338442D343636422D394137372D4345333543434431463945462F617474726962757465732E62696E504B03041400
311
06080800155F6841D5987DFC8F00000041010000360000006662782F42313745373042392D384338442D343636422D394137372D4345333543434431463945462F6469726563746F72792E786D6C858F410EC2201045AF4266AF15DDB800BA74E7C21B903225242D6328188F2FA5C4183471359997F9FF81E89FF3C41E1816
311
475E02DF1F80A11FC8386F25A438EECEC07A250251FC3803E6F58C12560C4AD840E95E91C151A72936F496F35732D860FE635F62C8F2DA16B505C545B74125BAA2FA9E05D7CC053D063734D5C7665FD55B6B8D15D5E9BFEAFD8490FFA45E504B0304140006080800155F6841EA679282FB000000A00100003B000000666278
311
2F42313745373042392D384338442D343636422D394137372D4345333543434431463945462F7265736F75726365732F636F72652E786D6C8D504B6E833010BD0A9ABD019B9452641C95504ED00B586642AD041BF953F5F835814AEDAE9B99D1FB689E1E3F7F2DF7EC139DD7D67440F3123234CA4EDACC1DC470250D6467C1
311
9DB5E1970C322317EC608341F0D9D9B81E90B226A009093576C20394DE63804CDDD3D181571FB8C85CC69014FE96AF52DDE48C39CD139D7482FBE052806C7FB24D100EBD8D4EA1E7C5CE0A1EA39E0E8D9ED24F7DD5E8405463DFF774680863E5484E633F9097BAAE086DDEE8E5F5F9426B36F062330B1EF4F2935139940127
311
10ACA48C504ACAE69DD2F6A96E4F2CDD6D59F26293FF31C575FAA7296A132A76C4DD6D1E044D411E84E0C5D6575A8F32D3DEBA15DF504B010214000A0000080000155F68413DEE336E79000000790000001B00000000000000000000000000000000006175746F6465736B2D64657369676E2D7061636B6167652E786D6C50
311
4B01021400140006080800155F6841D486FD9CA0000000F40000001300000000000000000000000000B20000005B436F6E74656E745F54797065735D2E786D6C504B01021400140006080800155F6841F9CCBC1AE90000007C010000080000000000000000000000000083010000636F72652E786D6C504B01021400140006
311
080800155F684155019EA25F0000007C000000070000000000000000000000000092020000636E782E786D6C504B01021400140006080800155F68415DE76A8866010000020300000C00000000000000000000000000160300006662782F636F72652E786D6C504B01021400140006080800155F6841A53642F47E0000009D
311
0000000B00000000000000000000000000A60400006662782F636E782E786D6C504B01021400140006080800155F68419C08E5B22D0100001502000031000000000000000000000000004D0500006662782F42313745373042392D384338442D343636422D394137372D4345333543434431463945462F636F72652E786D6C
311
504B01021400140006080800155F6841DB2D1A8C4C010000330300003000000000000000000000000000C90600006662782F42313745373042392D384338442D343636422D394137372D4345333543434431463945462F636E782E786D6C504B01021400140006080800155F68416D30D3B2A4050000811000003400000000
311
000000000000000000630800006662782F42313745373042392D384338442D343636422D394137372D4345333543434431463945462F6F626A656374732E786D6C504B01021400140006080000155F68410000000000000000000000003500000000000000000000000000590E00006662782F42313745373042392D384338
311
442D343636422D394137372D4345333543434431463945462F76657274696365732E62696E504B01021400140006080800155F6841F270F13306000000040000003600000000000000000000000000AC0E00006662782F42313745373042392D384338442D343636422D394137372D4345333543434431463945462F747269
311
616E676C65732E62696E504B01021400140006080000155F68410000000000000000000000003700000000000000000000000000060F00006662782F42313745373042392D384338442D343636422D394137372D4345333543434431463945462F617474726962757465732E62696E504B01021400140006080800155F6841
311
D5987DFC8F0000004101000036000000000000000000000000005B0F00006662782F42313745373042392D384338442D343636422D394137372D4345333543434431463945462F6469726563746F72792E786D6C504B01021400140006080800155F6841EA679282FB000000A00100003B000000000000000000000000003E
311
1000006662782F42313745373042392D384338442D343636422D394137372D4345333543434431463945462F7265736F75726365732F636F72652E786D6C504B0506000000000E000E0080040000921100000000
310
504B03040A0000080000155F68413DEE336E79000000790000001B0000006175746F6465736B2D64657369676E2D7061636B6167652E786D6C3C3F786D6C2076657273696F6E3D22312E302220656E636F64696E673D227574662D3822203F3E3C666F726D6174733E3C666F726D61743E687474703A2F2F736368656D612E
310
6175746F6465736B2E636F6D2F64657369676E2D7061636B6167652F323030393C2F666F726D61743E3C2F666F726D6174733E504B0304140006080800155F6841D486FD9CA0000000F4000000130000005B436F6E74656E745F54797065735D2E786D6C7D8EC10E82300C865F65E91D8A1E8C310C0EEA1BF002731658846E
310
D98AC1B77784ABF1D8FE5FBFBF75BBCE937A534CCEB38643598122B6FEE978D0B0485F9C41B54DDD7D022595594E1A469170414C76A4D9A4D207E29CF43ECE46F218070CC6BECC4078ACAA135ACF422C856C0E68EA1BF5669944DDD7BCDE7B1F8E415D77AECB980613C2E4AC91FC167A2B244592486606FC29C8FD7F045B9A
310
EF7053A7E60B504B0304140006080800155F68412C3DB14EE80000007C01000008000000636F72652E786D6C8D90516EC3201044AF82F61F1BB01DB916268A13F904BD0002E2A0C46019A87AFCE2C491DABF7EED6898C7AE861FBFE707FA326BB0DEF5400B02C838E5B575530F295E710BE828F8EA7DFC1503E4E46C7AD86C
310
107C5A7D5A764B79178D8BD9755E9BDD94219808483DB2E821A89B99652153CC89702F16A9EE7232057DAB0CA764357A2DB13AFF67AFD6AC209AB11D9ACB50E1F17C3AE19A8C036E2923F8D28C4D75FE20F5810EBCDC60C1A39DDFFBD56A64341A042394614A31693F29ED9A4357B3AC3B4278B9C5FF4069D1FF849275B162
310
FBB92F2C80A0F990E783E0E5D6451ECFA2F2DC7A133F504B0304140006080800155F684155019EA25F0000007C00000007000000636E782E786D6C4DCB3B0E80201045D1AD90E915ED2CF8AC45050C11660C8261F98AB1B07AC9C97D42D718D865D3E909258CFD00CCE24AC6E326A164D74DC0B4128928FF326038472BA131
310
28B1252AC747C6BAB984FC68F0B87FE8960A5C09FE86CFB69FBA01504B0304140006080800155F6841492BEB6365010000020300000C0000006662782F636F72652E786D6C8D52ED8E8230107C95A6FFA12D82F14CA9110D4F702F50A17244684969898F7FCB87E1BC1863484A33B3B33B3BC00FF7B64183B27D6D748A5948
310
3152BA3065ADAB147B770D76181D04B7C6B83F651869D9AA148F3016BCB2C6770B5418ED9476806A53AA05947DAF1C4645039714F7C58F6A6528BD838AFE1676B2B8C94A852C041AEA04EF9D0503681E329E585C2F774E665C70EFEB7261EB12A6D5D75A592C927C9725E76C13E4A7E33188699E053B16D1E09CE4C9E6F445
310
E32DCB3819C582BBBA7DB82BAC924E9558449445016301DD7D33B64FB6FB3882FB9E524EC6F22791EFCA0F45BED66E132D7667598F05032313F16F5B88C8A15E0EE087084EC610E13525FC1C340402213B79691E7BDC001A54E18C8D81298D5FA941365EC1548AA687939985CE5303D8EC659FE84D9FF73DE0034A5D8135E9
310
E07AF16E9CCEE7A94B149DB2C1E0EE481BDBCA6635375B5CCF75D04B79611A633F51936555B28449C6BF57FC02504B0304140006080800155F6841C86FFE167D0000009D0000000B0000006662782F636E782E786D6C4DCCD10A83201886E15B91FFDCA5B334418D165D482C0B99E9703A76F9ABD1C18E3E78F87855F7D93C
310
7ADBF4723168A01702C8867B9C5D583594BCE0165067548A31FFDD008569B31A0E06A3D614CBF3A4D92E53F17957EFC2E3C4A667821121F078E33DAEDBEB88A518389643C30895BCA652426554F52BED7B84CD17504B0304140006080800155F68414781D6EC2A01000015020000310000006662782F35413337333037372D
310
454236412D343832452D393743362D3943353330313936343139392F636F72652E786D6C8D51CB6EC32010FC15C4A93D6083EDE038C24469943FE80F1020294A0C168F2A9F5FA81DA9BDE5C2A2D999D9D12EDB3FA63BF8D63E186747482A0C81B6D22963AF234CF182B610EC39F3CEC53F3408AC98F4080B0C39BB7A97E615
310
92CE466D6346AD537A0545083A4220EFF933C220BFF4242A916266845B350B7913575D912AB7338FB3107D0E009621E5857C7368FB16F73D3A7DD003EAB6CD090DFD91A2E1B869311968478681D58B90B3948C5AE546E538E662B47FD5A488398B667AC6975E8BA815E40D260D2204E1ED2721BB0DDD754DFEEF306675A1FF
310
13A559BD284AC6C6B659E32EB2003961F5D2E04CB974BE3FC3E8C7EC7C0465DE5BD0F21D725C61DCD37E200D65F5C2CD1BC8A6B45B4D43743E6FF8ED76CEF47675A61D677539522EBF17CCB51C94FF00504B0304140006080800155F6841BD8AD59B5401000033030000300000006662782F35413337333037372D45423641
310
2D343832452D393743362D3943353330313936343139392F636E782E786D6CBD93CD6EC32010845F0571F70F8E6B591126520F7D821E7AC5B049696CB00057CDDB7749489A4B0E95AA5E109A1D66569F6CBEFB9A27F2093E186707CACA9A12B0CA69630F035DE3BEE829D909EE9D8B77364AAC9C61A049A6821FBC5B972C69
310
D8CB758AA84EC61EB3E821B8D52B0828A79764724A4E1800B65851847904AD41939B116F7BF0B80A8AE389C477202FCF6FC48D1FA062E0554A11BC4A1D82A73337DD992851930C61A041BDC32C4BB946A7211C4B2DA32C5979ED7AB0D34F12490FAE95AB3724950F349D54E48D4AE4C82B1C0A1EA2477AD9144F0B50219765
310
324A46845C9D8D178FE0ABB1B16BB3D720788FEE4DD3F53D869D678247334376280F3282A6A2A959533056D4FD2B63DBA76EDB3678DFD635AF925DF0D1B9293FC218F06E21CAD9083652C17895C68FF0651FD1C6236BE74FBF00890072EB85CE2DE32FF9B06ED3B6FFC8A73A7FDF88CBE35F20BE01504B0304140006080800
310
155F684143DE5FBC640700009A1B0000340000006662782F35413337333037372D454236412D343832452D393743362D3943353330313936343139392F6F626A656374732E786D6CED595B73A33614FE2B0C7D691F8C8D2FBB4987B013279B1D4F9B76A7EEEEF4C1338C0C32512304238924EEAFEFD1050CC424B89BBEED83
310
0D08E9E89CEF5C75083E3C65D479C05C909C5DB8BE37711DCCE23C212CBD704BB91B9DB9CE8730E0792E1BD35C87A10C5FB86AD80D8394E765618712BC4325959DD19BE55F8E8831C3AE135324C4852BE23B9C210F95324FB0B8F712249197EE9E3CDF3313DB64538E8ABB0ED10271CC24700AE30CA8388629BFFD3871C761
310
3056EFC340FDDB59B341B3E6FDB3C65AEA369784098958FC8CA50E99D9209666FEFCFAE374713E5ACCE7B3D1FCDDD41F2D6F96D723FFFD6C72F5EEEAEAFCF2E339B0B7CD736A654A70815902FADBBBA11F8CD59B5A748BC031AEE39C311C6B20012A2D569720C102B66AC037693FFA4AA2C66B2D61E379AEDE5B161AC3B336
310
95BE59C38068D10541EC7695C4D5B5295FBEFD1B0417438C920B2C815B213968D7C2C3C12BDC70128CCD68186C0FBA20C2C990C49C20EA50B2E588835260AA9A1206668125A39C8303294749A035675EB76D0B3CF375D739C6E5AEA45479861B6AC78AC0FDB0149A33F20FE607EE9BC8004F206D49983CB35CCA7D81DDF03C
310
18EBC1305097D9D4BE34403A3B8A52A111316F3B825E29D75F5DBBE12F37DBA7B50A07C7372F785E602E95D1293D6ABEC090ED55A164B7F507694E2D00610CA876E501943F00F9DF207A1C5801BD71F2347F9ADBB99223267639CF4037CEC4194DE06FE2F8FA5FDD37EE8271BDB8ADBD3E3CC14D155467DF8E675B068D95E5
310
BF0167183C80C1E77C665FAD6344C19E6F09038094913834872108EDBBED931BAE207042A0875588863E880CEC3EC06D30B6640E5AA9DCCB7A1D0344ED1EB3214A02D8B445021B3D7AFA04D98393F8A0A6A6887DF02EDEC45C2FAFD7BFAC4BBE4331BEB53E7D8D7784110959F338432DCC5B12DDE3FD63CE1310F439DEEB26
310
DE99DD4A00DA0A73057C5A81A01E0E3BB73688615D9AAB7013BCB20308A1727583FE2D1131A614319C97D5BE757453865A7BBCAD19DC706A209E4D3B26CCF10351550538CD61468B51C8FB31278502D10D3F19C9EAA0E9F548F765F51B58643DBF67D68A41E86588FEA983D6111C5A965D216D81A805DE1EC2799CD39C47DB
310
7D64229D0BB504B0D1F696AF2DA210EB8D921415F020ED775548498DB4514276BB52405C3DC2E2D7D555D31C26DECC5F38CDFF8E33CE21DA82EF226EFDAEB347443294E2688792BEED9ABBD5B48526D9439AE31D05B9C80391FB08C96892E0F414684E227EFEA6D4539A0B41181690AF8E82DF4463E2412031DAAC58565AED
310
004D44946189E8290828323DE0EAB4A36BDC184A87D779ACADF7258D3589FE4F16C111D492398B0894A290435E65DCF7161043DAE81A943BF882B555B4B518B4841222DE478F98A477F214D40DF91EDC6338929432CA0B1483590F20FBCC5794523BBC6F517CAFF2471497F4AD0C4460BA8B08A56516C18F3038790C71ED3A
310
30BD884283B8897D126750942159F2219BBC5B4C9EED636A866E086C6CB42314C27694A1A207F55640D4F58853836FA9F728755B664584B2BC64830CC59B75BDC992EFAA55911DC8AF2A15A16CAC085B82614098ACB36A15B3C1D475600537D2816A1F099415D49CC25E493C7EED4D9A72EF06DCFAE9DB6E9041E1D7A3BD66
310
449D5730581E5B8581784432BE73C3B5BE8E96507F273839A4FAAAD66C568080988AE4252756455F5650DED81ACD0D6F91149B4F26EB56D72F2B0FBA1FC118D640ED522F5C29A033CC245295C9ADBAA17F2008C12D1A667CA572EA29542E9344578D88DE903E75B6CA88D6A619F18A3BCCF20C7E6C43584CCB046F5022EEA3
310
5B49A33551AC5B29BD8C5418BF28E0EF9FD61D78606480489F5581871F3B6BEDE8952A978E12917765B6658840106C89961ADD78054BAD462A2DD75775A680BA0B0CCCAA78FEFD64D16C477C3F59A4D630BEE964B1DCFF8AF6CDBE48239DC7CAAE4F3A06D4F94951798B63806E3BD454EB2C6292B995DF3A530441B18AF283
310
ABB12A6818827D1CFFE7ACDD9705CD761DFE4FCBDAFEB38AE3A4ACD29AACBA54472AD75533879D9F5D4E168BF97234BF594E47F38F93D9E8EC7C391FBDBF797F39999F2D2FA78BB31A4DEDA8615007339DBBE0D904B56A583D590CA02B2B724A1238CD274E8A21E64B38D30F689FF30C0B489ECD6677629BF203563F983EA7
310
445B8A2B4EEE103488A980B40E1895B16C8F3B3F406B52C241FBC285A691770F7FD62A5D0732CF850BAD0249622CBC2DB49954434F138794AB73BF2506F82096AA946816D5CFF52A854D2BFCD75386A4012B57AB8701855B01DDAF568742F366798A4F12BC62C741126EB7A5846ACDC87218A885D1DB1CD46F64A384DDDBAD
310
9FC0755F16CBF7F49C1622833E19BC680486EA48229EEA7EB762CCB27479FD790C7D3667F5BB53D032055D0EA734E2188CB954051558115885A5592009A67AF5F3E633CFE1134FE6E8AAC8F9F1E9ECDD4F9BAB3CCB7266863697702A4BE04391B3BE83CF3EC9068A07AC9AEB62339DF8D38D6E6ADB3E7BB445027BAA2A8281
310
AA985082744C0EECF25983CAB62FC74A159DE9AB6BC706516806183B7AD6E3351FB91CF021F53945798CF6F34ADA17FBDA633D156C8243473AFC17504B0304140006080000155F6841000000000000000000000000350000006662782F35413337333037372D454236412D343832452D393743362D39433533303139363431
310
39392F76657274696365732E62696E504B0304140006080800155F6841F270F1330600000004000000360000006662782F35413337333037372D454236412D343832452D393743362D3943353330313936343139392F747269616E676C65732E62696E636660600000504B0304140006080000155F68410000000000000000
310
00000000370000006662782F35413337333037372D454236412D343832452D393743362D3943353330313936343139392F617474726962757465732E62696E504B0304140006080800155F6841D5987DFC8F00000041010000360000006662782F35413337333037372D454236412D343832452D393743362D394335333031
310
3936343139392F6469726563746F72792E786D6C858F410EC2201045AF4266AF15DDB800BA74E7C21B903225242D6328188F2FA5C4183471359997F9FF81E89FF3C41E1816475E02DF1F80A11FC8386F25A438EECEC07A250251FC3803E6F58C12560C4AD840E95E91C151A72936F496F35732D860FE635F62C8F2DA16B505
310
C545B74125BAA2FA9E05D7CC053D063734D5C7665FD55B6B8D15D5E9BFEAFD8490FFA45E504B0304140006080800155F68413F969FD6FB000000A00100003B0000006662782F35413337333037372D454236412D343832452D393743362D3943353330313936343139392F7265736F75726365732F636F72652E786D6C8D50
310
4B6E833010BD0A9ABDC17620A2C8380A8938412F6099496A25D8C89FAAC7AF09546A77DDCC8CDE47F3F4C4E96B7E169FE88371B607565228D06A37197BEF21C51B69A13849E19D8BBF64505835630F2B0C52DCBD4BCB0E696723DA9851EB26DC4115024628F4331F3D04FD81B32A558A59111EE5A2F443DDB16465A6B34E8A
310
107D0E506C4FD609D26370C96B0CA2DA58295232D3AE3153FE696E063DC8666C87E63A70325ECE6752D371202DE3945C9BB1395CDE687D6483A856B314D1CC3F19B547157102C929E3843142DB77C6BAE6D8D53CDF1DA5A25AE57F4C6999FE694AC6C603DFE36EB60092E5202F428A6AED2BAF579979AFDDCA6F504B010214
310
000A0000080000155F68413DEE336E79000000790000001B00000000000000000000000000000000006175746F6465736B2D64657369676E2D7061636B6167652E786D6C504B01021400140006080800155F6841D486FD9CA0000000F40000001300000000000000000000000000B20000005B436F6E74656E745F54797065
310
735D2E786D6C504B01021400140006080800155F68412C3DB14EE80000007C010000080000000000000000000000000083010000636F72652E786D6C504B01021400140006080800155F684155019EA25F0000007C000000070000000000000000000000000091020000636E782E786D6C504B01021400140006080800155F
310
6841492BEB6365010000020300000C00000000000000000000000000150300006662782F636F72652E786D6C504B01021400140006080800155F6841C86FFE167D0000009D0000000B00000000000000000000000000A40400006662782F636E782E786D6C504B01021400140006080800155F68414781D6EC2A0100001502
310
000031000000000000000000000000004A0500006662782F35413337333037372D454236412D343832452D393743362D3943353330313936343139392F636F72652E786D6C504B01021400140006080800155F6841BD8AD59B54010000330300003000000000000000000000000000C30600006662782F3541333733303737
310
2D454236412D343832452D393743362D3943353330313936343139392F636E782E786D6C504B01021400140006080800155F684143DE5FBC640700009A1B00003400000000000000000000000000650800006662782F35413337333037372D454236412D343832452D393743362D3943353330313936343139392F6F626A65
310
6374732E786D6C504B01021400140006080000155F684100000000000000000000000035000000000000000000000000001B1000006662782F35413337333037372D454236412D343832452D393743362D3943353330313936343139392F76657274696365732E62696E504B01021400140006080800155F6841F270F13306
310
0000000400000036000000000000000000000000006E1000006662782F35413337333037372D454236412D343832452D393743362D3943353330313936343139392F747269616E676C65732E62696E504B01021400140006080000155F68410000000000000000000000003700000000000000000000000000C81000006662
310
782F35413337333037372D454236412D343832452D393743362D3943353330313936343139392F617474726962757465732E62696E504B01021400140006080800155F6841D5987DFC8F0000004101000036000000000000000000000000001D1100006662782F35413337333037372D454236412D343832452D393743362D
310
3943353330313936343139392F6469726563746F72792E786D6C504B01021400140006080800155F68413F969FD6FB000000A00100003B00000000000000000000000000001200006662782F35413337333037372D454236412D343832452D393743362D3943353330313936343139392F7265736F75726365732F636F7265
310
2E786D6C504B0506000000000E000E0080040000541300000000
  0
XRECORD
  5
17
102
{ACAD_REACTORS
330
12
102
}
330
12
100
AcDbXrecord
280
     1
270
     1
271
     1
  0
XRECORD
  5
16
102
{ACAD_REACTORS
330
12
102
}
330
12
100
AcDbXrecord
280
     1
270
     1
271
     1
  0
XRECORD
  5
18
102
{ACAD_REACTORS
330
12
102
}
330
12
100
AcDbXrecord
280
     1
270
     1
271
     1
  0
XRECORD
  5
15
102
{ACAD_REACTORS
330
12
102
}
330
12
100
AcDbXrecord
280
     1
270
     1
271
     1
  0
XRECORD
  5
253
102
{ACAD_REACTORS
330
22
102
}
330
22
100
AcDbXrecord
280
     1
102
MATERIAL
148
0.0
149
0.0
149
0.0
 93
        0
 94
      127
282
     0
 72
     0
 77
     0
171
     0
175
     0
179
     0
273
     0
  0
XRECORD
  5
24
102
{ACAD_REACTORS
330
22
102
}
330
22
100
AcDbXrecord
280
     1
270
     1
271
     1
  0
XRECORD
  5
23
102
{ACAD_REACTORS
330
22
102
}
330
22
100
AcDbXrecord
280
     1
270
     1
271
     1
  0
XRECORD
  5
BA
102
{ACAD_REACTORS
330
22
102
}
330
22
100
AcDbXrecord
280
     1
 70
     1
 90
1959938040
 71
     1
  1
03ACA6BD-0DC8-4318-988D-F74C3B227AFA
311
504B03040A0000080000155F68413DEE336E79000000790000001B0000006175746F6465736B2D64657369676E2D7061636B6167652E786D6C3C3F786D6C2076657273696F6E3D22312E302220656E636F64696E673D227574662D3822203F3E3C666F726D6174733E3C666F726D61743E687474703A2F2F736368656D612E
311
6175746F6465736B2E636F6D2F64657369676E2D7061636B6167652F323030393C2F666F726D61743E3C2F666F726D6174733E504B0304140006080800155F6841D486FD9CA0000000F4000000130000005B436F6E74656E745F54797065735D2E786D6C7D8EC10E82300C865F65E91D8A1E8C310C0EEA1BF002731658846E
311
D98AC1B77784ABF1D8FE5FBFBF75BBCE937A534CCEB38643598122B6FEE978D0B0485F9C41B54DDD7D022595594E1A469170414C76A4D9A4D207E29CF43ECE46F218070CC6BECC4078ACAA135ACF422C856C0E68EA1BF5669944DDD7BCDE7B1F8E415D77AECB980613C2E4AC91FC167A2B244592486606FC29C8FD7F045B9A
311
EF7053A7E60B504B0304140006080800155F6841B24ED5D5E80000007C01000008000000636F72652E786D6C8D90516EC3201044AF82F61F1B481A230B1339717B825E0001715062B00C543D7E71E248ED5FBF7634CC6357238EDFD31D7DD925BAE03BA0150164BD0EC6F9B1839C2E98033A4AB184907EC5007935D90E561B
311
A4189790E7CDD2C127EB53717D307633558C3601D2F7223A88FA6A2755A99C4A22DEAA59E99B1A6D455FAAC0393B839E4B9C29FFB98BB30B48DE1F78C386331E9AE68CF7037DC7FCD47FE081B31DE9093F713E887A85A5486E7AEDD78B55C91A908C508629C5847F52DABE1DDA3D2BBA2544D46BFC0F9467F34F283B9F766C
311
3BF7894590B41CF27890A25EBB28E35154996B6FF207504B0304140006080800155F684155019EA25F0000007C00000007000000636E782E786D6C4DCB3B0E80201045D1AD90E915ED2CF8AC45050C11660C8261F98AB1B07AC9C97D42D718D865D3E909258CFD00CCE24AC6E326A164D74DC0B4128928FF326038472BA131
311
28B1252AC747C6BAB984FC68F0B87FE8960A5C09FE86CFB69FBA01504B0304140006080800155F68413FF6052E65010000020300000C0000006662782F636F72652E786D6C8D52ED8E8230107C95A6FFA1143D6D4CA951B97B827B810A956B84969496F8F8B77C18CE8B3186A434333BBBB3037C7F6B6AD42BD7696B324CE3
311
0423650A5B6A536538F84BC430DA0BEEACF57FCA3032B251191E602C78E56C6867A8B0C62BE30135B6543328BB4E798C8A1A2E19EE8A1FD5C858060F15DD356E657195958A690C34D409DE790706D0346438B1B89C6F9C4CB8E021E872667509D3F4452B87053B6CD836CD4F51BEDD9EA2754E3F23763C7C45394B57C92161
311
47C6724E06B1E05E3777778553D2AB128B34A169446994B06F4A771F9BDD3A85FB2E493819CA1F44A12DDF14056DFC2A9DED4EB20E0B0A4646E2DFB61091479DECC10F119C0C21C26B4CF83168080442F6F25CDFF7B802D4ABC25BB706A6B461A17A5907055313343E9C4C2C741E1BC0664FFBA42FFABCEE011F509A0AAC49
311
0FD773F0C3743E4D9DA368958B7A7F43C6BA46D68BB9C9E2722E839ECA0B5B5BF78E9ACCAB92394C32FCBDE217504B0304140006080800155F684130A7B2767E0000009D0000000B0000006662782F636E782E786D6C4DCCD10A83201886E15B91FFDCA535CA1FD4285AF711CB42663A9C8E5DFE6A74B0A30F1E3E5ED97E36
311
47DE26BE6CF00AF8850131FE1E66EB5705392D540069B58C21A4BF1B103F6D46C1C1A0E51A437E9E349B65CA2EEDEAAC7F9CD87081D52004BD618FF43A8C2345641DE54D57D535F2BE6425145A16BFD2BE47587F01504B0304140006080800155F6841025F41842B01000015020000310000006662782F3731383933443838
311
2D453942392D344446462D393930412D3137413336363931423230322F636F72652E786D6C8D51CB6EC23010FC95C8277A7062871062E41881285FD01F7063432D881DF951F1F95D37416A6F5CBCD6ECCCEC6897EF1FE3BDF8D63E18677B444B820A6D07A78CBDF628C50BEE50B117DC3B17FFD05061E5A87B946124F8D5BB
311
342DD0E06CD436026A9DD20B2843D01115C31D3E3D0AC3971E6529530446B895931C6EF2AA4B5A421B788287E82140310FC92F125BDAB1F5A9EBF03B3B32DC9CCE67CC183960BA3DACDB96D1634D6A5ECD42C153326A911B0571CCC568FFAA49160B1ECDF88C3F782DA35648D484D698524CBA0F4A779B76D7D4F0DF11C2AB
311
4CFF274A937A51948C8DEB7A893BCB02129457734370E5D2E7FD19463F26E76391E7AD821EDE90202521DB4DD730069A990B1B00D3B6594C43741E36BCBA7D029D6E66E7B611BCCA4782F27B41A8F9A0E207504B0304140006080800155F6841DB2D1A8C4C01000033030000300000006662782F37313839334438382D4539
311
42392D344446462D393930412D3137413336363931423230322F636E782E786D6CD593BD6E032110845F05D1DF0FCEC5B22C0E4B29F20429D272B0B6893938F113C56F9FC5268E1B1729D32034FB31B31ADDF1DDD76CC9278468BC1B296B7B4AC029AF8D3B8C34A77DB3A1642778F03EDD61943839C3488B4C053F049F972A
311
69D8CB6C13AAD6B8531503449F838288727949AC57D2A201B826A308F3045A832637106F7B08B80A8AD399A42390D79777E2A70F5029F2AEB808DE950CC1CB5993EE204A9495318E34AA23CCB29539790DF1D46A9964CBDA9FAC073BFD3A91F2E0273207434AF848CB4945DDA8C51E798743C1630AD85E85D279012AE4B258
311
A364C292BB0B786504CFC6A5F5505983C507A4D9FA6918D0EC32133C99192AA102C8049A8A55CF560D634DBF79636CFBBCDE0E2BBC6FFB9E7705177CF2DED6476803C12F447997C0252A18EFCAF8517D9523DA04ECDA87F31F8AC4026AEAB59D9BC77FEEA7BB7CDF5857C0BF407C03504B0304140006080800155F6841FF9F
311
BCBEA305000080100000340000006662782F37313839334438382D453942392D344446462D393930412D3137413336363931423230322F6F626A656374732E786D6CAD575D8F9B3814FD2B887DD97DC807493ACDAC18AA4CD2A9A26ADAAA51AB7D881419308C770C46B699C9ECAFDF633001D2649A5DF52504737D7DEFB9E7
311
7ED87FB7CFB8F344A56222BF71BDE1D875681E8998E5E98D5BEA6430779D77812F85D01D31D7C949466F5CB3EC067E2A4559D8A59826A4E4FA68F5EEF62F474534A7AE1371A2D48DABA2079A912129B588A97A1CC64493619AEC87DEB016ECAB4D25291E8E941644D25CC352ACE7D0E2D44679FDD7B13B0AFC91F91EF8E6D7
311
4A4DCF4B8D2A7FFAE7B35C6992473F1C76A466EACD56EF276FAE076F66B3E9607635F106B777B7AB81F7763A5E5E2D97D78BF7D7385869094DD612491337F8006C248BFC51FD29F04B96EBE9C48AD8008D247D6226526E30713C7F54CB1CBCB34E9E323F12794EA30A2BA051F96755C7B4A0798C9833AA605907A171FFD533
311
38763E4FCDBB3DB2BB7C1902DD1D1D458DEDCDB36BA908FF860BEA120649450D036B2CADA33557C72DC2A110DC7E63CAC988A69211EE70164A225FDC00A24624F07B6A0C93A5C906E3811B200AF5E73E5D90463FE7F9292B939273436337A8B260875CA15A5596B17FA86CADEF22039B102BC386B97548BF14D40DAE6B8ACC
311
8FD85403E9249CA40839DC343BA793234797264FD72B37F87817EE3726774F1F5E485150A90D7D40AD2670CDD3A0646DF22E8A9CD9E01E99D282F215C87F42AAB7A6206E92ED67FB993D454B92AB44C80CB171C6CE608C9FB1E355BFE67FE79F3F3A6CEE47EF1C9E08B681EA17E0D9F7A11BCB0E9C81FF04C20B39B5AE6D22
311
C25136EE590E800C491C2EB0843A9C847B3758A3CAA12A6317E181079761EE13FEFA23AB0685A23AA9F3CC81E55159BCA04003B68A9130A326BF35B08DD30FE5AC3AD88A9D83F7CD2FA1EB62B5F9B8296542227A6F737A451396338D16D7F2A66B500FF39E478FF4E559C8188EFE88F7A68B77668F5240DB606E804F9B9A6E
311
5EDA937B0744D8970A536EFC9F9C00274C63EDE8BF672AA29C939C8AB239F7D5FE81B651436C92DD30F9D060DAC602D2D45F8E72104D3A92AC30201EBAD5A1680ECF78F76DFD098C843C1721E1AD50D896DE48702177E1CBAEAE4A2791FEDEA7B6856064B480ED558E34E96F31DFC52C494A851A7802D6EFEB653774A62AA0
311
42345AEB6499C17DE4169196B38D5E346B49D04845BE63689B48BB930774F503514B804AE1398B15E5C98E715E66BB847134A35D468A3370FC7FFBC3322B76241365AECFE8EE998EE6D0B7BD475EF54C74F4E0069BEA39B845E98D69DC86B9276C5AC909AC7AA11D4F17CBC515E6A5F16A391FCCA6DE7C703D9FAF06776F67
311
CBE9ED64F27671B768E2542B0FFCA6D374131A514267F34BC96CF8BEAD913EB606B8C13DD16AFBA1CECEE6F96D3DC428EC8FB007EDF2B071113F61ECA3F1CF15B4922715ADB382D38CE69A9814BA377FF8578231A3674CBDBECE484A2FD0F2F9C3E6C819AC5CB0EF8B4977FA7CB4D7AE2E4D429E54A21FCA2CCC09E3471BD3
311
1AC96191A716BF26268767DD679A57F3660383C15409CE6294C1D849A9C8A84631BCA007C98C2A50AF3BD2C7F6EA71C1EEA77A40D424E4B4B1E4816046E60A69016A9591EEAF3BBF61A63363D58D8B6E3B7CC48FAD14AE03CEDCB898D1358BA81A86E8CF6612AA94834BDD411E733FC9538E51BBDE74783FEC32D8F43AF241
311
E492F1C9FA555770EB00CA4881B101F310A2531913F8956DF67BF49F1C6FCC7188C6DFB0D4075FDA858333D53148D1DA297B59C00CF3688FDE23515F77CB1B56323D442EBA64BD4A825AEB401399561705639F3569B1FA32C280E2AC3F3B052F53C4F2724D034941E6D22438580456589D05D1A0EAF2CFED17297091CD9C3B
311
060A38BFEFE7577F6C9722CB445E2F6D17F63AEC6C1E70B98DB7280ED4DC4AD47632F626DBEA36602F28BB90283A24B17AC402222BD901E85EF8C1CBFACAE841C886DF4662644271C4D0F5CAB18D6DD6CA776BAB010773474E1DE490B9519A8CE90A14AF5E084695284C9518E5837F01504B0304140006080000155F684100
311
0000000000000000000000350000006662782F37313839334438382D453942392D344446462D393930412D3137413336363931423230322F76657274696365732E62696E504B0304140006080800155F6841F270F1330600000004000000360000006662782F37313839334438382D453942392D344446462D393930412D31
311
37413336363931423230322F747269616E676C65732E62696E636660600000504B0304140006080000155F6841000000000000000000000000370000006662782F37313839334438382D453942392D344446462D393930412D3137413336363931423230322F617474726962757465732E62696E504B030414000608080015
311
5F6841D5987DFC8F00000041010000360000006662782F37313839334438382D453942392D344446462D393930412D3137413336363931423230322F6469726563746F72792E786D6C858F410EC2201045AF4266AF15DDB800BA74E7C21B903225242D6328188F2FA5C4183471359997F9FF81E89FF3C41E1816475E02DF1F
311
80A11FC8386F25A438EECEC07A250251FC3803E6F58C12560C4AD840E95E91C151A72936F496F35732D860FE635F62C8F2DA16B505C545B74125BAA2FA9E05D7CC053D063734D5C7665FD55B6B8D15D5E9BFEAFD8490FFA45E504B0304140006080800155F6841A1E5FB4DFB000000A00100003B0000006662782F37313839
311
334438382D453942392D344446462D393930412D3137413336363931423230322F7265736F75726365732F636F72652E786D6C8D504B6E833010BD0A9ABDC12669B022E3084A7B825EC032136225D8C89FAAC7AF09546A77DDCC8CDE47F3F4C4E56B7E149FE88371B605565228D06A371A3BB590E29570282E5278E7E22F19
311
1456CDD8C20A8314937769D921ED6C441B336ADD883BA842C008857EE4A385A06F38AB52A59815E15E2E4ADFD584252B339D755284E87380627BB24E901E834B5E6310D5C64A919219778D19F34F7335E841F2EEC49B7AE8C9D034AFE438B037C2FBEE9D0CBC3ED08EF29EF34154AB598A68E69F8CDAA38A3882AC29AB0963
311
84F20FC6CE2FA7F3B1CEF7995251ADF23FA6B48CFF342563E3A1DEE36EB60092E5204F428A6AED2BAF679979AFDDCA6F504B010214000A0000080000155F68413DEE336E79000000790000001B00000000000000000000000000000000006175746F6465736B2D64657369676E2D7061636B6167652E786D6C504B01021400
311
140006080800155F6841D486FD9CA0000000F40000001300000000000000000000000000B20000005B436F6E74656E745F54797065735D2E786D6C504B01021400140006080800155F6841B24ED5D5E80000007C010000080000000000000000000000000083010000636F72652E786D6C504B01021400140006080800155F
311
684155019EA25F0000007C000000070000000000000000000000000091020000636E782E786D6C504B01021400140006080800155F68413FF6052E65010000020300000C00000000000000000000000000150300006662782F636F72652E786D6C504B01021400140006080800155F684130A7B2767E0000009D0000000B00
311
000000000000000000000000A40400006662782F636E782E786D6C504B01021400140006080800155F6841025F41842B0100001502000031000000000000000000000000004B0500006662782F37313839334438382D453942392D344446462D393930412D3137413336363931423230322F636F72652E786D6C504B010214
311
00140006080800155F6841DB2D1A8C4C010000330300003000000000000000000000000000C50600006662782F37313839334438382D453942392D344446462D393930412D3137413336363931423230322F636E782E786D6C504B01021400140006080800155F6841FF9FBCBEA30500008010000034000000000000000000
311
000000005F0800006662782F37313839334438382D453942392D344446462D393930412D3137413336363931423230322F6F626A656374732E786D6C504B01021400140006080000155F68410000000000000000000000003500000000000000000000000000540E00006662782F37313839334438382D453942392D344446
311
462D393930412D3137413336363931423230322F76657274696365732E62696E504B01021400140006080800155F6841F270F13306000000040000003600000000000000000000000000A70E00006662782F37313839334438382D453942392D344446462D393930412D3137413336363931423230322F747269616E676C65
311
732E62696E504B01021400140006080000155F68410000000000000000000000003700000000000000000000000000010F00006662782F37313839334438382D453942392D344446462D393930412D3137413336363931423230322F617474726962757465732E62696E504B01021400140006080800155F6841D5987DFC8F
311
000000410100003600000000000000000000000000560F00006662782F37313839334438382D453942392D344446462D393930412D3137413336363931423230322F6469726563746F72792E786D6C504B01021400140006080800155F6841A1E5FB4DFB000000A00100003B00000000000000000000000000391000006662
311
782F37313839334438382D453942392D344446462D393930412D3137413336363931423230322F7265736F75726365732F636F72652E786D6C504B0506000000000E000E00800400008D1100000000
310
504B03040A0000080000155F68413DEE336E79000000790000001B0000006175746F6465736B2D64657369676E2D7061636B6167652E786D6C3C3F786D6C2076657273696F6E3D22312E302220656E636F64696E673D227574662D3822203F3E3C666F726D6174733E3C666F726D61743E687474703A2F2F736368656D612E
310
6175746F6465736B2E636F6D2F64657369676E2D7061636B6167652F323030393C2F666F726D61743E3C2F666F726D6174733E504B0304140006080800155F6841D486FD9CA0000000F4000000130000005B436F6E74656E745F54797065735D2E786D6C7D8EC10E82300C865F65E91D8A1E8C310C0EEA1BF002731658846E
310
D98AC1B77784ABF1D8FE5FBFBF75BBCE937A534CCEB38643598122B6FEE978D0B0485F9C41B54DDD7D022595594E1A469170414C76A4D9A4D207E29CF43ECE46F218070CC6BECC4078ACAA135ACF422C856C0E68EA1BF5669944DDD7BCDE7B1F8E415D77AECB980613C2E4AC91FC167A2B244592486606FC29C8FD7F045B9A
310
EF7053A7E60B504B0304140006080800155F68414A77BD4CE80000007C01000008000000636F72652E786D6C8D90516EC3201044AF82F8C76609A1A98589DAB43E412F8080B828315806AA1EBF3871A4F6AF5F3B1AE6B1AB91C7EFE98ABEDC927C0C3D868662E48289D687B1C7259FC901A3A3924B8CF9570CA3A027D7E3D5
310
C64A8E4B2CF3669918B20BB9BA215AB7993A25973132D72A7A9CCCA79B74A34BAE897469666D2E7A740D3C54854BF116DD97785BFFF367EF16ACD8092817C340C4FE9513CE1990E71D1FC881BF3CBDBD3301E22464BBC24A663F3DF69BC5E9EC6CE529300240E8E103A0DB8B8EB3AA3B4A65BBC6FF4065B6FF848A0F79C7B6
310
73EF58C20AEA21B70725DBB58B3A6E45D5B9F6A67E00504B0304140006080800155F684155019EA25F0000007C00000007000000636E782E786D6C4DCB3B0E80201045D1AD90E915ED2CF8AC45050C11660C8261F98AB1B07AC9C97D42D718D865D3E909258CFD00CCE24AC6E326A164D74DC0B4128928FF326038472BA131
310
28B1252AC747C6BAB984FC68F0B87FE8960A5C09FE86CFB69FBA01504B0304140006080800155F684172C2E64B65010000020300000C0000006662782F636F72652E786D6C8D525B6E833010BC8AE57F30260E4D23E3A84D9B13F4020E38D40AD8C80F94E377794469AA28AA908C35B3B33B3BC07797AE4583725E5B53629A
310
66182953D95A9BA6C4319C920D463BC19DB5E15719464676AAC4238C056F9C8DFD0255D6046502A0C6D66A01A5F72A6054B57029B1AFBE552753190354F873DACBEA2C1B95D21468A813DC070706D03C643CB1381D2F9CCCB8E031EA7A61750DD3F4492B8745BEA7192B0E87A458BFB384B19C26AF2B764836ECEDE5E3332F
310
68B12F3819C58207DD5DDD554EC9A06AD067344F284DB2CD17A5DB75B16539DCB759C6C9587E278A7DFD4F51D426ACF2C5EE2CF358503032117FB6858802F272003F4470328608AF29E1FBA021100839C8637BDDE30CD0A0AA601D03A6B6F1460DB28D0AA666687A389959E83C3580CD1EF6C99FF479DE033EA0340D589301
310
AEC718C6E97C9EBA44D12B970CE1828C759D6C6FE6668BB7F336E8A1BCB2AD75FF51936555B28449C6BF57FC00504B0304140006080800155F68410DE19D0F7D0000009D0000000B0000006662782F636E782E786D6C4DCCD10A83201886E15B91FFDC6AE9C2400D2DBA8F581632D3E13476F9ABD1C18E3E78F87879F7D91C
310
DA4D7CDBE005DC8A0A90F18F305BBF0AC869C10C5027790C21FDDD00F96933024E06C9D718F2EBA2D92C5376E95067FDF342CD88EEC74AE3B6610CD341D5B85594E0A1E9EF8C284DE948A194BCFC958E3DC3F20B504B0304140006080800155F68419EF26C902B01000015020000310000006662782F42383342434630422D
310
393638382D344441322D394134332D4436433538334142343446342F636F72652E786D6C8D51DB8EC22014FC15C293FBD0165AEC56433156E317EC0F20A0122D345C367EFEC2B626BB6FBE70C89C99399373E8EE393EC0B7725E5BD3435C22089411566A73ED610C97A28360C7A8B336FCA14160F8A87A9861C8E8D5D9382D
310
90B0262813126AAC540BC8BD570102F1489F1E7A7153232F790C89E1EFE5C4C59D5F5589CBD44E3C467D7029009887E417B2A16B86C3090DC5A6EDBA821CF775B1D993A638B68775D7EC07424E8456B390D118B55CE45AA638FAA2957BD7248B190D7A7CC5174EF1A0246435C275817181BA2F8CB7EB764BEAF4DF2244AB4C
310
FF278A937C5314B5094DBDC49D651E324CABB9C1A8B4F1FC788551CFC9BA00F2BC9557E203325422D4D51BD27E36B49AB96903C9B4258BA90FD6A50DAFEEE7446F16E796305AE523A5F27BC154F341D90F504B0304140006080800155F6841BD8AD59B5401000033030000300000006662782F42383342434630422D393638
310
382D344441322D394134332D4436433538334142343446342F636E782E786D6CBD93CD6EC32010845F0571F70F8E6B591126520F7D821E7AC5B049696CB00057CDDB7749489A4B0E95AA5E109A1D66569F6CBEFB9A27F2093E186707CACA9A12B0CA69630F035DE3BEE829D909EE9D8B77364AAC9C61A049A6821FBC5B972C
310
69D8CB758AA84EC61EB3E821B8D52B0828A79764724A4E1800B65851847904AD41939B116F7BF0B80A8AE389C477202FCF6FC48D1FA062E0554A11BC4A1D82A73337DD992851930C61A041BDC32C4BB946A7211C4B2DA32C5979ED7AB0D34F12490FAE95AB3724950F349D54E48D4AE4C82B1C0A1EA2477AD9144F0B502197
310
65324A46845C9D8D178FE0ABB1B16BB3D720788FEE4DD3F53D869D678247334376280F3282A6A2A959533056D4FD2B63DBA76EDB3678DFD635AF925DF0D1B9293FC218F06E21CAD9083652C17895C68FF0651FD1C6236BE74FBF00890072EB85CE2DE32FF9B06ED3B6FFC8A73A7FDF88CBE35F20BE01504B03041400060808
310
00155F6841A1325B4861070000991B0000340000006662782F42383342434630422D393638382D344441322D394134332D4436433538334142343446342F6F626A656374732E786D6CED595B73A33614FE2B0C7D691F8C8DED64930EA1E3D8CD8E6727DB9DBABBD307CF3032C8448D108C2472E9AFEFD1050CC424B89BBEF5
310
C106847474CE77AE3A04BF3C65D479C05C909C5DB9BE37711DCCE23C212CBD724BB91F5DB8CE2F61C0F35C36A6B90E4319BE72D5B01B0629CFCBC20E25788F4A2A3BA337D77F3A22C60CBB4E4C911057AE88EF70863C54CA3CC1E2DE4B90445EBA7FF27CCF4C6C934D392AEE3A440BC43193C0298C33A0E218A6FCF6E3C41D
310
87C158BD0F03F56F67CD06CD9AF7CF1A6BA9DB5C12262462F10B963A646683589AF9F3D5AFD3B3CBD1D97C3E1BCDCFA7FEE8FAE67A35F23FCC26CBF3E5F272F1EB25B0B7CB736A654A70815902FA7B76433F18AB37B5E81681635CC7396338D64002545AAC2E4182056CD5806FD27EF495448DD75AC2C6F35CBDB72C348667
310
6D2A7DB38601D1A20B82D8ED2A89AB6B53BE7CF717082E861825175802B74272D0AE85878357B8E124189BD130D81D7441849321893941D4A164C71107A5C05435250CCC024B46390707528E92406BCEBC6EDB1678E6DBAE738CCB7D49A9F20C37D48E1581FB61293467E46FCC0FDC3791019E40DA92307961B994CF0576C3
310
CB60AC07C3405D6653FBD200E9EC294A8546C4BCED08BA54AEBF5EB9E1A79BDDD3468583E39B173C2F3097CAE8941E355F60C8F6AA50B2DBFA8334A71680300654BBF200CAEF80FC67881E0756406F9C3CCD9FE676AEE488897DCE33D08D33714613F89B38BEFE57F78DBB605C2F6E6BAF0F4F705305D5C5F7E3D996416365
310
F96FC019060F60F0399FD9579B1851B0E75BC2002065240ECD610842FB7EF7E4866B089C10E86115A2A10F2203BB0F701B8C2D9983562AF7B25EC70051BBC76C889200366D91C0468F9E3E42F6E0243EA8A929621FBC67EF62AE8BD5E6D3A6E47B14E35BEBD32BBC278C48C89AC7196A61DE92E81E3F3FE63C01415FE2BD69
310
E29DD9AD04A0AD3057C0A71508EAE1B0736B8318D6A5B90A37C11B3B80102A5737E8DF1211634A11C37959ED5B473765A8B5C7DB9AC10DA706E2D9B463C21C3F10555580D31C66B41885BC1F73522810DDF0A391AC0E9A5E8F745FD79FC122EBF93DB3D60C422F43F40F1DB48EE0D0B2EC0A690B442DF0EE10CEE39CE63CDA
310
3D4726D2B9504B001B6D6FF9D6220AB1DE284951010FD27E578594D4481B2564BF2F05C4D5232C7E5B2F9BE630F166FE99D3FCEF38E31CA22DF82EE2D6EF3A7B442443298EF628E9DBAEB95B4D5B68923DA439DE53908B3C10F91C21194D129C9E02CD49C42FDF957A4A732108C302F2D551F09B684C3C0824469B15CB4AAB
310
1DA08988322C113D050145A6075C9D76748D1B43E9F0368FB5F5BEA6B126D1FFC82238825A32671181521472C89B8CFBDE19C49036BA06E50EBE606D156D2D062DA184889FA3474CD23B790AEA867C0FEE311C494A19E5058AC1AC07907DE12B4AA91DDE7728BE57F9238A4BFA5E062230DD4784D2328BE047189C3C86B876
310
1D985E45A141DCC43E893328CA902CF9904DCECF262FF631354337043636DA130A613BCA50D1837A2B20EA7AC4A9C1B7D47B94BA2BB32242595EB24186E2CDBADE64C977D5AAC80EE457958A503656842DC130204CD659B58AD960EA3AB0821BE940F51C099415D49CC2DE483C7EED4D9A72EF06DCFAE9FB6E9041E1D7A3BD
310
66449D5730581E5B8581784432BE73C38DBE8EAEA1FE4E707248F555ADD9AC00013115C94B4EAC8ABEAEA1BCB1359A1BDE2229B61F4DD6ADAE5FD71E743F8231AC81DAA55EB85640679849A42A935B75437F4710825B34CCF85AE5D453A82C9244578D88DE903E75B6CA88D6A619F18A3BCCF20C7E6C4B584CCB046F5122EE
310
A35B49A30D51AC5B29BD8C5418BF2AE06F1F371D78606480485F5481871F3B6BEDE852954B4789C8BB32DB31442008B6444B8D6EBC82A556239596EBAB3A5340DD050666553CFFFF64D16C47FC7FB248AD617CDFC982E63B440FD1A691CD6365D6279D02EAF4A4A8BCC72940771D6AAA751231B9DC8A6F7D2982985805F9C1
310
C55815330CC13E8EFF75D2EE4B8266BB0EFFA7256DFF45C1715252694D564DAA2385EBBA99C226B3C572710E0DD9C96A79319ACFFC8BD1E5C5C56A74F361BE9C5D4FA71F16378B1A4DEDA76150C7329DBAE0D9C4B46A583D590CA0292B724A1238CC274E8A21E44B38D20FE89EF30C0BC89DCD5E77627BF203563F9836A744
310
3B8A2B4EEE10F487A980AC0E1895B16C8F3B3F406752C239FBCA859E91770F7FD62A5D0712CF950B9D0249622CBC1D7499543F4F13878CAB53BF2506F82096AA8C6816D5CFF52A854D2BFAD7538664012B57AB8501755B01CDAF568342F366798A4F12BC62C741126E77A58462CDC87218A885D1DB1CD46F64A384DDDBAD9F
310
C0755F17CBF7F49C162283BE18BC6A0486EA48229EEA76B762CCB2B4587D19439BCD59FFE614B44C4197C3298D3806632E553D055604566169164882A92E7FDE7EE1397CE1C91C5D14393F3E5D9CFFB45DE659963333B45DC0A12C81EF44CEE60EBEFA245BA81DB0EAAD8BED74E24FB7BAA76DDBECD10E09ECA9A20806AA5A
310
4209D23139B0CB17FD29DBBD1C2B5574A6AF578E0DA2D00B3076F4A2C56BBE7139E043EA6B8AF218EDE795B4AFB6B5C77A2AD804878674F80F504B0304140006080000155F6841000000000000000000000000350000006662782F42383342434630422D393638382D344441322D394134332D443643353833414234344634
310
2F76657274696365732E62696E504B0304140006080800155F6841F270F1330600000004000000360000006662782F42383342434630422D393638382D344441322D394134332D4436433538334142343446342F747269616E676C65732E62696E636660600000504B0304140006080000155F684100000000000000000000
310
0000370000006662782F42383342434630422D393638382D344441322D394134332D4436433538334142343446342F617474726962757465732E62696E504B0304140006080800155F6841D5987DFC8F00000041010000360000006662782F42383342434630422D393638382D344441322D394134332D4436433538334142
310
343446342F6469726563746F72792E786D6C858F410EC2201045AF4266AF15DDB800BA74E7C21B903225242D6328188F2FA5C4183471359997F9FF81E89FF3C41E1816475E02DF1F80A11FC8386F25A438EECEC07A250251FC3803E6F58C12560C4AD840E95E91C151A72936F496F35732D860FE635F62C8F2DA16B505C545
310
B74125BAA2FA9E05D7CC053D063734D5C7665FD55B6B8D15D5E9BFEAFD8490FFA45E504B0304140006080800155F6841229DE07DFB000000A00100003B0000006662782F42383342434630422D393638382D344441322D394134332D4436433538334142343446342F7265736F75726365732F636F72652E786D6C8D504B6E
310
C32010BD8AC51E1B08A1A98589DA3439412F80F0C44589C1E253F5F885D895DA5D3733A3F7D13C3D79FC9AEFCD278468BD1B106D096AC0193F5A370D28A72B3EA0E6A864F03EFD92A1C6E919065461A4E4147C5E36C87897C0A5823A3FC206EA1821A1C6DCCB31A0683E60D6ADCEA928E2AD5DB4B9E9095ADA16BAE8948C29
310
9400CDFAA44EA402449F838128BB955532673B6E1A3B969FF66A2120C54E9470713963B17FE5987346F1F38E5FF081BF3CBD9D99A0E2246457CD4A263BFF6434017482B1F8096598524C0EEF94F67BD17356EE9E10D955F91F535EC67F9AB27569C7B6B8AB2D22454B9007A16457FB2AEB5166D9B55BF50D504B010214000A
310
0000080000155F68413DEE336E79000000790000001B00000000000000000000000000000000006175746F6465736B2D64657369676E2D7061636B6167652E786D6C504B01021400140006080800155F6841D486FD9CA0000000F40000001300000000000000000000000000B20000005B436F6E74656E745F54797065735D
310
2E786D6C504B01021400140006080800155F68414A77BD4CE80000007C010000080000000000000000000000000083010000636F72652E786D6C504B01021400140006080800155F684155019EA25F0000007C000000070000000000000000000000000091020000636E782E786D6C504B01021400140006080800155F6841
310
72C2E64B65010000020300000C00000000000000000000000000150300006662782F636F72652E786D6C504B01021400140006080800155F68410DE19D0F7D0000009D0000000B00000000000000000000000000A40400006662782F636E782E786D6C504B01021400140006080800155F68419EF26C902B01000015020000
310
31000000000000000000000000004A0500006662782F42383342434630422D393638382D344441322D394134332D4436433538334142343446342F636F72652E786D6C504B01021400140006080800155F6841BD8AD59B54010000330300003000000000000000000000000000C40600006662782F42383342434630422D39
310
3638382D344441322D394134332D4436433538334142343446342F636E782E786D6C504B01021400140006080800155F6841A1325B4861070000991B00003400000000000000000000000000660800006662782F42383342434630422D393638382D344441322D394134332D4436433538334142343446342F6F626A656374
310
732E786D6C504B01021400140006080000155F68410000000000000000000000003500000000000000000000000000191000006662782F42383342434630422D393638382D344441322D394134332D4436433538334142343446342F76657274696365732E62696E504B01021400140006080800155F6841F270F133060000
310
000400000036000000000000000000000000006C1000006662782F42383342434630422D393638382D344441322D394134332D4436433538334142343446342F747269616E676C65732E62696E504B01021400140006080000155F68410000000000000000000000003700000000000000000000000000C61000006662782F
310
42383342434630422D393638382D344441322D394134332D4436433538334142343446342F617474726962757465732E62696E504B01021400140006080800155F6841D5987DFC8F0000004101000036000000000000000000000000001B1100006662782F42383342434630422D393638382D344441322D394134332D4436
310
433538334142343446342F6469726563746F72792E786D6C504B01021400140006080800155F6841229DE07DFB000000A00100003B00000000000000000000000000FE1100006662782F42383342434630422D393638382D344441322D394134332D4436433538334142343446342F7265736F75726365732F636F72652E78
310
6D6C504B0506000000000E000E0080040000521300000000
  0
XRECORD
  5
27
102
{ACAD_REACTORS
330
22
102
}
330
22
100
AcDbXrecord
280
     1
270
     1
271
     1
  0
XRECORD
  5
26
102
{ACAD_REACTORS
330
22
102
}
330
22
100
AcDbXrecord
280
     1
270
     1
271
     1
  0
XRECORD
  5
28
102
{ACAD_REACTORS
330
22
102
}
330
22
100
AcDbXrecord
280
     1
270
     1
271
     1
  0
XRECORD
  5
25
102
{ACAD_REACTORS
330
22
102
}
330
22
100
AcDbXrecord
280
     1
270
     1
271
     1
  0
XRECORD
  5
24E
102
{ACAD_REACTORS
330
24D
102
}
330
24D
100
AcDbXrecord
280
     1
102
ACAD_ROUNDTRIP_2012_MLEADER_STYLE
298
     1
  0
CELLSTYLEMAP
  5
24C
102
{ACAD_REACTORS
330
1F7
102
}
330
1F7
100
AcDbCellStyleMap
 90
        3
300
CELLSTYLE
  1
TABLEFORMAT_BEGIN
 90
        5
170
     1
 91
        0
 92
    32768
 62
   257
 93
        1
300
CONTENTFORMAT
  1
CONTENTFORMAT_BEGIN
 90
        0
 91
        0
 92
      512
 93
        0
300

 40
0.0
140
1.0
 94
        5
 62
     0
340
55
144
0.25
309
CONTENTFORMAT_END
171
     0
 94
        0
309
TABLEFORMAT_END
  1
CELLSTYLE_BEGIN
 90
        1
 91
        1
300
_TITLE
309
CELLSTYLE_END
300
CELLSTYLE
  1
TABLEFORMAT_BEGIN
 90
        5
170
     1
 91
        0
 92
        0
 62
   257
 93
        1
300
CONTENTFORMAT
  1
CONTENTFORMAT_BEGIN
 90
        0
 91
        0
 92
      512
 93
        0
300

 40
0.0
140
1.0
 94
        5
 62
     0
340
55
144
0.18
309
CONTENTFORMAT_END
171
     0
 94
        0
309
TABLEFORMAT_END
  1
CELLSTYLE_BEGIN
 90
        2
 91
        1
300
_HEADER
309
CELLSTYLE_END
300
CELLSTYLE
  1
TABLEFORMAT_BEGIN
 90
        5
170
     1
 91
        0
 92
        0
 62
   257
 93
        1
300
CONTENTFORMAT
  1
CONTENTFORMAT_BEGIN
 90
        0
 91
        0
 92
      512
 93
        0
300

 40
0.0
140
1.0
 94
        2
 62
     0
340
55
144
0.18
309
CONTENTFORMAT_END
171
     0
 94
        0
309
TABLEFORMAT_END
  1
CELLSTYLE_BEGIN
 90
        3
 91
        2
300
_DATA
309
CELLSTYLE_END
  0
XRECORD
  5
284
102
{ACAD_REACTORS
330
1F7
102
}
330
1F7
100
AcDbXrecord
280
     1
102
ACAD_ROUNDTRIP_PRE2007_TABLESTYLE
 90
      512
 91
        0
  1

 92
      512
 93
        0
  2

 94
      512
 95
        0
  3

  0
XRECORD
  5
25F
102
{ACAD_REACTORS
330
25E
102
}
330
25E
100
AcDbXrecord
280
     1
102
RTVSPropertyOp0
 70
     1
102
RTVSPropertyOp1
 70
     1
102
RTVSPropertyOp2
 70
     1
102
RTVSPropertyOp3
 70
     1
102
RTVSPropertyOp4
 70
     1
102
RTVSPropertyOp5
 70
     1
102
RTVSPropertyOp6
 70
     1
102
RTVSPropertyOp7
 70
     1
102
RTVSPropertyOp8
 70
     1
102
RTVSPropertyOp9
 70
     1
102
RTVSPropertyOp10
 70
     1
102
RTVSPropertyOp11
 70
     1
102
RTVSPropertyOp12
 70
     1
102
RTVSPropertyOp13
 70
     1
102
RTVSPropertyOp14
 70
     1
102
RTVSPropertyOp15
 70
     1
102
RTVSPropertyOp16
 70
     1
102
RTVSPropertyOp17
 70
     1
102
RTVSPropertyOp18
 70
     1
102
RTVSPropertyOp19
 70
     1
102
RTVSPropertyOp20
 70
     1
102
RTVSPropertyOp21
 70
     1
102
RTVSPropertyOp22
 70
     1
102
RTVSPropertyOp23
 70
     1
102
RTVSPropertyOp24
 70
     1
102
RTVSPropertyOp25
 70
     1
102
RTVSPropertyOp26
 70
     1
102
RTVSPropertyOp27
 70
     1
102
RTVSPropertyOp28
 70
     1
102
RTVSPropertyOp29
 70
     1
102
RTVSPropertyOp30
 70
     1
102
RTVSPropertyOp31
 70
     1
102
RTVSPropertyOp32
 70
     1
  0
XRECORD
  5
25D
102
{ACAD_REACTORS
330
25C
102
}
330
25C
100
AcDbXrecord
280
     1
102
RTVSPropertyOp0
 70
     1
102
RTVSPropertyOp1
 70
     1
102
RTVSPropertyOp2
 70
     1
102
RTVSPropertyOp3
 70
     1
102
RTVSPropertyOp4
 70
     1
102
RTVSPropertyOp5
 70
     1
102
RTVSPropertyOp6
 70
     1
102
RTVSPropertyOp7
 70
     1
102
RTVSPropertyOp8
 70
     1
102
RTVSPropertyOp9
 70
     1
102
RTVSPropertyOp10
 70
     1
102
RTVSPropertyOp11
 70
     1
102
RTVSPropertyOp12
 70
     1
102
RTVSPropertyOp13
 70
     1
102
RTVSPropertyOp14
 70
     1
102
RTVSPropertyOp15
 70
     1
102
RTVSPropertyOp16
 70
     1
102
RTVSPropertyOp17
 70
     1
102
RTVSPropertyOp18
 70
     1
102
RTVSPropertyOp19
 70
     1
102
RTVSPropertyOp20
 70
     1
102
RTVSPropertyOp21
 70
     1
102
RTVSPropertyOp22
 70
     1
102
RTVSPropertyOp23
 70
     1
102
RTVSPropertyOp24
 70
     1
102
RTVSPropertyOp25
 70
     1
102
RTVSPropertyOp26
 70
     1
102
RTVSPropertyOp27
 70
     1
102
RTVSPropertyOp28
 70
     1
102
RTVSPropertyOp29
 70
     1
102
RTVSPropertyOp30
 70
     1
102
RTVSPropertyOp31
 70
     1
102
RTVSPropertyOp32
 70
     1
  0
XRECORD
  5
26B
102
{ACAD_REACTORS
330
26A
102
}
330
26A
100
AcDbXrecord
280
     1
102
RTVSPropertyOp0
 70
     1
102
RTVSPropertyOp1
 70
     1
102
RTVSPropertyOp2
 70
     1
102
RTVSPropertyOp3
 70
     1
102
RTVSPropertyOp4
 70
     1
102
RTVSPropertyOp5
 70
     1
102
RTVSPropertyOp6
 70
     1
102
RTVSPropertyOp7
 70
     1
102
RTVSPropertyOp8
 70
     1
102
RTVSPropertyOp9
 70
     1
102
RTVSPropertyOp10
 70
     1
102
RTVSPropertyOp11
 70
     1
102
RTVSPropertyOp12
 70
     1
102
RTVSPropertyOp13
 70
     1
102
RTVSPropertyOp14
 70
     1
102
RTVSPropertyOp15
 70
     1
102
RTVSPropertyOp16
 70
     1
102
RTVSPropertyOp17
 70
     1
102
RTVSPropertyOp18
 70
     1
102
RTVSPropertyOp19
 70
     1
102
RTVSPropertyOp20
 70
     1
102
RTVSPropertyOp21
 70
     1
102
RTVSPropertyOp22
 70
     1
102
RTVSPropertyOp23
 70
     1
102
RTVSPropertyOp24
 70
     1
102
RTVSPropertyOp25
 70
     1
102
RTVSPropertyOp26
 70
     1
102
RTVSPropertyOp27
 70
     1
102
RTVSPropertyOp28
 70
     1
102
RTVSPropertyOp29
 70
     1
102
RTVSPropertyOp30
 70
     1
102
RTVSPropertyOp31
 70
     1
102
RTVSPropertyOp32
 70
     1
  0
XRECORD
  5
273
102
{ACAD_REACTORS
330
272
102
}
330
272
100
AcDbXrecord
280
     1
102
RTVSPropertyOp0
 70
     1
102
RTVSPropertyOp1
 70
     1
102
RTVSPropertyOp2
 70
     1
102
RTVSPropertyOp3
 70
     1
102
RTVSPropertyOp4
 70
     1
102
RTVSPropertyOp5
 70
     1
102
RTVSPropertyOp6
 70
     1
102
RTVSPropertyOp7
 70
     1
102
RTVSPropertyOp8
 70
     1
102
RTVSPropertyOp9
 70
     1
102
RTVSPropertyOp10
 70
     1
102
RTVSPropertyOp11
 70
     1
102
RTVSPropertyOp12
 70
     1
102
RTVSPropertyOp13
 70
     1
102
RTVSPropertyOp14
 70
     1
102
RTVSPropertyOp15
 70
     1
102
RTVSPropertyOp16
 70
     1
102
RTVSPropertyOp17
 70
     1
102
RTVSPropertyOp18
 70
     1
102
RTVSPropertyOp19
 70
     1
102
RTVSPropertyOp20
 70
     1
102
RTVSPropertyOp21
 70
     1
102
RTVSPropertyOp22
 70
     1
102
RTVSPropertyOp23
 70
     1
102
RTVSPropertyOp24
 70
     1
102
RTVSPropertyOp25
 70
     1
102
RTVSPropertyOp26
 70
     1
102
RTVSPropertyOp27
 70
     1
102
RTVSPropertyOp28
 70
     1
102
RTVSPropertyOp29
 70
     1
102
RTVSPropertyOp30
 70
     1
102
RTVSPropertyOp31
 70
     1
102
RTVSPropertyOp32
 70
     1
  0
XRECORD
  5
265
102
{ACAD_REACTORS
330
264
102
}
330
264
100
AcDbXrecord
280
     1
102
RTVSPropertyOp0
 70
     1
102
RTVSPropertyOp1
 70
     1
102
RTVSPropertyOp2
 70
     1
102
RTVSPropertyOp3
 70
     1
102
RTVSPropertyOp4
 70
     1
102
RTVSPropertyOp5
 70
     1
102
RTVSPropertyOp6
 70
     1
102
RTVSPropertyOp7
 70
     1
102
RTVSPropertyOp8
 70
     1
102
RTVSPropertyOp9
 70
     1
102
RTVSPropertyOp10
 70
     1
102
RTVSPropertyOp11
 70
     1
102
RTVSPropertyOp12
 70
     1
102
RTVSPropertyOp13
 70
     1
102
RTVSPropertyOp14
 70
     1
102
RTVSPropertyOp15
 70
     1
102
RTVSPropertyOp16
 70
     1
102
RTVSPropertyOp17
 70
     1
102
RTVSPropertyOp18
 70
     1
102
RTVSPropertyOp19
 70
     1
102
RTVSPropertyOp20
 70
     1
102
RTVSPropertyOp21
 70
     1
102
RTVSPropertyOp22
 70
     1
102
RTVSPropertyOp23
 70
     1
102
RTVSPropertyOp24
 70
     1
102
RTVSPropertyOp25
 70
     1
102
RTVSPropertyOp26
 70
     1
102
RTVSPropertyOp27
 70
     1
102
RTVSPropertyOp28
 70
     1
102
RTVSPropertyOp29
 70
     1
102
RTVSPropertyOp30
 70
     1
102
RTVSPropertyOp31
 70
     1
102
RTVSPropertyOp32
 70
     1
  0
XRECORD
  5
269
102
{ACAD_REACTORS
330
268
102
}
330
268
100
AcDbXrecord
280
     1
102
RTVSPropertyOp0
 70
     1
102
RTVSPropertyOp1
 70
     1
102
RTVSPropertyOp2
 70
     1
102
RTVSPropertyOp3
 70
     1
102
RTVSPropertyOp4
 70
     1
102
RTVSPropertyOp5
 70
     1
102
RTVSPropertyOp6
 70
     1
102
RTVSPropertyOp7
 70
     1
102
RTVSPropertyOp8
 70
     1
102
RTVSPropertyOp9
 70
     1
102
RTVSPropertyOp10
 70
     1
102
RTVSPropertyOp11
 70
     1
102
RTVSPropertyOp12
 70
     1
102
RTVSPropertyOp13
 70
     1
102
RTVSPropertyOp14
 70
     1
102
RTVSPropertyOp15
 70
     1
102
RTVSPropertyOp16
 70
     1
102
RTVSPropertyOp17
 70
     1
102
RTVSPropertyOp18
 70
     1
102
RTVSPropertyOp19
 70
     1
102
RTVSPropertyOp20
 70
     1
102
RTVSPropertyOp21
 70
     1
102
RTVSPropertyOp22
 70
     1
102
RTVSPropertyOp23
 70
     1
102
RTVSPropertyOp24
 70
     1
102
RTVSPropertyOp25
 70
     1
102
RTVSPropertyOp26
 70
     1
102
RTVSPropertyOp27
 70
     1
102
RTVSPropertyOp28
 70
     1
102
RTVSPropertyOp29
 70
     1
102
RTVSPropertyOp30
 70
     1
102
RTVSPropertyOp31
 70
     1
102
RTVSPropertyOp32
 70
     1
  0
XRECORD
  5
283
102
{ACAD_REACTORS
330
282
102
}
330
282
100
AcDbXrecord
280
     1
102
RTVSPropertyOp0
 70
     0
102
RTVSPropertyOp1
 70
     0
102
RTVSPropertyOp2
 70
     0
102
RTVSPropertyOp3
 70
     0
102
RTVSPropertyOp4
 70
     0
102
RTVSPropertyOp5
 70
     0
102
RTVSPropertyOp6
 70
     0
102
RTVSPropertyOp7
 70
     0
102
RTVSPropertyOp8
 70
     0
102
RTVSPropertyOp9
 70
     0
102
RTVSPropertyOp10
 70
     0
102
RTVSPropertyOp11
 70
     0
102
RTVSPropertyOp12
 70
     0
102
RTVSPropertyOp13
 70
     0
102
RTVSPropertyOp14
 70
     2
102
RTVSPropertyOp15
 70
     0
102
RTVSPropertyOp16
 70
     0
102
RTVSPropertyOp17
 70
     0
102
RTVSPropertyOp18
 70
     0
102
RTVSPropertyOp19
 70
     0
102
RTVSPropertyOp20
 70
     0
102
RTVSPropertyOp21
 70
     0
102
RTVSPropertyOp22
 70
     0
102
RTVSPropertyOp23
 70
     0
102
RTVSPropertyOp24
 70
     0
102
RTVSPropertyOp25
 70
     0
102
RTVSPropertyOp26
 70
     0
102
RTVSPropertyOp27
 70
     0
102
RTVSPropertyOp28
 70
     1
102
RTVSPropertyOp29
 70
     1
102
RTVSPropertyOp30
 70
     1
102
RTVSPropertyOp31
 70
     1
102
RTVSPropertyOp32
 70
     1
  0
XRECORD
  5
271
102
{ACAD_REACTORS
330
270
102
}
330
270
100
AcDbXrecord
280
     1
102
RTVSPropertyOp0
 70
     1
102
RTVSPropertyOp1
 70
     1
102
RTVSPropertyOp2
 70
     1
102
RTVSPropertyOp3
 70
     1
102
RTVSPropertyOp4
 70
     1
102
RTVSPropertyOp5
 70
     1
102
RTVSPropertyOp6
 70
     1
102
RTVSPropertyOp7
 70
     1
102
RTVSPropertyOp8
 70
     1
102
RTVSPropertyOp9
 70
     1
102
RTVSPropertyOp10
 70
     1
102
RTVSPropertyOp11
 70
     1
102
RTVSPropertyOp12
 70
     1
102
RTVSPropertyOp13
 70
     1
102
RTVSPropertyOp14
 70
     1
102
RTVSPropertyOp15
 70
     1
102
RTVSPropertyOp16
 70
     1
102
RTVSPropertyOp17
 70
     1
102
RTVSPropertyOp18
 70
     1
102
RTVSPropertyOp19
 70
     1
102
RTVSPropertyOp20
 70
     1
102
RTVSPropertyOp21
 70
     1
102
RTVSPropertyOp22
 70
     1
102
RTVSPropertyOp23
 70
     1
102
RTVSPropertyOp24
 70
     1
102
RTVSPropertyOp25
 70
     1
102
RTVSPropertyOp26
 70
     1
102
RTVSPropertyOp27
 70
     1
102
RTVSPropertyOp28
 70
     1
102
RTVSPropertyOp29
 70
     1
102
RTVSPropertyOp30
 70
     1
102
RTVSPropertyOp31
 70
     1
102
RTVSPropertyOp32
 70
     1
  0
XRECORD
  5
255
102
{ACAD_REACTORS
330
254
102
}
330
254
100
AcDbXrecord
280
     1
102
RTVSPropertyOp0
 70
     1
102
RTVSPropertyOp1
 70
     1
102
RTVSPropertyOp2
 70
     1
102
RTVSPropertyOp3
 70
     1
102
RTVSPropertyOp4
 70
     1
102
RTVSPropertyOp5
 70
     1
102
RTVSPropertyOp6
 70
     1
102
RTVSPropertyOp7
 70
     1
102
RTVSPropertyOp8
 70
     1
102
RTVSPropertyOp9
 70
     1
102
RTVSPropertyOp10
 70
     1
102
RTVSPropertyOp11
 70
     1
102
RTVSPropertyOp12
 70
     1
102
RTVSPropertyOp13
 70
     1
102
RTVSPropertyOp14
 70
     1
102
RTVSPropertyOp15
 70
     1
102
RTVSPropertyOp16
 70
     1
102
RTVSPropertyOp17
 70
     1
102
RTVSPropertyOp18
 70
     1
102
RTVSPropertyOp19
 70
     1
102
RTVSPropertyOp20
 70
     1
102
RTVSPropertyOp21
 70
     1
102
RTVSPropertyOp22
 70
     1
102
RTVSPropertyOp23
 70
     1
102
RTVSPropertyOp24
 70
     1
102
RTVSPropertyOp25
 70
     1
102
RTVSPropertyOp26
 70
     1
102
RTVSPropertyOp27
 70
     1
102
RTVSPropertyOp28
 70
     1
102
RTVSPropertyOp29
 70
     1
102
RTVSPropertyOp30
 70
     1
102
RTVSPropertyOp31
 70
     1
102
RTVSPropertyOp32
 70
     1
  0
XRECORD
  5
257
102
{ACAD_REACTORS
330
256
102
}
330
256
100
AcDbXrecord
280
     1
102
RTVSPropertyOp0
 70
     1
102
RTVSPropertyOp1
 70
     1
102
RTVSPropertyOp2
 70
     1
102
RTVSPropertyOp3
 70
     1
102
RTVSPropertyOp4
 70
     1
102
RTVSPropertyOp5
 70
     1
102
RTVSPropertyOp6
 70
     1
102
RTVSPropertyOp7
 70
     1
102
RTVSPropertyOp8
 70
     1
102
RTVSPropertyOp9
 70
     1
102
RTVSPropertyOp10
 70
     1
102
RTVSPropertyOp11
 70
     1
102
RTVSPropertyOp12
 70
     1
102
RTVSPropertyOp13
 70
     1
102
RTVSPropertyOp14
 70
     1
102
RTVSPropertyOp15
 70
     1
102
RTVSPropertyOp16
 70
     1
102
RTVSPropertyOp17
 70
     1
102
RTVSPropertyOp18
 70
     1
102
RTVSPropertyOp19
 70
     1
102
RTVSPropertyOp20
 70
     1
102
RTVSPropertyOp21
 70
     1
102
RTVSPropertyOp22
 70
     1
102
RTVSPropertyOp23
 70
     1
102
RTVSPropertyOp24
 70
     1
102
RTVSPropertyOp25
 70
     1
102
RTVSPropertyOp26
 70
     1
102
RTVSPropertyOp27
 70
     1
102
RTVSPropertyOp28
 70
     1
102
RTVSPropertyOp29
 70
     1
102
RTVSPropertyOp30
 70
     1
102
RTVSPropertyOp31
 70
     1
102
RTVSPropertyOp32
 70
     1
  0
XRECORD
  5
259
102
{ACAD_REACTORS
330
258
102
}
330
258
100
AcDbXrecord
280
     1
102
RTVSPropertyOp0
 70
     1
102
RTVSPropertyOp1
 70
     1
102
RTVSPropertyOp2
 70
     1
102
RTVSPropertyOp3
 70
     1
102
RTVSPropertyOp4
 70
     1
102
RTVSPropertyOp5
 70
     1
102
RTVSPropertyOp6
 70
     1
102
RTVSPropertyOp7
 70
     1
102
RTVSPropertyOp8
 70
     1
102
RTVSPropertyOp9
 70
     1
102
RTVSPropertyOp10
 70
     1
102
RTVSPropertyOp11
 70
     1
102
RTVSPropertyOp12
 70
     1
102
RTVSPropertyOp13
 70
     1
102
RTVSPropertyOp14
 70
     1
102
RTVSPropertyOp15
 70
     1
102
RTVSPropertyOp16
 70
     1
102
RTVSPropertyOp17
 70
     1
102
RTVSPropertyOp18
 70
     1
102
RTVSPropertyOp19
 70
     1
102
RTVSPropertyOp20
 70
     1
102
RTVSPropertyOp21
 70
     1
102
RTVSPropertyOp22
 70
     1
102
RTVSPropertyOp23
 70
     1
102
RTVSPropertyOp24
 70
     1
102
RTVSPropertyOp25
 70
     1
102
RTVSPropertyOp26
 70
     1
102
RTVSPropertyOp27
 70
     1
102
RTVSPropertyOp28
 70
     1
102
RTVSPropertyOp29
 70
     1
102
RTVSPropertyOp30
 70
     1
102
RTVSPropertyOp31
 70
     1
102
RTVSPropertyOp32
 70
     1
  0
XRECORD
  5
25B
102
{ACAD_REACTORS
330
25A
102
}
330
25A
100
AcDbXrecord
280
     1
102
RTVSPropertyOp0
 70
     1
102
RTVSPropertyOp1
 70
     1
102
RTVSPropertyOp2
 70
     1
102
RTVSPropertyOp3
 70
     1
102
RTVSPropertyOp4
 70
     1
102
RTVSPropertyOp5
 70
     1
102
RTVSPropertyOp6
 70
     1
102
RTVSPropertyOp7
 70
     1
102
RTVSPropertyOp8
 70
     1
102
RTVSPropertyOp9
 70
     1
102
RTVSPropertyOp10
 70
     1
102
RTVSPropertyOp11
 70
     1
102
RTVSPropertyOp12
 70
     1
102
RTVSPropertyOp13
 70
     1
102
RTVSPropertyOp14
 70
     1
102
RTVSPropertyOp15
 70
     1
102
RTVSPropertyOp16
 70
     1
102
RTVSPropertyOp17
 70
     1
102
RTVSPropertyOp18
 70
     1
102
RTVSPropertyOp19
 70
     1
102
RTVSPropertyOp20
 70
     1
102
RTVSPropertyOp21
 70
     1
102
RTVSPropertyOp22
 70
     1
102
RTVSPropertyOp23
 70
     1
102
RTVSPropertyOp24
 70
     1
102
RTVSPropertyOp25
 70
     1
102
RTVSPropertyOp26
 70
     1
102
RTVSPropertyOp27
 70
     1
102
RTVSPropertyOp28
 70
     1
102
RTVSPropertyOp29
 70
     1
102
RTVSPropertyOp30
 70
     1
102
RTVSPropertyOp31
 70
     1
102
RTVSPropertyOp32
 70
     1
  0
XRECORD
  5
263
102
{ACAD_REACTORS
330
262
102
}
330
262
100
AcDbXrecord
280
     1
102
RTVSPropertyOp0
 70
     1
102
RTVSPropertyOp1
 70
     1
102
RTVSPropertyOp2
 70
     1
102
RTVSPropertyOp3
 70
     1
102
RTVSPropertyOp4
 70
     1
102
RTVSPropertyOp5
 70
     1
102
RTVSPropertyOp6
 70
     1
102
RTVSPropertyOp7
 70
     1
102
RTVSPropertyOp8
 70
     1
102
RTVSPropertyOp9
 70
     1
102
RTVSPropertyOp10
 70
     1
102
RTVSPropertyOp11
 70
     1
102
RTVSPropertyOp12
 70
     1
102
RTVSPropertyOp13
 70
     1
102
RTVSPropertyOp14
 70
     1
102
RTVSPropertyOp15
 70
     1
102
RTVSPropertyOp16
 70
     1
102
RTVSPropertyOp17
 70
     1
102
RTVSPropertyOp18
 70
     1
102
RTVSPropertyOp19
 70
     1
102
RTVSPropertyOp20
 70
     1
102
RTVSPropertyOp21
 70
     1
102
RTVSPropertyOp22
 70
     1
102
RTVSPropertyOp23
 70
     1
102
RTVSPropertyOp24
 70
     1
102
RTVSPropertyOp25
 70
     1
102
RTVSPropertyOp26
 70
     1
102
RTVSPropertyOp27
 70
     1
102
RTVSPropertyOp28
 70
     1
102
RTVSPropertyOp29
 70
     1
102
RTVSPropertyOp30
 70
     1
102
RTVSPropertyOp31
 70
     1
102
RTVSPropertyOp32
 70
     1
  0
XRECORD
  5
27F
102
{ACAD_REACTORS
330
27E
102
}
330
27E
100
AcDbXrecord
280
     1
102
RTVSPropertyOp0
 70
     0
102
RTVSPropertyOp1
 70
     0
102
RTVSPropertyOp2
 70
     0
102
RTVSPropertyOp3
 70
     0
102
RTVSPropertyOp4
 70
     0
102
RTVSPropertyOp5
 70
     0
102
RTVSPropertyOp6
 70
     0
102
RTVSPropertyOp7
 70
     0
102
RTVSPropertyOp8
 70
     0
102
RTVSPropertyOp9
 70
     0
102
RTVSPropertyOp10
 70
     0
102
RTVSPropertyOp11
 70
     0
102
RTVSPropertyOp12
 70
     0
102
RTVSPropertyOp13
 70
     0
102
RTVSPropertyOp14
 70
     2
102
RTVSPropertyOp15
 70
     0
102
RTVSPropertyOp16
 70
     0
102
RTVSPropertyOp17
 70
     0
102
RTVSPropertyOp18
 70
     0
102
RTVSPropertyOp19
 70
     0
102
RTVSPropertyOp20
 70
     0
102
RTVSPropertyOp21
 70
     0
102
RTVSPropertyOp22
 70
     0
102
RTVSPropertyOp23
 70
     0
102
RTVSPropertyOp24
 70
     0
102
RTVSPropertyOp25
 70
     0
102
RTVSPropertyOp26
 70
     0
102
RTVSPropertyOp27
 70
     0
102
RTVSPropertyOp28
 70
     1
102
RTVSPropertyOp29
 70
     1
102
RTVSPropertyOp30
 70
     1
102
RTVSPropertyOp31
 70
     1
102
RTVSPropertyOp32
 70
     1
  0
XRECORD
  5
26F
102
{ACAD_REACTORS
330
26E
102
}
330
26E
100
AcDbXrecord
280
     1
102
RTVSPropertyOp0
 70
     1
102
RTVSPropertyOp1
 70
     1
102
RTVSPropertyOp2
 70
     1
102
RTVSPropertyOp3
 70
     1
102
RTVSPropertyOp4
 70
     1
102
RTVSPropertyOp5
 70
     1
102
RTVSPropertyOp6
 70
     1
102
RTVSPropertyOp7
 70
     1
102
RTVSPropertyOp8
 70
     1
102
RTVSPropertyOp9
 70
     1
102
RTVSPropertyOp10
 70
     1
102
RTVSPropertyOp11
 70
     1
102
RTVSPropertyOp12
 70
     1
102
RTVSPropertyOp13
 70
     1
102
RTVSPropertyOp14
 70
     1
102
RTVSPropertyOp15
 70
     1
102
RTVSPropertyOp16
 70
     1
102
RTVSPropertyOp17
 70
     1
102
RTVSPropertyOp18
 70
     1
102
RTVSPropertyOp19
 70
     1
102
RTVSPropertyOp20
 70
     1
102
RTVSPropertyOp21
 70
     1
102
RTVSPropertyOp22
 70
     1
102
RTVSPropertyOp23
 70
     1
102
RTVSPropertyOp24
 70
     1
102
RTVSPropertyOp25
 70
     1
102
RTVSPropertyOp26
 70
     1
102
RTVSPropertyOp27
 70
     1
102
RTVSPropertyOp28
 70
     1
102
RTVSPropertyOp29
 70
     1
102
RTVSPropertyOp30
 70
     1
102
RTVSPropertyOp31
 70
     1
102
RTVSPropertyOp32
 70
     1
  0
XRECORD
  5
281
102
{ACAD_REACTORS
330
280
102
}
330
280
100
AcDbXrecord
280
     1
102
RTVSPropertyOp0
 70
     0
102
RTVSPropertyOp1
 70
     0
102
RTVSPropertyOp2
 70
     0
102
RTVSPropertyOp3
 70
     0
102
RTVSPropertyOp4
 70
     0
102
RTVSPropertyOp5
 70
     0
102
RTVSPropertyOp6
 70
     0
102
RTVSPropertyOp7
 70
     0
102
RTVSPropertyOp8
 70
     0
102
RTVSPropertyOp9
 70
     0
102
RTVSPropertyOp10
 70
     0
102
RTVSPropertyOp11
 70
     0
102
RTVSPropertyOp12
 70
     0
102
RTVSPropertyOp13
 70
     0
102
RTVSPropertyOp14
 70
     2
102
RTVSPropertyOp15
 70
     0
102
RTVSPropertyOp16
 70
     0
102
RTVSPropertyOp17
 70
     0
102
RTVSPropertyOp18
 70
     0
102
RTVSPropertyOp19
 70
     0
102
RTVSPropertyOp20
 70
     0
102
RTVSPropertyOp21
 70
     0
102
RTVSPropertyOp22
 70
     0
102
RTVSPropertyOp23
 70
     0
102
RTVSPropertyOp24
 70
     0
102
RTVSPropertyOp25
 70
     0
102
RTVSPropertyOp26
 70
     0
102
RTVSPropertyOp27
 70
     0
102
RTVSPropertyOp28
 70
     1
102
RTVSPropertyOp29
 70
     1
102
RTVSPropertyOp30
 70
     1
102
RTVSPropertyOp31
 70
     1
102
RTVSPropertyOp32
 70
     1
  0
XRECORD
  5
267
102
{ACAD_REACTORS
330
266
102
}
330
266
100
AcDbXrecord
280
     1
102
RTVSPropertyOp0
 70
     1
102
RTVSPropertyOp1
 70
     1
102
RTVSPropertyOp2
 70
     1
102
RTVSPropertyOp3
 70
     1
102
RTVSPropertyOp4
 70
     1
102
RTVSPropertyOp5
 70
     1
102
RTVSPropertyOp6
 70
     1
102
RTVSPropertyOp7
 70
     1
102
RTVSPropertyOp8
 70
     1
102
RTVSPropertyOp9
 70
     1
102
RTVSPropertyOp10
 70
     1
102
RTVSPropertyOp11
 70
     1
102
RTVSPropertyOp12
 70
     1
102
RTVSPropertyOp13
 70
     1
102
RTVSPropertyOp14
 70
     1
102
RTVSPropertyOp15
 70
     1
102
RTVSPropertyOp16
 70
     1
102
RTVSPropertyOp17
 70
     1
102
RTVSPropertyOp18
 70
     1
102
RTVSPropertyOp19
 70
     1
102
RTVSPropertyOp20
 70
     1
102
RTVSPropertyOp21
 70
     1
102
RTVSPropertyOp22
 70
     1
102
RTVSPropertyOp23
 70
     1
102
RTVSPropertyOp24
 70
     1
102
RTVSPropertyOp25
 70
     1
102
RTVSPropertyOp26
 70
     1
102
RTVSPropertyOp27
 70
     1
102
RTVSPropertyOp28
 70
     1
102
RTVSPropertyOp29
 70
     1
102
RTVSPropertyOp30
 70
     1
102
RTVSPropertyOp31
 70
     1
102
RTVSPropertyOp32
 70
     1
  0
XRECORD
  5
27D
102
{ACAD_REACTORS
330
27C
102
}
330
27C
100
AcDbXrecord
280
     1
102
RTVSPropertyOp0
 70
     1
102
RTVSPropertyOp1
 70
     1
102
RTVSPropertyOp2
 70
     1
102
RTVSPropertyOp3
 70
     1
102
RTVSPropertyOp4
 70
     1
102
RTVSPropertyOp5
 70
     1
102
RTVSPropertyOp6
 70
     1
102
RTVSPropertyOp7
 70
     1
102
RTVSPropertyOp8
 70
     1
102
RTVSPropertyOp9
 70
     1
102
RTVSPropertyOp10
 70
     1
102
RTVSPropertyOp11
 70
     1
102
RTVSPropertyOp12
 70
     1
102
RTVSPropertyOp13
 70
     1
102
RTVSPropertyOp14
 70
     1
102
RTVSPropertyOp15
 70
     1
102
RTVSPropertyOp16
 70
     1
102
RTVSPropertyOp17
 70
     1
102
RTVSPropertyOp18
 70
     1
102
RTVSPropertyOp19
 70
     1
102
RTVSPropertyOp20
 70
     1
102
RTVSPropertyOp21
 70
     1
102
RTVSPropertyOp22
 70
     1
102
RTVSPropertyOp23
 70
     1
102
RTVSPropertyOp24
 70
     1
102
RTVSPropertyOp25
 70
     1
102
RTVSPropertyOp26
 70
     1
102
RTVSPropertyOp27
 70
     1
102
RTVSPropertyOp28
 70
     1
102
RTVSPropertyOp29
 70
     1
102
RTVSPropertyOp30
 70
     1
102
RTVSPropertyOp31
 70
     1
102
RTVSPropertyOp32
 70
     1
  0
XRECORD
  5
27B
102
{ACAD_REACTORS
330
27A
102
}
330
27A
100
AcDbXrecord
280
     1
102
RTVSPropertyOp0
 70
     1
102
RTVSPropertyOp1
 70
     1
102
RTVSPropertyOp2
 70
     1
102
RTVSPropertyOp3
 70
     1
102
RTVSPropertyOp4
 70
     1
102
RTVSPropertyOp5
 70
     1
102
RTVSPropertyOp6
 70
     1
102
RTVSPropertyOp7
 70
     1
102
RTVSPropertyOp8
 70
     1
102
RTVSPropertyOp9
 70
     1
102
RTVSPropertyOp10
 70
     1
102
RTVSPropertyOp11
 70
     1
102
RTVSPropertyOp12
 70
     1
102
RTVSPropertyOp13
 70
     1
102
RTVSPropertyOp14
 70
     1
102
RTVSPropertyOp15
 70
     1
102
RTVSPropertyOp16
 70
     1
102
RTVSPropertyOp17
 70
     1
102
RTVSPropertyOp18
 70
     1
102
RTVSPropertyOp19
 70
     1
102
RTVSPropertyOp20
 70
     1
102
RTVSPropertyOp21
 70
     1
102
RTVSPropertyOp22
 70
     1
102
RTVSPropertyOp23
 70
     1
102
RTVSPropertyOp24
 70
     1
102
RTVSPropertyOp25
 70
     1
102
RTVSPropertyOp26
 70
     1
102
RTVSPropertyOp27
 70
     1
102
RTVSPropertyOp28
 70
     1
102
RTVSPropertyOp29
 70
     1
102
RTVSPropertyOp30
 70
     1
102
RTVSPropertyOp31
 70
     1
102
RTVSPropertyOp32
 70
     1
  0
XRECORD
  5
275
102
{ACAD_REACTORS
330
274
102
}
330
274
100
AcDbXrecord
280
     1
102
RTVSPropertyOp0
 70
     1
102
RTVSPropertyOp1
 70
     1
102
RTVSPropertyOp2
 70
     1
102
RTVSPropertyOp3
 70
     1
102
RTVSPropertyOp4
 70
     1
102
RTVSPropertyOp5
 70
     1
102
RTVSPropertyOp6
 70
     1
102
RTVSPropertyOp7
 70
     1
102
RTVSPropertyOp8
 70
     1
102
RTVSPropertyOp9
 70
     1
102
RTVSPropertyOp10
 70
     1
102
RTVSPropertyOp11
 70
     1
102
RTVSPropertyOp12
 70
     1
102
RTVSPropertyOp13
 70
     1
102
RTVSPropertyOp14
 70
     1
102
RTVSPropertyOp15
 70
     1
102
RTVSPropertyOp16
 70
     1
102
RTVSPropertyOp17
 70
     1
102
RTVSPropertyOp18
 70
     1
102
RTVSPropertyOp19
 70
     1
102
RTVSPropertyOp20
 70
     1
102
RTVSPropertyOp21
 70
     1
102
RTVSPropertyOp22
 70
     1
102
RTVSPropertyOp23
 70
     1
102
RTVSPropertyOp24
 70
     1
102
RTVSPropertyOp25
 70
     1
102
RTVSPropertyOp26
 70
     1
102
RTVSPropertyOp27
 70
     1
102
RTVSPropertyOp28
 70
     1
102
RTVSPropertyOp29
 70
     1
102
RTVSPropertyOp30
 70
     1
102
RTVSPropertyOp31
 70
     1
102
RTVSPropertyOp32
 70
     1
  0
XRECORD
  5
277
102
{ACAD_REACTORS
330
276
102
}
330
276
100
AcDbXrecord
280
     1
102
RTVSPropertyOp0
 70
     1
102
RTVSPropertyOp1
 70
     1
102
RTVSPropertyOp2
 70
     1
102
RTVSPropertyOp3
 70
     1
102
RTVSPropertyOp4
 70
     1
102
RTVSPropertyOp5
 70
     1
102
RTVSPropertyOp6
 70
     1
102
RTVSPropertyOp7
 70
     1
102
RTVSPropertyOp8
 70
     1
102
RTVSPropertyOp9
 70
     1
102
RTVSPropertyOp10
 70
     1
102
RTVSPropertyOp11
 70
     1
102
RTVSPropertyOp12
 70
     1
102
RTVSPropertyOp13
 70
     1
102
RTVSPropertyOp14
 70
     1
102
RTVSPropertyOp15
 70
     1
102
RTVSPropertyOp16
 70
     1
102
RTVSPropertyOp17
 70
     1
102
RTVSPropertyOp18
 70
     1
102
RTVSPropertyOp19
 70
     1
102
RTVSPropertyOp20
 70
     1
102
RTVSPropertyOp21
 70
     1
102
RTVSPropertyOp22
 70
     1
102
RTVSPropertyOp23
 70
     1
102
RTVSPropertyOp24
 70
     1
102
RTVSPropertyOp25
 70
     1
102
RTVSPropertyOp26
 70
     1
102
RTVSPropertyOp27
 70
     1
102
RTVSPropertyOp28
 70
     1
102
RTVSPropertyOp29
 70
     1
102
RTVSPropertyOp30
 70
     1
102
RTVSPropertyOp31
 70
     1
102
RTVSPropertyOp32
 70
     1
  0
XRECORD
  5
26D
102
{ACAD_REACTORS
330
26C
102
}
330
26C
100
AcDbXrecord
280
     1
102
RTVSPropertyOp0
 70
     1
102
RTVSPropertyOp1
 70
     1
102
RTVSPropertyOp2
 70
     1
102
RTVSPropertyOp3
 70
     1
102
RTVSPropertyOp4
 70
     1
102
RTVSPropertyOp5
 70
     1
102
RTVSPropertyOp6
 70
     1
102
RTVSPropertyOp7
 70
     1
102
RTVSPropertyOp8
 70
     1
102
RTVSPropertyOp9
 70
     1
102
RTVSPropertyOp10
 70
     1
102
RTVSPropertyOp11
 70
     1
102
RTVSPropertyOp12
 70
     1
102
RTVSPropertyOp13
 70
     1
102
RTVSPropertyOp14
 70
     1
102
RTVSPropertyOp15
 70
     1
102
RTVSPropertyOp16
 70
     1
102
RTVSPropertyOp17
 70
     1
102
RTVSPropertyOp18
 70
     1
102
RTVSPropertyOp19
 70
     1
102
RTVSPropertyOp20
 70
     1
102
RTVSPropertyOp21
 70
     1
102
RTVSPropertyOp22
 70
     1
102
RTVSPropertyOp23
 70
     1
102
RTVSPropertyOp24
 70
     1
102
RTVSPropertyOp25
 70
     1
102
RTVSPropertyOp26
 70
     1
102
RTVSPropertyOp27
 70
     1
102
RTVSPropertyOp28
 70
     1
102
RTVSPropertyOp29
 70
     1
102
RTVSPropertyOp30
 70
     1
102
RTVSPropertyOp31
 70
     1
102
RTVSPropertyOp32
 70
     1
  0
XRECORD
  5
261
102
{ACAD_REACTORS
330
260
102
}
330
260
100
AcDbXrecord
280
     1
102
RTVSPropertyOp0
 70
     1
102
RTVSPropertyOp1
 70
     1
102
RTVSPropertyOp2
 70
     1
102
RTVSPropertyOp3
 70
     1
102
RTVSPropertyOp4
 70
     1
102
RTVSPropertyOp5
 70
     1
102
RTVSPropertyOp6
 70
     1
102
RTVSPropertyOp7
 70
     1
102
RTVSPropertyOp8
 70
     1
102
RTVSPropertyOp9
 70
     1
102
RTVSPropertyOp10
 70
     1
102
RTVSPropertyOp11
 70
     1
102
RTVSPropertyOp12
 70
     1
102
RTVSPropertyOp13
 70
     1
102
RTVSPropertyOp14
 70
     1
102
RTVSPropertyOp15
 70
     1
102
RTVSPropertyOp16
 70
     1
102
RTVSPropertyOp17
 70
     1
102
RTVSPropertyOp18
 70
     1
102
RTVSPropertyOp19
 70
     1
102
RTVSPropertyOp20
 70
     1
102
RTVSPropertyOp21
 70
     1
102
RTVSPropertyOp22
 70
     1
102
RTVSPropertyOp23
 70
     1
102
RTVSPropertyOp24
 70
     1
102
RTVSPropertyOp25
 70
     1
102
RTVSPropertyOp26
 70
     1
102
RTVSPropertyOp27
 70
     1
102
RTVSPropertyOp28
 70
     1
102
RTVSPropertyOp29
 70
     1
102
RTVSPropertyOp30
 70
     1
102
RTVSPropertyOp31
 70
     1
102
RTVSPropertyOp32
 70
     1
  0
XRECORD
  5
279
102
{ACAD_REACTORS
330
278
102
}
330
278
100
AcDbXrecord
280
     1
102
RTVSPropertyOp0
 70
     1
102
RTVSPropertyOp1
 70
     1
102
RTVSPropertyOp2
 70
     1
102
RTVSPropertyOp3
 70
     1
102
RTVSPropertyOp4
 70
     1
102
RTVSPropertyOp5
 70
     1
102
RTVSPropertyOp6
 70
     1
102
RTVSPropertyOp7
 70
     1
102
RTVSPropertyOp8
 70
     1
102
RTVSPropertyOp9
 70
     1
102
RTVSPropertyOp10
 70
     1
102
RTVSPropertyOp11
 70
     1
102
RTVSPropertyOp12
 70
     1
102
RTVSPropertyOp13
 70
     1
102
RTVSPropertyOp14
 70
     1
102
RTVSPropertyOp15
 70
     1
102
RTVSPropertyOp16
 70
     1
102
RTVSPropertyOp17
 70
     1
102
RTVSPropertyOp18
 70
     1
102
RTVSPropertyOp19
 70
     1
102
RTVSPropertyOp20
 70
     1
102
RTVSPropertyOp21
 70
     1
102
RTVSPropertyOp22
 70
     1
102
RTVSPropertyOp23
 70
     1
102
RTVSPropertyOp24
 70
     1
102
RTVSPropertyOp25
 70
     1
102
RTVSPropertyOp26
 70
     1
102
RTVSPropertyOp27
 70
     1
102
RTVSPropertyOp28
 70
     1
102
RTVSPropertyOp29
 70
     1
102
RTVSPropertyOp30
 70
     1
102
RTVSPropertyOp31
 70
     1
102
RTVSPropertyOp32
 70
     1
  0
ENDSEC
  0
EOF
