  0
SECTION
  2
HEADER
  9
$ACADVER
  1
AC1015
  9
$ACADMAINTVER
 70
     6
  9
$DWGCODEPAGE
  3
ANSI_1252
  9
$INSBASE
 10
0.0
 20
0.0
 30
0.0
  9
$EXTMIN
 10
0.381
 20
0.2190590077843727
 30
0.0
  9
$EXTMAX
 10
4.419
 20
6.936
 30
0.0
  9
$LIMMIN
 10
0.0
 20
0.0
  9
$LIMMAX
 10
9.0
 20
12.0
  9
$ORTHOMODE
 70
     0
  9
$REGENMODE
 70
     0
  9
$FILLMODE
 70
     1
  9
$QTEXTMODE
 70
     0
  9
$MIRRTEXT
 70
     1
  9
$LTSCALE
 40
0.25
  9
$ATTMODE
 70
     1
  9
$TEXTSIZE
 40
0.2
  9
$TRACEWID
 40
0.05
  9
$TEXTSTYLE
  7
STANDARD
  9
$CLAYER
  8
DIM
  9
$CELTYPE
  6
ByLayer
  9
$CECOLOR
 62
   256
  9
$CELTSCALE
 40
1.0
  9
$DISPSILH
 70
     0
  9
$DIMSCALE
 40
1.0
  9
$DIMASZ
 40
0.1
  9
$DIMEXO
 40
0.063
  9
$DIMDLI
 40
0.38
  9
$DIMRND
 40
0.0
  9
$DIMDLE
 40
0.0
  9
$DIMEXE
 40
0.18
  9
$DIMTP
 40
0.0
  9
$DIMTM
 40
0.0
  9
$DIMTXT
 40
0.1
  9
$DIMCEN
 40
0.09
  9
$DIMTSZ
 40
0.0
  9
$DIMTOL
 70
     0
  9
$DIMLIM
 70
     0
  9
$DIMTIH
 70
     1
  9
$DIMTOH
 70
     1
  9
$DIMSE1
 70
     0
  9
$DIMSE2
 70
     0
  9
$DIMTAD
 70
     0
  9
$DIMZIN
 70
     0
  9
$DIMBLK
  1

  9
$DIMASO
 70
     0
  9
$DIMSHO
 70
     0
  9
$DIMPOST
  1

  9
$DIMAPOST
  1

  9
$DIMALT
 70
     0
  9
$DIMALTD
 70
     2
  9
$DIMALTF
 40
25.4
  9
$DIMLFAC
 40
1.0
  9
$DIMTOFL
 70
     0
  9
$DIMTVP
 40
0.0
  9
$DIMTIX
 70
     0
  9
$DIMSOXD
 70
     0
  9
$DIMSAH
 70
     0
  9
$DIMBLK1
  1

  9
$DIMBLK2
  1

  9
$DIMSTYLE
  2
Standard
  9
$DIMCLRD
 70
     0
  9
$DIMCLRE
 70
     0
  9
$DIMCLRT
 70
     0
  9
$DIMTFAC
 40
1.0
  9
$DIMGAP
 40
0.09
  9
$DIMJUST
 70
     0
  9
$DIMSD1
 70
     0
  9
$DIMSD2
 70
     0
  9
$DIMTOLJ
 70
     1
  9
$DIMTZIN
 70
     0
  9
$DIMALTZ
 70
     0
  9
$DIMALTTZ
 70
     0
  9
$DIMUPT
 70
     0
  9
$DIMDEC
 70
     4
  9
$DIMTDEC
 70
     4
  9
$DIMALTU
 70
     2
  9
$DIMALTTD
 70
     2
  9
$DIMTXSTY
  7
STANDARD
  9
$DIMAUNIT
 70
     0
  9
$DIMADEC
 70
     0
  9
$DIMALTRND
 40
0.0
  9
$DIMAZIN
 70
     0
  9
$DIMDSEP
 70
    46
  9
$DIMATFIT
 70
     3
  9
$DIMFRAC
 70
     0
  9
$DIMLDRBLK
  1

  9
$DIMLUNIT
 70
     2
  9
$DIMLWD
 70
    -2
  9
$DIMLWE
 70
    -2
  9
$DIMTMOVE
 70
     0
  9
$LUNITS
 70
     2
  9
$LUPREC
 70
     4
  9
$SKETCHINC
 40
0.1
  9
$FILLETRAD
 40
0.025
  9
$AUNITS
 70
     0
  9
$AUPREC
 70
     0
  9
$MENU
  1
acad
  9
$ELEVATION
 40
0.0
  9
$PELEVATION
 40
0.0
  9
$THICKNESS
 40
0.0
  9
$LIMCHECK
 70
     0
  9
$CHAMFERA
 40
0.0
  9
$CHAMFERB
 40
0.0
  9
$CHAMFERC
 40
1.0
  9
$CHAMFERD
 40
0.0
  9
$SKPOLY
 70
     0
  9
$TDCREATE
 40
2453955.562594526
  9
$TDUCREATE
 40
2453955.895927859
  9
$TDUPDATE
 40
2453955.604261204
  9
$TDUUPDATE
 40
2453955.89592787
  9
$TDINDWG
 40
0.0000000116
  9
$TDUSRTIMER
 40
0.0000000116
  9
$USRTIMER
 70
     1
  9
$ANGBASE
 50
0.0
  9
$ANGDIR
 70
     0
  9
$PDMODE
 70
     0
  9
$PDSIZE
 40
0.0
  9
$PLINEWID
 40
0.0
  9
$SPLFRAME
 70
     0
  9
$SPLINETYPE
 70
     6
  9
$SPLINESEGS
 70
     8
  9
$HANDSEED
  5
4B6
  9
$SURFTAB1
 70
     6
  9
$SURFTAB2
 70
     6
  9
$SURFTYPE
 70
     6
  9
$SURFU
 70
     6
  9
$SURFV
 70
     6
  9
$UCSBASE
  2

  9
$UCSNAME
  2

  9
$UCSORG
 10
0.0
 20
0.0
 30
0.0
  9
$UCSXDIR
 10
1.0
 20
0.0
 30
0.0
  9
$UCSYDIR
 10
0.0
 20
1.0
 30
0.0
  9
$UCSORTHOREF
  2

  9
$UCSORTHOVIEW
 70
     0
  9
$UCSORGTOP
 10
0.0
 20
0.0
 30
0.0
  9
$UCSORGBOTTOM
 10
0.0
 20
0.0
 30
0.0
  9
$UCSORGLEFT
 10
0.0
 20
0.0
 30
0.0
  9
$UCSORGRIGHT
 10
0.0
 20
0.0
 30
0.0
  9
$UCSORGFRONT
 10
0.0
 20
0.0
 30
0.0
  9
$UCSORGBACK
 10
0.0
 20
0.0
 30
0.0
  9
$PUCSBASE
  2

  9
$PUCSNAME
  2

  9
$PUCSORG
 10
0.0
 20
0.0
 30
0.0
  9
$PUCSXDIR
 10
1.0
 20
0.0
 30
0.0
  9
$PUCSYDIR
 10
0.0
 20
1.0
 30
0.0
  9
$PUCSORTHOREF
  2

  9
$PUCSORTHOVIEW
 70
     0
  9
$PUCSORGTOP
 10
0.0
 20
0.0
 30
0.0
  9
$PUCSORGBOTTOM
 10
0.0
 20
0.0
 30
0.0
  9
$PUCSORGLEFT
 10
0.0
 20
0.0
 30
0.0
  9
$PUCSORGRIGHT
 10
0.0
 20
0.0
 30
0.0
  9
$PUCSORGFRONT
 10
0.0
 20
0.0
 30
0.0
  9
$PUCSORGBACK
 10
0.0
 20
0.0
 30
0.0
  9
$USERI1
 70
     0
  9
$USERI2
 70
     0
  9
$USERI3
 70
     0
  9
$USERI4
 70
     0
  9
$USERI5
 70
     0
  9
$USERR1
 40
0.0
  9
$USERR2
 40
0.0
  9
$USERR3
 40
0.0
  9
$USERR4
 40
0.0
  9
$USERR5
 40
0.0
  9
$WORLDVIEW
 70
     1
  9
$SHADEDGE
 70
     3
  9
$SHADEDIF
 70
    70
  9
$TILEMODE
 70
     1
  9
$MAXACTVP
 70
    16
  9
$PINSBASE
 10
0.0
 20
0.0
 30
0.0
  9
$PLIMCHECK
 70
     0
  9
$PEXTMIN
 10
1.000000000000000E+20
 20
1.000000000000000E+20
 30
1.000000000000000E+20
  9
$PEXTMAX
 10
-1.000000000000000E+20
 20
-1.000000000000000E+20
 30
-1.000000000000000E+20
  9
$PLIMMIN
 10
0.0
 20
0.0
  9
$PLIMMAX
 10
12.0
 20
9.0
  9
$UNITMODE
 70
     0
  9
$VISRETAIN
 70
     0
  9
$PLINEGEN
 70
     0
  9
$PSLTSCALE
 70
     0
  9
$TREEDEPTH
 70
  3020
  9
$CMLSTYLE
  2
Standard
  9
$CMLJUST
 70
     0
  9
$CMLSCALE
 40
1.0
  9
$PROXYGRAPHICS
 70
     1
  9
$MEASUREMENT
 70
     0
  9
$CELWEIGHT
370
    -1
  9
$ENDCAPS
280
     0
  9
$JOINSTYLE
280
     0
  9
$LWDISPLAY
290
     0
  9
$INSUNITS
 70
     1
  9
$HYPERLINKBASE
  1

  9
$STYLESHEET
  1

  9
$XEDIT
290
     1
  9
$CEPSNTYPE
380
     0
  9
$PSTYLEMODE
290
     0
  9
$FINGERPRINTGUID
  2
{FAEB1C30-E019-11D5-929B-00C0DF256EC4}
  9
$VERSIONGUID
  2
{FAEB1C32-E019-11D5-929B-00C0DF256EC4}
  9
$EXTNAMES
290
     1
  9
$PSVPSCALE
 40
0.0
  9
$OLESTARTUP
290
     0
  0
ENDSEC
  0
SECTION
  2
CLASSES
  0
CLASS
  1
ACDBDICTIONARYWDFLT
  2
AcDbDictionaryWithDefault
  3
AutoCAD 2000
 90
        0
280
     0
281
     0
  0
CLASS
  1
ACDBPLACEHOLDER
  2
AcDbPlaceHolder
  3
ObjectDBX Classes
 90
        0
280
     0
281
     0
  0
CLASS
  1
LAYOUT
  2
AcDbLayout
  3
ObjectDBX Classes
 90
        0
280
     0
281
     0
  0
ENDSEC
  0
SECTION
  2
TABLES
  0
TABLE
  2
VPORT
  5
8
330
0
100
AcDbSymbolTable
 70
     2
  0
VPORT
  5
20
330
8
100
AcDbSymbolTableRecord
100
AcDbViewportTableRecord
  2
*ACTIVE
 70
     0
 10
0.0
 20
0.0
 11
1.0
 21
1.0
 12
8.324455205811137
 22
6.0
 13
0.0
 23
0.0
 14
0.025
 24
0.025
 15
0.0
 25
0.0
 16
0.0
 26
0.0
 36
1.0
 17
0.0
 27
0.0
 37
0.0
 40
12.0
 41
0.7207678883071553
 42
50.0
 43
0.0
 44
0.0
 50
0.0
 51
0.0
 71
     0
 72
  2000
 73
     1
 74
     0
 75
     0
 76
     0
 77
     0
 78
     0
281
     0
 65
     1
110
0.0
120
0.0
130
0.0
111
1.0
121
0.0
131
0.0
112
0.0
122
1.0
132
0.0
 79
     0
146
0.0
  0
ENDTAB
  0
TABLE
  2
LTYPE
  5
5
330
0
100
AcDbSymbolTable
 70
     2
  0
LTYPE
  5
10
330
5
100
AcDbSymbolTableRecord
100
AcDbLinetypeTableRecord
  2
ByBlock
 70
     0
  3

 72
    65
 73
     0
 40
0.0
  0
LTYPE
  5
11
330
5
100
AcDbSymbolTableRecord
100
AcDbLinetypeTableRecord
  2
ByLayer
 70
     0
  3

 72
    65
 73
     0
 40
0.0
  0
LTYPE
  5
1B
330
5
100
AcDbSymbolTableRecord
100
AcDbLinetypeTableRecord
  2
CONTINUOUS
 70
     0
  3
Solid line
 72
    65
 73
     0
 40
0.0
  0
LTYPE
  5
1C
330
5
100
AcDbSymbolTableRecord
100
AcDbLinetypeTableRecord
  2
HIDDEN
 70
     0
  3
__ __ __ __ __ __ __ __ __ __ __ __ __ __ __ __
 72
    65
 73
     2
 40
0.375
 49
0.25
 74
     0
 49
-0.125
 74
     0
  0
ENDTAB
  0
TABLE
  2
LAYER
  5
2
330
0
100
AcDbSymbolTable
 70
     2
  0
LAYER
  5
1D
330
2
100
AcDbSymbolTableRecord
100
AcDbLayerTableRecord
  2
0
 70
     0
 62
     7
  6
CONTINUOUS
370
    -3
390
F
  0
LAYER
  5
1E
330
2
100
AcDbSymbolTableRecord
100
AcDbLayerTableRecord
  2
DIM
 70
     0
 62
     4
  6
CONTINUOUS
370
    -3
390
0
  0
ENDTAB
  0
TABLE
  2
STYLE
  5
3
330
0
100
AcDbSymbolTable
 70
     1
  0
STYLE
  5
22
330
3
100
AcDbSymbolTableRecord
100
AcDbTextStyleTableRecord
  2
STANDARD
 70
     0
 40
0.0
 41
1.0
 50
0.0
 71
     0
 42
0.2
  3
romans
  4

  0
ENDTAB
  0
TABLE
  2
VIEW
  5
6
330
0
100
AcDbSymbolTable
 70
     0
  0
ENDTAB
  0
TABLE
  2
UCS
  5
7
330
0
100
AcDbSymbolTable
 70
     0
  0
ENDTAB
  0
TABLE
  2
APPID
  5
9
330
0
100
AcDbSymbolTable
 70
     1
  0
APPID
  5
21
330
9
100
AcDbSymbolTableRecord
100
AcDbRegAppTableRecord
  2
ACAD
 70
     0
  0
ENDTAB
  0
TABLE
  2
DIMSTYLE
  5
A
330
0
100
AcDbSymbolTable
 70
     1
100
AcDbDimStyleTable
  0
DIMSTYLE
105
23
330
A
100
AcDbSymbolTableRecord
100
AcDbDimStyleTableRecord
  2
Standard
 70
     0
  3

  4

340
22
  0
ENDTAB
  0
TABLE
  2
BLOCK_RECORD
  5
1
330
0
100
AcDbSymbolTable
 70
     0
  0
BLOCK_RECORD
  5
18
330
1
100
AcDbSymbolTableRecord
100
AcDbBlockTableRecord
  2
*Model_Space
340
19
  0
BLOCK_RECORD
  5
16
330
1
100
AcDbSymbolTableRecord
100
AcDbBlockTableRecord
  2
*Paper_Space
340
17
  0
ENDTAB
  0
ENDSEC
  0
SECTION
  2
BLOCKS
  0
BLOCK
  5
4AB
330
18
100
AcDbEntity
  8
0
100
AcDbBlockBegin
  2
*Model_Space
 70
     0
 10
0.0
 20
0.0
 30
0.0
  3
*Model_Space
  1

  4

  0
ENDBLK
  5
4AC
330
18
100
AcDbEntity
  8
0
100
AcDbBlockEnd
  0
BLOCK
  5
4A9
330
16
100
AcDbEntity
 67
     1
  8
0
100
AcDbBlockBegin
  2
*Paper_Space
 70
     0
 10
0.0
 20
0.0
 30
0.0
  3
*Paper_Space
  1

  4

  0
ENDBLK
  5
4AA
330
16
100
AcDbEntity
 67
     1
  8
0
100
AcDbBlockEnd
  0
ENDSEC
  0
SECTION
  2
ENTITIES
  0
LINE
  5
24
330
18
100
AcDbEntity
  8
0
  6
HIDDEN
100
AcDbLine
 10
2.492
 20
2.635
 30
0.0
 11
2.492
 21
1.144
 31
0.0
  0
LINE
  5
25
330
18
100
AcDbEntity
  8
0
100
AcDbLine
 10
4.371
 20
3.53
 30
0.0
 11
4.368
 21
3.47
 31
0.0
  0
LINE
  5
26
330
18
100
AcDbEntity
  8
0
100
AcDbLine
 10
4.373
 20
3.599
 30
0.0
 11
4.371
 21
3.53
 31
0.0
  0
LINE
  5
27
330
18
100
AcDbEntity
  8
0
100
AcDbLine
 10
4.37
 20
3.685
 30
0.0
 11
4.373
 21
3.599
 31
0.0
  0
LINE
  5
28
330
18
100
AcDbEntity
  8
0
100
AcDbLine
 10
4.35
 20
3.773
 30
0.0
 11
4.37
 21
3.685
 31
0.0
  0
LINE
  5
29
330
18
100
AcDbEntity
  8
0
100
AcDbLine
 10
4.278000000000001
 20
2.153
 30
0.0
 11
4.256
 21
2.131
 31
0.0
  0
LINE
  5
2A
330
18
100
AcDbEntity
  8
0
100
AcDbLine
 10
4.3
 20
2.188
 30
0.0
 11
4.278000000000001
 21
2.153
 31
0.0
  0
LINE
  5
2B
330
18
100
AcDbEntity
  8
0
100
AcDbLine
 10
4.351
 20
2.273
 30
0.0
 11
4.3
 21
2.188
 31
0.0
  0
LINE
  5
2C
330
18
100
AcDbEntity
  8
0
100
AcDbLine
 10
4.369
 20
2.326
 30
0.0
 11
4.351
 21
2.273
 31
0.0
  0
LINE
  5
2D
330
18
100
AcDbEntity
  8
0
100
AcDbLine
 10
4.368
 20
2.426
 30
0.0
 11
4.369
 21
2.326
 31
0.0
  0
LINE
  5
2E
330
18
100
AcDbEntity
  8
0
100
AcDbLine
 10
4.371
 20
2.561
 30
0.0
 11
4.368
 21
2.426
 31
0.0
  0
LINE
  5
2F
330
18
100
AcDbEntity
  8
0
100
AcDbLine
 10
4.376
 20
2.713
 30
0.0
 11
4.371
 21
2.561
 31
0.0
  0
LINE
  5
30
330
18
100
AcDbEntity
  8
0
100
AcDbLine
 10
4.371
 20
2.852
 30
0.0
 11
4.376
 21
2.713
 31
0.0
  0
LINE
  5
31
330
18
100
AcDbEntity
  8
0
100
AcDbLine
 10
4.384
 20
2.996
 30
0.0
 11
4.371
 21
2.852
 31
0.0
  0
LINE
  5
32
330
18
100
AcDbEntity
  8
0
100
AcDbLine
 10
4.398
 20
3.151
 30
0.0
 11
4.384
 21
2.996
 31
0.0
  0
LINE
  5
33
330
18
100
AcDbEntity
  8
0
100
AcDbLine
 10
4.416
 20
3.363
 30
0.0
 11
4.398
 21
3.151
 31
0.0
  0
LINE
  5
34
330
18
100
AcDbEntity
  8
0
100
AcDbLine
 10
4.123
 20
1.692
 30
0.0
 11
4.1
 21
1.678
 31
0.0
  0
LINE
  5
35
330
18
100
AcDbEntity
  8
0
100
AcDbLine
 10
4.157
 20
1.721
 30
0.0
 11
4.123
 21
1.692
 31
0.0
  0
LINE
  5
36
330
18
100
AcDbEntity
  8
0
100
AcDbLine
 10
4.204
 20
1.767
 30
0.0
 11
4.157
 21
1.721
 31
0.0
  0
LINE
  5
37
330
18
100
AcDbEntity
  8
0
100
AcDbLine
 10
4.223
 20
1.827
 30
0.0
 11
4.204
 21
1.767
 31
0.0
  0
LINE
  5
38
330
18
100
AcDbEntity
  8
0
100
AcDbLine
 10
4.245
 20
1.957
 30
0.0
 11
4.223
 21
1.827
 31
0.0
  0
LINE
  5
39
330
18
100
AcDbEntity
  8
0
100
AcDbLine
 10
4.255
 20
2.112
 30
0.0
 11
4.245
 21
1.957
 31
0.0
  0
LINE
  5
3A
330
18
100
AcDbEntity
  8
0
100
AcDbLine
 10
4.259
 20
2.251
 30
0.0
 11
4.255
 21
2.112
 31
0.0
  0
LINE
  5
3B
330
18
100
AcDbEntity
  8
0
100
AcDbLine
 10
4.27
 20
2.415
 30
0.0
 11
4.259
 21
2.251
 31
0.0
  0
LINE
  5
3C
330
18
100
AcDbEntity
  8
0
100
AcDbLine
 10
4.305
 20
2.596
 30
0.0
 11
4.27
 21
2.415
 31
0.0
  0
LINE
  5
3D
330
18
100
AcDbEntity
  8
0
100
AcDbLine
 10
4.33
 20
2.747
 30
0.0
 11
4.305
 21
2.596
 31
0.0
  0
LINE
  5
3E
330
18
100
AcDbEntity
  8
0
100
AcDbLine
 10
3.628
 20
1.044
 30
0.0
 11
3.53
 21
0.9990000000000001
 31
0.0
  0
LINE
  5
3F
330
18
100
AcDbEntity
  8
0
100
AcDbLine
 10
3.757
 20
1.117
 30
0.0
 11
3.628
 21
1.044
 31
0.0
  0
LINE
  5
40
330
18
100
AcDbEntity
  8
0
100
AcDbLine
 10
3.905
 20
1.25
 30
0.0
 11
3.757
 21
1.117
 31
0.0
  0
LINE
  5
41
330
18
100
AcDbEntity
  8
0
100
AcDbLine
 10
3.933
 20
1.319
 30
0.0
 11
3.905
 21
1.25
 31
0.0
  0
LINE
  5
42
330
18
100
AcDbEntity
  8
0
100
AcDbLine
 10
4.01
 20
1.348
 30
0.0
 11
3.933
 21
1.319
 31
0.0
  0
LINE
  5
43
330
18
100
AcDbEntity
  8
0
100
AcDbLine
 10
4.048
 20
1.412
 30
0.0
 11
4.01
 21
1.348
 31
0.0
  0
LINE
  5
44
330
18
100
AcDbEntity
  8
0
100
AcDbLine
 10
4.078
 20
1.53
 30
0.0
 11
4.048
 21
1.412
 31
0.0
  0
LINE
  5
45
330
18
100
AcDbEntity
  8
0
100
AcDbLine
 10
4.102
 20
1.685
 30
0.0
 11
4.078
 21
1.53
 31
0.0
  0
LINE
  5
46
330
18
100
AcDbEntity
  8
0
100
AcDbLine
 10
4.123
 20
1.835
 30
0.0
 11
4.102
 21
1.685
 31
0.0
  0
LINE
  5
47
330
18
100
AcDbEntity
  8
0
100
AcDbLine
 10
4.141
 20
2.005
 30
0.0
 11
4.123
 21
1.835
 31
0.0
  0
LINE
  5
48
330
18
100
AcDbEntity
  8
0
100
AcDbLine
 10
4.156000000000001
 20
2.243
 30
0.0
 11
4.141
 21
2.005
 31
0.0
  0
LINE
  5
49
330
18
100
AcDbEntity
  8
0
100
AcDbLine
 10
0.542
 20
2.653
 30
0.0
 11
0.545
 21
2.642
 31
0.0
  0
LINE
  5
4A
330
18
100
AcDbEntity
  8
0
100
AcDbLine
 10
0.523
 20
2.748
 30
0.0
 11
0.542
 21
2.653
 31
0.0
  0
LINE
  5
4B
330
18
100
AcDbEntity
  8
0
100
AcDbLine
 10
0.5
 20
2.829
 30
0.0
 11
0.523
 21
2.748
 31
0.0
  0
LINE
  5
4C
330
18
100
AcDbEntity
  8
0
100
AcDbLine
 10
0.471
 20
2.871
 30
0.0
 11
0.5
 21
2.829
 31
0.0
  0
LINE
  5
4D
330
18
100
AcDbEntity
  8
0
100
AcDbLine
 10
0.444
 20
2.986
 30
0.0
 11
0.471
 21
2.871
 31
0.0
  0
LINE
  5
4E
330
18
100
AcDbEntity
  8
0
100
AcDbLine
 10
0.421
 20
3.136
 30
0.0
 11
0.444
 21
2.986
 31
0.0
  0
LINE
  5
4F
330
18
100
AcDbEntity
  8
0
100
AcDbLine
 10
0.391
 20
3.288
 30
0.0
 11
0.421
 21
3.136
 31
0.0
  0
LINE
  5
50
330
18
100
AcDbEntity
  8
0
100
AcDbLine
 10
0.381
 20
3.401
 30
0.0
 11
0.391
 21
3.288
 31
0.0
  0
LINE
  5
51
330
18
100
AcDbEntity
  8
0
100
AcDbLine
 10
0.382
 20
3.487
 30
0.0
 11
0.381
 21
3.401
 31
0.0
  0
LINE
  5
52
330
18
100
AcDbEntity
  8
0
100
AcDbLine
 10
0.836
 20
1.332
 30
0.0
 11
0.845
 21
1.327
 31
0.0
  0
LINE
  5
53
330
18
100
AcDbEntity
  8
0
100
AcDbLine
 10
0.7709999999999999
 20
1.393
 30
0.0
 11
0.836
 21
1.332
 31
0.0
  0
LINE
  5
54
330
18
100
AcDbEntity
  8
0
100
AcDbLine
 10
0.6840000000000001
 20
1.485
 30
0.0
 11
0.7709999999999999
 21
1.393
 31
0.0
  0
LINE
  5
55
330
18
100
AcDbEntity
  8
0
100
AcDbLine
 10
0.606
 20
1.543
 30
0.0
 11
0.6840000000000001
 21
1.485
 31
0.0
  0
LINE
  5
56
330
18
100
AcDbEntity
  8
0
100
AcDbLine
 10
0.568
 20
1.613
 30
0.0
 11
0.606
 21
1.543
 31
0.0
  0
LINE
  5
57
330
18
100
AcDbEntity
  8
0
100
AcDbLine
 10
0.546
 20
1.685
 30
0.0
 11
0.568
 21
1.613
 31
0.0
  0
LINE
  5
58
330
18
100
AcDbEntity
  8
0
100
AcDbLine
 10
0.527
 20
1.844
 30
0.0
 11
0.546
 21
1.685
 31
0.0
  0
LINE
  5
59
330
18
100
AcDbEntity
  8
0
100
AcDbLine
 10
0.493
 20
2.053
 30
0.0
 11
0.527
 21
1.844
 31
0.0
  0
LINE
  5
5A
330
18
100
AcDbEntity
  8
0
100
AcDbLine
 10
0.428
 20
2.305
 30
0.0
 11
0.493
 21
2.053
 31
0.0
  0
LINE
  5
5B
330
18
100
AcDbEntity
  8
0
100
AcDbLine
 10
0.797
 20
1.578
 30
0.0
 11
0.77
 21
1.625
 31
0.0
  0
LINE
  5
5C
330
18
100
AcDbEntity
  8
0
100
AcDbLine
 10
0.816
 20
1.482
 30
0.0
 11
0.797
 21
1.578
 31
0.0
  0
LINE
  5
5D
330
18
100
AcDbEntity
  8
0
100
AcDbLine
 10
0.853
 20
1.29
 30
0.0
 11
0.816
 21
1.482
 31
0.0
  0
LINE
  5
5E
330
18
100
AcDbEntity
  8
0
100
AcDbLine
 10
0.907
 20
1.147
 30
0.0
 11
0.853
 21
1.29
 31
0.0
  0
LINE
  5
5F
330
18
100
AcDbEntity
  8
0
100
AcDbLine
 10
1.024
 20
1.046
 30
0.0
 11
0.907
 21
1.147
 31
0.0
  0
LINE
  5
60
330
18
100
AcDbEntity
  8
0
100
AcDbLine
 10
1.162
 20
0.961
 30
0.0
 11
1.024
 21
1.046
 31
0.0
  0
LINE
  5
61
330
18
100
AcDbEntity
  8
0
100
AcDbLine
 10
1.275
 20
0.895
 30
0.0
 11
1.162
 21
0.961
 31
0.0
  0
LINE
  5
62
330
18
100
AcDbEntity
  8
0
100
AcDbLine
 10
1.336
 20
0.764
 30
0.0
 11
1.275
 21
0.895
 31
0.0
  0
LINE
  5
63
330
18
100
AcDbEntity
  8
0
100
AcDbLine
 10
1.379
 20
0.731
 30
0.0
 11
1.336
 21
0.764
 31
0.0
  0
LINE
  5
64
330
18
100
AcDbEntity
  8
0
100
AcDbLine
 10
1.585
 20
0.7090000000000001
 30
0.0
 11
1.379
 21
0.731
 31
0.0
  0
LINE
  5
65
330
18
100
AcDbEntity
  8
0
100
AcDbLine
 10
1.821
 20
0.644
 30
0.0
 11
1.585
 21
0.7090000000000001
 31
0.0
  0
LINE
  5
66
330
18
100
AcDbEntity
  8
0
100
AcDbLine
 10
1.948
 20
0.596
 30
0.0
 11
1.821
 21
0.644
 31
0.0
  0
LINE
  5
67
330
18
100
AcDbEntity
  8
0
100
AcDbLine
 10
2.094
 20
0.58
 30
0.0
 11
1.948
 21
0.596
 31
0.0
  0
LINE
  5
68
330
18
100
AcDbEntity
  8
0
100
AcDbLine
 10
2.229
 20
0.62
 30
0.0
 11
2.094
 21
0.58
 31
0.0
  0
LINE
  5
69
330
18
100
AcDbEntity
  8
0
100
AcDbLine
 10
2.377
 20
0.616
 30
0.0
 11
2.229
 21
0.62
 31
0.0
  0
LINE
  5
6A
330
18
100
AcDbEntity
  8
0
100
AcDbLine
 10
2.487
 20
0.647
 30
0.0
 11
2.377
 21
0.616
 31
0.0
  0
LINE
  5
6B
330
18
100
AcDbEntity
  8
0
100
AcDbLine
 10
2.537
 20
0.637
 30
0.0
 11
2.487
 21
0.647
 31
0.0
  0
LINE
  5
6C
330
18
100
AcDbEntity
  8
0
100
AcDbLine
 10
2.688
 20
0.593
 30
0.0
 11
2.537
 21
0.637
 31
0.0
  0
LINE
  5
6D
330
18
100
AcDbEntity
  8
0
100
AcDbLine
 10
2.832
 20
0.596
 30
0.0
 11
2.688
 21
0.593
 31
0.0
  0
LINE
  5
6E
330
18
100
AcDbEntity
  8
0
100
AcDbLine
 10
2.976
 20
0.629
 30
0.0
 11
2.832
 21
0.596
 31
0.0
  0
LINE
  5
6F
330
18
100
AcDbEntity
  8
0
100
AcDbLine
 10
3.143
 20
0.6940000000000001
 30
0.0
 11
2.976
 21
0.629
 31
0.0
  0
LINE
  5
70
330
18
100
AcDbEntity
  8
0
100
AcDbLine
 10
3.398
 20
0.825
 30
0.0
 11
3.143
 21
0.6940000000000001
 31
0.0
  0
LINE
  5
71
330
18
100
AcDbEntity
  8
0
100
AcDbLine
 10
3.511
 20
0.9350000000000001
 30
0.0
 11
3.398
 21
0.825
 31
0.0
  0
LINE
  5
72
330
18
100
AcDbEntity
  8
0
100
AcDbLine
 10
3.535
 20
1.018
 30
0.0
 11
3.511
 21
0.9350000000000001
 31
0.0
  0
LINE
  5
73
330
18
100
AcDbEntity
  8
0
100
AcDbLine
 10
3.557
 20
1.138
 30
0.0
 11
3.535
 21
1.018
 31
0.0
  0
LINE
  5
74
330
18
100
AcDbEntity
  8
0
100
AcDbLine
 10
3.594
 20
1.272
 30
0.0
 11
3.557
 21
1.138
 31
0.0
  0
LINE
  5
75
330
18
100
AcDbEntity
  8
0
100
AcDbLine
 10
3.632
 20
1.341
 30
0.0
 11
3.594
 21
1.272
 31
0.0
  0
LINE
  5
76
330
18
100
AcDbEntity
  8
0
100
AcDbLine
 10
3.657
 20
1.464
 30
0.0
 11
3.632
 21
1.341
 31
0.0
  0
LINE
  5
77
330
18
100
AcDbEntity
  8
0
100
AcDbLine
 10
3.675
 20
1.64
 30
0.0
 11
3.657
 21
1.464
 31
0.0
  0
LINE
  5
78
330
18
100
AcDbEntity
  8
0
100
AcDbLine
 10
3.697
 20
1.864
 30
0.0
 11
3.675
 21
1.64
 31
0.0
  0
LINE
  5
79
330
18
100
AcDbEntity
  8
0
100
AcDbLine
 10
4.35
 20
3.773
 30
0.0
 11
3.5
 21
3.978
 31
0.0
  0
LINE
  5
7A
330
18
100
AcDbEntity
  8
0
100
AcDbLine
 10
4.334
 20
3.708
 30
0.0
 11
4.35
 21
3.773
 31
0.0
  0
LINE
  5
7B
330
18
100
AcDbEntity
  8
0
100
AcDbLine
 10
4.324
 20
3.679
 30
0.0
 11
4.334
 21
3.708
 31
0.0
  0
LINE
  5
7C
330
18
100
AcDbEntity
  8
0
100
AcDbLine
 10
4.303999999999999
 20
3.595
 30
0.0
 11
4.324
 21
3.679
 31
0.0
  0
LINE
  5
7D
330
18
100
AcDbEntity
  8
0
100
AcDbLine
 10
4.328
 20
3.523
 30
0.0
 11
4.303999999999999
 21
3.595
 31
0.0
  0
LINE
  5
7E
330
18
100
AcDbEntity
  8
0
100
AcDbLine
 10
4.401
 20
3.429
 30
0.0
 11
4.328
 21
3.523
 31
0.0
  0
LINE
  5
7F
330
18
100
AcDbEntity
  8
0
100
AcDbLine
 10
4.419
 20
3.376
 30
0.0
 11
4.401
 21
3.429
 31
0.0
  0
LINE
  5
80
330
18
100
AcDbEntity
  8
0
100
AcDbLine
 10
4.404
 20
3.306
 30
0.0
 11
4.419
 21
3.376
 31
0.0
  0
LINE
  5
81
330
18
100
AcDbEntity
  8
0
100
AcDbLine
 10
4.331
 20
3.154
 30
0.0
 11
4.404
 21
3.306
 31
0.0
  0
LINE
  5
82
330
18
100
AcDbEntity
  8
0
100
AcDbLine
 10
4.263
 20
2.988
 30
0.0
 11
4.331
 21
3.154
 31
0.0
  0
LINE
  5
83
330
18
100
AcDbEntity
  8
0
100
AcDbLine
 10
4.286000000000001
 20
2.891
 30
0.0
 11
4.263
 21
2.988
 31
0.0
  0
LINE
  5
84
330
18
100
AcDbEntity
  8
0
100
AcDbLine
 10
4.342
 20
2.804
 30
0.0
 11
4.286000000000001
 21
2.891
 31
0.0
  0
LINE
  5
85
330
18
100
AcDbEntity
  8
0
100
AcDbLine
 10
4.33
 20
2.747
 30
0.0
 11
4.342
 21
2.804
 31
0.0
  0
LINE
  5
86
330
18
100
AcDbEntity
  8
0
100
AcDbLine
 10
4.24
 20
2.641
 30
0.0
 11
4.33
 21
2.747
 31
0.0
  0
LINE
  5
87
330
18
100
AcDbEntity
  8
0
100
AcDbLine
 10
4.186
 20
2.574
 30
0.0
 11
4.24
 21
2.641
 31
0.0
  0
LINE
  5
88
330
18
100
AcDbEntity
  8
0
100
AcDbLine
 10
4.181
 20
2.512
 30
0.0
 11
4.186
 21
2.574
 31
0.0
  0
LINE
  5
89
330
18
100
AcDbEntity
  8
0
100
AcDbLine
 10
4.178999999999999
 20
2.368
 30
0.0
 11
4.181
 21
2.512
 31
0.0
  0
LINE
  5
8A
330
18
100
AcDbEntity
  8
0
100
AcDbLine
 10
4.156000000000001
 20
2.243
 30
0.0
 11
4.178999999999999
 21
2.368
 31
0.0
  0
LINE
  5
8B
330
18
100
AcDbEntity
  8
0
100
AcDbLine
 10
4.103
 20
2.191
 30
0.0
 11
4.156000000000001
 21
2.243
 31
0.0
  0
LINE
  5
8C
330
18
100
AcDbEntity
  8
0
100
AcDbLine
 10
4.002
 20
2.138
 30
0.0
 11
4.103
 21
2.191
 31
0.0
  0
LINE
  5
8D
330
18
100
AcDbEntity
  8
0
100
AcDbLine
 10
3.827
 20
2.027
 30
0.0
 11
4.002
 21
2.138
 31
0.0
  0
LINE
  5
8E
330
18
100
AcDbEntity
  8
0
100
AcDbLine
 10
3.725
 20
1.931
 30
0.0
 11
3.827
 21
2.027
 31
0.0
  0
LINE
  5
8F
330
18
100
AcDbEntity
  8
0
100
AcDbLine
 10
3.695
 20
1.86
 30
0.0
 11
3.725
 21
1.931
 31
0.0
  0
LINE
  5
90
330
18
100
AcDbEntity
  8
0
100
AcDbLine
 10
3.643
 20
1.816
 30
0.0
 11
3.695
 21
1.86
 31
0.0
  0
LINE
  5
91
330
18
100
AcDbEntity
  8
0
100
AcDbLine
 10
3.517
 20
1.792
 30
0.0
 11
3.643
 21
1.816
 31
0.0
  0
LINE
  5
92
330
18
100
AcDbEntity
  8
0
100
AcDbLine
 10
3.348
 20
1.765
 30
0.0
 11
3.517
 21
1.792
 31
0.0
  0
LINE
  5
93
330
18
100
AcDbEntity
  8
0
100
AcDbLine
 10
3.19
 20
1.707
 30
0.0
 11
3.348
 21
1.765
 31
0.0
  0
LINE
  5
94
330
18
100
AcDbEntity
  8
0
100
AcDbLine
 10
3.055
 20
1.706
 30
0.0
 11
3.19
 21
1.707
 31
0.0
  0
LINE
  5
95
330
18
100
AcDbEntity
  8
0
100
AcDbLine
 10
2.895
 20
1.68
 30
0.0
 11
3.055
 21
1.706
 31
0.0
  0
LINE
  5
96
330
18
100
AcDbEntity
  8
0
100
AcDbLine
 10
2.774
 20
1.642
 30
0.0
 11
2.895
 21
1.68
 31
0.0
  0
LINE
  5
97
330
18
100
AcDbEntity
  8
0
100
AcDbLine
 10
2.694
 20
1.613
 30
0.0
 11
2.774
 21
1.642
 31
0.0
  0
LINE
  5
98
330
18
100
AcDbEntity
  8
0
100
AcDbLine
 10
2.573
 20
1.605
 30
0.0
 11
2.694
 21
1.613
 31
0.0
  0
LINE
  5
99
330
18
100
AcDbEntity
  8
0
100
AcDbLine
 10
2.445
 20
1.565
 30
0.0
 11
2.573
 21
1.605
 31
0.0
  0
LINE
  5
9A
330
18
100
AcDbEntity
  8
0
100
AcDbLine
 10
2.209
 20
1.524
 30
0.0
 11
2.445
 21
1.565
 31
0.0
  0
LINE
  5
9B
330
18
100
AcDbEntity
  8
0
100
AcDbLine
 10
2.048
 20
1.49
 30
0.0
 11
2.209
 21
1.524
 31
0.0
  0
LINE
  5
9C
330
18
100
AcDbEntity
  8
0
100
AcDbLine
 10
1.937
 20
1.514
 30
0.0
 11
2.048
 21
1.49
 31
0.0
  0
LINE
  5
9D
330
18
100
AcDbEntity
  8
0
100
AcDbLine
 10
1.786
 20
1.519
 30
0.0
 11
1.937
 21
1.514
 31
0.0
  0
LINE
  5
9E
330
18
100
AcDbEntity
  8
0
100
AcDbLine
 10
1.689
 20
1.548
 30
0.0
 11
1.786
 21
1.519
 31
0.0
  0
LINE
  5
9F
330
18
100
AcDbEntity
  8
0
100
AcDbLine
 10
1.615
 20
1.574
 30
0.0
 11
1.689
 21
1.548
 31
0.0
  0
LINE
  5
A0
330
18
100
AcDbEntity
  8
0
100
AcDbLine
 10
1.58
 20
1.552
 30
0.0
 11
1.615
 21
1.574
 31
0.0
  0
LINE
  5
A1
330
18
100
AcDbEntity
  8
0
100
AcDbLine
 10
1.467
 20
1.594
 30
0.0
 11
1.58
 21
1.552
 31
0.0
  0
LINE
  5
A2
330
18
100
AcDbEntity
  8
0
100
AcDbLine
 10
1.271
 20
1.678
 30
0.0
 11
1.467
 21
1.594
 31
0.0
  0
LINE
  5
A3
330
18
100
AcDbEntity
  8
0
100
AcDbLine
 10
0.97
 20
1.808
 30
0.0
 11
1.271
 21
1.678
 31
0.0
  0
LINE
  5
A4
330
18
100
AcDbEntity
  8
0
100
AcDbLine
 10
0.795
 20
1.905
 30
0.0
 11
0.97
 21
1.808
 31
0.0
  0
LINE
  5
A5
330
18
100
AcDbEntity
  8
0
100
AcDbLine
 10
0.718
 20
1.955
 30
0.0
 11
0.795
 21
1.905
 31
0.0
  0
LINE
  5
A6
330
18
100
AcDbEntity
  8
0
100
AcDbLine
 10
0.71
 20
2.017
 30
0.0
 11
0.718
 21
1.955
 31
0.0
  0
LINE
  5
A7
330
18
100
AcDbEntity
  8
0
100
AcDbLine
 10
0.6879999999999999
 20
2.126
 30
0.0
 11
0.71
 21
2.017
 31
0.0
  0
LINE
  5
A8
330
18
100
AcDbEntity
  8
0
100
AcDbLine
 10
0.633
 20
2.197
 30
0.0
 11
0.6879999999999999
 21
2.126
 31
0.0
  0
LINE
  5
A9
330
18
100
AcDbEntity
  8
0
100
AcDbLine
 10
0.532
 20
2.275
 30
0.0
 11
0.633
 21
2.197
 31
0.0
  0
LINE
  5
AA
330
18
100
AcDbEntity
  8
0
100
AcDbLine
 10
0.436
 20
2.295
 30
0.0
 11
0.532
 21
2.275
 31
0.0
  0
LINE
  5
AB
330
18
100
AcDbEntity
  8
0
100
AcDbLine
 10
0.415
 20
2.32
 30
0.0
 11
0.436
 21
2.295
 31
0.0
  0
LINE
  5
AC
330
18
100
AcDbEntity
  8
0
100
AcDbLine
 10
0.441
 20
2.385
 30
0.0
 11
0.415
 21
2.32
 31
0.0
  0
LINE
  5
AD
330
18
100
AcDbEntity
  8
0
100
AcDbLine
 10
0.479
 20
2.47
 30
0.0
 11
0.441
 21
2.385
 31
0.0
  0
LINE
  5
AE
330
18
100
AcDbEntity
  8
0
100
AcDbLine
 10
0.5629999999999999
 20
2.687
 30
0.0
 11
0.479
 21
2.47
 31
0.0
  0
LINE
  5
AF
330
18
100
AcDbEntity
  8
0
100
AcDbLine
 10
0.606
 20
2.898
 30
0.0
 11
0.5629999999999999
 21
2.687
 31
0.0
  0
LINE
  5
B0
330
18
100
AcDbEntity
  8
0
100
AcDbLine
 10
0.597
 20
2.981
 30
0.0
 11
0.606
 21
2.898
 31
0.0
  0
LINE
  5
B1
330
18
100
AcDbEntity
  8
0
100
AcDbLine
 10
0.5479999999999999
 20
3.065
 30
0.0
 11
0.597
 21
2.981
 31
0.0
  0
LINE
  5
B2
330
18
100
AcDbEntity
  8
0
100
AcDbLine
 10
0.515
 20
3.179
 30
0.0
 11
0.5479999999999999
 21
3.065
 31
0.0
  0
LINE
  5
B3
330
18
100
AcDbEntity
  8
0
100
AcDbLine
 10
0.479
 20
3.316
 30
0.0
 11
0.515
 21
3.179
 31
0.0
  0
LINE
  5
B4
330
18
100
AcDbEntity
  8
0
100
AcDbLine
 10
0.425
 20
3.419
 30
0.0
 11
0.479
 21
3.316
 31
0.0
  0
LINE
  5
B5
330
18
100
AcDbEntity
  8
0
100
AcDbLine
 10
0.382
 20
3.487
 30
0.0
 11
0.425
 21
3.419
 31
0.0
  0
LINE
  5
B6
330
18
100
AcDbEntity
  8
0
100
AcDbLine
 10
0.412
 20
3.545
 30
0.0
 11
0.382
 21
3.487
 31
0.0
  0
LINE
  5
B7
330
18
100
AcDbEntity
  8
0
100
AcDbLine
 10
0.474
 20
3.621
 30
0.0
 11
0.412
 21
3.545
 31
0.0
  0
LINE
  5
B8
330
18
100
AcDbEntity
  8
0
100
AcDbLine
 10
0.509
 20
3.689
 30
0.0
 11
0.474
 21
3.621
 31
0.0
  0
LINE
  5
B9
330
18
100
AcDbEntity
  8
0
100
AcDbLine
 10
0.5539999999999999
 20
3.863
 30
0.0
 11
0.509
 21
3.689
 31
0.0
  0
LINE
  5
BA
330
18
100
AcDbEntity
  8
0
100
AcDbLine
 10
0.5870000000000001
 20
3.911
 30
0.0
 11
0.5539999999999999
 21
3.863
 31
0.0
  0
LINE
  5
BB
330
18
100
AcDbEntity
  8
0
100
AcDbLine
 10
2.773
 20
6.512000000000001
 30
0.0
 11
2.76
 21
6.497000000000001
 31
0.0
  0
LINE
  5
BC
330
18
100
AcDbEntity
  8
0
100
AcDbLine
 10
2.813
 20
6.564
 30
0.0
 11
2.773
 21
6.512000000000001
 31
0.0
  0
LINE
  5
BD
330
18
100
AcDbEntity
  8
0
100
AcDbLine
 10
2.895
 20
6.654
 30
0.0
 11
2.813
 21
6.564
 31
0.0
  0
LINE
  5
BE
330
18
100
AcDbEntity
  8
0
100
AcDbLine
 10
2.929
 20
6.681
 30
0.0
 11
2.895
 21
6.654
 31
0.0
  0
LINE
  5
BF
330
18
100
AcDbEntity
  8
0
100
AcDbLine
 10
2.846
 20
6.488
 30
0.0
 11
2.884
 21
6.526
 31
0.0
  0
LINE
  5
C0
330
18
100
AcDbEntity
  8
0
100
AcDbLine
 10
2.794
 20
6.445
 30
0.0
 11
2.846
 21
6.488
 31
0.0
  0
LINE
  5
C1
330
18
100
AcDbEntity
  8
0
100
AcDbLine
 10
1.815
 20
6.84
 30
0.0
 11
1.772
 21
6.805
 31
0.0
  0
LINE
  5
C2
330
18
100
AcDbEntity
  8
0
100
AcDbLine
 10
1.916
 20
6.921
 30
0.0
 11
1.815
 21
6.84
 31
0.0
  0
LINE
  5
C3
330
18
100
AcDbEntity
  8
0
100
AcDbLine
 10
1.797
 20
6.729
 30
0.0
 11
1.768
 21
6.7
 31
0.0
  0
LINE
  5
C4
330
18
100
AcDbEntity
  8
0
100
AcDbLine
 10
1.888
 20
6.809
 30
0.0
 11
1.797
 21
6.729
 31
0.0
  0
LINE
  5
C5
330
18
100
AcDbEntity
  8
0
100
AcDbLine
 10
1.992
 20
6.911000000000001
 30
0.0
 11
1.888
 21
6.809
 31
0.0
  0
LINE
  5
C6
330
18
100
AcDbEntity
  8
0
100
AcDbLine
 10
1.862
 20
6.698
 30
0.0
 11
1.847
 21
6.684
 31
0.0
  0
LINE
  5
C7
330
18
100
AcDbEntity
  8
0
100
AcDbLine
 10
1.951
 20
6.784
 30
0.0
 11
1.862
 21
6.698
 31
0.0
  0
LINE
  5
C8
330
18
100
AcDbEntity
  8
0
100
AcDbLine
 10
2.067
 20
6.9
 30
0.0
 11
1.951
 21
6.784
 31
0.0
  0
LINE
  5
C9
330
18
100
AcDbEntity
  8
0
100
AcDbLine
 10
1.917
 20
6.694
 30
0.0
 11
1.897
 21
6.674
 31
0.0
  0
LINE
  5
CA
330
18
100
AcDbEntity
  8
0
100
AcDbLine
 10
2.004
 20
6.774
 30
0.0
 11
1.917
 21
6.694
 31
0.0
  0
LINE
  5
CB
330
18
100
AcDbEntity
  8
0
100
AcDbLine
 10
2.134
 20
6.89
 30
0.0
 11
2.004
 21
6.774
 31
0.0
  0
LINE
  5
CC
330
18
100
AcDbEntity
  8
0
100
AcDbLine
 10
1.968
 20
6.671
 30
0.0
 11
1.959
 21
6.661000000000001
 31
0.0
  0
LINE
  5
CD
330
18
100
AcDbEntity
  8
0
100
AcDbLine
 10
2.02
 20
6.728
 30
0.0
 11
1.968
 21
6.671
 31
0.0
  0
LINE
  5
CE
330
18
100
AcDbEntity
  8
0
100
AcDbLine
 10
2.067
 20
6.778
 30
0.0
 11
2.02
 21
6.728
 31
0.0
  0
LINE
  5
CF
330
18
100
AcDbEntity
  8
0
100
AcDbLine
 10
2.18
 20
6.884
 30
0.0
 11
2.067
 21
6.778
 31
0.0
  0
LINE
  5
D0
330
18
100
AcDbEntity
  8
0
100
AcDbLine
 10
2.033
 20
6.656000000000001
 30
0.0
 11
2.025
 21
6.648
 31
0.0
  0
LINE
  5
D1
330
18
100
AcDbEntity
  8
0
100
AcDbLine
 10
2.103
 20
6.739
 30
0.0
 11
2.033
 21
6.656000000000001
 31
0.0
  0
LINE
  5
D2
330
18
100
AcDbEntity
  8
0
100
AcDbLine
 10
2.251
 20
6.872999999999999
 30
0.0
 11
2.103
 21
6.739
 31
0.0
  0
LINE
  5
D3
330
18
100
AcDbEntity
  8
0
100
AcDbLine
 10
2.156
 20
6.675
 30
0.0
 11
2.114
 21
6.63
 31
0.0
  0
LINE
  5
D4
330
18
100
AcDbEntity
  8
0
100
AcDbLine
 10
2.245
 20
6.757999999999999
 30
0.0
 11
2.156
 21
6.675
 31
0.0
  0
LINE
  5
D5
330
18
100
AcDbEntity
  8
0
100
AcDbLine
 10
2.353
 20
6.859
 30
0.0
 11
2.245
 21
6.757999999999999
 31
0.0
  0
LINE
  5
D6
330
18
100
AcDbEntity
  8
0
100
AcDbLine
 10
2.279
 20
6.68
 30
0.0
 11
2.202
 21
6.612
 31
0.0
  0
LINE
  5
D7
330
18
100
AcDbEntity
  8
0
100
AcDbLine
 10
2.354
 20
6.749
 30
0.0
 11
2.279
 21
6.68
 31
0.0
  0
LINE
  5
D8
330
18
100
AcDbEntity
  8
0
100
AcDbLine
 10
2.453
 20
6.843999999999999
 30
0.0
 11
2.354
 21
6.749
 31
0.0
  0
LINE
  5
D9
330
18
100
AcDbEntity
  8
0
100
AcDbLine
 10
2.389
 20
6.619
 30
0.0
 11
2.349
 21
6.581
 31
0.0
  0
LINE
  5
DA
330
18
100
AcDbEntity
  8
0
100
AcDbLine
 10
2.476
 20
6.706
 30
0.0
 11
2.389
 21
6.619
 31
0.0
  0
LINE
  5
DB
330
18
100
AcDbEntity
  8
0
100
AcDbLine
 10
2.59
 20
6.825
 30
0.0
 11
2.476
 21
6.706
 31
0.0
  0
LINE
  5
DC
330
18
100
AcDbEntity
  8
0
100
AcDbLine
 10
2.33
 20
6.662999999999999
 30
0.0
 11
2.263
 21
6.599
 31
0.0
  0
LINE
  5
DD
330
18
100
AcDbEntity
  8
0
100
AcDbLine
 10
2.43
 20
6.751
 30
0.0
 11
2.33
 21
6.662999999999999
 31
0.0
  0
LINE
  5
DE
330
18
100
AcDbEntity
  8
0
100
AcDbLine
 10
2.504
 20
6.837000000000001
 30
0.0
 11
2.43
 21
6.751
 31
0.0
  0
LINE
  5
DF
330
18
100
AcDbEntity
  8
0
100
AcDbLine
 10
2.718
 20
6.537999999999999
 30
0.0
 11
2.695
 21
6.511
 31
0.0
  0
LINE
  5
E0
330
18
100
AcDbEntity
  8
0
100
AcDbLine
 10
2.764
 20
6.59
 30
0.0
 11
2.718
 21
6.537999999999999
 31
0.0
  0
LINE
  5
E1
330
18
100
AcDbEntity
  8
0
100
AcDbLine
 10
2.831
 20
6.68
 30
0.0
 11
2.764
 21
6.59
 31
0.0
  0
LINE
  5
E2
330
18
100
AcDbEntity
  8
0
100
AcDbLine
 10
2.936
 20
6.775
 30
0.0
 11
2.831
 21
6.68
 31
0.0
  0
LINE
  5
E3
330
18
100
AcDbEntity
  8
0
100
AcDbLine
 10
2.646
 20
6.542999999999999
 30
0.0
 11
2.631
 21
6.524
 31
0.0
  0
LINE
  5
E4
330
18
100
AcDbEntity
  8
0
100
AcDbLine
 10
2.707
 20
6.61
 30
0.0
 11
2.646
 21
6.542999999999999
 31
0.0
  0
LINE
  5
E5
330
18
100
AcDbEntity
  8
0
100
AcDbLine
 10
2.779
 20
6.683
 30
0.0
 11
2.707
 21
6.61
 31
0.0
  0
LINE
  5
E6
330
18
100
AcDbEntity
  8
0
100
AcDbLine
 10
2.885
 20
6.783
 30
0.0
 11
2.779
 21
6.683
 31
0.0
  0
LINE
  5
E7
330
18
100
AcDbEntity
  8
0
100
AcDbLine
 10
2.578
 20
6.556
 30
0.0
 11
2.562
 21
6.537999999999999
 31
0.0
  0
LINE
  5
E8
330
18
100
AcDbEntity
  8
0
100
AcDbLine
 10
2.63
 20
6.613
 30
0.0
 11
2.578
 21
6.556
 31
0.0
  0
LINE
  5
E9
330
18
100
AcDbEntity
  8
0
100
AcDbLine
 10
2.706
 20
6.701000000000001
 30
0.0
 11
2.63
 21
6.613
 31
0.0
  0
LINE
  5
EA
330
18
100
AcDbEntity
  8
0
100
AcDbLine
 10
2.792
 20
6.796
 30
0.0
 11
2.706
 21
6.701000000000001
 31
0.0
  0
LINE
  5
EB
330
18
100
AcDbEntity
  8
0
100
AcDbLine
 10
2.565
 20
6.616000000000001
 30
0.0
 11
2.505
 21
6.55
 31
0.0
  0
LINE
  5
EC
330
18
100
AcDbEntity
  8
0
100
AcDbLine
 10
2.641
 20
6.701000000000001
 30
0.0
 11
2.565
 21
6.616000000000001
 31
0.0
  0
LINE
  5
ED
330
18
100
AcDbEntity
  8
0
100
AcDbLine
 10
2.732
 20
6.805
 30
0.0
 11
2.641
 21
6.701000000000001
 31
0.0
  0
LINE
  5
EE
330
18
100
AcDbEntity
  8
0
100
AcDbLine
 10
2.485
 20
6.634
 30
0.0
 11
2.422
 21
6.567
 31
0.0
  0
LINE
  5
EF
330
18
100
AcDbEntity
  8
0
100
AcDbLine
 10
2.567
 20
6.714
 30
0.0
 11
2.485
 21
6.634
 31
0.0
  0
LINE
  5
F0
330
18
100
AcDbEntity
  8
0
100
AcDbLine
 10
2.685
 20
6.811
 30
0.0
 11
2.567
 21
6.714
 31
0.0
  0
LINE
  5
F1
330
18
100
AcDbEntity
  8
0
100
AcDbLine
 10
3.379
 20
6.626
 30
0.0
 11
3.399
 21
6.622999999999999
 31
0.0
  0
LINE
  5
F2
330
18
100
AcDbEntity
  8
0
100
AcDbLine
 10
3.24
 20
6.635
 30
0.0
 11
3.379
 21
6.626
 31
0.0
  0
LINE
  5
F3
330
18
100
AcDbEntity
  8
0
100
AcDbLine
 10
3.108
 20
6.612
 30
0.0
 11
3.24
 21
6.635
 31
0.0
  0
LINE
  5
F4
330
18
100
AcDbEntity
  8
0
100
AcDbLine
 10
3.034
 20
6.593999999999999
 30
0.0
 11
3.108
 21
6.612
 31
0.0
  0
LINE
  5
F5
330
18
100
AcDbEntity
  8
0
100
AcDbLine
 10
3.034
 20
6.593999999999999
 30
0.0
 11
3.034
 21
6.593999999999999
 31
0.0
  0
LINE
  5
F6
330
18
100
AcDbEntity
  8
0
100
AcDbLine
 10
3.253
 20
6.677000000000001
 30
0.0
 11
3.284
 21
6.687
 31
0.0
  0
LINE
  5
F7
330
18
100
AcDbEntity
  8
0
100
AcDbLine
 10
3.115
 20
6.642
 30
0.0
 11
3.253
 21
6.677000000000001
 31
0.0
  0
LINE
  5
F8
330
18
100
AcDbEntity
  8
0
100
AcDbLine
 10
3.03
 20
6.634
 30
0.0
 11
3.115
 21
6.642
 31
0.0
  0
LINE
  5
F9
330
18
100
AcDbEntity
  8
0
100
AcDbLine
 10
3.017
 20
6.632999999999999
 30
0.0
 11
3.03
 21
6.634
 31
0.0
  0
LINE
  5
FA
330
18
100
AcDbEntity
  8
0
100
AcDbLine
 10
3.086
 20
6.686
 30
0.0
 11
3.156
 21
6.712999999999999
 31
0.0
  0
LINE
  5
FB
330
18
100
AcDbEntity
  8
0
100
AcDbLine
 10
3.013
 20
6.671
 30
0.0
 11
3.086
 21
6.686
 31
0.0
  0
LINE
  5
FC
330
18
100
AcDbEntity
  8
0
100
AcDbLine
 10
3.001
 20
6.669
 30
0.0
 11
3.013
 21
6.671
 31
0.0
  0
ARC
  5
FD
330
18
100
AcDbEntity
  8
0
100
AcDbCircle
 10
1.301
 20
9.613
 30
0.0
 40
2.94
100
AcDbArc
 50
277.382
 51
278.879
  0
ARC
  5
FE
330
18
100
AcDbEntity
  8
0
100
AcDbCircle
 10
1.567
 20
7.562
 30
0.0
 40
0.872
100
AcDbArc
 50
274.633
 51
277.382
  0
ARC
  5
FF
330
18
100
AcDbEntity
  8
0
100
AcDbCircle
 10
0.5870000000000001
 20
19.647
 30
0.0
 40
12.997
100
AcDbArc
 50
274.062
 51
274.633
  0
ARC
  5
100
330
18
100
AcDbEntity
  8
0
100
AcDbCircle
 10
1.496
 20
6.854
 30
0.0
 40
0.172
100
AcDbArc
 50
269.098
 51
274.062
  0
ARC
  5
101
330
18
100
AcDbEntity
  8
0
100
AcDbCircle
 10
1.497
 20
6.941
 30
0.0
 40
0.259
100
AcDbArc
 50
262.437
 51
269.098
  0
ARC
  5
102
330
18
100
AcDbEntity
  8
0
100
AcDbCircle
 10
1.213
 20
4.803
 30
0.0
 40
1.898
100
AcDbArc
 50
82.43700000000001
 51
84.895
  0
ARC
  5
103
330
18
100
AcDbEntity
  8
0
100
AcDbCircle
 10
1.329
 20
6.1
 30
0.0
 40
0.596
100
AcDbArc
 50
84.895
 51
88.45200000000001
  0
ARC
  5
104
330
18
100
AcDbEntity
  8
0
100
AcDbCircle
 10
1.295
 20
4.845
 30
0.0
 40
1.851
100
AcDbArc
 50
88.45200000000001
 51
90.46899999999999
  0
ARC
  5
105
330
18
100
AcDbEntity
  8
0
100
AcDbCircle
 10
1.591
 20
7.96
 30
0.0
 40
1.291
100
AcDbArc
 50
278.085
 51
280.225
  0
ARC
  5
106
330
18
100
AcDbEntity
  8
0
100
AcDbCircle
 10
1.732
 20
6.972
 30
0.0
 40
0.293
100
AcDbArc
 50
273.591
 51
278.085
  0
ARC
  5
107
330
18
100
AcDbEntity
  8
0
100
AcDbCircle
 10
1.678
 20
7.83
 30
0.0
 40
1.152
100
AcDbArc
 50
269.531
 51
273.591
  0
ARC
  5
108
330
18
100
AcDbEntity
  8
0
100
AcDbCircle
 10
1.666
 20
6.354
 30
0.0
 40
0.323
100
AcDbArc
 50
89.53100000000001
 51
97.20299999999999
  0
ARC
  5
109
330
18
100
AcDbEntity
  8
0
100
AcDbCircle
 10
1.66
 20
6.399
 30
0.0
 40
0.278
100
AcDbArc
 50
97.20299999999999
 51
106.965
  0
ARC
  5
10A
330
18
100
AcDbEntity
  8
0
100
AcDbCircle
 10
1.469
 20
7.027
 30
0.0
 40
0.378
100
AcDbArc
 50
278.604
 51
286.965
  0
ARC
  5
10B
330
18
100
AcDbEntity
  8
0
100
AcDbCircle
 10
1.451
 20
7.146
 30
0.0
 40
0.499
100
AcDbArc
 50
272.84
 51
278.604
  0
ARC
  5
10C
330
18
100
AcDbEntity
  8
0
100
AcDbCircle
 10
1.553
 20
5.075
 30
0.0
 40
1.575
100
AcDbArc
 50
92.84
 51
96.084
  0
ARC
  5
10D
330
18
100
AcDbEntity
  8
0
100
AcDbCircle
 10
1.417
 20
6.351
 30
0.0
 40
0.292
100
AcDbArc
 50
96.084
 51
102.119
  0
ARC
  5
10E
330
18
100
AcDbEntity
  8
0
100
AcDbCircle
 10
1.62
 20
5.409
 30
0.0
 40
1.255
100
AcDbArc
 50
102.119
 51
105.027
  0
LINE
  5
10F
330
18
100
AcDbEntity
  8
0
100
AcDbLine
 10
1.949
 20
6.65
 30
0.0
 11
1.988
 21
6.655
 31
0.0
  0
LINE
  5
110
330
18
100
AcDbEntity
  8
0
100
AcDbLine
 10
1.809
 20
6.627000000000001
 30
0.0
 11
1.949
 21
6.65
 31
0.0
  0
LINE
  5
111
330
18
100
AcDbEntity
  8
0
100
AcDbLine
 10
1.689
 20
6.619
 30
0.0
 11
1.809
 21
6.627000000000001
 31
0.0
  0
LINE
  5
112
330
18
100
AcDbEntity
  8
0
100
AcDbLine
 10
1.541
 20
6.62
 30
0.0
 11
1.689
 21
6.619
 31
0.0
  0
LINE
  5
113
330
18
100
AcDbEntity
  8
0
100
AcDbLine
 10
1.421
 20
6.595
 30
0.0
 11
1.541
 21
6.62
 31
0.0
  0
LINE
  5
114
330
18
100
AcDbEntity
  8
0
100
AcDbLine
 10
2.132
 20
6.624
 30
0.0
 11
2.138
 21
6.625
 31
0.0
  0
LINE
  5
115
330
18
100
AcDbEntity
  8
0
100
AcDbLine
 10
2.055
 20
6.617999999999999
 30
0.0
 11
2.132
 21
6.624
 31
0.0
  0
LINE
  5
116
330
18
100
AcDbEntity
  8
0
100
AcDbLine
 10
1.942
 20
6.592000000000001
 30
0.0
 11
2.055
 21
6.617999999999999
 31
0.0
  0
LINE
  5
117
330
18
100
AcDbEntity
  8
0
100
AcDbLine
 10
1.833
 20
6.598
 30
0.0
 11
1.942
 21
6.592000000000001
 31
0.0
  0
LINE
  5
118
330
18
100
AcDbEntity
  8
0
100
AcDbLine
 10
1.695
 20
6.577000000000001
 30
0.0
 11
1.833
 21
6.598
 31
0.0
  0
LINE
  5
119
330
18
100
AcDbEntity
  8
0
100
AcDbLine
 10
1.62
 20
6.553999999999999
 30
0.0
 11
1.695
 21
6.577000000000001
 31
0.0
  0
LINE
  5
11A
330
18
100
AcDbEntity
  8
0
100
AcDbLine
 10
2.171
 20
6.587000000000001
 30
0.0
 11
2.262
 21
6.599
 31
0.0
  0
LINE
  5
11B
330
18
100
AcDbEntity
  8
0
100
AcDbLine
 10
2.034
 20
6.575
 30
0.0
 11
2.171
 21
6.587000000000001
 31
0.0
  0
LINE
  5
11C
330
18
100
AcDbEntity
  8
0
100
AcDbLine
 10
1.88
 20
6.542000000000001
 30
0.0
 11
2.034
 21
6.575
 31
0.0
  0
LINE
  5
11D
330
18
100
AcDbEntity
  8
0
100
AcDbLine
 10
1.791
 20
6.519
 30
0.0
 11
1.88
 21
6.542000000000001
 31
0.0
  0
LINE
  5
11E
330
18
100
AcDbEntity
  8
0
100
AcDbLine
 10
2.448
 20
6.52
 30
0.0
 11
2.546
 21
6.541
 31
0.0
  0
LINE
  5
11F
330
18
100
AcDbEntity
  8
0
100
AcDbLine
 10
2.348
 20
6.504
 30
0.0
 11
2.448
 21
6.52
 31
0.0
  0
LINE
  5
120
330
18
100
AcDbEntity
  8
0
100
AcDbLine
 10
2.235
 20
6.482
 30
0.0
 11
2.348
 21
6.504
 31
0.0
  0
LINE
  5
121
330
18
100
AcDbEntity
  8
0
100
AcDbLine
 10
2.137
 20
6.449
 30
0.0
 11
2.235
 21
6.482
 31
0.0
  0
LINE
  5
122
330
18
100
AcDbEntity
  8
0
100
AcDbLine
 10
2.34
 20
6.562
 30
0.0
 11
2.409
 21
6.569
 31
0.0
  0
LINE
  5
123
330
18
100
AcDbEntity
  8
0
100
AcDbLine
 10
2.188
 20
6.529
 30
0.0
 11
2.34
 21
6.562
 31
0.0
  0
LINE
  5
124
330
18
100
AcDbEntity
  8
0
100
AcDbLine
 10
2.058
 20
6.516
 30
0.0
 11
2.188
 21
6.529
 31
0.0
  0
LINE
  5
125
330
18
100
AcDbEntity
  8
0
100
AcDbLine
 10
1.938
 20
6.489
 30
0.0
 11
2.058
 21
6.516
 31
0.0
  0
ARC
  5
126
330
18
100
AcDbEntity
  8
0
100
AcDbCircle
 10
2.46
 20
5.641
 30
0.0
 40
0.8490000000000001
100
AcDbArc
 50
78.23899999999999
 51
82.35299999999999
  0
ARC
  5
127
330
18
100
AcDbEntity
  8
0
100
AcDbCircle
 10
2.532
 20
6.18
 30
0.0
 40
0.306
100
AcDbArc
 50
82.35299999999999
 51
89.212
  0
ARC
  5
128
330
18
100
AcDbEntity
  8
0
100
AcDbCircle
 10
2.521
 20
5.356
 30
0.0
 40
1.13
100
AcDbArc
 50
89.212
 51
92.64299999999999
  0
ARC
  5
129
330
18
100
AcDbEntity
  8
0
100
AcDbCircle
 10
2.539
 20
4.964
 30
0.0
 40
1.521
100
AcDbArc
 50
92.64299999999999
 51
95.598
  0
ARC
  5
12A
330
18
100
AcDbEntity
  8
0
100
AcDbCircle
 10
2.408
 20
6.292999999999999
 30
0.0
 40
0.186
100
AcDbArc
 50
95.598
 51
112.168
  0
ARC
  5
12B
330
18
100
AcDbEntity
  8
0
100
AcDbCircle
 10
2.542
 20
5.965
 30
0.0
 40
0.541
100
AcDbArc
 50
112.168
 51
121.87
  0
POINT
  5
12C
330
18
100
AcDbEntity
  8
0
100
AcDbPoint
 10
0.595
 20
1.899
 30
0.0
  0
POINT
  5
12D
330
18
100
AcDbEntity
  8
0
100
AcDbPoint
 10
0.631
 20
2.083
 30
0.0
  0
POINT
  5
12E
330
18
100
AcDbEntity
  8
0
100
AcDbPoint
 10
0.564
 20
2.057
 30
0.0
  0
POINT
  5
12F
330
18
100
AcDbEntity
  8
0
100
AcDbPoint
 10
0.5629999999999999
 20
2.161
 30
0.0
  0
POINT
  5
130
330
18
100
AcDbEntity
  8
0
100
AcDbPoint
 10
0.61
 20
1.995
 30
0.0
  0
POINT
  5
131
330
18
100
AcDbEntity
  8
0
100
AcDbPoint
 10
0.653
 20
2.157
 30
0.0
  0
POINT
  5
132
330
18
100
AcDbEntity
  8
0
100
AcDbPoint
 10
0.4970000000000001
 20
2.213
 30
0.0
  0
POINT
  5
133
330
18
100
AcDbEntity
  8
0
100
AcDbPoint
 10
0.526
 20
3.012
 30
0.0
  0
POINT
  5
134
330
18
100
AcDbEntity
  8
0
100
AcDbPoint
 10
0.524
 20
2.877
 30
0.0
  0
POINT
  5
135
330
18
100
AcDbEntity
  8
0
100
AcDbPoint
 10
0.5329999999999999
 20
2.877
 30
0.0
  0
POINT
  5
136
330
18
100
AcDbEntity
  8
0
100
AcDbPoint
 10
0.536
 20
2.974
 30
0.0
  0
POINT
  5
137
330
18
100
AcDbEntity
  8
0
100
AcDbPoint
 10
0.473
 20
3.114
 30
0.0
  0
POINT
  5
138
330
18
100
AcDbEntity
  8
0
100
AcDbPoint
 10
0.753
 20
3.403
 30
0.0
  0
POINT
  5
139
330
18
100
AcDbEntity
  8
0
100
AcDbPoint
 10
0.5550000000000001
 20
3.489
 30
0.0
  0
POINT
  5
13A
330
18
100
AcDbEntity
  8
0
100
AcDbPoint
 10
0.838
 20
3.918
 30
0.0
  0
POINT
  5
13B
330
18
100
AcDbEntity
  8
0
100
AcDbPoint
 10
0.6659999999999999
 20
3.855
 30
0.0
  0
POINT
  5
13C
330
18
100
AcDbEntity
  8
0
100
AcDbPoint
 10
0.59
 20
3.71
 30
0.0
  0
POINT
  5
13D
330
18
100
AcDbEntity
  8
0
100
AcDbPoint
 10
0.716
 20
3.595
 30
0.0
  0
POINT
  5
13E
330
18
100
AcDbEntity
  8
0
100
AcDbPoint
 10
0.8190000000000001
 20
3.661
 30
0.0
  0
POINT
  5
13F
330
18
100
AcDbEntity
  8
0
100
AcDbPoint
 10
0.831
 20
3.74
 30
0.0
  0
POINT
  5
140
330
18
100
AcDbEntity
  8
0
100
AcDbPoint
 10
0.966
 20
3.789
 30
0.0
  0
POINT
  5
141
330
18
100
AcDbEntity
  8
0
100
AcDbPoint
 10
1.07
 20
3.697
 30
0.0
  0
POINT
  5
142
330
18
100
AcDbEntity
  8
0
100
AcDbPoint
 10
1.08
 20
3.556
 30
0.0
  0
POINT
  5
143
330
18
100
AcDbEntity
  8
0
100
AcDbPoint
 10
1.005
 20
3.583
 30
0.0
  0
POINT
  5
144
330
18
100
AcDbEntity
  8
0
100
AcDbPoint
 10
0.915
 20
3.569
 30
0.0
  0
POINT
  5
145
330
18
100
AcDbEntity
  8
0
100
AcDbPoint
 10
0.9340000000000001
 20
3.428
 30
0.0
  0
POINT
  5
146
330
18
100
AcDbEntity
  8
0
100
AcDbPoint
 10
1.047
 20
3.41
 30
0.0
  0
POINT
  5
147
330
18
100
AcDbEntity
  8
0
100
AcDbPoint
 10
0.902
 20
3.305
 30
0.0
  0
POINT
  5
148
330
18
100
AcDbEntity
  8
0
100
AcDbPoint
 10
1.04
 20
3.232
 30
0.0
  0
POINT
  5
149
330
18
100
AcDbEntity
  8
0
100
AcDbPoint
 10
0.91
 20
3.231
 30
0.0
  0
POINT
  5
14A
330
18
100
AcDbEntity
  8
0
100
AcDbPoint
 10
0.693
 20
3.091
 30
0.0
  0
POINT
  5
14B
330
18
100
AcDbEntity
  8
0
100
AcDbPoint
 10
0.732
 20
2.9
 30
0.0
  0
POINT
  5
14C
330
18
100
AcDbEntity
  8
0
100
AcDbPoint
 10
0.904
 20
2.918
 30
0.0
  0
POINT
  5
14D
330
18
100
AcDbEntity
  8
0
100
AcDbPoint
 10
0.9690000000000001
 20
3.078
 30
0.0
  0
POINT
  5
14E
330
18
100
AcDbEntity
  8
0
100
AcDbPoint
 10
1.395
 20
2.889
 30
0.0
  0
POINT
  5
14F
330
18
100
AcDbEntity
  8
0
100
AcDbPoint
 10
1.288
 20
2.886
 30
0.0
  0
POINT
  5
150
330
18
100
AcDbEntity
  8
0
100
AcDbPoint
 10
1.208
 20
2.968
 30
0.0
  0
POINT
  5
151
330
18
100
AcDbEntity
  8
0
100
AcDbPoint
 10
1.152
 20
2.872
 30
0.0
  0
POINT
  5
152
330
18
100
AcDbEntity
  8
0
100
AcDbPoint
 10
1.113
 20
2.784
 30
0.0
  0
POINT
  5
153
330
18
100
AcDbEntity
  8
0
100
AcDbPoint
 10
1.863
 20
1.766
 30
0.0
  0
POINT
  5
154
330
18
100
AcDbEntity
  8
0
100
AcDbPoint
 10
1.938
 20
1.677
 30
0.0
  0
POINT
  5
155
330
18
100
AcDbEntity
  8
0
100
AcDbPoint
 10
2.116
 20
1.675
 30
0.0
  0
POINT
  5
156
330
18
100
AcDbEntity
  8
0
100
AcDbPoint
 10
2.621
 20
1.949
 30
0.0
  0
POINT
  5
157
330
18
100
AcDbEntity
  8
0
100
AcDbPoint
 10
3.366
 20
2.061
 30
0.0
  0
POINT
  5
158
330
18
100
AcDbEntity
  8
0
100
AcDbPoint
 10
3.279
 20
2.153
 30
0.0
  0
POINT
  5
159
330
18
100
AcDbEntity
  8
0
100
AcDbPoint
 10
3.203
 20
2.214
 30
0.0
  0
POINT
  5
15A
330
18
100
AcDbEntity
  8
0
100
AcDbPoint
 10
3.208
 20
2.043
 30
0.0
  0
POINT
  5
15B
330
18
100
AcDbEntity
  8
0
100
AcDbPoint
 10
3.062
 20
2.179
 30
0.0
  0
POINT
  5
15C
330
18
100
AcDbEntity
  8
0
100
AcDbPoint
 10
3.014
 20
1.936
 30
0.0
  0
POINT
  5
15D
330
18
100
AcDbEntity
  8
0
100
AcDbPoint
 10
2.976
 20
2.065
 30
0.0
  0
POINT
  5
15E
330
18
100
AcDbEntity
  8
0
100
AcDbPoint
 10
2.845
 20
2.272
 30
0.0
  0
POINT
  5
15F
330
18
100
AcDbEntity
  8
0
100
AcDbPoint
 10
2.883
 20
2.756
 30
0.0
  0
POINT
  5
160
330
18
100
AcDbEntity
  8
0
100
AcDbPoint
 10
2.972
 20
2.801
 30
0.0
  0
POINT
  5
161
330
18
100
AcDbEntity
  8
0
100
AcDbPoint
 10
2.997
 20
2.741
 30
0.0
  0
POINT
  5
162
330
18
100
AcDbEntity
  8
0
100
AcDbPoint
 10
3.131
 20
2.753
 30
0.0
  0
POINT
  5
163
330
18
100
AcDbEntity
  8
0
100
AcDbPoint
 10
3.147
 20
2.906
 30
0.0
  0
POINT
  5
164
330
18
100
AcDbEntity
  8
0
100
AcDbPoint
 10
3.223
 20
2.898
 30
0.0
  0
POINT
  5
165
330
18
100
AcDbEntity
  8
0
100
AcDbPoint
 10
3.294
 20
3.011
 30
0.0
  0
POINT
  5
166
330
18
100
AcDbEntity
  8
0
100
AcDbPoint
 10
3.331
 20
2.947
 30
0.0
  0
POINT
  5
167
330
18
100
AcDbEntity
  8
0
100
AcDbPoint
 10
3.324
 20
2.785
 30
0.0
  0
POINT
  5
168
330
18
100
AcDbEntity
  8
0
100
AcDbPoint
 10
3.535
 20
2.94
 30
0.0
  0
POINT
  5
169
330
18
100
AcDbEntity
  8
0
100
AcDbPoint
 10
3.479
 20
2.8
 30
0.0
  0
POINT
  5
16A
330
18
100
AcDbEntity
  8
0
100
AcDbPoint
 10
3.577
 20
2.603
 30
0.0
  0
POINT
  5
16B
330
18
100
AcDbEntity
  8
0
100
AcDbPoint
 10
3.547
 20
2.49
 30
0.0
  0
POINT
  5
16C
330
18
100
AcDbEntity
  8
0
100
AcDbPoint
 10
3.546
 20
2.354
 30
0.0
  0
POINT
  5
16D
330
18
100
AcDbEntity
  8
0
100
AcDbPoint
 10
3.514
 20
2.277
 30
0.0
  0
POINT
  5
16E
330
18
100
AcDbEntity
  8
0
100
AcDbPoint
 10
3.387
 20
2.092
 30
0.0
  0
POINT
  5
16F
330
18
100
AcDbEntity
  8
0
100
AcDbPoint
 10
3.54
 20
2.119
 30
0.0
  0
POINT
  5
170
330
18
100
AcDbEntity
  8
0
100
AcDbPoint
 10
3.796
 20
2.221
 30
0.0
  0
POINT
  5
171
330
18
100
AcDbEntity
  8
0
100
AcDbPoint
 10
3.969
 20
2.251
 30
0.0
  0
POINT
  5
172
330
18
100
AcDbEntity
  8
0
100
AcDbPoint
 10
3.909
 20
2.479
 30
0.0
  0
POINT
  5
173
330
18
100
AcDbEntity
  8
0
100
AcDbPoint
 10
4.1
 20
2.764
 30
0.0
  0
POINT
  5
174
330
18
100
AcDbEntity
  8
0
100
AcDbPoint
 10
3.866
 20
2.956
 30
0.0
  0
POINT
  5
175
330
18
100
AcDbEntity
  8
0
100
AcDbPoint
 10
3.939
 20
3.06
 30
0.0
  0
POINT
  5
176
330
18
100
AcDbEntity
  8
0
100
AcDbPoint
 10
3.764
 20
3.115
 30
0.0
  0
POINT
  5
177
330
18
100
AcDbEntity
  8
0
100
AcDbPoint
 10
3.719
 20
3.199
 30
0.0
  0
POINT
  5
178
330
18
100
AcDbEntity
  8
0
100
AcDbPoint
 10
3.618
 20
3.252
 30
0.0
  0
POINT
  5
179
330
18
100
AcDbEntity
  8
0
100
AcDbPoint
 10
3.69
 20
3.327
 30
0.0
  0
POINT
  5
17A
330
18
100
AcDbEntity
  8
0
100
AcDbPoint
 10
3.555
 20
3.394
 30
0.0
  0
POINT
  5
17B
330
18
100
AcDbEntity
  8
0
100
AcDbPoint
 10
3.631
 20
3.397
 30
0.0
  0
POINT
  5
17C
330
18
100
AcDbEntity
  8
0
100
AcDbPoint
 10
3.686
 20
3.501
 30
0.0
  0
POINT
  5
17D
330
18
100
AcDbEntity
  8
0
100
AcDbPoint
 10
3.781
 20
3.361
 30
0.0
  0
POINT
  5
17E
330
18
100
AcDbEntity
  8
0
100
AcDbPoint
 10
3.918
 20
3.517
 30
0.0
  0
POINT
  5
17F
330
18
100
AcDbEntity
  8
0
100
AcDbPoint
 10
4.016
 20
3.277
 30
0.0
  0
POINT
  5
180
330
18
100
AcDbEntity
  8
0
100
AcDbPoint
 10
4.143
 20
3.358
 30
0.0
  0
POINT
  5
181
330
18
100
AcDbEntity
  8
0
100
AcDbPoint
 10
4.279
 20
3.329
 30
0.0
  0
POINT
  5
182
330
18
100
AcDbEntity
  8
0
100
AcDbPoint
 10
4.417
 20
3.221
 30
0.0
  0
POINT
  5
183
330
18
100
AcDbEntity
  8
0
100
AcDbPoint
 10
4.38
 20
3.114
 30
0.0
  0
POINT
  5
184
330
18
100
AcDbEntity
  8
0
100
AcDbPoint
 10
4.323
 20
2.997
 30
0.0
  0
POINT
  5
185
330
18
100
AcDbEntity
  8
0
100
AcDbPoint
 10
4.36
 20
2.925
 30
0.0
  0
POINT
  5
186
330
18
100
AcDbEntity
  8
0
100
AcDbPoint
 10
4.253
 20
2.402
 30
0.0
  0
POINT
  5
187
330
18
100
AcDbEntity
  8
0
100
AcDbPoint
 10
4.234
 20
2.342
 30
0.0
  0
POINT
  5
188
330
18
100
AcDbEntity
  8
0
100
AcDbPoint
 10
4.209
 20
2.268
 30
0.0
  0
POINT
  5
189
330
18
100
AcDbEntity
  8
0
100
AcDbPoint
 10
4.21
 20
2.125
 30
0.0
  0
POINT
  5
18A
330
18
100
AcDbEntity
  8
0
100
AcDbPoint
 10
4.189
 20
2.095
 30
0.0
  0
POINT
  5
18B
330
18
100
AcDbEntity
  8
0
100
AcDbPoint
 10
4.204
 20
1.993
 30
0.0
  0
LINE
  5
18C
330
18
100
AcDbEntity
  8
DIM
100
AcDbLine
 10
0.975
 20
1.991
 30
0.0
 11
0.8100000000000001
 21
1.897
 31
0.0
  0
SOLID
  5
18D
330
18
100
AcDbEntity
  8
DIM
100
AcDbTrace
 10
0.905
 20
1.932
 30
0.0
 11
0.889
 21
1.961
 31
0.0
 12
0.8100000000000001
 22
1.897
 32
0.0
 13
0.8100000000000001
 23
1.897
 33
0.0
  0
SOLID
  5
18E
330
18
100
AcDbEntity
  8
DIM
100
AcDbTrace
 10
2.084
 20
2.638
 30
0.0
 11
2.101
 21
2.609
 31
0.0
 12
2.18
 22
2.673
 32
0.0
 13
2.18
 23
2.673
 33
0.0
  0
LINE
  5
18F
330
18
100
AcDbEntity
  8
DIM
100
AcDbLine
 10
2.18
 20
2.673
 30
0.0
 11
2.015
 21
2.58
 31
0.0
  0
TEXT
  5
190
330
18
100
AcDbEntity
  8
DIM
100
AcDbText
 10
0.836
 20
2.031
 30
0.0
 40
0.2
  1
SIDECOVER
 41
0.8
100
AcDbText
  0
TEXT
  5
191
330
18
100
AcDbEntity
  8
DIM
100
AcDbText
 10
0.833
 20
2.354
 30
0.0
 40
0.2
  1
2"MINIMUM
 41
0.8
100
AcDbText
  0
LINE
  5
192
330
18
100
AcDbEntity
  8
0
100
AcDbLine
 10
3.039
 20
3.971
 30
0.0
 11
3.115
 21
4.02
 31
0.0
  0
LINE
  5
193
330
18
100
AcDbEntity
  8
0
100
AcDbLine
 10
2.968
 20
4.016
 30
0.0
 11
3.039
 21
3.971
 31
0.0
  0
LINE
  5
194
330
18
100
AcDbEntity
  8
0
100
AcDbLine
 10
2.996
 20
4.136
 30
0.0
 11
2.968
 21
4.016
 31
0.0
  0
LINE
  5
195
330
18
100
AcDbEntity
  8
0
100
AcDbLine
 10
3.074
 20
4.185
 30
0.0
 11
2.996
 21
4.136
 31
0.0
  0
LINE
  5
196
330
18
100
AcDbEntity
  8
0
100
AcDbLine
 10
3.14
 20
4.13
 30
0.0
 11
3.074
 21
4.185
 31
0.0
  0
LINE
  5
197
330
18
100
AcDbEntity
  8
0
100
AcDbLine
 10
3.115
 20
4.02
 30
0.0
 11
3.14
 21
4.13
 31
0.0
  0
LINE
  5
198
330
18
100
AcDbEntity
  8
0
100
AcDbLine
 10
2.968
 20
4.016
 30
0.0
 11
2.922
 21
4.038
 31
0.0
  0
LINE
  5
199
330
18
100
AcDbEntity
  8
0
100
AcDbLine
 10
3.027
 20
4.207
 30
0.0
 11
2.949
 21
4.158
 31
0.0
  0
LINE
  5
19A
330
18
100
AcDbEntity
  8
0
100
AcDbLine
 10
2.949
 20
4.158
 30
0.0
 11
2.922
 21
4.038
 31
0.0
  0
LINE
  5
19B
330
18
100
AcDbEntity
  8
0
100
AcDbLine
 10
2.922
 20
4.038
 30
0.0
 11
2.993
 21
3.993
 31
0.0
  0
LINE
  5
19C
330
18
100
AcDbEntity
  8
0
100
AcDbLine
 10
2.949
 20
4.158
 30
0.0
 11
2.996
 21
4.136
 31
0.0
  0
LINE
  5
19D
330
18
100
AcDbEntity
  8
0
100
AcDbLine
 10
3.027
 20
4.207
 30
0.0
 11
3.074
 21
4.185
 31
0.0
  0
LINE
  5
19E
330
18
100
AcDbEntity
  8
0
100
AcDbLine
 10
2.993
 20
3.993
 30
0.0
 11
3.039
 21
3.971
 31
0.0
  0
LINE
  5
19F
330
18
100
AcDbEntity
  8
0
100
AcDbLine
 10
3.014
 20
4.998
 30
0.0
 11
3.064
 21
4.988
 31
0.0
  0
LINE
  5
1A0
330
18
100
AcDbEntity
  8
0
100
AcDbLine
 10
2.998
 20
5.214
 30
0.0
 11
3.048
 21
5.204
 31
0.0
  0
LINE
  5
1A1
330
18
100
AcDbEntity
  8
0
100
AcDbLine
 10
2.934
 20
5.148
 30
0.0
 11
2.984
 21
5.138
 31
0.0
  0
LINE
  5
1A2
330
18
100
AcDbEntity
  8
0
100
AcDbLine
 10
2.935
 20
5.025
 30
0.0
 11
3.014
 21
4.998
 31
0.0
  0
LINE
  5
1A3
330
18
100
AcDbEntity
  8
0
100
AcDbLine
 10
2.934
 20
5.148
 30
0.0
 11
2.935
 21
5.025
 31
0.0
  0
LINE
  5
1A4
330
18
100
AcDbEntity
  8
0
100
AcDbLine
 10
2.998
 20
5.214
 30
0.0
 11
2.934
 21
5.148
 31
0.0
  0
LINE
  5
1A5
330
18
100
AcDbEntity
  8
0
100
AcDbLine
 10
2.985
 20
5.015
 30
0.0
 11
2.935
 21
5.025
 31
0.0
  0
LINE
  5
1A6
330
18
100
AcDbEntity
  8
0
100
AcDbLine
 10
3.997
 20
1.782
 30
0.0
 11
4.005
 21
1.787
 31
0.0
  0
LINE
  5
1A7
330
18
100
AcDbEntity
  8
0
100
AcDbLine
 10
3.987
 20
1.792
 30
0.0
 11
3.997
 21
1.782
 31
0.0
  0
LINE
  5
1A8
330
18
100
AcDbEntity
  8
0
100
AcDbLine
 10
3.988
 20
1.812
 30
0.0
 11
3.987
 21
1.792
 31
0.0
  0
LINE
  5
1A9
330
18
100
AcDbEntity
  8
0
100
AcDbLine
 10
4.004
 20
1.818
 30
0.0
 11
3.988
 21
1.812
 31
0.0
  0
LINE
  5
1AA
330
18
100
AcDbEntity
  8
0
100
AcDbLine
 10
4.01
 20
1.806
 30
0.0
 11
4.004
 21
1.818
 31
0.0
  0
LINE
  5
1AB
330
18
100
AcDbEntity
  8
0
100
AcDbLine
 10
4.005
 20
1.787
 30
0.0
 11
4.01
 21
1.806
 31
0.0
  0
LINE
  5
1AC
330
18
100
AcDbEntity
  8
0
100
AcDbLine
 10
3.786
 20
1.638
 30
0.0
 11
3.798
 21
1.645
 31
0.0
  0
LINE
  5
1AD
330
18
100
AcDbEntity
  8
0
100
AcDbLine
 10
3.77
 20
1.653
 30
0.0
 11
3.786
 21
1.638
 31
0.0
  0
LINE
  5
1AE
330
18
100
AcDbEntity
  8
0
100
AcDbLine
 10
3.771
 20
1.683
 30
0.0
 11
3.77
 21
1.653
 31
0.0
  0
LINE
  5
1AF
330
18
100
AcDbEntity
  8
0
100
AcDbLine
 10
3.796
 20
1.693
 30
0.0
 11
3.771
 21
1.683
 31
0.0
  0
LINE
  5
1B0
330
18
100
AcDbEntity
  8
0
100
AcDbLine
 10
3.804
 20
1.674
 30
0.0
 11
3.796
 21
1.693
 31
0.0
  0
LINE
  5
1B1
330
18
100
AcDbEntity
  8
0
100
AcDbLine
 10
3.798
 20
1.645
 30
0.0
 11
3.804
 21
1.674
 31
0.0
  0
LINE
  5
1B2
330
18
100
AcDbEntity
  8
0
100
AcDbLine
 10
3.955
 20
1.585
 30
0.0
 11
3.971
 21
1.594
 31
0.0
  0
LINE
  5
1B3
330
18
100
AcDbEntity
  8
0
100
AcDbLine
 10
3.934
 20
1.604
 30
0.0
 11
3.955
 21
1.585
 31
0.0
  0
LINE
  5
1B4
330
18
100
AcDbEntity
  8
0
100
AcDbLine
 10
3.936
 20
1.644
 30
0.0
 11
3.934
 21
1.604
 31
0.0
  0
LINE
  5
1B5
330
18
100
AcDbEntity
  8
0
100
AcDbLine
 10
3.969
 20
1.657
 30
0.0
 11
3.936
 21
1.644
 31
0.0
  0
LINE
  5
1B6
330
18
100
AcDbEntity
  8
0
100
AcDbLine
 10
3.98
 20
1.632
 30
0.0
 11
3.969
 21
1.657
 31
0.0
  0
LINE
  5
1B7
330
18
100
AcDbEntity
  8
0
100
AcDbLine
 10
3.971
 20
1.594
 30
0.0
 11
3.98
 21
1.632
 31
0.0
  0
LINE
  5
1B8
330
18
100
AcDbEntity
  8
0
100
AcDbLine
 10
3.853
 20
1.786
 30
0.0
 11
3.869
 21
1.809
 31
0.0
  0
LINE
  5
1B9
330
18
100
AcDbEntity
  8
0
100
AcDbLine
 10
3.825
 20
1.786
 30
0.0
 11
3.853
 21
1.786
 31
0.0
  0
LINE
  5
1BA
330
18
100
AcDbEntity
  8
0
100
AcDbLine
 10
3.804
 20
1.824
 30
0.0
 11
3.825
 21
1.786
 31
0.0
  0
LINE
  5
1BB
330
18
100
AcDbEntity
  8
0
100
AcDbLine
 10
3.817
 20
1.854
 30
0.0
 11
3.804
 21
1.824
 31
0.0
  0
LINE
  5
1BC
330
18
100
AcDbEntity
  8
0
100
AcDbLine
 10
3.849
 20
1.874
 30
0.0
 11
3.817
 21
1.854
 31
0.0
  0
LINE
  5
1BD
330
18
100
AcDbEntity
  8
0
100
AcDbLine
 10
3.875
 20
1.863
 30
0.0
 11
3.849
 21
1.874
 31
0.0
  0
LINE
  5
1BE
330
18
100
AcDbEntity
  8
0
100
AcDbLine
 10
3.869
 20
1.809
 30
0.0
 11
3.875
 21
1.863
 31
0.0
  0
LINE
  5
1BF
330
18
100
AcDbEntity
  8
0
100
AcDbLine
 10
3.944
 20
1.681
 30
0.0
 11
3.952
 21
1.708
 31
0.0
  0
LINE
  5
1C0
330
18
100
AcDbEntity
  8
0
100
AcDbLine
 10
3.909
 20
1.681
 30
0.0
 11
3.944
 21
1.681
 31
0.0
  0
LINE
  5
1C1
330
18
100
AcDbEntity
  8
0
100
AcDbLine
 10
3.884
 20
1.712
 30
0.0
 11
3.909
 21
1.681
 31
0.0
  0
LINE
  5
1C2
330
18
100
AcDbEntity
  8
0
100
AcDbLine
 10
3.864
 20
1.746
 30
0.0
 11
3.884
 21
1.712
 31
0.0
  0
LINE
  5
1C3
330
18
100
AcDbEntity
  8
0
100
AcDbLine
 10
3.896
 20
1.776
 30
0.0
 11
3.864
 21
1.746
 31
0.0
  0
LINE
  5
1C4
330
18
100
AcDbEntity
  8
0
100
AcDbLine
 10
3.938
 20
1.787
 30
0.0
 11
3.896
 21
1.776
 31
0.0
  0
LINE
  5
1C5
330
18
100
AcDbEntity
  8
0
100
AcDbLine
 10
3.948
 20
1.766
 30
0.0
 11
3.938
 21
1.787
 31
0.0
  0
LINE
  5
1C6
330
18
100
AcDbEntity
  8
0
100
AcDbLine
 10
3.952
 20
1.708
 30
0.0
 11
3.948
 21
1.766
 31
0.0
  0
POINT
  5
1C7
330
18
100
AcDbEntity
  8
0
100
AcDbPoint
 10
4.072
 20
1.634
 30
0.0
  0
POINT
  5
1C8
330
18
100
AcDbEntity
  8
0
100
AcDbPoint
 10
4.046
 20
1.747
 30
0.0
  0
POINT
  5
1C9
330
18
100
AcDbEntity
  8
0
100
AcDbPoint
 10
4.012
 20
1.499
 30
0.0
  0
POINT
  5
1CA
330
18
100
AcDbEntity
  8
0
100
AcDbPoint
 10
3.854
 20
1.497
 30
0.0
  0
POINT
  5
1CB
330
18
100
AcDbEntity
  8
0
100
AcDbPoint
 10
3.768
 20
1.551
 30
0.0
  0
POINT
  5
1CC
330
18
100
AcDbEntity
  8
0
100
AcDbPoint
 10
3.695
 20
1.469
 30
0.0
  0
POINT
  5
1CD
330
18
100
AcDbEntity
  8
0
100
AcDbPoint
 10
3.865
 20
1.552
 30
0.0
  0
POINT
  5
1CE
330
18
100
AcDbEntity
  8
0
100
AcDbPoint
 10
3.956
 20
1.553
 30
0.0
  0
POINT
  5
1CF
330
18
100
AcDbEntity
  8
0
100
AcDbPoint
 10
4.016
 20
1.724
 30
0.0
  0
POINT
  5
1D0
330
18
100
AcDbEntity
  8
0
100
AcDbPoint
 10
4.029
 20
1.639
 30
0.0
  0
POINT
  5
1D1
330
18
100
AcDbEntity
  8
0
100
AcDbPoint
 10
3.986
 20
1.59
 30
0.0
  0
POINT
  5
1D2
330
18
100
AcDbEntity
  8
0
100
AcDbPoint
 10
3.795
 20
1.862
 30
0.0
  0
POINT
  5
1D3
330
18
100
AcDbEntity
  8
0
100
AcDbPoint
 10
3.822
 20
1.625
 30
0.0
  0
POINT
  5
1D4
330
18
100
AcDbEntity
  8
0
100
AcDbPoint
 10
4.002
 20
1.741
 30
0.0
  0
POINT
  5
1D5
330
18
100
AcDbEntity
  8
0
100
AcDbPoint
 10
4.052
 20
1.674
 30
0.0
  0
POINT
  5
1D6
330
18
100
AcDbEntity
  8
0
100
AcDbPoint
 10
3.979
 20
1.525
 30
0.0
  0
POINT
  5
1D7
330
18
100
AcDbEntity
  8
0
100
AcDbPoint
 10
3.843
 20
1.568
 30
0.0
  0
POINT
  5
1D8
330
18
100
AcDbEntity
  8
0
100
AcDbPoint
 10
3.975
 20
1.852
 30
0.0
  0
POINT
  5
1D9
330
18
100
AcDbEntity
  8
0
100
AcDbPoint
 10
3.967
 20
1.881
 30
0.0
  0
POINT
  5
1DA
330
18
100
AcDbEntity
  8
0
100
AcDbPoint
 10
3.853
 20
1.913
 30
0.0
  0
POINT
  5
1DB
330
18
100
AcDbEntity
  8
0
100
AcDbPoint
 10
3.738
 20
1.907
 30
0.0
  0
POINT
  5
1DC
330
18
100
AcDbEntity
  8
0
100
AcDbPoint
 10
3.828
 20
1.731
 30
0.0
  0
POINT
  5
1DD
330
18
100
AcDbEntity
  8
0
100
AcDbPoint
 10
3.868
 20
1.63
 30
0.0
  0
POINT
  5
1DE
330
18
100
AcDbEntity
  8
0
100
AcDbPoint
 10
3.752
 20
1.748
 30
0.0
  0
LINE
  5
1DF
330
18
100
AcDbEntity
  8
0
100
AcDbLine
 10
0.956
 20
1.387
 30
0.0
 11
0.968
 21
1.394
 31
0.0
  0
LINE
  5
1E0
330
18
100
AcDbEntity
  8
0
100
AcDbLine
 10
0.94
 20
1.402
 30
0.0
 11
0.956
 21
1.387
 31
0.0
  0
LINE
  5
1E1
330
18
100
AcDbEntity
  8
0
100
AcDbLine
 10
0.941
 20
1.432
 30
0.0
 11
0.94
 21
1.402
 31
0.0
  0
LINE
  5
1E2
330
18
100
AcDbEntity
  8
0
100
AcDbLine
 10
0.966
 20
1.442
 30
0.0
 11
0.941
 21
1.432
 31
0.0
  0
LINE
  5
1E3
330
18
100
AcDbEntity
  8
0
100
AcDbLine
 10
0.9740000000000001
 20
1.423
 30
0.0
 11
0.966
 21
1.442
 31
0.0
  0
LINE
  5
1E4
330
18
100
AcDbEntity
  8
0
100
AcDbLine
 10
0.968
 20
1.394
 30
0.0
 11
0.9740000000000001
 21
1.423
 31
0.0
  0
LINE
  5
1E5
330
18
100
AcDbEntity
  8
0
100
AcDbLine
 10
1.024
 20
1.535
 30
0.0
 11
1.039
 21
1.558
 31
0.0
  0
LINE
  5
1E6
330
18
100
AcDbEntity
  8
0
100
AcDbLine
 10
0.996
 20
1.535
 30
0.0
 11
1.024
 21
1.535
 31
0.0
  0
LINE
  5
1E7
330
18
100
AcDbEntity
  8
0
100
AcDbLine
 10
0.9740000000000001
 20
1.573
 30
0.0
 11
0.996
 21
1.535
 31
0.0
  0
LINE
  5
1E8
330
18
100
AcDbEntity
  8
0
100
AcDbLine
 10
0.988
 20
1.603
 30
0.0
 11
0.9740000000000001
 21
1.573
 31
0.0
  0
LINE
  5
1E9
330
18
100
AcDbEntity
  8
0
100
AcDbLine
 10
1.019
 20
1.623
 30
0.0
 11
0.988
 21
1.603
 31
0.0
  0
LINE
  5
1EA
330
18
100
AcDbEntity
  8
0
100
AcDbLine
 10
1.046
 20
1.613
 30
0.0
 11
1.019
 21
1.623
 31
0.0
  0
LINE
  5
1EB
330
18
100
AcDbEntity
  8
0
100
AcDbLine
 10
1.039
 20
1.558
 30
0.0
 11
1.046
 21
1.613
 31
0.0
  0
POINT
  5
1EC
330
18
100
AcDbEntity
  8
0
100
AcDbPoint
 10
1.024
 20
1.246
 30
0.0
  0
POINT
  5
1ED
330
18
100
AcDbEntity
  8
0
100
AcDbPoint
 10
0.9379999999999999
 20
1.3
 30
0.0
  0
POINT
  5
1EE
330
18
100
AcDbEntity
  8
0
100
AcDbPoint
 10
0.9259999999999999
 20
1.288
 30
0.0
  0
POINT
  5
1EF
330
18
100
AcDbEntity
  8
0
100
AcDbPoint
 10
1.036
 20
1.301
 30
0.0
  0
POINT
  5
1F0
330
18
100
AcDbEntity
  8
0
100
AcDbPoint
 10
0.966
 20
1.611
 30
0.0
  0
POINT
  5
1F1
330
18
100
AcDbEntity
  8
0
100
AcDbPoint
 10
0.992
 20
1.374
 30
0.0
  0
POINT
  5
1F2
330
18
100
AcDbEntity
  8
0
100
AcDbPoint
 10
1.014
 20
1.317
 30
0.0
  0
POINT
  5
1F3
330
18
100
AcDbEntity
  8
0
100
AcDbPoint
 10
0.976
 20
1.73
 30
0.0
  0
POINT
  5
1F4
330
18
100
AcDbEntity
  8
0
100
AcDbPoint
 10
1.023
 20
1.663
 30
0.0
  0
POINT
  5
1F5
330
18
100
AcDbEntity
  8
0
100
AcDbPoint
 10
0.909
 20
1.656
 30
0.0
  0
POINT
  5
1F6
330
18
100
AcDbEntity
  8
0
100
AcDbPoint
 10
0.9990000000000001
 20
1.48
 30
0.0
  0
POINT
  5
1F7
330
18
100
AcDbEntity
  8
0
100
AcDbPoint
 10
1.039
 20
1.379
 30
0.0
  0
POINT
  5
1F8
330
18
100
AcDbEntity
  8
0
100
AcDbPoint
 10
0.922
 20
1.497
 30
0.0
  0
POINT
  5
1F9
330
18
100
AcDbEntity
  8
0
100
AcDbPoint
 10
0.7090000000000001
 20
1.778
 30
0.0
  0
POINT
  5
1FA
330
18
100
AcDbEntity
  8
0
100
AcDbPoint
 10
0.6759999999999999
 20
1.655
 30
0.0
  0
POINT
  5
1FB
330
18
100
AcDbEntity
  8
0
100
AcDbPoint
 10
0.7959999999999999
 20
1.818
 30
0.0
  0
POINT
  5
1FC
330
18
100
AcDbEntity
  8
0
100
AcDbPoint
 10
0.586
 20
1.727
 30
0.0
  0
POINT
  5
1FD
330
18
100
AcDbEntity
  8
0
100
AcDbPoint
 10
0.6679999999999999
 20
1.719
 30
0.0
  0
POINT
  5
1FE
330
18
100
AcDbEntity
  8
0
100
AcDbPoint
 10
0.765
 20
1.704
 30
0.0
  0
POINT
  5
1FF
330
18
100
AcDbEntity
  8
0
100
AcDbPoint
 10
0.855
 20
1.673
 30
0.0
  0
POINT
  5
200
330
18
100
AcDbEntity
  8
0
100
AcDbPoint
 10
0.789
 20
1.753
 30
0.0
  0
LINE
  5
201
330
18
100
AcDbEntity
  8
0
100
AcDbLine
 10
0.784
 20
1.629
 30
0.0
 11
0.79
 21
1.658
 31
0.0
  0
LINE
  5
202
330
18
100
AcDbEntity
  8
0
100
AcDbLine
 10
0.79
 20
1.658
 30
0.0
 11
0.782
 21
1.676
 31
0.0
  0
LINE
  5
203
330
18
100
AcDbEntity
  8
0
100
AcDbLine
 10
0.782
 20
1.676
 30
0.0
 11
0.757
 21
1.667
 31
0.0
  0
LINE
  5
204
330
18
100
AcDbEntity
  8
0
100
AcDbLine
 10
0.757
 20
1.667
 30
0.0
 11
0.7559999999999999
 21
1.637
 31
0.0
  0
LINE
  5
205
330
18
100
AcDbEntity
  8
0
100
AcDbLine
 10
0.7559999999999999
 20
1.637
 30
0.0
 11
0.772
 21
1.622
 31
0.0
  0
LINE
  5
206
330
18
100
AcDbEntity
  8
0
100
AcDbLine
 10
0.772
 20
1.622
 30
0.0
 11
0.784
 21
1.629
 31
0.0
  0
LINE
  5
207
330
18
100
AcDbEntity
  8
0
100
AcDbLine
 10
0.7070000000000001
 20
1.816
 30
0.0
 11
0.701
 21
1.856
 31
0.0
  0
LINE
  5
208
330
18
100
AcDbEntity
  8
0
100
AcDbLine
 10
0.701
 20
1.856
 30
0.0
 11
0.675
 21
1.872
 31
0.0
  0
LINE
  5
209
330
18
100
AcDbEntity
  8
0
100
AcDbLine
 10
0.675
 20
1.872
 30
0.0
 11
0.65
 21
1.849
 31
0.0
  0
LINE
  5
20A
330
18
100
AcDbEntity
  8
0
100
AcDbLine
 10
0.65
 20
1.849
 30
0.0
 11
0.635
 21
1.815
 31
0.0
  0
LINE
  5
20B
330
18
100
AcDbEntity
  8
0
100
AcDbLine
 10
0.635
 20
1.815
 30
0.0
 11
0.6629999999999999
 21
1.803
 31
0.0
  0
LINE
  5
20C
330
18
100
AcDbEntity
  8
0
100
AcDbLine
 10
0.6629999999999999
 20
1.803
 30
0.0
 11
0.698
 21
1.805
 31
0.0
  0
LINE
  5
20D
330
18
100
AcDbEntity
  8
0
100
AcDbLine
 10
0.698
 20
1.805
 30
0.0
 11
0.7070000000000001
 21
1.816
 31
0.0
  0
LINE
  5
20E
330
18
100
AcDbEntity
  8
0
100
AcDbLine
 10
0.8320000000000001
 20
1.694
 30
0.0
 11
0.838
 21
1.723
 31
0.0
  0
LINE
  5
20F
330
18
100
AcDbEntity
  8
0
100
AcDbLine
 10
0.838
 20
1.723
 30
0.0
 11
0.83
 21
1.742
 31
0.0
  0
LINE
  5
210
330
18
100
AcDbEntity
  8
0
100
AcDbLine
 10
0.83
 20
1.742
 30
0.0
 11
0.8050000000000001
 21
1.732
 31
0.0
  0
LINE
  5
211
330
18
100
AcDbEntity
  8
0
100
AcDbLine
 10
0.8050000000000001
 20
1.732
 30
0.0
 11
0.8040000000000001
 21
1.702
 31
0.0
  0
LINE
  5
212
330
18
100
AcDbEntity
  8
0
100
AcDbLine
 10
0.8040000000000001
 20
1.702
 30
0.0
 11
0.82
 21
1.688
 31
0.0
  0
LINE
  5
213
330
18
100
AcDbEntity
  8
0
100
AcDbLine
 10
0.82
 20
1.688
 30
0.0
 11
0.8320000000000001
 21
1.694
 31
0.0
  0
LINE
  5
214
330
18
100
AcDbEntity
  8
0
100
AcDbLine
 10
3.094
 20
0.9370000000000001
 30
0.0
 11
3.103
 21
0.963
 31
0.0
  0
LINE
  5
215
330
18
100
AcDbEntity
  8
0
100
AcDbLine
 10
3.059
 20
0.9359999999999999
 30
0.0
 11
3.094
 21
0.9370000000000001
 31
0.0
  0
LINE
  5
216
330
18
100
AcDbEntity
  8
0
100
AcDbLine
 10
3.034
 20
0.968
 30
0.0
 11
3.059
 21
0.9359999999999999
 31
0.0
  0
LINE
  5
217
330
18
100
AcDbEntity
  8
0
100
AcDbLine
 10
3.015
 20
1.001
 30
0.0
 11
3.034
 21
0.968
 31
0.0
  0
LINE
  5
218
330
18
100
AcDbEntity
  8
0
100
AcDbLine
 10
3.046
 20
1.031
 30
0.0
 11
3.015
 21
1.001
 31
0.0
  0
LINE
  5
219
330
18
100
AcDbEntity
  8
0
100
AcDbLine
 10
3.088
 20
1.042
 30
0.0
 11
3.046
 21
1.031
 31
0.0
  0
LINE
  5
21A
330
18
100
AcDbEntity
  8
0
100
AcDbLine
 10
3.099
 20
1.021
 30
0.0
 11
3.088
 21
1.042
 31
0.0
  0
LINE
  5
21B
330
18
100
AcDbEntity
  8
0
100
AcDbLine
 10
3.103
 20
0.963
 30
0.0
 11
3.099
 21
1.021
 31
0.0
  0
LINE
  5
21C
330
18
100
AcDbEntity
  8
0
100
AcDbLine
 10
3.004
 20
1.041
 30
0.0
 11
3.019
 21
1.064
 31
0.0
  0
LINE
  5
21D
330
18
100
AcDbEntity
  8
0
100
AcDbLine
 10
2.975
 20
1.041
 30
0.0
 11
3.004
 21
1.041
 31
0.0
  0
LINE
  5
21E
330
18
100
AcDbEntity
  8
0
100
AcDbLine
 10
2.954
 20
1.079
 30
0.0
 11
2.975
 21
1.041
 31
0.0
  0
LINE
  5
21F
330
18
100
AcDbEntity
  8
0
100
AcDbLine
 10
2.968
 20
1.109
 30
0.0
 11
2.954
 21
1.079
 31
0.0
  0
LINE
  5
220
330
18
100
AcDbEntity
  8
0
100
AcDbLine
 10
2.999
 20
1.129
 30
0.0
 11
2.968
 21
1.109
 31
0.0
  0
LINE
  5
221
330
18
100
AcDbEntity
  8
0
100
AcDbLine
 10
3.026
 20
1.119
 30
0.0
 11
2.999
 21
1.129
 31
0.0
  0
LINE
  5
222
330
18
100
AcDbEntity
  8
0
100
AcDbLine
 10
3.019
 20
1.064
 30
0.0
 11
3.026
 21
1.119
 31
0.0
  0
LINE
  5
223
330
18
100
AcDbEntity
  8
0
100
AcDbLine
 10
2.863
 20
1.077
 30
0.0
 11
2.871
 21
1.087
 31
0.0
  0
LINE
  5
224
330
18
100
AcDbEntity
  8
0
100
AcDbLine
 10
2.827
 20
1.075
 30
0.0
 11
2.863
 21
1.077
 31
0.0
  0
LINE
  5
225
330
18
100
AcDbEntity
  8
0
100
AcDbLine
 10
2.799
 20
1.087
 30
0.0
 11
2.827
 21
1.075
 31
0.0
  0
LINE
  5
226
330
18
100
AcDbEntity
  8
0
100
AcDbLine
 10
2.815
 20
1.12
 30
0.0
 11
2.799
 21
1.087
 31
0.0
  0
LINE
  5
227
330
18
100
AcDbEntity
  8
0
100
AcDbLine
 10
2.839
 20
1.143
 30
0.0
 11
2.815
 21
1.12
 31
0.0
  0
LINE
  5
228
330
18
100
AcDbEntity
  8
0
100
AcDbLine
 10
2.866
 20
1.128
 30
0.0
 11
2.839
 21
1.143
 31
0.0
  0
LINE
  5
229
330
18
100
AcDbEntity
  8
0
100
AcDbLine
 10
2.871
 20
1.087
 30
0.0
 11
2.866
 21
1.128
 31
0.0
  0
LINE
  5
22A
330
18
100
AcDbEntity
  8
0
100
AcDbLine
 10
3.106
 20
0.84
 30
0.0
 11
3.122
 21
0.8490000000000001
 31
0.0
  0
LINE
  5
22B
330
18
100
AcDbEntity
  8
0
100
AcDbLine
 10
3.085
 20
0.8590000000000001
 30
0.0
 11
3.106
 21
0.84
 31
0.0
  0
LINE
  5
22C
330
18
100
AcDbEntity
  8
0
100
AcDbLine
 10
3.086
 20
0.9
 30
0.0
 11
3.085
 21
0.8590000000000001
 31
0.0
  0
LINE
  5
22D
330
18
100
AcDbEntity
  8
0
100
AcDbLine
 10
3.119
 20
0.912
 30
0.0
 11
3.086
 21
0.9
 31
0.0
  0
LINE
  5
22E
330
18
100
AcDbEntity
  8
0
100
AcDbLine
 10
3.13
 20
0.888
 30
0.0
 11
3.119
 21
0.912
 31
0.0
  0
LINE
  5
22F
330
18
100
AcDbEntity
  8
0
100
AcDbLine
 10
3.122
 20
0.8490000000000001
 30
0.0
 11
3.13
 21
0.888
 31
0.0
  0
LINE
  5
230
330
18
100
AcDbEntity
  8
0
100
AcDbLine
 10
2.936
 20
0.894
 30
0.0
 11
2.948
 21
0.9
 31
0.0
  0
LINE
  5
231
330
18
100
AcDbEntity
  8
0
100
AcDbLine
 10
2.92
 20
0.9079999999999999
 30
0.0
 11
2.936
 21
0.894
 31
0.0
  0
LINE
  5
232
330
18
100
AcDbEntity
  8
0
100
AcDbLine
 10
2.921
 20
0.9379999999999999
 30
0.0
 11
2.92
 21
0.9079999999999999
 31
0.0
  0
LINE
  5
233
330
18
100
AcDbEntity
  8
0
100
AcDbLine
 10
2.946
 20
0.948
 30
0.0
 11
2.921
 21
0.9379999999999999
 31
0.0
  0
LINE
  5
234
330
18
100
AcDbEntity
  8
0
100
AcDbLine
 10
2.954
 20
0.9300000000000001
 30
0.0
 11
2.946
 21
0.948
 31
0.0
  0
LINE
  5
235
330
18
100
AcDbEntity
  8
0
100
AcDbLine
 10
2.948
 20
0.9
 30
0.0
 11
2.954
 21
0.9300000000000001
 31
0.0
  0
LINE
  5
236
330
18
100
AcDbEntity
  8
0
100
AcDbLine
 10
3.148
 20
1.037
 30
0.0
 11
3.156
 21
1.042
 31
0.0
  0
LINE
  5
237
330
18
100
AcDbEntity
  8
0
100
AcDbLine
 10
3.137
 20
1.047
 30
0.0
 11
3.148
 21
1.037
 31
0.0
  0
LINE
  5
238
330
18
100
AcDbEntity
  8
0
100
AcDbLine
 10
3.138
 20
1.067
 30
0.0
 11
3.137
 21
1.047
 31
0.0
  0
LINE
  5
239
330
18
100
AcDbEntity
  8
0
100
AcDbLine
 10
3.154
 20
1.074
 30
0.0
 11
3.138
 21
1.067
 31
0.0
  0
LINE
  5
23A
330
18
100
AcDbEntity
  8
0
100
AcDbLine
 10
3.16
 20
1.061
 30
0.0
 11
3.154
 21
1.074
 31
0.0
  0
LINE
  5
23B
330
18
100
AcDbEntity
  8
0
100
AcDbLine
 10
3.156
 20
1.042
 30
0.0
 11
3.16
 21
1.061
 31
0.0
  0
POINT
  5
23C
330
18
100
AcDbEntity
  8
0
100
AcDbPoint
 10
2.765
 20
0.917
 30
0.0
  0
POINT
  5
23D
330
18
100
AcDbEntity
  8
0
100
AcDbPoint
 10
2.787
 20
0.8170000000000001
 30
0.0
  0
POINT
  5
23E
330
18
100
AcDbEntity
  8
0
100
AcDbPoint
 10
2.902
 20
1.003
 30
0.0
  0
POINT
  5
23F
330
18
100
AcDbEntity
  8
0
100
AcDbPoint
 10
3.019
 20
0.8859999999999999
 30
0.0
  0
POINT
  5
240
330
18
100
AcDbEntity
  8
0
100
AcDbPoint
 10
2.979
 20
0.987
 30
0.0
  0
POINT
  5
241
330
18
100
AcDbEntity
  8
0
100
AcDbPoint
 10
3.118
 20
1.136
 30
0.0
  0
POINT
  5
242
330
18
100
AcDbEntity
  8
0
100
AcDbPoint
 10
3.126
 20
1.108
 30
0.0
  0
POINT
  5
243
330
18
100
AcDbEntity
  8
0
100
AcDbPoint
 10
2.781
 20
1.034
 30
0.0
  0
POINT
  5
244
330
18
100
AcDbEntity
  8
0
100
AcDbPoint
 10
2.829
 20
0.9329999999999999
 30
0.0
  0
POINT
  5
245
330
18
100
AcDbEntity
  8
0
100
AcDbPoint
 10
2.993
 20
0.823
 30
0.0
  0
POINT
  5
246
330
18
100
AcDbEntity
  8
0
100
AcDbPoint
 10
3.129
 20
0.78
 30
0.0
  0
POINT
  5
247
330
18
100
AcDbEntity
  8
0
100
AcDbPoint
 10
3.153
 20
0.996
 30
0.0
  0
POINT
  5
248
330
18
100
AcDbEntity
  8
0
100
AcDbPoint
 10
2.972
 20
0.88
 30
0.0
  0
POINT
  5
249
330
18
100
AcDbEntity
  8
0
100
AcDbPoint
 10
2.862
 20
0.915
 30
0.0
  0
POINT
  5
24A
330
18
100
AcDbEntity
  8
0
100
AcDbPoint
 10
2.874
 20
0.9640000000000001
 30
0.0
  0
POINT
  5
24B
330
18
100
AcDbEntity
  8
0
100
AcDbPoint
 10
2.819
 20
1.025
 30
0.0
  0
POINT
  5
24C
330
18
100
AcDbEntity
  8
0
100
AcDbPoint
 10
2.873
 20
1.049
 30
0.0
  0
POINT
  5
24D
330
18
100
AcDbEntity
  8
0
100
AcDbPoint
 10
2.946
 20
1.117
 30
0.0
  0
POINT
  5
24E
330
18
100
AcDbEntity
  8
0
100
AcDbPoint
 10
3.137
 20
0.845
 30
0.0
  0
POINT
  5
24F
330
18
100
AcDbEntity
  8
0
100
AcDbPoint
 10
3.166
 20
0.9790000000000001
 30
0.0
  0
POINT
  5
250
330
18
100
AcDbEntity
  8
0
100
AcDbPoint
 10
3.107
 20
0.8079999999999999
 30
0.0
  0
POINT
  5
251
330
18
100
AcDbEntity
  8
0
100
AcDbPoint
 10
3.016
 20
0.8070000000000001
 30
0.0
  0
POINT
  5
252
330
18
100
AcDbEntity
  8
0
100
AcDbPoint
 10
3.004
 20
0.753
 30
0.0
  0
POINT
  5
253
330
18
100
AcDbEntity
  8
0
100
AcDbPoint
 10
3.162
 20
0.754
 30
0.0
  0
LINE
  5
254
330
18
100
AcDbEntity
  8
0
100
AcDbLine
 10
1.902
 20
0.8070000000000001
 30
0.0
 11
1.914
 21
0.8140000000000001
 31
0.0
  0
LINE
  5
255
330
18
100
AcDbEntity
  8
0
100
AcDbLine
 10
1.887
 20
0.821
 30
0.0
 11
1.902
 21
0.8070000000000001
 31
0.0
  0
LINE
  5
256
330
18
100
AcDbEntity
  8
0
100
AcDbLine
 10
1.888
 20
0.851
 30
0.0
 11
1.887
 21
0.821
 31
0.0
  0
LINE
  5
257
330
18
100
AcDbEntity
  8
0
100
AcDbLine
 10
1.912
 20
0.861
 30
0.0
 11
1.888
 21
0.851
 31
0.0
  0
LINE
  5
258
330
18
100
AcDbEntity
  8
0
100
AcDbLine
 10
1.921
 20
0.843
 30
0.0
 11
1.912
 21
0.861
 31
0.0
  0
LINE
  5
259
330
18
100
AcDbEntity
  8
0
100
AcDbLine
 10
1.914
 20
0.8140000000000001
 30
0.0
 11
1.921
 21
0.843
 31
0.0
  0
LINE
  5
25A
330
18
100
AcDbEntity
  8
0
100
AcDbLine
 10
1.962
 20
0.897
 30
0.0
 11
1.978
 21
0.92
 31
0.0
  0
LINE
  5
25B
330
18
100
AcDbEntity
  8
0
100
AcDbLine
 10
1.934
 20
0.897
 30
0.0
 11
1.962
 21
0.897
 31
0.0
  0
LINE
  5
25C
330
18
100
AcDbEntity
  8
0
100
AcDbLine
 10
1.913
 20
0.9359999999999999
 30
0.0
 11
1.934
 21
0.897
 31
0.0
  0
LINE
  5
25D
330
18
100
AcDbEntity
  8
0
100
AcDbLine
 10
1.927
 20
0.966
 30
0.0
 11
1.913
 21
0.9359999999999999
 31
0.0
  0
LINE
  5
25E
330
18
100
AcDbEntity
  8
0
100
AcDbLine
 10
1.958
 20
0.985
 30
0.0
 11
1.927
 21
0.966
 31
0.0
  0
LINE
  5
25F
330
18
100
AcDbEntity
  8
0
100
AcDbLine
 10
1.985
 20
0.975
 30
0.0
 11
1.958
 21
0.985
 31
0.0
  0
LINE
  5
260
330
18
100
AcDbEntity
  8
0
100
AcDbLine
 10
1.978
 20
0.92
 30
0.0
 11
1.985
 21
0.975
 31
0.0
  0
LINE
  5
261
330
18
100
AcDbEntity
  8
0
100
AcDbLine
 10
1.781
 20
0.924
 30
0.0
 11
1.79
 21
0.9350000000000001
 31
0.0
  0
LINE
  5
262
330
18
100
AcDbEntity
  8
0
100
AcDbLine
 10
1.746
 20
0.922
 30
0.0
 11
1.781
 21
0.924
 31
0.0
  0
LINE
  5
263
330
18
100
AcDbEntity
  8
0
100
AcDbLine
 10
1.718
 20
0.9340000000000001
 30
0.0
 11
1.746
 21
0.922
 31
0.0
  0
LINE
  5
264
330
18
100
AcDbEntity
  8
0
100
AcDbLine
 10
1.733
 20
0.968
 30
0.0
 11
1.718
 21
0.9340000000000001
 31
0.0
  0
LINE
  5
265
330
18
100
AcDbEntity
  8
0
100
AcDbLine
 10
1.757
 20
0.991
 30
0.0
 11
1.733
 21
0.968
 31
0.0
  0
LINE
  5
266
330
18
100
AcDbEntity
  8
0
100
AcDbLine
 10
1.784
 20
0.975
 30
0.0
 11
1.757
 21
0.991
 31
0.0
  0
LINE
  5
267
330
18
100
AcDbEntity
  8
0
100
AcDbLine
 10
1.79
 20
0.9350000000000001
 30
0.0
 11
1.784
 21
0.975
 31
0.0
  0
LINE
  5
268
330
18
100
AcDbEntity
  8
0
100
AcDbLine
 10
1.854
 20
0.741
 30
0.0
 11
1.866
 21
0.748
 31
0.0
  0
LINE
  5
269
330
18
100
AcDbEntity
  8
0
100
AcDbLine
 10
1.839
 20
0.7559999999999999
 30
0.0
 11
1.854
 21
0.741
 31
0.0
  0
LINE
  5
26A
330
18
100
AcDbEntity
  8
0
100
AcDbLine
 10
1.84
 20
0.7859999999999999
 30
0.0
 11
1.839
 21
0.7559999999999999
 31
0.0
  0
LINE
  5
26B
330
18
100
AcDbEntity
  8
0
100
AcDbLine
 10
1.864
 20
0.7959999999999999
 30
0.0
 11
1.84
 21
0.7859999999999999
 31
0.0
  0
LINE
  5
26C
330
18
100
AcDbEntity
  8
0
100
AcDbLine
 10
1.873
 20
0.777
 30
0.0
 11
1.864
 21
0.7959999999999999
 31
0.0
  0
LINE
  5
26D
330
18
100
AcDbEntity
  8
0
100
AcDbLine
 10
1.866
 20
0.748
 30
0.0
 11
1.873
 21
0.777
 31
0.0
  0
POINT
  5
26E
330
18
100
AcDbEntity
  8
0
100
AcDbPoint
 10
1.872
 20
0.872
 30
0.0
  0
POINT
  5
26F
330
18
100
AcDbEntity
  8
0
100
AcDbPoint
 10
1.937
 20
0.792
 30
0.0
  0
POINT
  5
270
330
18
100
AcDbEntity
  8
0
100
AcDbPoint
 10
1.848
 20
0.823
 30
0.0
  0
POINT
  5
271
330
18
100
AcDbEntity
  8
0
100
AcDbPoint
 10
1.75
 20
0.838
 30
0.0
  0
POINT
  5
272
330
18
100
AcDbEntity
  8
0
100
AcDbPoint
 10
1.669
 20
0.846
 30
0.0
  0
POINT
  5
273
330
18
100
AcDbEntity
  8
0
100
AcDbPoint
 10
1.879
 20
0.9370000000000001
 30
0.0
  0
POINT
  5
274
330
18
100
AcDbEntity
  8
0
100
AcDbPoint
 10
1.759
 20
0.774
 30
0.0
  0
POINT
  5
275
330
18
100
AcDbEntity
  8
0
100
AcDbPoint
 10
1.792
 20
0.897
 30
0.0
  0
ARC
  5
276
330
18
100
AcDbEntity
  8
0
100
AcDbCircle
 10
2.294
 20
3.036
 30
0.0
 40
0.03
100
AcDbArc
 50
117.962
 51
333.286
  0
ARC
  5
277
330
18
100
AcDbEntity
  8
0
100
AcDbCircle
 10
2.309
 20
3.013
 30
0.0
 40
0.058
100
AcDbArc
 50
5.27
 51
119.973
  0
LINE
  5
278
330
18
100
AcDbEntity
  8
0
100
AcDbLine
 10
2.367
 20
3.018
 30
0.0
 11
2.367
 21
2.661
 31
0.0
  0
LINE
  5
279
330
18
100
AcDbEntity
  8
0
100
AcDbLine
 10
2.382
 20
2.656
 30
0.0
 11
2.321
 21
2.677
 31
0.0
  0
ARC
  5
27A
330
18
100
AcDbEntity
  8
0
100
AcDbCircle
 10
2.39
 20
2.679
 30
0.0
 40
0.025
100
AcDbArc
 50
250.739
 51
0.0
  0
ARC
  5
27B
330
18
100
AcDbEntity
  8
0
100
AcDbCircle
 10
2.296
 20
2.659
 30
0.0
 40
0.025
100
AcDbArc
 50
250.739
 51
0.0
  0
LINE
  5
27C
330
18
100
AcDbEntity
  8
0
100
AcDbLine
 10
2.321
 20
3.023
 30
0.0
 11
2.321
 21
2.659
 31
0.0
  0
LINE
  5
27D
330
18
100
AcDbEntity
  8
0
100
AcDbLine
 10
2.208
 20
3.096
 30
0.0
 11
1.225
 21
3.409
 31
0.0
  0
LINE
  5
27E
330
18
100
AcDbEntity
  8
0
100
AcDbLine
 10
1.882
 20
2.777
 30
0.0
 11
1.503
 21
2.91
 31
0.0
  0
ARC
  5
27F
330
18
100
AcDbEntity
  8
0
100
AcDbCircle
 10
1.918
 20
2.754
 30
0.0
 40
0.043
100
AcDbArc
 50
353.535
 51
147.943
  0
LINE
  5
280
330
18
100
AcDbEntity
  8
0
100
AcDbLine
 10
1.423
 20
2.937
 30
0.0
 11
1.133
 21
3.039
 31
0.0
  0
ARC
  5
281
330
18
100
AcDbEntity
  8
0
100
AcDbCircle
 10
1.46
 20
2.914
 30
0.0
 40
0.043
100
AcDbArc
 50
353.535
 51
147.943
  0
ARC
  5
282
330
18
100
AcDbEntity
  8
0
100
AcDbCircle
 10
1.097
 20
3.467
 30
0.0
 40
0.025
100
AcDbArc
 50
72.321
 51
180.0
  0
LINE
  5
283
330
18
100
AcDbEntity
  8
0
100
AcDbLine
 10
1.072
 20
3.467
 30
0.0
 11
1.072
 21
3.102
 31
0.0
  0
ARC
  5
284
330
18
100
AcDbEntity
  8
0
100
AcDbCircle
 10
1.15
 20
3.086
 30
0.0
 40
0.05
100
AcDbArc
 50
180.0
 51
250.739
  0
ARC
  5
285
330
18
100
AcDbEntity
  8
0
100
AcDbCircle
 10
1.112
 20
3.132
 30
0.0
 40
0.051
100
AcDbArc
 50
216.874
 51
255.377
  0
ARC
  5
286
330
18
100
AcDbEntity
  8
0
100
AcDbCircle
 10
2.316
 20
3.157
 30
0.0
 40
0.05
100
AcDbArc
 50
252.321
 51
296.929
  0
LINE
  5
287
330
18
100
AcDbEntity
  8
0
100
AcDbLine
 10
2.339
 20
3.112
 30
0.0
 11
2.415
 21
3.151
 31
0.0
  0
LINE
  5
288
330
18
100
AcDbEntity
  8
0
100
AcDbLine
 10
2.301
 20
3.109
 30
0.0
 11
1.104
 21
3.491
 31
0.0
  0
ARC
  5
289
330
18
100
AcDbEntity
  8
0
100
AcDbCircle
 10
3.506
 20
3.536
 30
0.0
 40
0.022
100
AcDbArc
 50
7.096
 51
107.149
  0
ARC
  5
28A
330
18
100
AcDbEntity
  8
0
100
AcDbCircle
 10
3.505
 20
3.247
 30
0.0
 40
0.024
100
AcDbArc
 50
258.797
 51
6.032
  0
LINE
  5
28B
330
18
100
AcDbEntity
  8
0
100
AcDbLine
 10
3.529
 20
3.538
 30
0.0
 11
3.529
 21
3.249
 31
0.0
  0
ARC
  5
28C
330
18
100
AcDbEntity
  8
0
100
AcDbCircle
 10
3.469
 20
3.229
 30
0.0
 40
0.032
100
AcDbArc
 50
270.591
 51
349.23
  0
ARC
  5
28D
330
18
100
AcDbEntity
  8
0
100
AcDbCircle
 10
3.469
 20
3.551
 30
0.0
 40
0.032
100
AcDbArc
 50
10.77
 51
89.40899999999999
  0
ARC
  5
28E
330
18
100
AcDbEntity
  8
0
100
AcDbCircle
 10
3.49
 20
3.606
 30
0.0
 40
0.01
100
AcDbArc
 50
335.834
 51
0.0
  0
ARC
  5
28F
330
18
100
AcDbEntity
  8
0
100
AcDbCircle
 10
3.469
 20
3.615
 30
0.0
 40
0.033
100
AcDbArc
 50
269.279
 51
335.834
  0
LINE
  5
290
330
18
100
AcDbEntity
  8
0
100
AcDbLine
 10
3.5
 20
3.557
 30
0.0
 11
3.5
 21
3.223
 31
0.0
  0
ARC
  5
291
330
18
100
AcDbEntity
  8
0
100
AcDbCircle
 10
2.415
 20
2.644
 30
0.0
 40
0.05
100
AcDbArc
 50
252.321
 51
0.0
  0
ARC
  5
292
330
18
100
AcDbEntity
  8
0
100
AcDbCircle
 10
3.406
 20
3.169
 30
0.0
 40
0.063
100
AcDbArc
 50
296.929
 51
0.0
  0
LINE
  5
293
330
18
100
AcDbEntity
  8
0
100
AcDbLine
 10
2.458
 20
2.618
 30
0.0
 11
3.434
 21
3.114
 31
0.0
  0
LINE
  5
294
330
18
100
AcDbEntity
  8
0
100
AcDbLine
 10
2.4
 20
2.596
 30
0.0
 11
1.961
 21
2.749
 31
0.0
  0
LINE
  5
295
330
18
100
AcDbEntity
  8
0
100
AcDbLine
 10
3.469
 20
5.369
 30
0.0
 11
3.469
 21
3.169
 31
0.0
  0
LINE
  5
296
330
18
100
AcDbEntity
  8
0
100
AcDbLine
 10
3.323
 20
5.512000000000001
 30
0.0
 11
3.469
 21
5.369
 31
0.0
  0
LINE
  5
297
330
18
100
AcDbEntity
  8
0
100
AcDbLine
 10
2.528
 20
5.327000000000001
 30
0.0
 11
2.415
 21
5.164
 31
0.0
  0
LINE
  5
298
330
18
100
AcDbEntity
  8
0
100
AcDbLine
 10
2.528
 20
5.327000000000001
 30
0.0
 11
3.273
 21
5.522
 31
0.0
  0
LINE
  5
299
330
18
100
AcDbEntity
  8
0
100
AcDbLine
 10
3.323
 20
5.512000000000001
 30
0.0
 11
3.273
 21
5.522
 31
0.0
  0
LINE
  5
29A
330
18
100
AcDbEntity
  8
0
100
AcDbLine
 10
2.578
 20
5.316
 30
0.0
 11
2.528
 21
5.327000000000001
 31
0.0
  0
LINE
  5
29B
330
18
100
AcDbEntity
  8
0
100
AcDbLine
 10
2.415
 20
5.164
 30
0.0
 11
2.415
 21
2.679
 31
0.0
  0
LINE
  5
29C
330
18
100
AcDbEntity
  8
0
100
AcDbLine
 10
2.578
 20
5.316
 30
0.0
 11
3.323
 21
5.512000000000001
 31
0.0
  0
LINE
  5
29D
330
18
100
AcDbEntity
  8
0
100
AcDbLine
 10
2.578
 20
5.316
 30
0.0
 11
2.465
 21
5.154
 31
0.0
  0
LINE
  5
29E
330
18
100
AcDbEntity
  8
0
100
AcDbLine
 10
2.465
 20
5.154
 30
0.0
 11
2.415
 21
5.164
 31
0.0
  0
LINE
  5
29F
330
18
100
AcDbEntity
  8
0
100
AcDbLine
 10
2.465
 20
5.154
 30
0.0
 11
2.465
 21
2.644
 31
0.0
  0
ARC
  5
2A0
330
18
100
AcDbEntity
  8
0
  6
HIDDEN
100
AcDbCircle
 10
2.428
 20
1.114
 30
0.0
 40
0.071
100
AcDbArc
 50
25.463
 51
154.537
  0
ARC
  5
2A1
330
18
100
AcDbEntity
  8
0
  6
HIDDEN
100
AcDbCircle
 10
2.428
 20
1.175
 30
0.0
 40
0.071
100
AcDbArc
 50
205.463
 51
334.537
  0
ARC
  5
2A2
330
18
100
AcDbEntity
  8
0
  6
HIDDEN
100
AcDbCircle
 10
2.299
 20
1.175
 30
0.0
 40
0.071
100
AcDbArc
 50
205.463
 51
334.537
  0
LINE
  5
2A3
330
18
100
AcDbEntity
  8
0
  6
HIDDEN
100
AcDbLine
 10
2.235
 20
1.144
 30
0.0
 11
2.235
 21
2.654
 31
0.0
  0
LINE
  5
2A4
330
18
100
AcDbEntity
  8
0
100
AcDbLine
 10
0.5870000000000001
 20
3.911
 30
0.0
 11
1.1
 21
4.113
 31
0.0
  0
LINE
  5
2A5
330
18
100
AcDbEntity
  8
0
100
AcDbLine
 10
1.743
 20
6.705
 30
0.0
 11
1.81
 21
6.936
 31
0.0
  0
LINE
  5
2A6
330
18
100
AcDbEntity
  8
0
100
AcDbLine
 10
3.5
 20
6.643
 30
0.0
 11
2.964
 21
6.752000000000001
 31
0.0
  0
LINE
  5
2A7
330
18
100
AcDbEntity
  8
0
100
AcDbLine
 10
2.955
 20
6.773
 30
0.0
 11
1.81
 21
6.936
 31
0.0
  0
LINE
  5
2A8
330
18
100
AcDbEntity
  8
0
100
AcDbLine
 10
2.76
 20
6.497000000000001
 30
0.0
 11
1.539
 21
6.747000000000001
 31
0.0
  0
LINE
  5
2A9
330
18
100
AcDbEntity
  8
0
100
AcDbLine
 10
3.051
 20
6.555
 30
0.0
 11
3.5
 21
6.643
 31
0.0
  0
LINE
  5
2AA
330
18
100
AcDbEntity
  8
0
100
AcDbLine
 10
2.955
 20
6.773
 30
0.0
 11
3.051
 21
6.555
 31
0.0
  0
LINE
  5
2AB
330
18
100
AcDbEntity
  8
0
100
AcDbLine
 10
2.84
 20
6.374
 30
0.0
 11
2.955
 21
6.773
 31
0.0
  0
LINE
  5
2AC
330
18
100
AcDbEntity
  8
0
100
AcDbLine
 10
2.76
 20
6.497000000000001
 30
0.0
 11
2.84
 21
6.374
 31
0.0
  0
LINE
  5
2AD
330
18
100
AcDbEntity
  8
0
100
AcDbLine
 10
1.1
 20
6.661000000000001
 30
0.0
 11
1.539
 21
6.747000000000001
 31
0.0
  0
LINE
  5
2AE
330
18
100
AcDbEntity
  8
0
100
AcDbLine
 10
3.5
 20
6.643
 30
0.0
 11
3.5
 21
3.606
 31
0.0
  0
LINE
  5
2AF
330
18
100
AcDbEntity
  8
0
100
AcDbLine
 10
2.321
 20
6.411000000000001
 30
0.0
 11
2.76
 21
6.497000000000001
 31
0.0
  0
LINE
  5
2B0
330
18
100
AcDbEntity
  8
0
100
AcDbLine
 10
2.321
 20
6.411000000000001
 30
0.0
 11
1.1
 21
6.661000000000001
 31
0.0
  0
LINE
  5
2B1
330
18
100
AcDbEntity
  8
0
100
AcDbLine
 10
2.321
 20
6.411000000000001
 30
0.0
 11
2.321
 21
3.107
 31
0.0
  0
LINE
  5
2B2
330
18
100
AcDbEntity
  8
0
100
AcDbLine
 10
1.1
 20
6.661000000000001
 30
0.0
 11
1.1
 21
3.086
 31
0.0
  0
POINT
  5
2B3
330
18
100
AcDbEntity
  8
0
100
AcDbPoint
 10
1.131
 20
1.292
 30
0.0
  0
POINT
  5
2B4
330
18
100
AcDbEntity
  8
0
100
AcDbPoint
 10
1.248
 20
1.174
 30
0.0
  0
POINT
  5
2B5
330
18
100
AcDbEntity
  8
0
100
AcDbPoint
 10
1.208
 20
1.275
 30
0.0
  0
POINT
  5
2B6
330
18
100
AcDbEntity
  8
0
100
AcDbPoint
 10
1.118
 20
1.451
 30
0.0
  0
POINT
  5
2B7
330
18
100
AcDbEntity
  8
0
100
AcDbPoint
 10
1.232
 20
1.458
 30
0.0
  0
POINT
  5
2B8
330
18
100
AcDbEntity
  8
0
100
AcDbPoint
 10
1.347
 20
1.425
 30
0.0
  0
POINT
  5
2B9
330
18
100
AcDbEntity
  8
0
100
AcDbPoint
 10
1.355
 20
1.396
 30
0.0
  0
POINT
  5
2BA
330
18
100
AcDbEntity
  8
0
100
AcDbPoint
 10
1.185
 20
1.525
 30
0.0
  0
POINT
  5
2BB
330
18
100
AcDbEntity
  8
0
100
AcDbPoint
 10
1.222
 20
1.112
 30
0.0
  0
POINT
  5
2BC
330
18
100
AcDbEntity
  8
0
100
AcDbPoint
 10
1.358
 20
1.069
 30
0.0
  0
POINT
  5
2BD
330
18
100
AcDbEntity
  8
0
100
AcDbPoint
 10
1.432
 20
1.218
 30
0.0
  0
POINT
  5
2BE
330
18
100
AcDbEntity
  8
0
100
AcDbPoint
 10
1.382
 20
1.285
 30
0.0
  0
POINT
  5
2BF
330
18
100
AcDbEntity
  8
0
100
AcDbPoint
 10
1.201
 20
1.169
 30
0.0
  0
POINT
  5
2C0
330
18
100
AcDbEntity
  8
0
100
AcDbPoint
 10
1.175
 20
1.406
 30
0.0
  0
POINT
  5
2C1
330
18
100
AcDbEntity
  8
0
100
AcDbPoint
 10
1.366
 20
1.134
 30
0.0
  0
POINT
  5
2C2
330
18
100
AcDbEntity
  8
0
100
AcDbPoint
 10
1.408
 20
1.183
 30
0.0
  0
POINT
  5
2C3
330
18
100
AcDbEntity
  8
0
100
AcDbPoint
 10
1.395
 20
1.268
 30
0.0
  0
POINT
  5
2C4
330
18
100
AcDbEntity
  8
0
100
AcDbPoint
 10
1.336
 20
1.097
 30
0.0
  0
POINT
  5
2C5
330
18
100
AcDbEntity
  8
0
100
AcDbPoint
 10
1.245
 20
1.096
 30
0.0
  0
POINT
  5
2C6
330
18
100
AcDbEntity
  8
0
100
AcDbPoint
 10
1.135
 20
1.083
 30
0.0
  0
POINT
  5
2C7
330
18
100
AcDbEntity
  8
0
100
AcDbPoint
 10
1.147
 20
1.095
 30
0.0
  0
POINT
  5
2C8
330
18
100
AcDbEntity
  8
0
100
AcDbPoint
 10
1.233
 20
1.041
 30
0.0
  0
POINT
  5
2C9
330
18
100
AcDbEntity
  8
0
100
AcDbPoint
 10
1.391
 20
1.043
 30
0.0
  0
POINT
  5
2CA
330
18
100
AcDbEntity
  8
0
100
AcDbPoint
 10
3.405
 20
1.123
 30
0.0
  0
POINT
  5
2CB
330
18
100
AcDbEntity
  8
0
100
AcDbPoint
 10
3.247
 20
1.121
 30
0.0
  0
POINT
  5
2CC
330
18
100
AcDbEntity
  8
0
100
AcDbPoint
 10
3.259
 20
1.176
 30
0.0
  0
POINT
  5
2CD
330
18
100
AcDbEntity
  8
0
100
AcDbPoint
 10
3.35
 20
1.177
 30
0.0
  0
POINT
  5
2CE
330
18
100
AcDbEntity
  8
0
100
AcDbPoint
 10
3.409
 20
1.348
 30
0.0
  0
POINT
  5
2CF
330
18
100
AcDbEntity
  8
0
100
AcDbPoint
 10
3.38
 20
1.214
 30
0.0
  0
POINT
  5
2D0
330
18
100
AcDbEntity
  8
0
100
AcDbPoint
 10
2.988
 20
1.502
 30
0.0
  0
POINT
  5
2D1
330
18
100
AcDbEntity
  8
0
100
AcDbPoint
 10
3.042
 20
1.563
 30
0.0
  0
POINT
  5
2D2
330
18
100
AcDbEntity
  8
0
100
AcDbPoint
 10
3.127
 20
1.558
 30
0.0
  0
POINT
  5
2D3
330
18
100
AcDbEntity
  8
0
100
AcDbPoint
 10
3.189
 20
1.486
 30
0.0
  0
POINT
  5
2D4
330
18
100
AcDbEntity
  8
0
100
AcDbPoint
 10
3.116
 20
1.418
 30
0.0
  0
POINT
  5
2D5
330
18
100
AcDbEntity
  8
0
100
AcDbPoint
 10
3.062
 20
1.393
 30
0.0
  0
POINT
  5
2D6
330
18
100
AcDbEntity
  8
0
100
AcDbPoint
 10
3.117
 20
1.333
 30
0.0
  0
POINT
  5
2D7
330
18
100
AcDbEntity
  8
0
100
AcDbPoint
 10
3.105
 20
1.284
 30
0.0
  0
POINT
  5
2D8
330
18
100
AcDbEntity
  8
0
100
AcDbPoint
 10
3.215
 20
1.249
 30
0.0
  0
POINT
  5
2D9
330
18
100
AcDbEntity
  8
0
100
AcDbPoint
 10
3.396
 20
1.365
 30
0.0
  0
POINT
  5
2DA
330
18
100
AcDbEntity
  8
0
100
AcDbPoint
 10
3.372
 20
1.149
 30
0.0
  0
POINT
  5
2DB
330
18
100
AcDbEntity
  8
0
100
AcDbPoint
 10
3.236
 20
1.192
 30
0.0
  0
POINT
  5
2DC
330
18
100
AcDbEntity
  8
0
100
AcDbPoint
 10
3.072
 20
1.302
 30
0.0
  0
POINT
  5
2DD
330
18
100
AcDbEntity
  8
0
100
AcDbPoint
 10
3.024
 20
1.403
 30
0.0
  0
POINT
  5
2DE
330
18
100
AcDbEntity
  8
0
100
AcDbPoint
 10
2.991
 20
1.54
 30
0.0
  0
POINT
  5
2DF
330
18
100
AcDbEntity
  8
0
100
AcDbPoint
 10
3.016
 20
1.629
 30
0.0
  0
POINT
  5
2E0
330
18
100
AcDbEntity
  8
0
100
AcDbPoint
 10
3.198
 20
1.605
 30
0.0
  0
POINT
  5
2E1
330
18
100
AcDbEntity
  8
0
100
AcDbPoint
 10
3.369
 20
1.476
 30
0.0
  0
POINT
  5
2E2
330
18
100
AcDbEntity
  8
0
100
AcDbPoint
 10
3.361
 20
1.505
 30
0.0
  0
POINT
  5
2E3
330
18
100
AcDbEntity
  8
0
100
AcDbPoint
 10
3.246
 20
1.537
 30
0.0
  0
POINT
  5
2E4
330
18
100
AcDbEntity
  8
0
100
AcDbPoint
 10
3.132
 20
1.531
 30
0.0
  0
POINT
  5
2E5
330
18
100
AcDbEntity
  8
0
100
AcDbPoint
 10
3.222
 20
1.355
 30
0.0
  0
POINT
  5
2E6
330
18
100
AcDbEntity
  8
0
100
AcDbPoint
 10
3.262
 20
1.254
 30
0.0
  0
POINT
  5
2E7
330
18
100
AcDbEntity
  8
0
100
AcDbPoint
 10
3.145
 20
1.372
 30
0.0
  0
POINT
  5
2E8
330
18
100
AcDbEntity
  8
0
100
AcDbPoint
 10
1.995
 20
1.073
 30
0.0
  0
POINT
  5
2E9
330
18
100
AcDbEntity
  8
0
100
AcDbPoint
 10
1.909
 20
1.127
 30
0.0
  0
POINT
  5
2EA
330
18
100
AcDbEntity
  8
0
100
AcDbPoint
 10
1.897
 20
1.115
 30
0.0
  0
POINT
  5
2EB
330
18
100
AcDbEntity
  8
0
100
AcDbPoint
 10
2.006
 20
1.128
 30
0.0
  0
POINT
  5
2EC
330
18
100
AcDbEntity
  8
0
100
AcDbPoint
 10
2.098
 20
1.129
 30
0.0
  0
POINT
  5
2ED
330
18
100
AcDbEntity
  8
0
100
AcDbPoint
 10
2.128
 20
1.166
 30
0.0
  0
POINT
  5
2EE
330
18
100
AcDbEntity
  8
0
100
AcDbPoint
 10
1.936
 20
1.438
 30
0.0
  0
POINT
  5
2EF
330
18
100
AcDbEntity
  8
0
100
AcDbPoint
 10
1.864
 20
1.37
 30
0.0
  0
POINT
  5
2F0
330
18
100
AcDbEntity
  8
0
100
AcDbPoint
 10
1.865
 20
1.285
 30
0.0
  0
POINT
  5
2F1
330
18
100
AcDbEntity
  8
0
100
AcDbPoint
 10
1.853
 20
1.236
 30
0.0
  0
POINT
  5
2F2
330
18
100
AcDbEntity
  8
0
100
AcDbPoint
 10
1.872
 20
1.169
 30
0.0
  0
POINT
  5
2F3
330
18
100
AcDbEntity
  8
0
100
AcDbPoint
 10
1.963
 20
1.201
 30
0.0
  0
POINT
  5
2F4
330
18
100
AcDbEntity
  8
0
100
AcDbPoint
 10
2.144
 20
1.317
 30
0.0
  0
POINT
  5
2F5
330
18
100
AcDbEntity
  8
0
100
AcDbPoint
 10
2.12
 20
1.101
 30
0.0
  0
POINT
  5
2F6
330
18
100
AcDbEntity
  8
0
100
AcDbPoint
 10
1.984
 20
1.144
 30
0.0
  0
POINT
  5
2F7
330
18
100
AcDbEntity
  8
0
100
AcDbPoint
 10
1.854
 20
1.155
 30
0.0
  0
POINT
  5
2F8
330
18
100
AcDbEntity
  8
0
100
AcDbPoint
 10
1.819
 20
1.254
 30
0.0
  0
POINT
  5
2F9
330
18
100
AcDbEntity
  8
0
100
AcDbPoint
 10
2.116
 20
1.428
 30
0.0
  0
POINT
  5
2FA
330
18
100
AcDbEntity
  8
0
100
AcDbPoint
 10
2.108
 20
1.457
 30
0.0
  0
POINT
  5
2FB
330
18
100
AcDbEntity
  8
0
100
AcDbPoint
 10
1.97
 20
1.307
 30
0.0
  0
POINT
  5
2FC
330
18
100
AcDbEntity
  8
0
100
AcDbPoint
 10
2.01
 20
1.206
 30
0.0
  0
POINT
  5
2FD
330
18
100
AcDbEntity
  8
0
100
AcDbPoint
 10
1.893
 20
1.324
 30
0.0
  0
POINT
  5
2FE
330
18
100
AcDbEntity
  8
0
100
AcDbPoint
 10
1.574
 20
1.229
 30
0.0
  0
POINT
  5
2FF
330
18
100
AcDbEntity
  8
0
100
AcDbPoint
 10
1.541
 20
1.106
 30
0.0
  0
POINT
  5
300
330
18
100
AcDbEntity
  8
0
100
AcDbPoint
 10
1.661
 20
1.269
 30
0.0
  0
POINT
  5
301
330
18
100
AcDbEntity
  8
0
100
AcDbPoint
 10
1.636
 20
1.326
 30
0.0
  0
POINT
  5
302
330
18
100
AcDbEntity
  8
0
100
AcDbPoint
 10
1.514
 20
1.373
 30
0.0
  0
POINT
  5
303
330
18
100
AcDbEntity
  8
0
100
AcDbPoint
 10
1.426
 20
1.291
 30
0.0
  0
POINT
  5
304
330
18
100
AcDbEntity
  8
0
100
AcDbPoint
 10
1.451
 20
1.178
 30
0.0
  0
POINT
  5
305
330
18
100
AcDbEntity
  8
0
100
AcDbPoint
 10
1.532
 20
1.171
 30
0.0
  0
POINT
  5
306
330
18
100
AcDbEntity
  8
0
100
AcDbPoint
 10
1.63
 20
1.155
 30
0.0
  0
POINT
  5
307
330
18
100
AcDbEntity
  8
0
100
AcDbPoint
 10
1.719
 20
1.124
 30
0.0
  0
POINT
  5
308
330
18
100
AcDbEntity
  8
0
100
AcDbPoint
 10
1.808
 20
1.125
 30
0.0
  0
POINT
  5
309
330
18
100
AcDbEntity
  8
0
100
AcDbPoint
 10
1.799
 20
1.206
 30
0.0
  0
POINT
  5
30A
330
18
100
AcDbEntity
  8
0
100
AcDbPoint
 10
1.653
 20
1.204
 30
0.0
  0
POINT
  5
30B
330
18
100
AcDbEntity
  8
0
100
AcDbPoint
 10
2.514
 20
0.953
 30
0.0
  0
POINT
  5
30C
330
18
100
AcDbEntity
  8
0
100
AcDbPoint
 10
2.423
 20
0.922
 30
0.0
  0
POINT
  5
30D
330
18
100
AcDbEntity
  8
0
100
AcDbPoint
 10
2.46
 20
0.879
 30
0.0
  0
POINT
  5
30E
330
18
100
AcDbEntity
  8
0
100
AcDbPoint
 10
2.679
 20
0.9179999999999999
 30
0.0
  0
POINT
  5
30F
330
18
100
AcDbEntity
  8
0
100
AcDbPoint
 10
2.749
 20
1.304
 30
0.0
  0
POINT
  5
310
330
18
100
AcDbEntity
  8
0
100
AcDbPoint
 10
2.826
 20
1.287
 30
0.0
  0
POINT
  5
311
330
18
100
AcDbEntity
  8
0
100
AcDbPoint
 10
2.736
 20
1.463
 30
0.0
  0
POINT
  5
312
330
18
100
AcDbEntity
  8
0
100
AcDbPoint
 10
2.85
 20
1.469
 30
0.0
  0
POINT
  5
313
330
18
100
AcDbEntity
  8
0
100
AcDbPoint
 10
2.628
 20
1.334
 30
0.0
  0
POINT
  5
314
330
18
100
AcDbEntity
  8
0
100
AcDbPoint
 10
2.666
 20
1.325
 30
0.0
  0
POINT
  5
315
330
18
100
AcDbEntity
  8
0
100
AcDbPoint
 10
2.72
 20
1.35
 30
0.0
  0
POINT
  5
316
330
18
100
AcDbEntity
  8
0
100
AcDbPoint
 10
2.793
 20
1.417
 30
0.0
  0
POINT
  5
317
330
18
100
AcDbEntity
  8
0
100
AcDbPoint
 10
2.653
 20
1.453
 30
0.0
  0
POINT
  5
318
330
18
100
AcDbEntity
  8
0
100
AcDbPoint
 10
3.03
 20
1.186
 30
0.0
  0
POINT
  5
319
330
18
100
AcDbEntity
  8
0
100
AcDbPoint
 10
2.902
 20
1.203
 30
0.0
  0
POINT
  5
31A
330
18
100
AcDbEntity
  8
0
100
AcDbPoint
 10
2.722
 20
1.258
 30
0.0
  0
POINT
  5
31B
330
18
100
AcDbEntity
  8
0
100
AcDbPoint
 10
2.913
 20
1.525
 30
0.0
  0
POINT
  5
31C
330
18
100
AcDbEntity
  8
0
100
AcDbPoint
 10
2.96
 20
1.393
 30
0.0
  0
POINT
  5
31D
330
18
100
AcDbEntity
  8
0
100
AcDbPoint
 10
3.008
 20
1.286
 30
0.0
  0
POINT
  5
31E
330
18
100
AcDbEntity
  8
0
100
AcDbPoint
 10
2.264
 20
0.754
 30
0.0
  0
POINT
  5
31F
330
18
100
AcDbEntity
  8
0
100
AcDbPoint
 10
2.227
 20
0.7959999999999999
 30
0.0
  0
POINT
  5
320
330
18
100
AcDbEntity
  8
0
100
AcDbPoint
 10
2.318
 20
0.828
 30
0.0
  0
POINT
  5
321
330
18
100
AcDbEntity
  8
0
100
AcDbPoint
 10
2.508
 20
0.8109999999999999
 30
0.0
  0
POINT
  5
322
330
18
100
AcDbEntity
  8
0
100
AcDbPoint
 10
2.37
 20
0.8129999999999999
 30
0.0
  0
POINT
  5
323
330
18
100
AcDbEntity
  8
0
100
AcDbPoint
 10
2.29
 20
0.731
 30
0.0
  0
POINT
  5
324
330
18
100
AcDbEntity
  8
0
100
AcDbPoint
 10
2.173
 20
0.8
 30
0.0
  0
POINT
  5
325
330
18
100
AcDbEntity
  8
0
100
AcDbPoint
 10
2.183
 20
0.8809999999999999
 30
0.0
  0
POINT
  5
326
330
18
100
AcDbEntity
  8
0
100
AcDbPoint
 10
2.242
 20
0.956
 30
0.0
  0
POINT
  5
327
330
18
100
AcDbEntity
  8
0
100
AcDbPoint
 10
2.386
 20
1.046
 30
0.0
  0
POINT
  5
328
330
18
100
AcDbEntity
  8
0
100
AcDbPoint
 10
2.569
 20
1.065
 30
0.0
  0
POINT
  5
329
330
18
100
AcDbEntity
  8
0
100
AcDbPoint
 10
2.679
 20
0.996
 30
0.0
  0
POINT
  5
32A
330
18
100
AcDbEntity
  8
0
100
AcDbPoint
 10
2.662
 20
0.879
 30
0.0
  0
TEXT
  5
32B
330
18
100
AcDbEntity
  8
0
100
AcDbText
 10
2.21
 20
0.219
 30
0.0
 40
0.125
  1
ABU44
 50
0.568
100
AcDbText
  0
LINE
  5
32C
330
18
100
AcDbEntity
  8
0
100
AcDbLine
 10
1.332
 20
1.252
 30
0.0
 11
1.328
 21
1.31
 31
0.0
  0
LINE
  5
32D
330
18
100
AcDbEntity
  8
0
100
AcDbLine
 10
1.328
 20
1.31
 30
0.0
 11
1.317
 21
1.331
 31
0.0
  0
LINE
  5
32E
330
18
100
AcDbEntity
  8
0
100
AcDbLine
 10
1.317
 20
1.331
 30
0.0
 11
1.275
 21
1.32
 31
0.0
  0
LINE
  5
32F
330
18
100
AcDbEntity
  8
0
100
AcDbLine
 10
1.275
 20
1.32
 30
0.0
 11
1.244
 21
1.29
 31
0.0
  0
LINE
  5
330
330
18
100
AcDbEntity
  8
0
100
AcDbLine
 10
1.244
 20
1.29
 30
0.0
 11
1.263
 21
1.256
 31
0.0
  0
LINE
  5
331
330
18
100
AcDbEntity
  8
0
100
AcDbLine
 10
1.263
 20
1.256
 30
0.0
 11
1.288
 21
1.225
 31
0.0
  0
LINE
  5
332
330
18
100
AcDbEntity
  8
0
100
AcDbLine
 10
1.288
 20
1.225
 30
0.0
 11
1.323
 21
1.225
 31
0.0
  0
LINE
  5
333
330
18
100
AcDbEntity
  8
0
100
AcDbLine
 10
1.323
 20
1.225
 30
0.0
 11
1.332
 21
1.252
 31
0.0
  0
LINE
  5
334
330
18
100
AcDbEntity
  8
0
100
AcDbLine
 10
1.248
 20
1.353
 30
0.0
 11
1.255
 21
1.408
 31
0.0
  0
LINE
  5
335
330
18
100
AcDbEntity
  8
0
100
AcDbLine
 10
1.255
 20
1.408
 30
0.0
 11
1.228
 21
1.418
 31
0.0
  0
LINE
  5
336
330
18
100
AcDbEntity
  8
0
100
AcDbLine
 10
1.228
 20
1.418
 30
0.0
 11
1.197
 21
1.398
 31
0.0
  0
LINE
  5
337
330
18
100
AcDbEntity
  8
0
100
AcDbLine
 10
1.197
 20
1.398
 30
0.0
 11
1.183
 21
1.368
 31
0.0
  0
LINE
  5
338
330
18
100
AcDbEntity
  8
0
100
AcDbLine
 10
1.183
 20
1.368
 30
0.0
 11
1.205
 21
1.33
 31
0.0
  0
LINE
  5
339
330
18
100
AcDbEntity
  8
0
100
AcDbLine
 10
1.205
 20
1.33
 30
0.0
 11
1.233
 21
1.33
 31
0.0
  0
LINE
  5
33A
330
18
100
AcDbEntity
  8
0
100
AcDbLine
 10
1.233
 20
1.33
 30
0.0
 11
1.248
 21
1.353
 31
0.0
  0
LINE
  5
33B
330
18
100
AcDbEntity
  8
0
100
AcDbLine
 10
1.351
 20
1.138
 30
0.0
 11
1.359
 21
1.177
 31
0.0
  0
LINE
  5
33C
330
18
100
AcDbEntity
  8
0
100
AcDbLine
 10
1.359
 20
1.177
 30
0.0
 11
1.348
 21
1.201
 31
0.0
  0
LINE
  5
33D
330
18
100
AcDbEntity
  8
0
100
AcDbLine
 10
1.348
 20
1.201
 30
0.0
 11
1.315
 21
1.188
 31
0.0
  0
LINE
  5
33E
330
18
100
AcDbEntity
  8
0
100
AcDbLine
 10
1.315
 20
1.188
 30
0.0
 11
1.314
 21
1.148
 31
0.0
  0
LINE
  5
33F
330
18
100
AcDbEntity
  8
0
100
AcDbLine
 10
1.314
 20
1.148
 30
0.0
 11
1.335
 21
1.129
 31
0.0
  0
LINE
  5
340
330
18
100
AcDbEntity
  8
0
100
AcDbLine
 10
1.335
 20
1.129
 30
0.0
 11
1.351
 21
1.138
 31
0.0
  0
LINE
  5
341
330
18
100
AcDbEntity
  8
0
100
AcDbLine
 10
1.177
 20
1.189
 30
0.0
 11
1.183
 21
1.218
 31
0.0
  0
LINE
  5
342
330
18
100
AcDbEntity
  8
0
100
AcDbLine
 10
1.183
 20
1.218
 30
0.0
 11
1.175
 21
1.237
 31
0.0
  0
LINE
  5
343
330
18
100
AcDbEntity
  8
0
100
AcDbLine
 10
1.175
 20
1.237
 30
0.0
 11
1.15
 21
1.227
 31
0.0
  0
LINE
  5
344
330
18
100
AcDbEntity
  8
0
100
AcDbLine
 10
1.15
 20
1.227
 30
0.0
 11
1.149
 21
1.197
 31
0.0
  0
LINE
  5
345
330
18
100
AcDbEntity
  8
0
100
AcDbLine
 10
1.149
 20
1.197
 30
0.0
 11
1.165
 21
1.183
 31
0.0
  0
LINE
  5
346
330
18
100
AcDbEntity
  8
0
100
AcDbLine
 10
1.165
 20
1.183
 30
0.0
 11
1.177
 21
1.189
 31
0.0
  0
LINE
  5
347
330
18
100
AcDbEntity
  8
0
100
AcDbLine
 10
1.385
 20
1.331
 30
0.0
 11
1.389
 21
1.35
 31
0.0
  0
LINE
  5
348
330
18
100
AcDbEntity
  8
0
100
AcDbLine
 10
1.389
 20
1.35
 30
0.0
 11
1.384
 21
1.362
 31
0.0
  0
LINE
  5
349
330
18
100
AcDbEntity
  8
0
100
AcDbLine
 10
1.384
 20
1.362
 30
0.0
 11
1.367
 21
1.356
 31
0.0
  0
LINE
  5
34A
330
18
100
AcDbEntity
  8
0
100
AcDbLine
 10
1.367
 20
1.356
 30
0.0
 11
1.366
 21
1.336
 31
0.0
  0
LINE
  5
34B
330
18
100
AcDbEntity
  8
0
100
AcDbLine
 10
1.366
 20
1.336
 30
0.0
 11
1.377
 21
1.326
 31
0.0
  0
LINE
  5
34C
330
18
100
AcDbEntity
  8
0
100
AcDbLine
 10
1.377
 20
1.326
 30
0.0
 11
1.385
 21
1.331
 31
0.0
  0
LINE
  5
34D
330
18
100
AcDbEntity
  8
0
100
AcDbLine
 10
3.399
 20
1.411
 30
0.0
 11
3.403
 21
1.43
 31
0.0
  0
LINE
  5
34E
330
18
100
AcDbEntity
  8
0
100
AcDbLine
 10
3.403
 20
1.43
 30
0.0
 11
3.397
 21
1.442
 31
0.0
  0
LINE
  5
34F
330
18
100
AcDbEntity
  8
0
100
AcDbLine
 10
3.397
 20
1.442
 30
0.0
 11
3.381
 21
1.436
 31
0.0
  0
LINE
  5
350
330
18
100
AcDbEntity
  8
0
100
AcDbLine
 10
3.381
 20
1.436
 30
0.0
 11
3.38
 21
1.416
 31
0.0
  0
LINE
  5
351
330
18
100
AcDbEntity
  8
0
100
AcDbLine
 10
3.38
 20
1.416
 30
0.0
 11
3.391
 21
1.406
 31
0.0
  0
LINE
  5
352
330
18
100
AcDbEntity
  8
0
100
AcDbLine
 10
3.391
 20
1.406
 30
0.0
 11
3.399
 21
1.411
 31
0.0
  0
LINE
  5
353
330
18
100
AcDbEntity
  8
0
100
AcDbLine
 10
3.191
 20
1.269
 30
0.0
 11
3.197
 21
1.298
 31
0.0
  0
LINE
  5
354
330
18
100
AcDbEntity
  8
0
100
AcDbLine
 10
3.197
 20
1.298
 30
0.0
 11
3.189
 21
1.317
 31
0.0
  0
LINE
  5
355
330
18
100
AcDbEntity
  8
0
100
AcDbLine
 10
3.189
 20
1.317
 30
0.0
 11
3.164
 21
1.307
 31
0.0
  0
LINE
  5
356
330
18
100
AcDbEntity
  8
0
100
AcDbLine
 10
3.164
 20
1.307
 30
0.0
 11
3.163
 21
1.277
 31
0.0
  0
LINE
  5
357
330
18
100
AcDbEntity
  8
0
100
AcDbLine
 10
3.163
 20
1.277
 30
0.0
 11
3.179
 21
1.262
 31
0.0
  0
LINE
  5
358
330
18
100
AcDbEntity
  8
0
100
AcDbLine
 10
3.179
 20
1.262
 30
0.0
 11
3.191
 21
1.269
 31
0.0
  0
LINE
  5
359
330
18
100
AcDbEntity
  8
0
100
AcDbLine
 10
3.365
 20
1.218
 30
0.0
 11
3.373
 21
1.256
 31
0.0
  0
LINE
  5
35A
330
18
100
AcDbEntity
  8
0
100
AcDbLine
 10
3.373
 20
1.256
 30
0.0
 11
3.362
 21
1.281
 31
0.0
  0
LINE
  5
35B
330
18
100
AcDbEntity
  8
0
100
AcDbLine
 10
3.362
 20
1.281
 30
0.0
 11
3.329
 21
1.268
 31
0.0
  0
LINE
  5
35C
330
18
100
AcDbEntity
  8
0
100
AcDbLine
 10
3.329
 20
1.268
 30
0.0
 11
3.328
 21
1.228
 31
0.0
  0
LINE
  5
35D
330
18
100
AcDbEntity
  8
0
100
AcDbLine
 10
3.328
 20
1.228
 30
0.0
 11
3.349
 21
1.209
 31
0.0
  0
LINE
  5
35E
330
18
100
AcDbEntity
  8
0
100
AcDbLine
 10
3.349
 20
1.209
 30
0.0
 11
3.365
 21
1.218
 31
0.0
  0
LINE
  5
35F
330
18
100
AcDbEntity
  8
0
100
AcDbLine
 10
3.114
 20
1.456
 30
0.0
 11
3.109
 21
1.496
 31
0.0
  0
LINE
  5
360
330
18
100
AcDbEntity
  8
0
100
AcDbLine
 10
3.109
 20
1.496
 30
0.0
 11
3.082
 21
1.512
 31
0.0
  0
LINE
  5
361
330
18
100
AcDbEntity
  8
0
100
AcDbLine
 10
3.082
 20
1.512
 30
0.0
 11
3.058
 21
1.489
 31
0.0
  0
LINE
  5
362
330
18
100
AcDbEntity
  8
0
100
AcDbLine
 10
3.058
 20
1.489
 30
0.0
 11
3.042
 21
1.455
 31
0.0
  0
LINE
  5
363
330
18
100
AcDbEntity
  8
0
100
AcDbLine
 10
3.042
 20
1.455
 30
0.0
 11
3.07
 21
1.443
 31
0.0
  0
LINE
  5
364
330
18
100
AcDbEntity
  8
0
100
AcDbLine
 10
3.07
 20
1.443
 30
0.0
 11
3.106
 21
1.445
 31
0.0
  0
LINE
  5
365
330
18
100
AcDbEntity
  8
0
100
AcDbLine
 10
3.106
 20
1.445
 30
0.0
 11
3.114
 21
1.456
 31
0.0
  0
LINE
  5
366
330
18
100
AcDbEntity
  8
0
100
AcDbLine
 10
3.262
 20
1.433
 30
0.0
 11
3.269
 21
1.487
 31
0.0
  0
LINE
  5
367
330
18
100
AcDbEntity
  8
0
100
AcDbLine
 10
3.269
 20
1.487
 30
0.0
 11
3.242
 21
1.498
 31
0.0
  0
LINE
  5
368
330
18
100
AcDbEntity
  8
0
100
AcDbLine
 10
3.242
 20
1.498
 30
0.0
 11
3.211
 21
1.478
 31
0.0
  0
LINE
  5
369
330
18
100
AcDbEntity
  8
0
100
AcDbLine
 10
3.211
 20
1.478
 30
0.0
 11
3.197
 21
1.448
 31
0.0
  0
LINE
  5
36A
330
18
100
AcDbEntity
  8
0
100
AcDbLine
 10
3.197
 20
1.448
 30
0.0
 11
3.218
 21
1.41
 31
0.0
  0
LINE
  5
36B
330
18
100
AcDbEntity
  8
0
100
AcDbLine
 10
3.218
 20
1.41
 30
0.0
 11
3.247
 21
1.41
 31
0.0
  0
LINE
  5
36C
330
18
100
AcDbEntity
  8
0
100
AcDbLine
 10
3.247
 20
1.41
 30
0.0
 11
3.262
 21
1.433
 31
0.0
  0
LINE
  5
36D
330
18
100
AcDbEntity
  8
0
100
AcDbLine
 10
3.346
 20
1.332
 30
0.0
 11
3.342
 21
1.39
 31
0.0
  0
LINE
  5
36E
330
18
100
AcDbEntity
  8
0
100
AcDbLine
 10
3.342
 20
1.39
 30
0.0
 11
3.331
 21
1.411
 31
0.0
  0
LINE
  5
36F
330
18
100
AcDbEntity
  8
0
100
AcDbLine
 10
3.331
 20
1.411
 30
0.0
 11
3.289
 21
1.4
 31
0.0
  0
LINE
  5
370
330
18
100
AcDbEntity
  8
0
100
AcDbLine
 10
3.289
 20
1.4
 30
0.0
 11
3.258
 21
1.37
 31
0.0
  0
LINE
  5
371
330
18
100
AcDbEntity
  8
0
100
AcDbLine
 10
3.258
 20
1.37
 30
0.0
 11
3.277
 21
1.336
 31
0.0
  0
LINE
  5
372
330
18
100
AcDbEntity
  8
0
100
AcDbLine
 10
3.277
 20
1.336
 30
0.0
 11
3.302
 21
1.305
 31
0.0
  0
LINE
  5
373
330
18
100
AcDbEntity
  8
0
100
AcDbLine
 10
3.302
 20
1.305
 30
0.0
 11
3.337
 21
1.305
 31
0.0
  0
LINE
  5
374
330
18
100
AcDbEntity
  8
0
100
AcDbLine
 10
3.337
 20
1.305
 30
0.0
 11
3.346
 21
1.332
 31
0.0
  0
LINE
  5
375
330
18
100
AcDbEntity
  8
0
100
AcDbLine
 10
3.405
 20
1.587
 30
0.0
 11
3.399
 21
1.628
 31
0.0
  0
LINE
  5
376
330
18
100
AcDbEntity
  8
0
100
AcDbLine
 10
3.399
 20
1.628
 30
0.0
 11
3.373
 21
1.643
 31
0.0
  0
LINE
  5
377
330
18
100
AcDbEntity
  8
0
100
AcDbLine
 10
3.373
 20
1.643
 30
0.0
 11
3.348
 21
1.62
 31
0.0
  0
LINE
  5
378
330
18
100
AcDbEntity
  8
0
100
AcDbLine
 10
3.348
 20
1.62
 30
0.0
 11
3.333
 21
1.587
 31
0.0
  0
LINE
  5
379
330
18
100
AcDbEntity
  8
0
100
AcDbLine
 10
3.333
 20
1.587
 30
0.0
 11
3.361
 21
1.575
 31
0.0
  0
LINE
  5
37A
330
18
100
AcDbEntity
  8
0
100
AcDbLine
 10
3.361
 20
1.575
 30
0.0
 11
3.396
 21
1.577
 31
0.0
  0
LINE
  5
37B
330
18
100
AcDbEntity
  8
0
100
AcDbLine
 10
3.396
 20
1.577
 30
0.0
 11
3.405
 21
1.587
 31
0.0
  0
LINE
  5
37C
330
18
100
AcDbEntity
  8
0
100
AcDbLine
 10
3.127
 20
5.053
 30
0.0
 11
3.126
 21
5.166
 31
0.0
  0
LINE
  5
37D
330
18
100
AcDbEntity
  8
0
100
AcDbLine
 10
3.126
 20
5.166
 30
0.0
 11
3.048
 21
5.204
 31
0.0
  0
LINE
  5
37E
330
18
100
AcDbEntity
  8
0
100
AcDbLine
 10
3.048
 20
5.204
 30
0.0
 11
2.984
 21
5.138
 31
0.0
  0
LINE
  5
37F
330
18
100
AcDbEntity
  8
0
100
AcDbLine
 10
2.984
 20
5.138
 30
0.0
 11
2.985
 21
5.015
 31
0.0
  0
LINE
  5
380
330
18
100
AcDbEntity
  8
0
100
AcDbLine
 10
2.985
 20
5.015
 30
0.0
 11
3.064
 21
4.988
 31
0.0
  0
LINE
  5
381
330
18
100
AcDbEntity
  8
0
100
AcDbLine
 10
3.064
 20
4.988
 30
0.0
 11
3.127
 21
5.053
 31
0.0
  0
LINE
  5
382
330
18
100
AcDbEntity
  8
0
100
AcDbLine
 10
2.147
 20
1.363
 30
0.0
 11
2.151
 21
1.382
 31
0.0
  0
LINE
  5
383
330
18
100
AcDbEntity
  8
0
100
AcDbLine
 10
2.151
 20
1.382
 30
0.0
 11
2.145
 21
1.394
 31
0.0
  0
LINE
  5
384
330
18
100
AcDbEntity
  8
0
100
AcDbLine
 10
2.145
 20
1.394
 30
0.0
 11
2.129
 21
1.388
 31
0.0
  0
LINE
  5
385
330
18
100
AcDbEntity
  8
0
100
AcDbLine
 10
2.129
 20
1.388
 30
0.0
 11
2.128
 21
1.368
 31
0.0
  0
LINE
  5
386
330
18
100
AcDbEntity
  8
0
100
AcDbLine
 10
2.128
 20
1.368
 30
0.0
 11
2.139
 21
1.358
 31
0.0
  0
LINE
  5
387
330
18
100
AcDbEntity
  8
0
100
AcDbLine
 10
2.139
 20
1.358
 30
0.0
 11
2.147
 21
1.363
 31
0.0
  0
LINE
  5
388
330
18
100
AcDbEntity
  8
0
100
AcDbLine
 10
1.939
 20
1.221
 30
0.0
 11
1.945
 21
1.25
 31
0.0
  0
LINE
  5
389
330
18
100
AcDbEntity
  8
0
100
AcDbLine
 10
1.945
 20
1.25
 30
0.0
 11
1.937
 21
1.269
 31
0.0
  0
LINE
  5
38A
330
18
100
AcDbEntity
  8
0
100
AcDbLine
 10
1.937
 20
1.269
 30
0.0
 11
1.912
 21
1.259
 31
0.0
  0
LINE
  5
38B
330
18
100
AcDbEntity
  8
0
100
AcDbLine
 10
1.912
 20
1.259
 30
0.0
 11
1.911
 21
1.229
 31
0.0
  0
LINE
  5
38C
330
18
100
AcDbEntity
  8
0
100
AcDbLine
 10
1.911
 20
1.229
 30
0.0
 11
1.927
 21
1.214
 31
0.0
  0
LINE
  5
38D
330
18
100
AcDbEntity
  8
0
100
AcDbLine
 10
1.927
 20
1.214
 30
0.0
 11
1.939
 21
1.221
 31
0.0
  0
LINE
  5
38E
330
18
100
AcDbEntity
  8
0
100
AcDbLine
 10
2.112
 20
1.17
 30
0.0
 11
2.121
 21
1.208
 31
0.0
  0
LINE
  5
38F
330
18
100
AcDbEntity
  8
0
100
AcDbLine
 10
2.121
 20
1.208
 30
0.0
 11
2.11
 21
1.233
 31
0.0
  0
LINE
  5
390
330
18
100
AcDbEntity
  8
0
100
AcDbLine
 10
2.11
 20
1.233
 30
0.0
 11
2.077
 21
1.22
 31
0.0
  0
LINE
  5
391
330
18
100
AcDbEntity
  8
0
100
AcDbLine
 10
2.077
 20
1.22
 30
0.0
 11
2.075
 21
1.18
 31
0.0
  0
LINE
  5
392
330
18
100
AcDbEntity
  8
0
100
AcDbLine
 10
2.075
 20
1.18
 30
0.0
 11
2.097
 21
1.161
 31
0.0
  0
LINE
  5
393
330
18
100
AcDbEntity
  8
0
100
AcDbLine
 10
2.097
 20
1.161
 30
0.0
 11
2.112
 21
1.17
 31
0.0
  0
LINE
  5
394
330
18
100
AcDbEntity
  8
0
100
AcDbLine
 10
1.862
 20
1.408
 30
0.0
 11
1.856
 21
1.448
 31
0.0
  0
LINE
  5
395
330
18
100
AcDbEntity
  8
0
100
AcDbLine
 10
1.856
 20
1.448
 30
0.0
 11
1.83
 21
1.464
 31
0.0
  0
LINE
  5
396
330
18
100
AcDbEntity
  8
0
100
AcDbLine
 10
1.83
 20
1.464
 30
0.0
 11
1.805
 21
1.441
 31
0.0
  0
LINE
  5
397
330
18
100
AcDbEntity
  8
0
100
AcDbLine
 10
1.805
 20
1.441
 30
0.0
 11
1.79
 21
1.407
 31
0.0
  0
LINE
  5
398
330
18
100
AcDbEntity
  8
0
100
AcDbLine
 10
1.79
 20
1.407
 30
0.0
 11
1.818
 21
1.395
 31
0.0
  0
LINE
  5
399
330
18
100
AcDbEntity
  8
0
100
AcDbLine
 10
1.818
 20
1.395
 30
0.0
 11
1.853
 21
1.397
 31
0.0
  0
LINE
  5
39A
330
18
100
AcDbEntity
  8
0
100
AcDbLine
 10
1.853
 20
1.397
 30
0.0
 11
1.862
 21
1.408
 31
0.0
  0
LINE
  5
39B
330
18
100
AcDbEntity
  8
0
100
AcDbLine
 10
2.01
 20
1.385
 30
0.0
 11
2.016
 21
1.44
 31
0.0
  0
LINE
  5
39C
330
18
100
AcDbEntity
  8
0
100
AcDbLine
 10
2.016
 20
1.44
 30
0.0
 11
1.99
 21
1.45
 31
0.0
  0
LINE
  5
39D
330
18
100
AcDbEntity
  8
0
100
AcDbLine
 10
1.99
 20
1.45
 30
0.0
 11
1.959
 21
1.43
 31
0.0
  0
LINE
  5
39E
330
18
100
AcDbEntity
  8
0
100
AcDbLine
 10
1.959
 20
1.43
 30
0.0
 11
1.945
 21
1.4
 31
0.0
  0
LINE
  5
39F
330
18
100
AcDbEntity
  8
0
100
AcDbLine
 10
1.945
 20
1.4
 30
0.0
 11
1.966
 21
1.362
 31
0.0
  0
LINE
  5
3A0
330
18
100
AcDbEntity
  8
0
100
AcDbLine
 10
1.966
 20
1.362
 30
0.0
 11
1.994
 21
1.362
 31
0.0
  0
LINE
  5
3A1
330
18
100
AcDbEntity
  8
0
100
AcDbLine
 10
1.994
 20
1.362
 30
0.0
 11
2.01
 21
1.385
 31
0.0
  0
LINE
  5
3A2
330
18
100
AcDbEntity
  8
0
100
AcDbLine
 10
2.094
 20
1.284
 30
0.0
 11
2.09
 21
1.342
 31
0.0
  0
LINE
  5
3A3
330
18
100
AcDbEntity
  8
0
100
AcDbLine
 10
2.09
 20
1.342
 30
0.0
 11
2.079
 21
1.363
 31
0.0
  0
LINE
  5
3A4
330
18
100
AcDbEntity
  8
0
100
AcDbLine
 10
2.079
 20
1.363
 30
0.0
 11
2.037
 21
1.352
 31
0.0
  0
LINE
  5
3A5
330
18
100
AcDbEntity
  8
0
100
AcDbLine
 10
2.037
 20
1.352
 30
0.0
 11
2.005
 21
1.322
 31
0.0
  0
LINE
  5
3A6
330
18
100
AcDbEntity
  8
0
100
AcDbLine
 10
2.005
 20
1.322
 30
0.0
 11
2.025
 21
1.288
 31
0.0
  0
LINE
  5
3A7
330
18
100
AcDbEntity
  8
0
100
AcDbLine
 10
2.025
 20
1.288
 30
0.0
 11
2.05
 21
1.257
 31
0.0
  0
LINE
  5
3A8
330
18
100
AcDbEntity
  8
0
100
AcDbLine
 10
2.05
 20
1.257
 30
0.0
 11
2.085
 21
1.257
 31
0.0
  0
LINE
  5
3A9
330
18
100
AcDbEntity
  8
0
100
AcDbLine
 10
2.085
 20
1.257
 30
0.0
 11
2.094
 21
1.284
 31
0.0
  0
LINE
  5
3AA
330
18
100
AcDbEntity
  8
0
100
AcDbLine
 10
1.648
 20
1.08
 30
0.0
 11
1.655
 21
1.109
 31
0.0
  0
LINE
  5
3AB
330
18
100
AcDbEntity
  8
0
100
AcDbLine
 10
1.655
 20
1.109
 30
0.0
 11
1.646
 21
1.128
 31
0.0
  0
LINE
  5
3AC
330
18
100
AcDbEntity
  8
0
100
AcDbLine
 10
1.646
 20
1.128
 30
0.0
 11
1.621
 21
1.118
 31
0.0
  0
LINE
  5
3AD
330
18
100
AcDbEntity
  8
0
100
AcDbLine
 10
1.621
 20
1.118
 30
0.0
 11
1.62
 21
1.088
 31
0.0
  0
LINE
  5
3AE
330
18
100
AcDbEntity
  8
0
100
AcDbLine
 10
1.62
 20
1.088
 30
0.0
 11
1.636
 21
1.074
 31
0.0
  0
LINE
  5
3AF
330
18
100
AcDbEntity
  8
0
100
AcDbLine
 10
1.636
 20
1.074
 30
0.0
 11
1.648
 21
1.08
 31
0.0
  0
LINE
  5
3B0
330
18
100
AcDbEntity
  8
0
100
AcDbLine
 10
1.572
 20
1.267
 30
0.0
 11
1.566
 21
1.308
 31
0.0
  0
LINE
  5
3B1
330
18
100
AcDbEntity
  8
0
100
AcDbLine
 10
1.566
 20
1.308
 30
0.0
 11
1.539
 21
1.323
 31
0.0
  0
LINE
  5
3B2
330
18
100
AcDbEntity
  8
0
100
AcDbLine
 10
1.539
 20
1.323
 30
0.0
 11
1.515
 21
1.3
 31
0.0
  0
LINE
  5
3B3
330
18
100
AcDbEntity
  8
0
100
AcDbLine
 10
1.515
 20
1.3
 30
0.0
 11
1.5
 21
1.267
 31
0.0
  0
LINE
  5
3B4
330
18
100
AcDbEntity
  8
0
100
AcDbLine
 10
1.5
 20
1.267
 30
0.0
 11
1.528
 21
1.255
 31
0.0
  0
LINE
  5
3B5
330
18
100
AcDbEntity
  8
0
100
AcDbLine
 10
1.528
 20
1.255
 30
0.0
 11
1.563
 21
1.257
 31
0.0
  0
LINE
  5
3B6
330
18
100
AcDbEntity
  8
0
100
AcDbLine
 10
1.563
 20
1.257
 30
0.0
 11
1.572
 21
1.267
 31
0.0
  0
LINE
  5
3B7
330
18
100
AcDbEntity
  8
0
100
AcDbLine
 10
1.76
 20
1.253
 30
0.0
 11
1.766
 21
1.307
 31
0.0
  0
LINE
  5
3B8
330
18
100
AcDbEntity
  8
0
100
AcDbLine
 10
1.766
 20
1.307
 30
0.0
 11
1.74
 21
1.317
 31
0.0
  0
LINE
  5
3B9
330
18
100
AcDbEntity
  8
0
100
AcDbLine
 10
1.74
 20
1.317
 30
0.0
 11
1.709
 21
1.298
 31
0.0
  0
LINE
  5
3BA
330
18
100
AcDbEntity
  8
0
100
AcDbLine
 10
1.709
 20
1.298
 30
0.0
 11
1.695
 21
1.268
 31
0.0
  0
LINE
  5
3BB
330
18
100
AcDbEntity
  8
0
100
AcDbLine
 10
1.695
 20
1.268
 30
0.0
 11
1.716
 21
1.229
 31
0.0
  0
LINE
  5
3BC
330
18
100
AcDbEntity
  8
0
100
AcDbLine
 10
1.716
 20
1.229
 30
0.0
 11
1.744
 21
1.23
 31
0.0
  0
LINE
  5
3BD
330
18
100
AcDbEntity
  8
0
100
AcDbLine
 10
1.744
 20
1.23
 30
0.0
 11
1.76
 21
1.253
 31
0.0
  0
LINE
  5
3BE
330
18
100
AcDbEntity
  8
0
100
AcDbLine
 10
1.696
 20
1.146
 30
0.0
 11
1.703
 21
1.175
 31
0.0
  0
LINE
  5
3BF
330
18
100
AcDbEntity
  8
0
100
AcDbLine
 10
1.703
 20
1.175
 30
0.0
 11
1.694
 21
1.193
 31
0.0
  0
LINE
  5
3C0
330
18
100
AcDbEntity
  8
0
100
AcDbLine
 10
1.694
 20
1.193
 30
0.0
 11
1.669
 21
1.184
 31
0.0
  0
LINE
  5
3C1
330
18
100
AcDbEntity
  8
0
100
AcDbLine
 10
1.669
 20
1.184
 30
0.0
 11
1.668
 21
1.153
 31
0.0
  0
LINE
  5
3C2
330
18
100
AcDbEntity
  8
0
100
AcDbLine
 10
1.668
 20
1.153
 30
0.0
 11
1.684
 21
1.139
 31
0.0
  0
LINE
  5
3C3
330
18
100
AcDbEntity
  8
0
100
AcDbLine
 10
1.684
 20
1.139
 30
0.0
 11
1.696
 21
1.146
 31
0.0
  0
LINE
  5
3C4
330
18
100
AcDbEntity
  8
0
100
AcDbLine
 10
2.49
 20
0.973
 30
0.0
 11
2.496
 21
1.002
 31
0.0
  0
LINE
  5
3C5
330
18
100
AcDbEntity
  8
0
100
AcDbLine
 10
2.496
 20
1.002
 30
0.0
 11
2.488
 21
1.021
 31
0.0
  0
LINE
  5
3C6
330
18
100
AcDbEntity
  8
0
100
AcDbLine
 10
2.488
 20
1.021
 30
0.0
 11
2.463
 21
1.011
 31
0.0
  0
LINE
  5
3C7
330
18
100
AcDbEntity
  8
0
100
AcDbLine
 10
2.463
 20
1.011
 30
0.0
 11
2.462
 21
0.981
 31
0.0
  0
LINE
  5
3C8
330
18
100
AcDbEntity
  8
0
100
AcDbLine
 10
2.462
 20
0.981
 30
0.0
 11
2.478
 21
0.9670000000000001
 31
0.0
  0
LINE
  5
3C9
330
18
100
AcDbEntity
  8
0
100
AcDbLine
 10
2.478
 20
0.9670000000000001
 30
0.0
 11
2.49
 21
0.973
 31
0.0
  0
LINE
  5
3CA
330
18
100
AcDbEntity
  8
0
100
AcDbLine
 10
2.664
 20
0.922
 30
0.0
 11
2.672
 21
0.961
 31
0.0
  0
LINE
  5
3CB
330
18
100
AcDbEntity
  8
0
100
AcDbLine
 10
2.672
 20
0.961
 30
0.0
 11
2.661
 21
0.985
 31
0.0
  0
LINE
  5
3CC
330
18
100
AcDbEntity
  8
0
100
AcDbLine
 10
2.661
 20
0.985
 30
0.0
 11
2.628
 21
0.973
 31
0.0
  0
LINE
  5
3CD
330
18
100
AcDbEntity
  8
0
100
AcDbLine
 10
2.628
 20
0.973
 30
0.0
 11
2.626
 21
0.9320000000000001
 31
0.0
  0
LINE
  5
3CE
330
18
100
AcDbEntity
  8
0
100
AcDbLine
 10
2.626
 20
0.9320000000000001
 30
0.0
 11
2.648
 21
0.9129999999999999
 31
0.0
  0
LINE
  5
3CF
330
18
100
AcDbEntity
  8
0
100
AcDbLine
 10
2.648
 20
0.9129999999999999
 30
0.0
 11
2.664
 21
0.922
 31
0.0
  0
LINE
  5
3D0
330
18
100
AcDbEntity
  8
0
100
AcDbLine
 10
2.603
 20
0.846
 30
0.0
 11
2.597
 21
0.8859999999999999
 31
0.0
  0
LINE
  5
3D1
330
18
100
AcDbEntity
  8
0
100
AcDbLine
 10
2.597
 20
0.8859999999999999
 30
0.0
 11
2.571
 21
0.902
 31
0.0
  0
LINE
  5
3D2
330
18
100
AcDbEntity
  8
0
100
AcDbLine
 10
2.571
 20
0.902
 30
0.0
 11
2.546
 21
0.879
 31
0.0
  0
LINE
  5
3D3
330
18
100
AcDbEntity
  8
0
100
AcDbLine
 10
2.546
 20
0.879
 30
0.0
 11
2.531
 21
0.845
 31
0.0
  0
LINE
  5
3D4
330
18
100
AcDbEntity
  8
0
100
AcDbLine
 10
2.531
 20
0.845
 30
0.0
 11
2.559
 21
0.833
 31
0.0
  0
LINE
  5
3D5
330
18
100
AcDbEntity
  8
0
100
AcDbLine
 10
2.559
 20
0.833
 30
0.0
 11
2.594
 21
0.835
 31
0.0
  0
LINE
  5
3D6
330
18
100
AcDbEntity
  8
0
100
AcDbLine
 10
2.594
 20
0.835
 30
0.0
 11
2.603
 21
0.846
 31
0.0
  0
LINE
  5
3D7
330
18
100
AcDbEntity
  8
0
100
AcDbLine
 10
2.718
 20
1.388
 30
0.0
 11
2.713
 21
1.428
 31
0.0
  0
LINE
  5
3D8
330
18
100
AcDbEntity
  8
0
100
AcDbLine
 10
2.713
 20
1.428
 30
0.0
 11
2.686
 21
1.444
 31
0.0
  0
LINE
  5
3D9
330
18
100
AcDbEntity
  8
0
100
AcDbLine
 10
2.686
 20
1.444
 30
0.0
 11
2.662
 21
1.421
 31
0.0
  0
LINE
  5
3DA
330
18
100
AcDbEntity
  8
0
100
AcDbLine
 10
2.662
 20
1.421
 30
0.0
 11
2.646
 21
1.387
 31
0.0
  0
LINE
  5
3DB
330
18
100
AcDbEntity
  8
0
100
AcDbLine
 10
2.646
 20
1.387
 30
0.0
 11
2.674
 21
1.375
 31
0.0
  0
LINE
  5
3DC
330
18
100
AcDbEntity
  8
0
100
AcDbLine
 10
2.674
 20
1.375
 30
0.0
 11
2.71
 21
1.377
 31
0.0
  0
LINE
  5
3DD
330
18
100
AcDbEntity
  8
0
100
AcDbLine
 10
2.71
 20
1.377
 30
0.0
 11
2.718
 21
1.388
 31
0.0
  0
LINE
  5
3DE
330
18
100
AcDbEntity
  8
0
100
AcDbLine
 10
2.866
 20
1.365
 30
0.0
 11
2.873
 21
1.419
 31
0.0
  0
LINE
  5
3DF
330
18
100
AcDbEntity
  8
0
100
AcDbLine
 10
2.873
 20
1.419
 30
0.0
 11
2.846
 21
1.429
 31
0.0
  0
LINE
  5
3E0
330
18
100
AcDbEntity
  8
0
100
AcDbLine
 10
2.846
 20
1.429
 30
0.0
 11
2.815
 21
1.41
 31
0.0
  0
LINE
  5
3E1
330
18
100
AcDbEntity
  8
0
100
AcDbLine
 10
2.815
 20
1.41
 30
0.0
 11
2.801
 21
1.38
 31
0.0
  0
LINE
  5
3E2
330
18
100
AcDbEntity
  8
0
100
AcDbLine
 10
2.801
 20
1.38
 30
0.0
 11
2.822
 21
1.341
 31
0.0
  0
LINE
  5
3E3
330
18
100
AcDbEntity
  8
0
100
AcDbLine
 10
2.822
 20
1.341
 30
0.0
 11
2.851
 21
1.342
 31
0.0
  0
LINE
  5
3E4
330
18
100
AcDbEntity
  8
0
100
AcDbLine
 10
2.851
 20
1.342
 30
0.0
 11
2.866
 21
1.365
 31
0.0
  0
LINE
  5
3E5
330
18
100
AcDbEntity
  8
0
100
AcDbLine
 10
2.95
 20
1.263
 30
0.0
 11
2.946
 21
1.321
 31
0.0
  0
LINE
  5
3E6
330
18
100
AcDbEntity
  8
0
100
AcDbLine
 10
2.946
 20
1.321
 30
0.0
 11
2.935
 21
1.342
 31
0.0
  0
LINE
  5
3E7
330
18
100
AcDbEntity
  8
0
100
AcDbLine
 10
2.935
 20
1.342
 30
0.0
 11
2.893
 21
1.331
 31
0.0
  0
LINE
  5
3E8
330
18
100
AcDbEntity
  8
0
100
AcDbLine
 10
2.893
 20
1.331
 30
0.0
 11
2.861
 21
1.301
 31
0.0
  0
LINE
  5
3E9
330
18
100
AcDbEntity
  8
0
100
AcDbLine
 10
2.861
 20
1.301
 30
0.0
 11
2.881
 21
1.268
 31
0.0
  0
LINE
  5
3EA
330
18
100
AcDbEntity
  8
0
100
AcDbLine
 10
2.881
 20
1.268
 30
0.0
 11
2.906
 21
1.237
 31
0.0
  0
LINE
  5
3EB
330
18
100
AcDbEntity
  8
0
100
AcDbLine
 10
2.906
 20
1.237
 30
0.0
 11
2.941
 21
1.237
 31
0.0
  0
LINE
  5
3EC
330
18
100
AcDbEntity
  8
0
100
AcDbLine
 10
2.941
 20
1.237
 30
0.0
 11
2.95
 21
1.263
 31
0.0
  0
LINE
  5
3ED
330
18
100
AcDbEntity
  8
0
100
AcDbLine
 10
2.795
 20
1.201
 30
0.0
 11
2.801
 21
1.23
 31
0.0
  0
LINE
  5
3EE
330
18
100
AcDbEntity
  8
0
100
AcDbLine
 10
2.801
 20
1.23
 30
0.0
 11
2.793
 21
1.248
 31
0.0
  0
LINE
  5
3EF
330
18
100
AcDbEntity
  8
0
100
AcDbLine
 10
2.793
 20
1.248
 30
0.0
 11
2.768
 21
1.239
 31
0.0
  0
LINE
  5
3F0
330
18
100
AcDbEntity
  8
0
100
AcDbLine
 10
2.768
 20
1.239
 30
0.0
 11
2.767
 21
1.208
 31
0.0
  0
LINE
  5
3F1
330
18
100
AcDbEntity
  8
0
100
AcDbLine
 10
2.767
 20
1.208
 30
0.0
 11
2.783
 21
1.194
 31
0.0
  0
LINE
  5
3F2
330
18
100
AcDbEntity
  8
0
100
AcDbLine
 10
2.783
 20
1.194
 30
0.0
 11
2.795
 21
1.201
 31
0.0
  0
LINE
  5
3F3
330
18
100
AcDbEntity
  8
0
100
AcDbLine
 10
2.407
 20
0.72
 30
0.0
 11
2.401
 21
0.7609999999999999
 31
0.0
  0
LINE
  5
3F4
330
18
100
AcDbEntity
  8
0
100
AcDbLine
 10
2.401
 20
0.7609999999999999
 30
0.0
 11
2.374
 21
0.7759999999999999
 31
0.0
  0
LINE
  5
3F5
330
18
100
AcDbEntity
  8
0
100
AcDbLine
 10
2.374
 20
0.7759999999999999
 30
0.0
 11
2.35
 21
0.753
 31
0.0
  0
LINE
  5
3F6
330
18
100
AcDbEntity
  8
0
100
AcDbLine
 10
2.35
 20
0.753
 30
0.0
 11
2.335
 21
0.72
 31
0.0
  0
LINE
  5
3F7
330
18
100
AcDbEntity
  8
0
100
AcDbLine
 10
2.335
 20
0.72
 30
0.0
 11
2.363
 21
0.708
 31
0.0
  0
LINE
  5
3F8
330
18
100
AcDbEntity
  8
0
100
AcDbLine
 10
2.363
 20
0.708
 30
0.0
 11
2.398
 21
0.71
 31
0.0
  0
LINE
  5
3F9
330
18
100
AcDbEntity
  8
0
100
AcDbLine
 10
2.398
 20
0.71
 30
0.0
 11
2.407
 21
0.72
 31
0.0
  0
LINE
  5
3FA
330
18
100
AcDbEntity
  8
0
100
AcDbLine
 10
2.375
 20
0.866
 30
0.0
 11
2.383
 21
0.905
 31
0.0
  0
LINE
  5
3FB
330
18
100
AcDbEntity
  8
0
100
AcDbLine
 10
2.383
 20
0.905
 30
0.0
 11
2.373
 21
0.9290000000000001
 31
0.0
  0
LINE
  5
3FC
330
18
100
AcDbEntity
  8
0
100
AcDbLine
 10
2.373
 20
0.9290000000000001
 30
0.0
 11
2.339
 21
0.917
 31
0.0
  0
LINE
  5
3FD
330
18
100
AcDbEntity
  8
0
100
AcDbLine
 10
2.339
 20
0.917
 30
0.0
 11
2.338
 21
0.8759999999999999
 31
0.0
  0
LINE
  5
3FE
330
18
100
AcDbEntity
  8
0
100
AcDbLine
 10
2.338
 20
0.8759999999999999
 30
0.0
 11
2.359
 21
0.857
 31
0.0
  0
LINE
  5
3FF
330
18
100
AcDbEntity
  8
0
100
AcDbLine
 10
2.359
 20
0.857
 30
0.0
 11
2.375
 21
0.866
 31
0.0
  0
LINE
  5
400
330
18
100
AcDbEntity
  8
0
100
AcDbLine
 10
2.28
 20
0.795
 30
0.0
 11
2.286
 21
0.8240000000000001
 31
0.0
  0
LINE
  5
401
330
18
100
AcDbEntity
  8
0
100
AcDbLine
 10
2.286
 20
0.8240000000000001
 30
0.0
 11
2.278
 21
0.8420000000000001
 31
0.0
  0
LINE
  5
402
330
18
100
AcDbEntity
  8
0
100
AcDbLine
 10
2.278
 20
0.8420000000000001
 30
0.0
 11
2.253
 21
0.833
 31
0.0
  0
LINE
  5
403
330
18
100
AcDbEntity
  8
0
100
AcDbLine
 10
2.253
 20
0.833
 30
0.0
 11
2.252
 21
0.8029999999999999
 31
0.0
  0
LINE
  5
404
330
18
100
AcDbEntity
  8
0
100
AcDbLine
 10
2.252
 20
0.8029999999999999
 30
0.0
 11
2.268
 21
0.7879999999999999
 31
0.0
  0
LINE
  5
405
330
18
100
AcDbEntity
  8
0
100
AcDbLine
 10
2.268
 20
0.7879999999999999
 30
0.0
 11
2.28
 21
0.795
 31
0.0
  0
ARC
  5
406
330
18
100
AcDbEntity
  8
0
100
AcDbCircle
 10
2.734
 20
3.929
 30
0.0
 40
0.019
100
AcDbArc
 50
270.566
 51
301.457
  0
ARC
  5
407
330
18
100
AcDbEntity
  8
0
100
AcDbCircle
 10
2.728
 20
3.939
 30
0.0
 40
0.03
100
AcDbArc
 50
301.457
 51
325.869
  0
ARC
  5
408
330
18
100
AcDbEntity
  8
0
100
AcDbCircle
 10
2.719
 20
3.945
 30
0.0
 40
0.041
100
AcDbArc
 50
325.869
 51
344.564
  0
ARC
  5
409
330
18
100
AcDbEntity
  8
0
100
AcDbCircle
 10
2.705
 20
3.949
 30
0.0
 40
0.056
100
AcDbArc
 50
344.564
 51
0.5660000000000001
  0
ARC
  5
40A
330
18
100
AcDbEntity
  8
0
100
AcDbCircle
 10
2.705
 20
3.949
 30
0.0
 40
0.056
100
AcDbArc
 50
0.5660000000000001
 51
16.567
  0
ARC
  5
40B
330
18
100
AcDbEntity
  8
0
100
AcDbCircle
 10
2.719
 20
3.953
 30
0.0
 40
0.041
100
AcDbArc
 50
16.567
 51
35.262
  0
ARC
  5
40C
330
18
100
AcDbEntity
  8
0
100
AcDbCircle
 10
2.728
 20
3.96
 30
0.0
 40
0.03
100
AcDbArc
 50
35.262
 51
59.67400000000001
  0
ARC
  5
40D
330
18
100
AcDbEntity
  8
0
100
AcDbCircle
 10
2.733
 20
3.969
 30
0.0
 40
0.019
100
AcDbArc
 50
59.67400000000001
 51
90.56599999999999
  0
ARC
  5
40E
330
18
100
AcDbEntity
  8
0
100
AcDbCircle
 10
2.733
 20
3.969
 30
0.0
 40
0.019
100
AcDbArc
 50
90.56599999999999
 51
121.457
  0
ARC
  5
40F
330
18
100
AcDbEntity
  8
0
100
AcDbCircle
 10
2.739
 20
3.96
 30
0.0
 40
0.03
100
AcDbArc
 50
121.457
 51
145.869
  0
ARC
  5
410
330
18
100
AcDbEntity
  8
0
100
AcDbCircle
 10
2.748
 20
3.954
 30
0.0
 40
0.041
100
AcDbArc
 50
145.869
 51
164.564
  0
ARC
  5
411
330
18
100
AcDbEntity
  8
0
100
AcDbCircle
 10
2.762
 20
3.95
 30
0.0
 40
0.056
100
AcDbArc
 50
164.564
 51
180.566
  0
ARC
  5
412
330
18
100
AcDbEntity
  8
0
100
AcDbCircle
 10
2.762
 20
3.95
 30
0.0
 40
0.056
100
AcDbArc
 50
180.566
 51
196.567
  0
ARC
  5
413
330
18
100
AcDbEntity
  8
0
100
AcDbCircle
 10
2.748
 20
3.945
 30
0.0
 40
0.041
100
AcDbArc
 50
196.567
 51
215.262
  0
ARC
  5
414
330
18
100
AcDbEntity
  8
0
100
AcDbCircle
 10
2.739
 20
3.939
 30
0.0
 40
0.03
100
AcDbArc
 50
215.262
 51
239.674
  0
ARC
  5
415
330
18
100
AcDbEntity
  8
0
100
AcDbCircle
 10
2.734
 20
3.929
 30
0.0
 40
0.019
100
AcDbArc
 50
239.674
 51
270.566
  0
ARC
  5
416
330
18
100
AcDbEntity
  8
0
100
AcDbCircle
 10
2.716
 20
3.932
 30
0.0
 40
0.019
100
AcDbArc
 50
270.566
 51
289.265
  0
ARC
  5
417
330
18
100
AcDbEntity
  8
0
100
AcDbCircle
 10
2.71
 20
3.963
 30
0.0
 40
0.03
100
AcDbArc
 50
54.45100000000001
 51
59.67400000000001
  0
ARC
  5
418
330
18
100
AcDbEntity
  8
0
100
AcDbCircle
 10
2.715
 20
3.972
 30
0.0
 40
0.019
100
AcDbArc
 50
59.67400000000001
 51
90.56599999999999
  0
ARC
  5
419
330
18
100
AcDbEntity
  8
0
100
AcDbCircle
 10
2.715
 20
3.972
 30
0.0
 40
0.019
100
AcDbArc
 50
90.56599999999999
 51
121.457
  0
ARC
  5
41A
330
18
100
AcDbEntity
  8
0
100
AcDbCircle
 10
2.721
 20
3.963
 30
0.0
 40
0.03
100
AcDbArc
 50
121.457
 51
145.869
  0
ARC
  5
41B
330
18
100
AcDbEntity
  8
0
100
AcDbCircle
 10
2.73
 20
3.957
 30
0.0
 40
0.041
100
AcDbArc
 50
145.869
 51
164.564
  0
ARC
  5
41C
330
18
100
AcDbEntity
  8
0
100
AcDbCircle
 10
2.744
 20
3.953
 30
0.0
 40
0.056
100
AcDbArc
 50
164.564
 51
180.566
  0
ARC
  5
41D
330
18
100
AcDbEntity
  8
0
100
AcDbCircle
 10
2.744
 20
3.953
 30
0.0
 40
0.056
100
AcDbArc
 50
180.566
 51
196.567
  0
ARC
  5
41E
330
18
100
AcDbEntity
  8
0
100
AcDbCircle
 10
2.73
 20
3.948
 30
0.0
 40
0.041
100
AcDbArc
 50
196.567
 51
215.262
  0
ARC
  5
41F
330
18
100
AcDbEntity
  8
0
100
AcDbCircle
 10
2.721
 20
3.942
 30
0.0
 40
0.03
100
AcDbArc
 50
215.262
 51
239.674
  0
ARC
  5
420
330
18
100
AcDbEntity
  8
0
100
AcDbCircle
 10
2.716
 20
3.932
 30
0.0
 40
0.019
100
AcDbArc
 50
239.674
 51
270.566
  0
ARC
  5
421
330
18
100
AcDbEntity
  8
0
100
AcDbCircle
 10
2.613
 20
4.592
 30
0.0
 40
0.03
100
AcDbArc
 50
54.45100000000001
 51
59.67400000000001
  0
ARC
  5
422
330
18
100
AcDbEntity
  8
0
100
AcDbCircle
 10
2.619
 20
4.601
 30
0.0
 40
0.019
100
AcDbArc
 50
59.67400000000001
 51
90.56599999999999
  0
ARC
  5
423
330
18
100
AcDbEntity
  8
0
100
AcDbCircle
 10
2.619
 20
4.601
 30
0.0
 40
0.019
100
AcDbArc
 50
90.56599999999999
 51
121.457
  0
ARC
  5
424
330
18
100
AcDbEntity
  8
0
100
AcDbCircle
 10
2.625
 20
4.592
 30
0.0
 40
0.03
100
AcDbArc
 50
121.457
 51
145.869
  0
ARC
  5
425
330
18
100
AcDbEntity
  8
0
100
AcDbCircle
 10
2.634
 20
4.586
 30
0.0
 40
0.041
100
AcDbArc
 50
145.869
 51
164.564
  0
ARC
  5
426
330
18
100
AcDbEntity
  8
0
100
AcDbCircle
 10
2.648
 20
4.582
 30
0.0
 40
0.056
100
AcDbArc
 50
164.564
 51
180.566
  0
ARC
  5
427
330
18
100
AcDbEntity
  8
0
100
AcDbCircle
 10
2.648
 20
4.582
 30
0.0
 40
0.056
100
AcDbArc
 50
180.566
 51
196.567
  0
ARC
  5
428
330
18
100
AcDbEntity
  8
0
100
AcDbCircle
 10
2.634
 20
4.578
 30
0.0
 40
0.041
100
AcDbArc
 50
196.567
 51
215.262
  0
ARC
  5
429
330
18
100
AcDbEntity
  8
0
100
AcDbCircle
 10
2.625
 20
4.571000000000001
 30
0.0
 40
0.03
100
AcDbArc
 50
215.262
 51
239.674
  0
ARC
  5
42A
330
18
100
AcDbEntity
  8
0
100
AcDbCircle
 10
2.619
 20
4.562
 30
0.0
 40
0.019
100
AcDbArc
 50
239.674
 51
270.566
  0
ARC
  5
42B
330
18
100
AcDbEntity
  8
0
100
AcDbCircle
 10
2.619
 20
4.562
 30
0.0
 40
0.019
100
AcDbArc
 50
270.566
 51
289.265
  0
ARC
  5
42C
330
18
100
AcDbEntity
  8
0
100
AcDbCircle
 10
2.637
 20
4.559
 30
0.0
 40
0.019
100
AcDbArc
 50
270.566
 51
301.457
  0
ARC
  5
42D
330
18
100
AcDbEntity
  8
0
100
AcDbCircle
 10
2.632
 20
4.568000000000001
 30
0.0
 40
0.03
100
AcDbArc
 50
301.457
 51
325.869
  0
ARC
  5
42E
330
18
100
AcDbEntity
  8
0
100
AcDbCircle
 10
2.622
 20
4.574
 30
0.0
 40
0.041
100
AcDbArc
 50
325.869
 51
344.564
  0
ARC
  5
42F
330
18
100
AcDbEntity
  8
0
100
AcDbCircle
 10
2.608
 20
4.578
 30
0.0
 40
0.056
100
AcDbArc
 50
344.564
 51
0.5660000000000001
  0
ARC
  5
430
330
18
100
AcDbEntity
  8
0
100
AcDbCircle
 10
2.608
 20
4.578
 30
0.0
 40
0.056
100
AcDbArc
 50
0.5660000000000001
 51
16.567
  0
ARC
  5
431
330
18
100
AcDbEntity
  8
0
100
AcDbCircle
 10
2.622
 20
4.583
 30
0.0
 40
0.041
100
AcDbArc
 50
16.567
 51
35.262
  0
ARC
  5
432
330
18
100
AcDbEntity
  8
0
100
AcDbCircle
 10
2.631
 20
4.589
 30
0.0
 40
0.03
100
AcDbArc
 50
35.262
 51
59.67400000000001
  0
ARC
  5
433
330
18
100
AcDbEntity
  8
0
100
AcDbCircle
 10
2.637
 20
4.598
 30
0.0
 40
0.019
100
AcDbArc
 50
59.67400000000001
 51
90.56599999999999
  0
ARC
  5
434
330
18
100
AcDbEntity
  8
0
100
AcDbCircle
 10
2.637
 20
4.598
 30
0.0
 40
0.019
100
AcDbArc
 50
90.56599999999999
 51
121.457
  0
ARC
  5
435
330
18
100
AcDbEntity
  8
0
100
AcDbCircle
 10
2.643
 20
4.589
 30
0.0
 40
0.03
100
AcDbArc
 50
121.457
 51
145.869
  0
ARC
  5
436
330
18
100
AcDbEntity
  8
0
100
AcDbCircle
 10
2.652
 20
4.583
 30
0.0
 40
0.041
100
AcDbArc
 50
145.869
 51
164.564
  0
ARC
  5
437
330
18
100
AcDbEntity
  8
0
100
AcDbCircle
 10
2.666
 20
4.579
 30
0.0
 40
0.056
100
AcDbArc
 50
164.564
 51
180.566
  0
ARC
  5
438
330
18
100
AcDbEntity
  8
0
100
AcDbCircle
 10
2.666
 20
4.579
 30
0.0
 40
0.056
100
AcDbArc
 50
180.566
 51
196.567
  0
ARC
  5
439
330
18
100
AcDbEntity
  8
0
100
AcDbCircle
 10
2.652
 20
4.575
 30
0.0
 40
0.041
100
AcDbArc
 50
196.567
 51
215.262
  0
ARC
  5
43A
330
18
100
AcDbEntity
  8
0
100
AcDbCircle
 10
2.643
 20
4.568000000000001
 30
0.0
 40
0.03
100
AcDbArc
 50
215.262
 51
239.674
  0
ARC
  5
43B
330
18
100
AcDbEntity
  8
0
100
AcDbCircle
 10
2.637
 20
4.559
 30
0.0
 40
0.019
100
AcDbArc
 50
239.674
 51
270.566
  0
ARC
  5
43C
330
18
100
AcDbEntity
  8
0
100
AcDbCircle
 10
3.227
 20
4.791
 30
0.0
 40
0.03
100
AcDbArc
 50
54.45100000000001
 51
59.67400000000001
  0
ARC
  5
43D
330
18
100
AcDbEntity
  8
0
100
AcDbCircle
 10
3.233
 20
4.8
 30
0.0
 40
0.019
100
AcDbArc
 50
59.67400000000001
 51
90.56599999999999
  0
ARC
  5
43E
330
18
100
AcDbEntity
  8
0
100
AcDbCircle
 10
3.233
 20
4.8
 30
0.0
 40
0.019
100
AcDbArc
 50
90.56599999999999
 51
121.457
  0
ARC
  5
43F
330
18
100
AcDbEntity
  8
0
100
AcDbCircle
 10
3.239
 20
4.791
 30
0.0
 40
0.03
100
AcDbArc
 50
121.457
 51
145.869
  0
ARC
  5
440
330
18
100
AcDbEntity
  8
0
100
AcDbCircle
 10
3.248
 20
4.785
 30
0.0
 40
0.041
100
AcDbArc
 50
145.869
 51
164.564
  0
ARC
  5
441
330
18
100
AcDbEntity
  8
0
100
AcDbCircle
 10
3.262
 20
4.781000000000001
 30
0.0
 40
0.056
100
AcDbArc
 50
164.564
 51
180.566
  0
ARC
  5
442
330
18
100
AcDbEntity
  8
0
100
AcDbCircle
 10
3.262
 20
4.781000000000001
 30
0.0
 40
0.056
100
AcDbArc
 50
180.566
 51
196.567
  0
ARC
  5
443
330
18
100
AcDbEntity
  8
0
100
AcDbCircle
 10
3.248
 20
4.776
 30
0.0
 40
0.041
100
AcDbArc
 50
196.567
 51
215.262
  0
ARC
  5
444
330
18
100
AcDbEntity
  8
0
100
AcDbCircle
 10
3.239
 20
4.77
 30
0.0
 40
0.03
100
AcDbArc
 50
215.262
 51
239.674
  0
ARC
  5
445
330
18
100
AcDbEntity
  8
0
100
AcDbCircle
 10
3.233
 20
4.76
 30
0.0
 40
0.019
100
AcDbArc
 50
239.674
 51
270.566
  0
ARC
  5
446
330
18
100
AcDbEntity
  8
0
100
AcDbCircle
 10
3.233
 20
4.76
 30
0.0
 40
0.019
100
AcDbArc
 50
270.566
 51
289.265
  0
ARC
  5
447
330
18
100
AcDbEntity
  8
0
100
AcDbCircle
 10
3.251
 20
4.757
 30
0.0
 40
0.019
100
AcDbArc
 50
270.566
 51
301.457
  0
ARC
  5
448
330
18
100
AcDbEntity
  8
0
100
AcDbCircle
 10
3.245
 20
4.767
 30
0.0
 40
0.03
100
AcDbArc
 50
301.457
 51
325.869
  0
ARC
  5
449
330
18
100
AcDbEntity
  8
0
100
AcDbCircle
 10
3.236
 20
4.773
 30
0.0
 40
0.041
100
AcDbArc
 50
325.869
 51
344.564
  0
ARC
  5
44A
330
18
100
AcDbEntity
  8
0
100
AcDbCircle
 10
3.222
 20
4.777
 30
0.0
 40
0.056
100
AcDbArc
 50
344.564
 51
0.5660000000000001
  0
ARC
  5
44B
330
18
100
AcDbEntity
  8
0
100
AcDbCircle
 10
3.222
 20
4.777
 30
0.0
 40
0.056
100
AcDbArc
 50
0.5660000000000001
 51
16.567
  0
ARC
  5
44C
330
18
100
AcDbEntity
  8
0
100
AcDbCircle
 10
3.236
 20
4.781000000000001
 30
0.0
 40
0.041
100
AcDbArc
 50
16.567
 51
35.262
  0
ARC
  5
44D
330
18
100
AcDbEntity
  8
0
100
AcDbCircle
 10
3.245
 20
4.788
 30
0.0
 40
0.03
100
AcDbArc
 50
35.262
 51
59.67400000000001
  0
ARC
  5
44E
330
18
100
AcDbEntity
  8
0
100
AcDbCircle
 10
3.251
 20
4.797
 30
0.0
 40
0.019
100
AcDbArc
 50
59.67400000000001
 51
90.56599999999999
  0
ARC
  5
44F
330
18
100
AcDbEntity
  8
0
100
AcDbCircle
 10
3.251
 20
4.797
 30
0.0
 40
0.019
100
AcDbArc
 50
90.56599999999999
 51
121.457
  0
ARC
  5
450
330
18
100
AcDbEntity
  8
0
100
AcDbCircle
 10
3.257
 20
4.788
 30
0.0
 40
0.03
100
AcDbArc
 50
121.457
 51
145.869
  0
ARC
  5
451
330
18
100
AcDbEntity
  8
0
100
AcDbCircle
 10
3.266
 20
4.782
 30
0.0
 40
0.041
100
AcDbArc
 50
145.869
 51
164.564
  0
ARC
  5
452
330
18
100
AcDbEntity
  8
0
100
AcDbCircle
 10
3.28
 20
4.778000000000001
 30
0.0
 40
0.056
100
AcDbArc
 50
164.564
 51
180.566
  0
ARC
  5
453
330
18
100
AcDbEntity
  8
0
100
AcDbCircle
 10
3.28
 20
4.778000000000001
 30
0.0
 40
0.056
100
AcDbArc
 50
180.566
 51
196.567
  0
ARC
  5
454
330
18
100
AcDbEntity
  8
0
100
AcDbCircle
 10
3.266
 20
4.773
 30
0.0
 40
0.041
100
AcDbArc
 50
196.567
 51
215.262
  0
ARC
  5
455
330
18
100
AcDbEntity
  8
0
100
AcDbCircle
 10
3.257
 20
4.767
 30
0.0
 40
0.03
100
AcDbArc
 50
215.262
 51
239.674
  0
ARC
  5
456
330
18
100
AcDbEntity
  8
0
100
AcDbCircle
 10
3.251
 20
4.757
 30
0.0
 40
0.019
100
AcDbArc
 50
239.674
 51
270.566
  0
ARC
  5
457
330
18
100
AcDbEntity
  8
0
100
AcDbCircle
 10
3.281
 20
4.218
 30
0.0
 40
0.03
100
AcDbArc
 50
54.45100000000001
 51
59.67400000000001
  0
ARC
  5
458
330
18
100
AcDbEntity
  8
0
100
AcDbCircle
 10
3.287
 20
4.228
 30
0.0
 40
0.019
100
AcDbArc
 50
59.67400000000001
 51
90.56599999999999
  0
ARC
  5
459
330
18
100
AcDbEntity
  8
0
100
AcDbCircle
 10
3.287
 20
4.228
 30
0.0
 40
0.019
100
AcDbArc
 50
90.56599999999999
 51
121.457
  0
ARC
  5
45A
330
18
100
AcDbEntity
  8
0
100
AcDbCircle
 10
3.293
 20
4.218999999999999
 30
0.0
 40
0.03
100
AcDbArc
 50
121.457
 51
145.869
  0
ARC
  5
45B
330
18
100
AcDbEntity
  8
0
100
AcDbCircle
 10
3.302
 20
4.212
 30
0.0
 40
0.041
100
AcDbArc
 50
145.869
 51
164.564
  0
ARC
  5
45C
330
18
100
AcDbEntity
  8
0
100
AcDbCircle
 10
3.316
 20
4.209
 30
0.0
 40
0.056
100
AcDbArc
 50
164.564
 51
180.566
  0
ARC
  5
45D
330
18
100
AcDbEntity
  8
0
100
AcDbCircle
 10
3.316
 20
4.209
 30
0.0
 40
0.056
100
AcDbArc
 50
180.566
 51
196.567
  0
ARC
  5
45E
330
18
100
AcDbEntity
  8
0
100
AcDbCircle
 10
3.302
 20
4.204
 30
0.0
 40
0.041
100
AcDbArc
 50
196.567
 51
215.262
  0
ARC
  5
45F
330
18
100
AcDbEntity
  8
0
100
AcDbCircle
 10
3.293
 20
4.198
 30
0.0
 40
0.03
100
AcDbArc
 50
215.262
 51
239.674
  0
ARC
  5
460
330
18
100
AcDbEntity
  8
0
100
AcDbCircle
 10
3.287
 20
4.188
 30
0.0
 40
0.019
100
AcDbArc
 50
239.674
 51
270.566
  0
ARC
  5
461
330
18
100
AcDbEntity
  8
0
100
AcDbCircle
 10
3.287
 20
4.188
 30
0.0
 40
0.019
100
AcDbArc
 50
270.566
 51
289.265
  0
ARC
  5
462
330
18
100
AcDbEntity
  8
0
100
AcDbCircle
 10
3.305
 20
4.185
 30
0.0
 40
0.019
100
AcDbArc
 50
270.566
 51
301.457
  0
ARC
  5
463
330
18
100
AcDbEntity
  8
0
100
AcDbCircle
 10
3.3
 20
4.195
 30
0.0
 40
0.03
100
AcDbArc
 50
301.457
 51
325.869
  0
ARC
  5
464
330
18
100
AcDbEntity
  8
0
100
AcDbCircle
 10
3.291
 20
4.201000000000001
 30
0.0
 40
0.041
100
AcDbArc
 50
325.869
 51
344.564
  0
ARC
  5
465
330
18
100
AcDbEntity
  8
0
100
AcDbCircle
 10
3.276
 20
4.205
 30
0.0
 40
0.056
100
AcDbArc
 50
344.564
 51
0.5660000000000001
  0
ARC
  5
466
330
18
100
AcDbEntity
  8
0
100
AcDbCircle
 10
3.276
 20
4.205
 30
0.0
 40
0.056
100
AcDbArc
 50
0.5660000000000001
 51
16.567
  0
ARC
  5
467
330
18
100
AcDbEntity
  8
0
100
AcDbCircle
 10
3.29
 20
4.209
 30
0.0
 40
0.041
100
AcDbArc
 50
16.567
 51
35.262
  0
ARC
  5
468
330
18
100
AcDbEntity
  8
0
100
AcDbCircle
 10
3.299
 20
4.215
 30
0.0
 40
0.03
100
AcDbArc
 50
35.262
 51
59.67400000000001
  0
ARC
  5
469
330
18
100
AcDbEntity
  8
0
100
AcDbCircle
 10
3.305
 20
4.225
 30
0.0
 40
0.019
100
AcDbArc
 50
59.67400000000001
 51
90.56599999999999
  0
ARC
  5
46A
330
18
100
AcDbEntity
  8
0
100
AcDbCircle
 10
3.305
 20
4.225
 30
0.0
 40
0.019
100
AcDbArc
 50
90.56599999999999
 51
121.457
  0
ARC
  5
46B
330
18
100
AcDbEntity
  8
0
100
AcDbCircle
 10
3.311
 20
4.216
 30
0.0
 40
0.03
100
AcDbArc
 50
121.457
 51
145.869
  0
ARC
  5
46C
330
18
100
AcDbEntity
  8
0
100
AcDbCircle
 10
3.32
 20
4.209
 30
0.0
 40
0.041
100
AcDbArc
 50
145.869
 51
164.564
  0
ARC
  5
46D
330
18
100
AcDbEntity
  8
0
100
AcDbCircle
 10
3.334
 20
4.206
 30
0.0
 40
0.056
100
AcDbArc
 50
164.564
 51
180.566
  0
ARC
  5
46E
330
18
100
AcDbEntity
  8
0
100
AcDbCircle
 10
3.334
 20
4.206
 30
0.0
 40
0.056
100
AcDbArc
 50
180.566
 51
196.567
  0
ARC
  5
46F
330
18
100
AcDbEntity
  8
0
100
AcDbCircle
 10
3.32
 20
4.201000000000001
 30
0.0
 40
0.041
100
AcDbArc
 50
196.567
 51
215.262
  0
ARC
  5
470
330
18
100
AcDbEntity
  8
0
100
AcDbCircle
 10
3.311
 20
4.195
 30
0.0
 40
0.03
100
AcDbArc
 50
215.262
 51
239.674
  0
ARC
  5
471
330
18
100
AcDbEntity
  8
0
100
AcDbCircle
 10
3.305
 20
4.185
 30
0.0
 40
0.019
100
AcDbArc
 50
239.674
 51
270.566
  0
ARC
  5
472
330
18
100
AcDbEntity
  8
0
100
AcDbCircle
 10
2.7
 20
5.26
 30
0.0
 40
0.03
100
AcDbArc
 50
54.45100000000001
 51
59.67400000000001
  0
ARC
  5
473
330
18
100
AcDbEntity
  8
0
100
AcDbCircle
 10
2.705
 20
5.27
 30
0.0
 40
0.019
100
AcDbArc
 50
59.67400000000001
 51
90.56599999999999
  0
ARC
  5
474
330
18
100
AcDbEntity
  8
0
100
AcDbCircle
 10
2.705
 20
5.27
 30
0.0
 40
0.019
100
AcDbArc
 50
90.56599999999999
 51
121.457
  0
ARC
  5
475
330
18
100
AcDbEntity
  8
0
100
AcDbCircle
 10
2.711
 20
5.26
 30
0.0
 40
0.03
100
AcDbArc
 50
121.457
 51
145.869
  0
ARC
  5
476
330
18
100
AcDbEntity
  8
0
100
AcDbCircle
 10
2.72
 20
5.254
 30
0.0
 40
0.041
100
AcDbArc
 50
145.869
 51
164.564
  0
ARC
  5
477
330
18
100
AcDbEntity
  8
0
100
AcDbCircle
 10
2.734
 20
5.25
 30
0.0
 40
0.056
100
AcDbArc
 50
164.564
 51
180.566
  0
ARC
  5
478
330
18
100
AcDbEntity
  8
0
100
AcDbCircle
 10
2.734
 20
5.25
 30
0.0
 40
0.056
100
AcDbArc
 50
180.566
 51
196.567
  0
ARC
  5
479
330
18
100
AcDbEntity
  8
0
100
AcDbCircle
 10
2.72
 20
5.246
 30
0.0
 40
0.041
100
AcDbArc
 50
196.567
 51
215.262
  0
ARC
  5
47A
330
18
100
AcDbEntity
  8
0
100
AcDbCircle
 10
2.711
 20
5.24
 30
0.0
 40
0.03
100
AcDbArc
 50
215.262
 51
239.674
  0
ARC
  5
47B
330
18
100
AcDbEntity
  8
0
100
AcDbCircle
 10
2.706
 20
5.23
 30
0.0
 40
0.019
100
AcDbArc
 50
239.674
 51
270.566
  0
ARC
  5
47C
330
18
100
AcDbEntity
  8
0
100
AcDbCircle
 10
2.706
 20
5.23
 30
0.0
 40
0.019
100
AcDbArc
 50
270.566
 51
289.265
  0
ARC
  5
47D
330
18
100
AcDbEntity
  8
0
100
AcDbCircle
 10
2.724
 20
5.227
 30
0.0
 40
0.019
100
AcDbArc
 50
270.566
 51
301.457
  0
ARC
  5
47E
330
18
100
AcDbEntity
  8
0
100
AcDbCircle
 10
2.718
 20
5.236000000000001
 30
0.0
 40
0.03
100
AcDbArc
 50
301.457
 51
325.869
  0
ARC
  5
47F
330
18
100
AcDbEntity
  8
0
100
AcDbCircle
 10
2.709
 20
5.242999999999999
 30
0.0
 40
0.041
100
AcDbArc
 50
325.869
 51
344.564
  0
ARC
  5
480
330
18
100
AcDbEntity
  8
0
100
AcDbCircle
 10
2.695
 20
5.247000000000001
 30
0.0
 40
0.056
100
AcDbArc
 50
344.564
 51
0.5660000000000001
  0
ARC
  5
481
330
18
100
AcDbEntity
  8
0
100
AcDbCircle
 10
2.695
 20
5.247000000000001
 30
0.0
 40
0.056
100
AcDbArc
 50
0.5660000000000001
 51
16.567
  0
ARC
  5
482
330
18
100
AcDbEntity
  8
0
100
AcDbCircle
 10
2.709
 20
5.251
 30
0.0
 40
0.041
100
AcDbArc
 50
16.567
 51
35.262
  0
ARC
  5
483
330
18
100
AcDbEntity
  8
0
100
AcDbCircle
 10
2.718
 20
5.257000000000001
 30
0.0
 40
0.03
100
AcDbArc
 50
35.262
 51
59.67400000000001
  0
ARC
  5
484
330
18
100
AcDbEntity
  8
0
100
AcDbCircle
 10
2.723
 20
5.267
 30
0.0
 40
0.019
100
AcDbArc
 50
59.67400000000001
 51
90.56599999999999
  0
ARC
  5
485
330
18
100
AcDbEntity
  8
0
100
AcDbCircle
 10
2.723
 20
5.267
 30
0.0
 40
0.019
100
AcDbArc
 50
90.56599999999999
 51
121.457
  0
ARC
  5
486
330
18
100
AcDbEntity
  8
0
100
AcDbCircle
 10
2.729
 20
5.257000000000001
 30
0.0
 40
0.03
100
AcDbArc
 50
121.457
 51
145.869
  0
ARC
  5
487
330
18
100
AcDbEntity
  8
0
100
AcDbCircle
 10
2.738
 20
5.251
 30
0.0
 40
0.041
100
AcDbArc
 50
145.869
 51
164.564
  0
ARC
  5
488
330
18
100
AcDbEntity
  8
0
100
AcDbCircle
 10
2.752
 20
5.247000000000001
 30
0.0
 40
0.056
100
AcDbArc
 50
164.564
 51
180.566
  0
ARC
  5
489
330
18
100
AcDbEntity
  8
0
100
AcDbCircle
 10
2.752
 20
5.247000000000001
 30
0.0
 40
0.056
100
AcDbArc
 50
180.566
 51
196.567
  0
ARC
  5
48A
330
18
100
AcDbEntity
  8
0
100
AcDbCircle
 10
2.738
 20
5.242999999999999
 30
0.0
 40
0.041
100
AcDbArc
 50
196.567
 51
215.262
  0
ARC
  5
48B
330
18
100
AcDbEntity
  8
0
100
AcDbCircle
 10
2.729
 20
5.237
 30
0.0
 40
0.03
100
AcDbArc
 50
215.262
 51
239.674
  0
ARC
  5
48C
330
18
100
AcDbEntity
  8
0
100
AcDbCircle
 10
2.724
 20
5.227
 30
0.0
 40
0.019
100
AcDbArc
 50
239.674
 51
270.566
  0
ARC
  5
48D
330
18
100
AcDbEntity
  8
0
100
AcDbCircle
 10
3.281
 20
5.409
 30
0.0
 40
0.03
100
AcDbArc
 50
54.45100000000001
 51
59.67400000000001
  0
ARC
  5
48E
330
18
100
AcDbEntity
  8
0
100
AcDbCircle
 10
3.287
 20
5.419
 30
0.0
 40
0.019
100
AcDbArc
 50
59.67400000000001
 51
90.56599999999999
  0
ARC
  5
48F
330
18
100
AcDbEntity
  8
0
100
AcDbCircle
 10
3.287
 20
5.419
 30
0.0
 40
0.019
100
AcDbArc
 50
90.56599999999999
 51
121.457
  0
ARC
  5
490
330
18
100
AcDbEntity
  8
0
100
AcDbCircle
 10
3.292
 20
5.409
 30
0.0
 40
0.03
100
AcDbArc
 50
121.457
 51
145.869
  0
ARC
  5
491
330
18
100
AcDbEntity
  8
0
100
AcDbCircle
 10
3.301
 20
5.403
 30
0.0
 40
0.041
100
AcDbArc
 50
145.869
 51
164.564
  0
ARC
  5
492
330
18
100
AcDbEntity
  8
0
100
AcDbCircle
 10
3.316
 20
5.399
 30
0.0
 40
0.056
100
AcDbArc
 50
164.564
 51
180.566
  0
ARC
  5
493
330
18
100
AcDbEntity
  8
0
100
AcDbCircle
 10
3.316
 20
5.399
 30
0.0
 40
0.056
100
AcDbArc
 50
180.566
 51
196.567
  0
ARC
  5
494
330
18
100
AcDbEntity
  8
0
100
AcDbCircle
 10
3.302
 20
5.395
 30
0.0
 40
0.041
100
AcDbArc
 50
196.567
 51
215.262
  0
ARC
  5
495
330
18
100
AcDbEntity
  8
0
100
AcDbCircle
 10
3.293
 20
5.388999999999999
 30
0.0
 40
0.03
100
AcDbArc
 50
215.262
 51
239.674
  0
ARC
  5
496
330
18
100
AcDbEntity
  8
0
100
AcDbCircle
 10
3.287
 20
5.379
 30
0.0
 40
0.019
100
AcDbArc
 50
239.674
 51
270.566
  0
ARC
  5
497
330
18
100
AcDbEntity
  8
0
100
AcDbCircle
 10
3.287
 20
5.379
 30
0.0
 40
0.019
100
AcDbArc
 50
270.566
 51
289.265
  0
ARC
  5
498
330
18
100
AcDbEntity
  8
0
100
AcDbCircle
 10
3.305
 20
5.376
 30
0.0
 40
0.019
100
AcDbArc
 50
270.566
 51
301.457
  0
ARC
  5
499
330
18
100
AcDbEntity
  8
0
100
AcDbCircle
 10
3.299
 20
5.386
 30
0.0
 40
0.03
100
AcDbArc
 50
301.457
 51
325.869
  0
ARC
  5
49A
330
18
100
AcDbEntity
  8
0
100
AcDbCircle
 10
3.29
 20
5.392
 30
0.0
 40
0.041
100
AcDbArc
 50
325.869
 51
344.564
  0
ARC
  5
49B
330
18
100
AcDbEntity
  8
0
100
AcDbCircle
 10
3.276
 20
5.396
 30
0.0
 40
0.056
100
AcDbArc
 50
344.564
 51
0.5660000000000001
  0
ARC
  5
49C
330
18
100
AcDbEntity
  8
0
100
AcDbCircle
 10
3.276
 20
5.396
 30
0.0
 40
0.056
100
AcDbArc
 50
0.5660000000000001
 51
16.567
  0
ARC
  5
49D
330
18
100
AcDbEntity
  8
0
100
AcDbCircle
 10
3.29
 20
5.4
 30
0.0
 40
0.041
100
AcDbArc
 50
16.567
 51
35.262
  0
ARC
  5
49E
330
18
100
AcDbEntity
  8
0
100
AcDbCircle
 10
3.299
 20
5.406000000000001
 30
0.0
 40
0.03
100
AcDbArc
 50
35.262
 51
59.67400000000001
  0
ARC
  5
49F
330
18
100
AcDbEntity
  8
0
100
AcDbCircle
 10
3.305
 20
5.416
 30
0.0
 40
0.019
100
AcDbArc
 50
59.67400000000001
 51
90.56599999999999
  0
ARC
  5
4A0
330
18
100
AcDbEntity
  8
0
100
AcDbCircle
 10
3.305
 20
5.416
 30
0.0
 40
0.019
100
AcDbArc
 50
90.56599999999999
 51
121.457
  0
ARC
  5
4A1
330
18
100
AcDbEntity
  8
0
100
AcDbCircle
 10
3.31
 20
5.406000000000001
 30
0.0
 40
0.03
100
AcDbArc
 50
121.457
 51
145.869
  0
ARC
  5
4A2
330
18
100
AcDbEntity
  8
0
100
AcDbCircle
 10
3.32
 20
5.4
 30
0.0
 40
0.041
100
AcDbArc
 50
145.869
 51
164.564
  0
ARC
  5
4A3
330
18
100
AcDbEntity
  8
0
100
AcDbCircle
 10
3.334
 20
5.396
 30
0.0
 40
0.056
100
AcDbArc
 50
164.564
 51
180.566
  0
ARC
  5
4A4
330
18
100
AcDbEntity
  8
0
100
AcDbCircle
 10
3.334
 20
5.396
 30
0.0
 40
0.056
100
AcDbArc
 50
180.566
 51
196.567
  0
ARC
  5
4A5
330
18
100
AcDbEntity
  8
0
100
AcDbCircle
 10
3.32
 20
5.392
 30
0.0
 40
0.041
100
AcDbArc
 50
196.567
 51
215.262
  0
ARC
  5
4A6
330
18
100
AcDbEntity
  8
0
100
AcDbCircle
 10
3.311
 20
5.386
 30
0.0
 40
0.03
100
AcDbArc
 50
215.262
 51
239.674
  0
ARC
  5
4A7
330
18
100
AcDbEntity
  8
0
100
AcDbCircle
 10
3.305
 20
5.376
 30
0.0
 40
0.019
100
AcDbArc
 50
239.674
 51
270.566
  0
TEXT
  5
4A8
330
18
100
AcDbEntity
  8
0
100
AcDbText
 10
2.21
 20
0.407
 30
0.0
 40
0.125
  1
Simpson Strong-Tie
100
AcDbText
  0
ENDSEC
  0
SECTION
  2
OBJECTS
  0
DICTIONARY
  5
C
330
0
100
AcDbDictionary
281
     1
  3
ACAD_COLOR
350
4AE
  3
ACAD_GROUP
350
D
  3
ACAD_LAYOUT
350
15
  3
ACAD_MATERIAL
350
4B0
  3
ACAD_MLINESTYLE
350
12
  3
ACAD_PLOTSETTINGS
350
14
  3
ACAD_PLOTSTYLENAME
350
E
  3
ACDBHEADERROUNDTRIPXREC
350
4AD
  0
DICTIONARY
  5
4AE
102
{ACAD_REACTORS
330
C
102
}
330
C
100
AcDbDictionary
281
     1
  0
DICTIONARY
  5
D
102
{ACAD_REACTORS
330
C
102
}
330
C
100
AcDbDictionary
281
     1
  0
DICTIONARY
  5
15
102
{ACAD_REACTORS
330
C
102
}
330
C
100
AcDbDictionary
281
     1
  3
Layout1
350
17
  3
Model
350
19
  0
DICTIONARY
  5
4B0
102
{ACAD_REACTORS
330
C
102
}
330
C
100
AcDbDictionary
281
     1
  0
DICTIONARY
  5
12
102
{ACAD_REACTORS
330
C
102
}
330
C
100
AcDbDictionary
281
     1
  3
Standard
350
13
  0
DICTIONARY
  5
14
102
{ACAD_REACTORS
330
C
102
}
330
C
100
AcDbDictionary
281
     1
  0
ACDBDICTIONARYWDFLT
  5
E
102
{ACAD_REACTORS
330
C
102
}
330
C
100
AcDbDictionary
281
     1
  3
Normal
350
F
100
AcDbDictionaryWithDefault
340
F
  0
DICTIONARY
  5
4AD
102
{ACAD_REACTORS
330
C
102
}
330
C
100
AcDbDictionary
281
     1
  3
COLORDICT
350
4AF
  3
MATERIALDICT
350
4B1
  0
LAYOUT
  5
17
102
{ACAD_REACTORS
330
15
102
}
102
{ACAD_XDICTIONARY
360
4B2
102
}
330
15
100
AcDbPlotSettings
  1

  2

  4

  6

 40
0.0
 41
0.0
 42
0.0
 43
0.0
 44
0.0
 45
0.0
 46
0.0
 47
0.0
 48
0.0
 49
0.0
140
0.0
141
0.0
142
1.0
143
1.0
 70
   688
 72
     0
 73
     0
 74
     5
  7

 75
    16
147
1.0
148
0.0
149
0.0
100
AcDbLayout
  1
Layout1
 70
     1
 71
     1
 10
0.0
 20
0.0
 11
12.0
 21
9.0
 12
0.0
 22
0.0
 32
0.0
 14
1.000000000000000E+20
 24
1.000000000000000E+20
 34
1.000000000000000E+20
 15
-1.000000000000000E+20
 25
-1.000000000000000E+20
 35
-1.000000000000000E+20
146
0.0
 13
0.0
 23
0.0
 33
0.0
 16
1.0
 26
0.0
 36
0.0
 17
0.0
 27
1.0
 37
0.0
 76
     0
330
16
  0
LAYOUT
  5
19
102
{ACAD_REACTORS
330
15
102
}
102
{ACAD_XDICTIONARY
360
4B4
102
}
330
15
100
AcDbPlotSettings
  1

  2

  4

  6

 40
0.0
 41
0.0
 42
0.0
 43
0.0
 44
0.0
 45
0.0
 46
0.0
 47
0.0
 48
0.0
 49
0.0
140
0.0
141
0.0
142
1.0
143
1.0
 70
  1712
 72
     0
 73
     0
 74
     0
  7

 75
     0
147
1.0
148
0.0
149
0.0
100
AcDbLayout
  1
Model
 70
     1
 71
     0
 10
0.0
 20
0.0
 11
0.0
 21
0.0
 12
0.0
 22
0.0
 32
0.0
 14
0.0
 24
0.0
 34
0.0
 15
0.0
 25
0.0
 35
0.0
146
0.0
 13
0.0
 23
0.0
 33
0.0
 16
1.0
 26
0.0
 36
0.0
 17
0.0
 27
1.0
 37
0.0
 76
     0
330
18
  0
MLINESTYLE
  5
13
102
{ACAD_REACTORS
330
12
102
}
330
12
100
AcDbMlineStyle
  2
Standard
 70
     0
  3

 62
   256
 51
90.0
 52
90.0
 71
     2
 49
0.5
 62
   256
  6
BYLAYER
 49
-0.5
 62
   256
  6
BYLAYER
  0
ACDBPLACEHOLDER
  5
F
102
{ACAD_REACTORS
330
E
102
}
330
E
  0
XRECORD
  5
4AF
102
{ACAD_REACTORS
330
4AD
102
}
330
4AD
100
AcDbXrecord
340
4AE
  0
XRECORD
  5
4B1
102
{ACAD_REACTORS
330
4AD
102
}
330
4AD
100
AcDbXrecord
340
4B0
  0
DICTIONARY
  5
4B2
330
17
100
AcDbDictionary
280
     1
281
     1
  3
ACAD_XREC_ROUNDTRIP
360
4B3
  0
DICTIONARY
  5
4B4
330
19
100
AcDbDictionary
280
     1
281
     1
  3
ACAD_XREC_ROUNDTRIP
360
4B5
  0
XRECORD
  5
4B3
102
{ACAD_REACTORS
330
4B2
102
}
330
4B2
100
AcDbXrecord
102
SHADEPLOT
 70
 31408
102
SHADEPLOTRESLEVEL
 70
 20008
102
SHADEPLOTCUSTOMDPI
 70
  2656
  0
XRECORD
  5
4B5
102
{ACAD_REACTORS
330
4B4
102
}
330
4B4
100
AcDbXrecord
102
SHADEPLOT
 70
     0
102
SHADEPLOTRESLEVEL
 70
     0
102
SHADEPLOTCUSTOMDPI
 70
     0
  0
ENDSEC
  0
EOF
