  0
SECTION
  2
HEADER
  9
$ACADVER
  1
AC1015
  9
$ACADMAINTVER
 70
    20
  9
$DWGCODEPAGE
  3
ANSI_1252
  9
$INSBASE
 10
3.492029272794695
 20
1.502337173328104
 30
0.0
  9
$EXTMIN
 10
3.551125514645914
 20
1.489770179055962
 30
0.0
  9
$EXTMAX
 10
14.00969887628689
 20
9.872918731720758
 30
0.0
  9
$LIMMIN
 10
0.0
 20
0.0
  9
$LIMMAX
 10
17.0
 20
11.0
  9
$ORTHOMODE
 70
     0
  9
$REGENMODE
 70
     1
  9
$FILLMODE
 70
     1
  9
$QTEXTMODE
 70
     0
  9
$MIRRTEXT
 70
     0
  9
$LTSCALE
 40
1.0
  9
$ATTMODE
 70
     1
  9
$TEXTSIZE
 40
0.2
  9
$TRACEWID
 40
0.05
  9
$TEXTSTYLE
  7
Standard
  9
$CLAYER
  8
0
  9
$CELTYPE
  6
ByLayer
  9
$CECOLOR
 62
   256
  9
$CELTSCALE
 40
1.0
  9
$DISPSILH
 70
     0
  9
$DIMSCALE
 40
1.0
  9
$DIMASZ
 40
0.0708661417322835
  9
$DIMEXO
 40
0.0625
  9
$DIMDLI
 40
0.38
  9
$DIMRND
 40
0.0
  9
$DIMDLE
 40
0.0
  9
$DIMEXE
 40
0.18
  9
$DIMTP
 40
0.0
  9
$DIMTM
 40
0.0
  9
$DIMTXT
 40
0.0708661417322835
  9
$DIMCEN
 40
0.09
  9
$DIMTSZ
 40
0.0
  9
$DIMTOL
 70
     0
  9
$DIMLIM
 70
     0
  9
$DIMTIH
 70
     1
  9
$DIMTOH
 70
     1
  9
$DIMSE1
 70
     0
  9
$DIMSE2
 70
     0
  9
$DIMTAD
 70
     0
  9
$DIMZIN
 70
     0
  9
$DIMBLK
  1

  9
$DIMASO
 70
     1
  9
$DIMSHO
 70
     1
  9
$DIMPOST
  1

  9
$DIMAPOST
  1

  9
$DIMALT
 70
     0
  9
$DIMALTD
 70
     2
  9
$DIMALTF
 40
25.4
  9
$DIMLFAC
 40
1.0
  9
$DIMTOFL
 70
     0
  9
$DIMTVP
 40
0.0
  9
$DIMTIX
 70
     0
  9
$DIMSOXD
 70
     0
  9
$DIMSAH
 70
     0
  9
$DIMBLK1
  1

  9
$DIMBLK2
  1

  9
$DIMSTYLE
  2
Standard
  9
$DIMCLRD
 70
     0
  9
$DIMCLRE
 70
     0
  9
$DIMCLRT
 70
     0
  9
$DIMTFAC
 40
1.0
  9
$DIMGAP
 40
0.09
  9
$DIMJUST
 70
     0
  9
$DIMSD1
 70
     0
  9
$DIMSD2
 70
     0
  9
$DIMTOLJ
 70
     1
  9
$DIMTZIN
 70
     0
  9
$DIMALTZ
 70
     0
  9
$DIMALTTZ
 70
     0
  9
$DIMUPT
 70
     0
  9
$DIMDEC
 70
     4
  9
$DIMTDEC
 70
     4
  9
$DIMALTU
 70
     2
  9
$DIMALTTD
 70
     2
  9
$DIMTXSTY
  7
Standard
  9
$DIMAUNIT
 70
     0
  9
$DIMADEC
 70
     0
  9
$DIMALTRND
 40
0.0
  9
$DIMAZIN
 70
     0
  9
$DIMDSEP
 70
    46
  9
$DIMATFIT
 70
     3
  9
$DIMFRAC
 70
     0
  9
$DIMLDRBLK
  1

  9
$DIMLUNIT
 70
     2
  9
$DIMLWD
 70
    -2
  9
$DIMLWE
 70
    -2
  9
$DIMTMOVE
 70
     0
  9
$LUNITS
 70
     2
  9
$LUPREC
 70
     4
  9
$SKETCHINC
 40
0.1
  9
$FILLETRAD
 40
0.0
  9
$AUNITS
 70
     0
  9
$AUPREC
 70
     0
  9
$MENU
  1
.
  9
$ELEVATION
 40
0.0
  9
$PELEVATION
 40
0.0
  9
$THICKNESS
 40
0.0
  9
$LIMCHECK
 70
     0
  9
$CHAMFERA
 40
0.0
  9
$CHAMFERB
 40
0.0
  9
$CHAMFERC
 40
0.0
  9
$CHAMFERD
 40
0.0
  9
$SKPOLY
 70
     0
  9
$TDCREATE
 40
2456514.656774109
  9
$TDUCREATE
 40
2456514.948440776
  9
$TDUPDATE
 40
2456514.672976076
  9
$TDUUPDATE
 40
2456514.964642743
  9
$TDINDWG
 40
0.0117193519
  9
$TDUSRTIMER
 40
0.0117193519
  9
$USRTIMER
 70
     1
  9
$ANGBASE
 50
0.0
  9
$ANGDIR
 70
     0
  9
$PDMODE
 70
     0
  9
$PDSIZE
 40
0.0
  9
$PLINEWID
 40
0.0
  9
$SPLFRAME
 70
     0
  9
$SPLINETYPE
 70
     6
  9
$SPLINESEGS
 70
     8
  9
$HANDSEED
  5
1A0
  9
$SURFTAB1
 70
     6
  9
$SURFTAB2
 70
     6
  9
$SURFTYPE
 70
     6
  9
$SURFU
 70
     6
  9
$SURFV
 70
     6
  9
$UCSBASE
  2

  9
$UCSNAME
  2

  9
$UCSORG
 10
0.0
 20
0.0
 30
0.0
  9
$UCSXDIR
 10
1.0
 20
0.0
 30
0.0
  9
$UCSYDIR
 10
0.0
 20
1.0
 30
0.0
  9
$UCSORTHOREF
  2

  9
$UCSORTHOVIEW
 70
     0
  9
$UCSORGTOP
 10
0.0
 20
0.0
 30
0.0
  9
$UCSORGBOTTOM
 10
0.0
 20
0.0
 30
0.0
  9
$UCSORGLEFT
 10
0.0
 20
0.0
 30
0.0
  9
$UCSORGRIGHT
 10
0.0
 20
0.0
 30
0.0
  9
$UCSORGFRONT
 10
0.0
 20
0.0
 30
0.0
  9
$UCSORGBACK
 10
0.0
 20
0.0
 30
0.0
  9
$PUCSBASE
  2

  9
$PUCSNAME
  2

  9
$PUCSORG
 10
0.0
 20
0.0
 30
0.0
  9
$PUCSXDIR
 10
1.0
 20
0.0
 30
0.0
  9
$PUCSYDIR
 10
0.0
 20
1.0
 30
0.0
  9
$PUCSORTHOREF
  2

  9
$PUCSORTHOVIEW
 70
     0
  9
$PUCSORGTOP
 10
0.0
 20
0.0
 30
0.0
  9
$PUCSORGBOTTOM
 10
0.0
 20
0.0
 30
0.0
  9
$PUCSORGLEFT
 10
0.0
 20
0.0
 30
0.0
  9
$PUCSORGRIGHT
 10
0.0
 20
0.0
 30
0.0
  9
$PUCSORGFRONT
 10
0.0
 20
0.0
 30
0.0
  9
$PUCSORGBACK
 10
0.0
 20
0.0
 30
0.0
  9
$USERI1
 70
     0
  9
$USERI2
 70
     0
  9
$USERI3
 70
     0
  9
$USERI4
 70
     0
  9
$USERI5
 70
     0
  9
$USERR1
 40
0.0
  9
$USERR2
 40
0.0
  9
$USERR3
 40
0.0
  9
$USERR4
 40
0.0
  9
$USERR5
 40
0.0
  9
$WORLDVIEW
 70
     1
  9
$SHADEDGE
 70
     3
  9
$SHADEDIF
 70
    70
  9
$TILEMODE
 70
     1
  9
$MAXACTVP
 70
    64
  9
$PINSBASE
 10
0.0
 20
0.0
 30
0.0
  9
$PLIMCHECK
 70
     0
  9
$PEXTMIN
 10
0.0
 20
0.0
 30
0.0
  9
$PEXTMAX
 10
17.0
 20
11.0
 30
0.0
  9
$PLIMMIN
 10
0.0
 20
0.0
  9
$PLIMMAX
 10
17.0
 20
11.0
  9
$UNITMODE
 70
     0
  9
$VISRETAIN
 70
     1
  9
$PLINEGEN
 70
     0
  9
$PSLTSCALE
 70
     1
  9
$TREEDEPTH
 70
  3020
  9
$CMLSTYLE
  2
Standard
  9
$CMLJUST
 70
     0
  9
$CMLSCALE
 40
1.0
  9
$PROXYGRAPHICS
 70
     1
  9
$MEASUREMENT
 70
     0
  9
$CELWEIGHT
370
    -1
  9
$ENDCAPS
280
     0
  9
$JOINSTYLE
280
     0
  9
$LWDISPLAY
290
     0
  9
$INSUNITS
 70
     1
  9
$HYPERLINKBASE
  1

  9
$STYLESHEET
  1

  9
$XEDIT
290
     1
  9
$CEPSNTYPE
380
     0
  9
$PSTYLEMODE
290
     1
  9
$FINGERPRINTGUID
  2
{E89627FC-BCFF-4452-BAD9-0F6E87B2CDA0}
  9
$VERSIONGUID
  2
{D03F241C-D868-4812-BB31-99F9A90E880C}
  9
$EXTNAMES
290
     1
  9
$PSVPSCALE
 40
0.0
  9
$OLESTARTUP
290
     0
  0
ENDSEC
  0
SECTION
  2
CLASSES
  0
CLASS
  1
ACDBDICTIONARYWDFLT
  2
AcDbDictionaryWithDefault
  3
ObjectDBX Classes
 90
        0
280
     0
281
     0
  0
CLASS
  1
MATERIAL
  2
AcDbMaterial
  3
ObjectDBX Classes
 90
     1153
280
     0
281
     0
  0
CLASS
  1
VISUALSTYLE
  2
AcDbVisualStyle
  3
ObjectDBX Classes
 90
     4095
280
     0
281
     0
  0
CLASS
  1
SCALE
  2
AcDbScale
  3
ObjectDBX Classes
 90
     1153
280
     0
281
     0
  0
CLASS
  1
TABLESTYLE
  2
AcDbTableStyle
  3
ObjectDBX Classes
 90
     4095
280
     0
281
     0
  0
CLASS
  1
MLEADERSTYLE
  2
AcDbMLeaderStyle
  3
ACDB_MLEADERSTYLE_CLASS
 90
     4095
280
     0
281
     0
  0
CLASS
  1
DICTIONARYVAR
  2
AcDbDictionaryVar
  3
ObjectDBX Classes
 90
        0
280
     0
281
     0
  0
CLASS
  1
CELLSTYLEMAP
  2
AcDbCellStyleMap
  3
ObjectDBX Classes
 90
     1152
280
     0
281
     0
  0
CLASS
  1
ACDBPLACEHOLDER
  2
AcDbPlaceHolder
  3
ObjectDBX Classes
 90
        0
280
     0
281
     0
  0
CLASS
  1
LAYOUT
  2
AcDbLayout
  3
ObjectDBX Classes
 90
        0
280
     0
281
     0
  0
ENDSEC
  0
SECTION
  2
TABLES
  0
TABLE
  2
VPORT
  5
23
330
0
100
AcDbSymbolTable
 70
     1
  0
VPORT
  5
24
330
23
100
AcDbSymbolTableRecord
100
AcDbViewportTableRecord
  2
*Active
 70
     0
 10
0.0
 20
0.0
 11
1.0
 21
1.0
 12
11.11395856052344
 22
5.5
 13
0.0
 23
0.0
 14
1.0
 24
1.0
 15
0.0
 25
0.0
 16
0.0
 26
0.0
 36
1.0
 17
0.0
 27
0.0
 37
0.0
 40
11.00461658703899
 41
2.02071973827699
 42
50.0
 43
0.0
 44
0.0
 50
0.0
 51
0.0
 71
     0
 72
   100
 73
     1
 74
     1
 75
     0
 76
     0
 77
     0
 78
     0
281
     0
 65
     1
110
0.0
120
0.0
130
0.0
111
1.0
121
0.0
131
0.0
112
0.0
122
1.0
132
0.0
 79
     0
146
0.0
1001
ACAD_NAV_VCDISPLAY
1070
     3
  0
ENDTAB
  0
TABLE
  2
LTYPE
  5
1E
330
0
100
AcDbSymbolTable
 70
     3
  0
LTYPE
  5
1F
330
1E
100
AcDbSymbolTableRecord
100
AcDbLinetypeTableRecord
  2
ByBlock
 70
     0
  3

 72
    65
 73
     0
 40
0.0
  0
LTYPE
  5
20
330
1E
100
AcDbSymbolTableRecord
100
AcDbLinetypeTableRecord
  2
ByLayer
 70
     0
  3

 72
    65
 73
     0
 40
0.0
  0
LTYPE
  5
12
330
1E
100
AcDbSymbolTableRecord
100
AcDbLinetypeTableRecord
  2
Continuous
 70
     0
  3
Solid line
 72
    65
 73
     0
 40
0.0
  0
LTYPE
  5
15F
330
1E
100
AcDbSymbolTableRecord
100
AcDbLinetypeTableRecord
  2
DASHED
 70
     0
  3
Dashed __ __ __ __ __ __ __ __ __ __ __ __ __ _
 72
    65
 73
     2
 40
0.75
 49
0.5
 74
     0
 49
-0.25
 74
     0
  0
LTYPE
  5
160
330
1E
100
AcDbSymbolTableRecord
100
AcDbLinetypeTableRecord
  2
DOT
 70
     0
  3
Dot . . . . . . . . . . . . . . . . . . . . . .
 72
    65
 73
     2
 40
0.25
 49
0.0
 74
     0
 49
-0.25
 74
     0
  0
ENDTAB
  0
TABLE
  2
LAYER
  5
1A
330
0
100
AcDbSymbolTable
 70
     3
  0
LAYER
  5
4
330
1A
100
AcDbSymbolTableRecord
100
AcDbLayerTableRecord
  2
0
 70
     0
 62
     7
  6
Continuous
370
    -3
390
5
  0
LAYER
  5
5B
330
1A
100
AcDbSymbolTableRecord
100
AcDbLayerTableRecord
  2
Visible (ANSI)
 70
     0
 62
     7
  6
Continuous
370
    18
390
5
  0
LAYER
  5
5D
330
1A
100
AcDbSymbolTableRecord
100
AcDbLayerTableRecord
  2
Visible Narrow (ANSI)
 70
     0
 62
     7
  6
Continuous
370
     9
390
5
  0
ENDTAB
  0
TABLE
  2
STYLE
  5
1B
330
0
100
AcDbSymbolTable
 70
     1
  0
STYLE
  5
1C
330
1B
100
AcDbSymbolTableRecord
100
AcDbTextStyleTableRecord
  2
Standard
 70
     0
 40
0.0
 41
0.8000000119209289
 50
0.0
 71
     0
 42
0.2
  3
txt
  4

  0
ENDTAB
  0
TABLE
  2
VIEW
  5
21
330
0
100
AcDbSymbolTable
 70
     0
  0
ENDTAB
  0
TABLE
  2
UCS
  5
22
330
0
100
AcDbSymbolTable
 70
     0
  0
ENDTAB
  0
TABLE
  2
APPID
  5
28
330
0
100
AcDbSymbolTable
 70
     3
  0
APPID
  5
29
330
28
100
AcDbSymbolTableRecord
100
AcDbRegAppTableRecord
  2
ACAD
 70
     0
  0
APPID
  5
27
330
28
100
AcDbSymbolTableRecord
100
AcDbRegAppTableRecord
  2
ACAD_NAV_VCDISPLAY
 70
     0
  0
APPID
  5
19F
330
28
100
AcDbSymbolTableRecord
100
AcDbRegAppTableRecord
  2
ACAD_MLEADERVER
 70
     0
  0
ENDTAB
  0
TABLE
  2
DIMSTYLE
  5
2A
330
0
100
AcDbSymbolTable
 70
     1
100
AcDbDimStyleTable
 71
     0
  0
DIMSTYLE
105
48
330
2A
100
AcDbSymbolTableRecord
100
AcDbDimStyleTableRecord
  2
Standard
 70
     0
340
1C
  0
ENDTAB
  0
TABLE
  2
BLOCK_RECORD
  5
1
330
0
100
AcDbSymbolTable
 70
     0
  0
BLOCK_RECORD
  5
2
330
1
100
AcDbSymbolTableRecord
100
AcDbBlockTableRecord
  2
*Model_Space
340
14
  0
BLOCK_RECORD
  5
16
330
1
100
AcDbSymbolTableRecord
100
AcDbBlockTableRecord
  2
*Paper_Space
340
19
  0
ENDTAB
  0
ENDSEC
  0
SECTION
  2
BLOCKS
  0
BLOCK
  5
3
330
2
100
AcDbEntity
  8
0
100
AcDbBlockBegin
  2
*Model_Space
 70
     0
 10
0.0
 20
0.0
 30
0.0
  3
*Model_Space
  1

  0
ENDBLK
  5
13
330
2
100
AcDbEntity
  8
0
100
AcDbBlockEnd
  0
BLOCK
  5
17
330
16
100
AcDbEntity
 67
     1
  8
0
100
AcDbBlockBegin
  2
*Paper_Space
 70
     0
 10
0.0
 20
0.0
 30
0.0
  3
*Paper_Space
  1

  0
ENDBLK
  5
18
330
16
100
AcDbEntity
 67
     1
  8
0
100
AcDbBlockEnd
  0
ENDSEC
  0
SECTION
  2
ENTITIES
  0
ELLIPSE
  5
5A
330
2
100
AcDbEntity
  8
Visible (ANSI)
100
AcDbEllipse
 10
5.547418737025907
 20
5.13984263875032
 30
0.0
 11
-0.0659999999999901
 21
0.1143153532995513
 31
0.0
210
0.0
220
0.0
230
1.0
 40
0.5773502691896061
 41
0.7853981633976988
 42
2.356194490192596
  0
LINE
  5
5C
330
2
100
AcDbEntity
  8
Visible Narrow (ANSI)
100
AcDbLine
 10
5.547418737025908
 20
5.089219850732802
 30
0.0
 11
5.547418737025907
 21
5.032065090067861
 31
0.0
  0
ELLIPSE
  5
5E
330
2
100
AcDbEntity
  8
Visible (ANSI)
100
AcDbEllipse
 10
5.547418737025907
 20
5.13984263875032
 30
0.0
 11
0.0310000000000015
 21
-0.0536935750346336
 31
0.0
210
0.0
220
0.0
230
1.0
 40
0.5773502691896022
 41
3.926990816987006
 42
5.497787143781911
  0
LINE
  5
5F
330
2
100
AcDbEntity
  8
Visible Narrow (ANSI)
100
AcDbLine
 10
5.454080641909284
 20
5.19373141309155
 30
0.0
 11
5.503578116592342
 21
5.165154032759081
 31
0.0
  0
LINE
  5
60
330
2
100
AcDbEntity
  8
Visible Narrow (ANSI)
100
AcDbLine
 10
5.943778966703403
 20
5.318058536033166
 30
0.0
 11
5.547418737025908
 21
5.089219850732803
 31
0.0
  0
LINE
  5
61
330
2
100
AcDbEntity
  8
Visible Narrow (ANSI)
100
AcDbLine
 10
5.503578116592342
 20
5.165154032759081
 30
0.0
 11
5.943778966703403
 21
5.419304112068203
 31
0.0
  0
LINE
  5
62
330
2
100
AcDbEntity
  8
Visible (ANSI)
100
AcDbLine
 10
5.454080641909285
 20
7.430862683805544
 30
0.0
 11
5.454080641909284
 21
5.19373141309155
 31
0.0
  0
LINE
  5
63
330
2
100
AcDbEntity
  8
Visible (ANSI)
100
AcDbLine
 10
9.645183886945916
 20
9.850597270528954
 30
0.0
 11
5.454080641909285
 21
7.430862683805544
 31
0.0
  0
LINE
  5
64
330
2
100
AcDbEntity
  8
Visible (ANSI)
100
AcDbLine
 10
5.503578116592343
 20
7.402285303473073
 30
0.0
 11
5.454080641909285
 21
7.430862683805544
 31
0.0
  0
LINE
  5
65
330
2
100
AcDbEntity
  8
Visible (ANSI)
100
AcDbLine
 10
5.503578116592343
 20
7.402285303473073
 30
0.0
 11
9.694681361628978
 21
9.822019890196484
 31
0.0
  0
LINE
  5
66
330
2
100
AcDbEntity
  8
Visible (ANSI)
100
AcDbLine
 10
9.78236260249611
 20
9.822019890196484
 30
0.0
 11
11.05665037513824
 21
9.086309501636499
 31
0.0
  0
LINE
  5
67
330
2
100
AcDbEntity
  8
Visible (ANSI)
100
AcDbLine
 10
11.05665037513824
 20
9.086309501636499
 30
0.0
 11
11.1061478498213
 21
9.114886881968969
 31
0.0
  0
LINE
  5
68
330
2
100
AcDbEntity
  8
Visible (ANSI)
100
AcDbLine
 10
11.1061478498213
 20
9.114886881968969
 30
0.0
 11
9.831860077179166
 21
9.850597270528954
 31
0.0
  0
LINE
  5
69
330
2
100
AcDbEntity
  8
Visible (ANSI)
100
AcDbLine
 10
11.1061478498213
 20
7.005293410085672
 30
0.0
 11
11.1061478498213
 21
9.114886881968969
 31
0.0
  0
LINE
  5
6A
330
2
100
AcDbEntity
  8
Visible (ANSI)
100
AcDbLine
 10
11.05665037513824
 20
9.086309501636499
 30
0.0
 11
11.05665037513824
 21
7.033870790418141
 31
0.0
  0
LINE
  5
6B
330
2
100
AcDbEntity
  8
Visible (ANSI)
100
AcDbLine
 10
5.503578116592342
 20
5.165154032759081
 30
0.0
 11
5.503578116592343
 21
7.402285303473073
 31
0.0
  0
LINE
  5
6C
330
2
100
AcDbEntity
  8
Visible (ANSI)
100
AcDbLine
 10
5.547418737025907
 20
5.032065090067861
 30
0.0
 11
5.667142557346651
 21
4.962942510177269
 31
0.0
  0
LINE
  5
6D
330
2
100
AcDbEntity
  8
Visible (ANSI)
100
AcDbLine
 10
5.71664003202971
 20
4.991519890509739
 30
0.0
 11
5.547418737025908
 21
5.089219850732802
 31
0.0
  0
LINE
  5
6E
330
2
100
AcDbEntity
  8
Visible (ANSI)
100
AcDbLine
 10
9.517338980907389
 20
2.740030568601538
 30
0.0
 11
9.68659563125025
 21
2.642310195963952
 31
0.0
  0
LINE
  5
6F
330
2
100
AcDbEntity
  8
Visible (ANSI)
100
AcDbLine
 10
7.351824463523594
 20
1.489770179055962
 30
0.0
 11
9.517338980907389
 21
2.740030568601538
 31
0.0
  0
LINE
  5
70
330
2
100
AcDbEntity
  8
Visible (ANSI)
100
AcDbLine
 10
3.551125514645914
 20
3.684104740299223
 30
0.0
 11
7.351824463523594
 21
1.489770179055962
 31
0.0
  0
LINE
  5
71
330
2
100
AcDbEntity
  8
Visible (ANSI)
100
AcDbLine
 10
3.551125514645914
 20
3.741259500964164
 30
0.0
 11
5.71664003202971
 21
4.991519890509739
 31
0.0
  0
LINE
  5
72
330
2
100
AcDbEntity
  8
Visible (ANSI)
100
AcDbLine
 10
7.351824463523594
 20
1.546924939720903
 30
0.0
 11
3.551125514645914
 21
3.741259500964164
 31
0.0
  0
LINE
  5
73
330
2
100
AcDbEntity
  8
Visible (ANSI)
100
AcDbLine
 10
9.517338980907389
 20
2.797185329266478
 30
0.0
 11
7.351824463523594
 21
1.546924939720903
 31
0.0
  0
LINE
  5
74
330
2
100
AcDbEntity
  8
Visible (ANSI)
100
AcDbLine
 10
9.68659563125025
 20
2.699464956628893
 30
0.0
 11
9.517338980907389
 21
2.797185329266478
 31
0.0
  0
LINE
  5
75
330
2
100
AcDbEntity
  8
Visible (ANSI)
100
AcDbLine
 10
9.779933726366875
 20
4.933289416190128
 30
0.0
 11
13.97103697140351
 21
7.353024002913542
 31
0.0
  0
LINE
  5
76
330
2
100
AcDbEntity
  8
Visible (ANSI)
100
AcDbLine
 10
9.779933726366875
 20
2.696198970305182
 30
0.0
 11
9.779933726366875
 21
4.933289416190128
 31
0.0
  0
LINE
  5
77
330
2
100
AcDbEntity
  8
Visible (ANSI)
100
AcDbLine
 10
9.730436251683816
 20
4.961866796522598
 30
0.0
 11
9.779933726366875
 21
4.933289416190128
 31
0.0
  0
LINE
  5
78
330
2
100
AcDbEntity
  8
Visible (ANSI)
100
AcDbLine
 10
9.730436251683816
 20
4.961866796522598
 30
0.0
 11
9.730436251683816
 21
2.724776350637652
 31
0.0
  0
LINE
  5
79
330
2
100
AcDbEntity
  8
Visible (ANSI)
100
AcDbLine
 10
13.92153949672045
 20
7.381601383246014
 30
0.0
 11
9.730436251683816
 21
4.961866796522598
 31
0.0
  0
LINE
  5
7A
330
2
100
AcDbEntity
  8
Visible (ANSI)
100
AcDbLine
 10
13.97103697140351
 20
7.460801551596001
 30
0.0
 11
12.16641911287147
 21
8.502698158003886
 31
0.0
  0
LINE
  5
7B
330
2
100
AcDbEntity
  8
Visible (ANSI)
100
AcDbLine
 10
12.11692163818841
 20
6.421722891282101
 30
0.0
 11
12.11692163818841
 21
8.474120777671416
 31
0.0
  0
LINE
  5
7C
330
2
100
AcDbEntity
  8
Visible (ANSI)
100
AcDbLine
 10
12.11692163818841
 20
8.474120777671416
 30
0.0
 11
12.16641911287147
 21
8.502698158003886
 31
0.0
  0
LINE
  5
7D
330
2
100
AcDbEntity
  8
Visible (ANSI)
100
AcDbLine
 10
12.11692163818841
 20
8.474120777671416
 30
0.0
 11
13.92153949672045
 21
7.432224171263533
 31
0.0
  0
LINE
  5
7E
330
2
100
AcDbEntity
  8
Visible (ANSI)
100
AcDbLine
 10
9.517338980907389
 20
2.797185329266478
 30
0.0
 11
9.517338980907389
 21
2.740030568601538
 31
0.0
  0
LINE
  5
7F
330
2
100
AcDbEntity
  8
Visible (ANSI)
100
AcDbLine
 10
7.351824463523594
 20
1.546924939720903
 30
0.0
 11
7.351824463523594
 21
1.489770179055962
 31
0.0
  0
LINE
  5
80
330
2
100
AcDbEntity
  8
Visible (ANSI)
100
AcDbLine
 10
3.551125514645914
 20
3.741259500964164
 30
0.0
 11
3.551125514645914
 21
3.684104740299223
 31
0.0
  0
ELLIPSE
  5
81
330
2
100
AcDbEntity
  8
Visible (ANSI)
100
AcDbEllipse
 10
7.26604176869981
 20
8.27287478288726
 30
0.0
 11
0.0389999999999958
 21
0.0675499814951881
 31
0.0
210
0.0
220
0.0
230
1.0
 40
0.5773502691896258
 41
3.829061507287903
 42
5.595716453480864
  0
ELLIPSE
  5
82
330
2
100
AcDbEntity
  8
Visible (ANSI)
100
AcDbEllipse
 10
6.02860490162336
 20
7.558440274575504
 30
0.0
 11
0.0389999999999961
 21
0.0675499814951888
 31
0.0
210
0.0
220
0.0
230
1.0
 40
0.5773502691896259
 41
3.829061507287903
 42
5.595716453480857
  0
ELLIPSE
  5
83
330
2
100
AcDbEntity
  8
Visible (ANSI)
100
AcDbEllipse
 10
8.503478635776261
 20
8.987309291199013
 30
0.0
 11
0.0389999999999962
 21
0.067549981495189
 31
0.0
210
0.0
220
0.0
230
0.9999999999999998
 40
0.5773502691896258
 41
3.829061507287953
 42
5.595716453480848
  0
ELLIPSE
  5
84
330
2
100
AcDbEntity
  8
Visible (ANSI)
100
AcDbEllipse
 10
8.55297611045932
 20
8.958731910866543
 30
0.0
 11
-0.0390000000000039
 21
-0.0675499814951837
 31
0.0
210
0.0
220
0.0
230
1.0
 40
0.5773502691896259
 41
0.0
 42
6.283185307179586
  0
ELLIPSE
  5
85
330
2
100
AcDbEntity
  8
Visible (ANSI)
100
AcDbEllipse
 10
6.078102376306419
 20
7.529862894243033
 30
0.0
 11
-0.0390000000000039
 21
-0.0675499814951837
 31
0.0
210
0.0
220
0.0
230
1.0
 40
0.5773502691896259
 41
0.0
 42
6.283185307179586
  0
ELLIPSE
  5
86
330
2
100
AcDbEntity
  8
Visible (ANSI)
100
AcDbEllipse
 10
7.315539243382866
 20
8.244297402554789
 30
0.0
 11
-0.0390000000000039
 21
-0.0675499814951837
 31
0.0
210
0.0
220
0.0
230
1.0
 40
0.5773502691896259
 41
0.0
 42
6.283185307179586
  0
ELLIPSE
  5
87
330
2
100
AcDbEntity
  8
Visible (ANSI)
100
AcDbEllipse
 10
10.26115524630338
 20
9.239402610560444
 30
0.0
 11
0.0389999999999998
 21
-0.0675499814951861
 31
0.0
210
0.0
220
0.0
230
1.0
 40
0.577350269189626
 41
0.0
 42
6.283185307179586
  0
ELLIPSE
  5
88
330
2
100
AcDbEntity
  8
Visible (ANSI)
100
AcDbEllipse
 10
10.31065272098644
 20
9.267979990892914
 30
0.0
 11
0.0390000000000039
 21
-0.0675499814951838
 31
0.0
210
0.0
220
0.0
230
0.9999999999999998
 40
0.5773502691896254
 41
3.829061507287905
 42
5.595716453480875
  0
ELLIPSE
  5
89
330
2
100
AcDbEntity
  8
Visible (ANSI)
100
AcDbEllipse
 10
4.435008991129098
 20
3.42894955875931
 30
0.0
 11
-0.0779999999999996
 21
-0.0000000000000046
 31
0.0
210
0.0
220
0.0
230
1.0
 40
0.5773502691896262
 41
3.829061507287921
 42
5.595716453480878
  0
ELLIPSE
  5
8A
330
2
100
AcDbEntity
  8
Visible (ANSI)
100
AcDbEllipse
 10
5.67244585820555
 20
2.714515050447551
 30
0.0
 11
-0.0779999999999997
 21
-0.0000000000000046
 31
0.0
210
0.0
220
0.0
230
1.0
 40
0.5773502691896261
 41
3.82906150728791
 42
5.595716453480866
  0
ELLIPSE
  5
8B
330
2
100
AcDbEntity
  8
Visible (ANSI)
100
AcDbEllipse
 10
6.909882725282003
 20
2.000080542135792
 30
0.0
 11
-0.0779999999999999
 21
-0.0000000000000046
 31
0.0
210
0.0
220
0.0
230
1.0
 40
0.5773502691896262
 41
3.829061507287933
 42
5.595716453480866
  0
LINE
  5
8C
330
2
100
AcDbEntity
  8
Visible (ANSI)
100
AcDbLine
 10
9.114288115631056
 20
2.972732094165943
 30
0.0
 11
7.837960375589344
 21
3.709620258453214
 31
0.0
  0
LINE
  5
8D
330
2
100
AcDbEntity
  8
Visible (ANSI)
100
AcDbLine
 10
7.837960375589344
 20
3.709620258453214
 30
0.0
 11
7.776972415712004
 21
3.674408843400705
 31
0.0
  0
LINE
  5
8E
330
2
100
AcDbEntity
  8
Visible (ANSI)
100
AcDbLine
 10
6.070193422622984
 20
4.730240984612869
 30
0.0
 11
6.00920546274564
 21
4.695029569560363
 31
0.0
  0
LINE
  5
8F
330
2
100
AcDbEntity
  8
Visible (ANSI)
100
AcDbLine
 10
7.346521162664697
 20
3.993352820325598
 30
0.0
 11
6.070193422622984
 21
4.730240984612869
 31
0.0
  0
ELLIPSE
  5
90
330
2
100
AcDbEntity
  8
Visible (ANSI)
100
AcDbEllipse
 10
4.435008991129098
 20
3.48610431942425
 30
0.0
 11
-0.0779999999999998
 21
0.0000000000000047
 31
0.0
210
0.0
220
0.0
230
1.0
 40
0.5773502691896262
 41
0.0
 42
6.283185307179586
  0
ELLIPSE
  5
91
330
2
100
AcDbEntity
  8
Visible (ANSI)
100
AcDbEllipse
 10
5.67244585820555
 20
2.771669811112491
 30
0.0
 11
-0.0779999999999998
 21
0.0000000000000047
 31
0.0
210
0.0
220
0.0
230
1.0
 40
0.5773502691896262
 41
0.0
 42
6.283185307179586
  0
ELLIPSE
  5
92
330
2
100
AcDbEntity
  8
Visible (ANSI)
100
AcDbEllipse
 10
6.909882725282003
 20
2.057235302800733
 30
0.0
 11
-0.0779999999999998
 21
0.0000000000000047
 31
0.0
210
0.0
220
0.0
230
1.0
 40
0.5773502691896262
 41
0.0
 42
6.283185307179586
  0
LINE
  5
93
330
2
100
AcDbEntity
  8
Visible (ANSI)
100
AcDbLine
 10
9.163785590314112
 20
3.001309474498414
 30
0.0
 11
9.053300155753719
 21
2.937520679113434
 31
0.0
  0
LINE
  5
94
330
2
100
AcDbEntity
  8
Visible (ANSI)
100
AcDbLine
 10
9.053300155753719
 20
2.937520679113434
 30
0.0
 11
7.727474941028946
 21
3.702986223733176
 31
0.0
  0
LINE
  5
95
330
2
100
AcDbEntity
  8
Visible (ANSI)
100
AcDbLine
 10
7.727474941028946
 20
3.702986223733176
 30
0.0
 11
7.837960375589344
 21
3.766775019118154
 31
0.0
  0
LINE
  5
96
330
2
100
AcDbEntity
  8
Visible (ANSI)
100
AcDbLine
 10
7.837960375589344
 20
3.766775019118154
 30
0.0
 11
9.163785590314112
 21
3.001309474498415
 31
0.0
  0
LINE
  5
97
330
2
100
AcDbEntity
  8
Visible (ANSI)
100
AcDbLine
 10
5.95970798806258
 20
4.723606949892833
 30
0.0
 11
6.070193422622984
 21
4.787395745277809
 31
0.0
  0
LINE
  5
98
330
2
100
AcDbEntity
  8
Visible (ANSI)
100
AcDbLine
 10
6.070193422622984
 20
4.787395745277809
 30
0.0
 11
7.396018637347751
 21
4.02193020065807
 31
0.0
  0
LINE
  5
99
330
2
100
AcDbEntity
  8
Visible (ANSI)
100
AcDbLine
 10
7.396018637347751
 20
4.02193020065807
 30
0.0
 11
7.285533202787362
 21
3.958141405273086
 31
0.0
  0
LINE
  5
9A
330
2
100
AcDbEntity
  8
Visible (ANSI)
100
AcDbLine
 10
7.285533202787362
 20
3.958141405273086
 30
0.0
 11
5.95970798806258
 21
4.723606949892833
 31
0.0
  0
ELLIPSE
  5
9B
330
2
100
AcDbEntity
  8
Visible (ANSI)
100
AcDbEllipse
 10
12.96191424170633
 20
6.566282578045577
 30
0.0
 11
-0.039000000000004
 21
-0.0675499814951837
 31
0.0
210
0.0
220
0.0
230
0.9999999999999998
 40
0.5773502691896257
 41
0.0
 42
6.283185307179586
  0
ELLIPSE
  5
9C
330
2
100
AcDbEntity
  8
Visible (ANSI)
100
AcDbEllipse
 10
10.48704050755342
 20
5.137413561422059
 30
0.0
 11
-0.039000000000004
 21
-0.0675499814951837
 31
0.0
210
0.0
220
0.0
230
0.9999999999999998
 40
0.5773502691896257
 41
0.0
 42
6.283185307179586
  0
ELLIPSE
  5
9D
330
2
100
AcDbEntity
  8
Visible (ANSI)
100
AcDbEllipse
 10
11.72447737462988
 20
5.851848069733815
 30
0.0
 11
-0.039000000000004
 21
-0.0675499814951837
 31
0.0
210
0.0
220
0.0
230
0.9999999999999998
 40
0.5773502691896257
 41
0.0
 42
6.283185307179586
  0
ELLIPSE
  5
9E
330
2
100
AcDbEntity
  8
Visible (ANSI)
100
AcDbEllipse
 10
11.67497989994682
 20
5.880425450066285
 30
0.0
 11
0.0389999999999959
 21
0.0675499814951885
 31
0.0
210
0.0
220
0.0
230
1.0
 40
0.5773502691896258
 41
3.829061507287903
 42
5.595716453480863
  0
ELLIPSE
  5
9F
330
2
100
AcDbEntity
  8
Visible (ANSI)
100
AcDbEllipse
 10
10.43754303287037
 20
5.16599094175453
 30
0.0
 11
0.0389999999999963
 21
0.067549981495189
 31
0.0
210
0.0
220
0.0
230
1.0
 40
0.5773502691896259
 41
3.829061507287903
 42
5.595716453480853
  0
ELLIPSE
  5
A0
330
2
100
AcDbEntity
  8
Visible (ANSI)
100
AcDbEllipse
 10
12.91241676702327
 20
6.594859958378048
 30
0.0
 11
0.0389999999999964
 21
0.0675499814951893
 31
0.0
210
0.0
220
0.0
230
1.0
 40
0.5773502691896258
 41
3.829061507287956
 42
5.595716453480828
  0
ELLIPSE
  5
A1
330
2
100
AcDbEntity
  8
Visible (ANSI)
100
AcDbEllipse
 10
12.51997250346474
 20
7.99238779492406
 30
0.0
 11
0.0390000000000039
 21
-0.0675499814951838
 31
0.0
210
0.0
220
0.0
230
0.9999999999999998
 40
0.5773502691896254
 41
3.829061507287905
 42
5.595716453480875
  0
ELLIPSE
  5
A2
330
2
100
AcDbEntity
  8
Visible (ANSI)
100
AcDbEllipse
 10
13.44805015377208
 20
7.45656191369024
 30
0.0
 11
0.0390000000000042
 21
-0.0675499814951844
 31
0.0
210
0.0
220
0.0
230
1.0
 40
0.5773502691896255
 41
3.829061507287928
 42
5.595716453480876
  0
ELLIPSE
  5
A3
330
2
100
AcDbEntity
  8
Visible (ANSI)
100
AcDbEllipse
 10
13.39855267908902
 20
7.42798453335777
 30
0.0
 11
0.0389999999999998
 21
-0.0675499814951861
 31
0.0
210
0.0
220
0.0
230
1.0
 40
0.5773502691896253
 41
0.0
 42
6.283185307179586
  0
ELLIPSE
  5
A4
330
2
100
AcDbEntity
  8
Visible (ANSI)
100
AcDbEllipse
 10
12.47047502878168
 20
7.96381041459159
 30
0.0
 11
0.0389999999999998
 21
-0.0675499814951861
 31
0.0
210
0.0
220
0.0
230
1.0
 40
0.5773502691896253
 41
0.0
 42
6.283185307179586
  0
LINE
  5
A5
330
2
100
AcDbEntity
  8
Visible (ANSI)
100
AcDbLine
 10
7.837960375589344
 20
3.709620258453214
 30
0.0
 11
7.837960375589344
 21
3.766775019118154
 31
0.0
  0
LINE
  5
A6
330
2
100
AcDbEntity
  8
Visible (ANSI)
100
AcDbLine
 10
6.070193422622984
 20
4.730240984612869
 30
0.0
 11
6.070193422622984
 21
4.787395745277809
 31
0.0
  0
ELLIPSE
  5
A7
330
2
100
AcDbEntity
  8
Visible (ANSI)
100
AcDbEllipse
 10
9.738521982062543
 20
9.796708496187726
 30
0.0
 11
0.1320000000000013
 21
-0.0000000000000052
 31
0.0
210
0.0
220
0.0
230
1.0
 40
0.577350269189637
 41
0.7853981633976775
 42
2.356194490192558
  0
LINE
  5
A8
330
2
100
AcDbEntity
  8
Visible Narrow (ANSI)
100
AcDbLine
 10
9.694681361628976
 20
9.822019890196486
 30
0.0
 11
9.64518388694592
 21
9.850597270528954
 31
0.0
  0
ELLIPSE
  5
A9
330
2
100
AcDbEntity
  8
Visible (ANSI)
100
AcDbEllipse
 10
9.738521982062543
 20
9.796708496187726
 30
0.0
 11
-0.0619999999999983
 21
-0.0000000000000048
 31
0.0
210
0.0
220
0.0
230
1.0
 40
0.5773502691896404
 41
3.926990816986963
 42
5.497787143781928
  0
LINE
  5
AA
330
2
100
AcDbEntity
  8
Visible Narrow (ANSI)
100
AcDbLine
 10
9.831860077179166
 20
9.850597270528954
 30
0.0
 11
9.78236260249611
 21
9.822019890196484
 31
0.0
  0
LINE
  5
AB
330
2
100
AcDbEntity
  8
Visible Narrow (ANSI)
100
AcDbLine
 10
9.694681361628978
 20
7.820203966995646
 30
0.0
 11
9.694681361628976
 21
9.822019890196486
 31
0.0
  0
LINE
  5
AC
330
2
100
AcDbEntity
  8
Visible Narrow (ANSI)
100
AcDbLine
 10
9.78236260249611
 20
9.822019890196484
 30
0.0
 11
9.78236260249611
 21
7.769581178978128
 31
0.0
  0
LINE
  5
AD
330
2
100
AcDbEntity
  8
Visible Narrow (ANSI)
100
AcDbLine
 10
9.68659563125025
 20
2.699464956628893
 30
0.0
 11
9.730436251683816
 21
2.724776350637652
 31
0.0
  0
ELLIPSE
  5
AE
330
2
100
AcDbEntity
  8
Visible (ANSI)
100
AcDbEllipse
 10
13.87769887628687
 20
5.169822331369849
 30
0.0
 11
0.0660000000000128
 21
-0.1143153532995684
 31
0.0
210
0.0
220
0.0
230
1.0
 40
0.5773502691896253
 41
0.0026939655172518
 42
0.202716865812694
  0
ELLIPSE
  5
AF
330
2
100
AcDbEntity
  8
Visible (ANSI)
100
AcDbEllipse
 10
9.68659563125025
 20
2.750087744646412
 30
0.0
 11
0.0659999999999997
 21
-0.1143153532995457
 31
0.0
210
0.0
220
0.0
230
1.0
 40
0.5773502691896253
 41
5.497787143782153
 42
7.068583470577033
  0
LINE
  5
B0
330
2
100
AcDbEntity
  8
Visible Narrow (ANSI)
100
AcDbLine
 10
9.730436251683816
 20
2.724776350637652
 30
0.0
 11
9.779933726366875
 21
2.696198970305182
 31
0.0
  0
ELLIPSE
  5
B1
330
2
100
AcDbEntity
  8
Visible (ANSI)
100
AcDbEllipse
 10
9.68659563125025
 20
2.750087744646412
 30
0.0
 11
0.0309999999999999
 21
-0.0536935750346352
 31
0.0
210
0.0
220
0.0
230
1.0
 40
0.5773502691896255
 41
5.49778714378217
 42
7.068583470577042
  0
LINE
  5
B2
330
2
100
AcDbEntity
  8
Visible Narrow (ANSI)
100
AcDbLine
 10
9.68659563125025
 20
2.642310195963952
 30
0.0
 11
9.68659563125025
 21
2.699464956628893
 31
0.0
  0
ELLIPSE
  5
B3
330
2
100
AcDbEntity
  8
Visible (ANSI)
100
AcDbEllipse
 10
13.53148875400467
 20
4.969937823952738
 30
0.0
 11
0.0659999999474216
 21
-0.1143153532086216
 31
0.0
210
0.0
220
0.0
230
1.0
 40
0.5773502691896254
 41
0.0000000000037973
 42
0.0026939655231929
  0
LINE
  5
B4
330
2
100
AcDbEntity
  8
Visible (ANSI)
100
AcDbLine
 10
13.59766631596545
 20
4.855725539311982
 30
0.0
 11
13.94387643830022
 21
5.055610046638132
 31
0.0
  0
ELLIPSE
  5
B5
330
2
100
AcDbEntity
  8
Visible (ANSI)
100
AcDbEllipse
 10
13.87769887628688
 20
5.169822331369832
 30
0.0
 11
0.0660000000000044
 21
-0.1143153532995539
 31
0.0
210
0.0
220
0.0
230
1.0
 40
0.5773502691896255
 41
0.202716865812766
 42
0.7853981633974341
  0
LINE
  5
B6
330
2
100
AcDbEntity
  8
Visible Narrow (ANSI)
100
AcDbLine
 10
9.779933726366875
 20
2.696198970305182
 30
0.0
 11
13.97103697140351
 21
5.115933557028596
 31
0.0
  0
LINE
  5
B7
330
2
100
AcDbEntity
  8
Visible (ANSI)
100
AcDbLine
 10
13.95563527375922
 20
5.0655195433352
 30
0.0
 11
13.97103697140351
 21
5.05662736905432
 31
0.0
  0
LINE
  5
B8
330
2
100
AcDbEntity
  8
Visible (ANSI)
100
AcDbLine
 10
13.97103697140351
 20
5.05662736905432
 30
0.0
 11
13.97103697140351
 21
5.115933557028596
 31
0.0
  0
LINE
  5
B9
330
2
100
AcDbEntity
  8
Visible (ANSI)
100
AcDbLine
 10
13.5974887539521
 20
4.855622470744117
 30
0.0
 11
9.752595631250246
 21
2.635772391346864
 31
0.0
  0
LINE
  5
BA
330
2
100
AcDbEntity
  8
Visible Narrow (ANSI)
100
AcDbLine
 10
13.97103697140351
 20
5.115933557028596
 30
0.0
 11
13.97103697140351
 21
7.353024002913542
 31
0.0
  0
ELLIPSE
  5
BB
330
2
100
AcDbEntity
  8
Visible (ANSI)
100
AcDbEllipse
 10
13.87769887628689
 20
7.406912777254772
 30
0.0
 11
0.1319999999999985
 21
0.0000000000000008
 31
0.0
210
0.0
220
0.0
230
1.0
 40
0.5773502691896283
 41
5.497787143782129
 42
7.068583470577056
  0
LINE
  5
BC
330
2
100
AcDbEntity
  8
Visible Narrow (ANSI)
100
AcDbLine
 10
13.92153949672045
 20
7.432224171263533
 30
0.0
 11
13.97103697140351
 21
7.460801551596003
 31
0.0
  0
ELLIPSE
  5
BD
330
2
100
AcDbEntity
  8
Visible (ANSI)
100
AcDbEllipse
 10
13.87769887628689
 20
7.406912777254773
 30
0.0
 11
0.0620000000000004
 21
0.0
 31
0.0
210
0.0
220
0.0
230
1.0
 40
0.5773502691896261
 41
5.4977871437822
 42
7.068583470577033
  0
LINE
  5
BE
330
2
100
AcDbEntity
  8
Visible Narrow (ANSI)
100
AcDbLine
 10
13.97103697140351
 20
7.353024002913542
 30
0.0
 11
13.92153949672045
 21
7.381601383246014
 31
0.0
  0
ELLIPSE
  5
BF
330
2
100
AcDbEntity
  8
Visible (ANSI)
100
AcDbEllipse
 10
13.87769887628688
 20
5.11051614339555
 30
0.0
 11
0.1320000000000013
 21
0.0000000000000026
 31
0.0
210
0.0
220
0.0
230
1.0
 40
0.5773502691896395
 41
5.497787143782139
 42
6.28318530717958
  0
LINE
  5
C0
330
2
100
AcDbEntity
  8
Visible Narrow (ANSI)
100
AcDbLine
 10
13.92153949672045
 20
7.381601383246014
 30
0.0
 11
13.92153949672045
 21
7.432224171263533
 31
0.0
  0
LINE
  5
C1
330
2
100
AcDbEntity
  8
Visible (ANSI)
100
AcDbLine
 10
14.00969887628689
 20
5.110516143395551
 30
0.0
 11
14.00969887628689
 21
7.406912777254775
 31
0.0
  0
ELLIPSE
  5
C2
330
2
100
AcDbEntity
  8
Visible (ANSI)
100
AcDbEllipse
 10
6.124778966703414
 20
5.074240454189165
 30
0.0
 11
-0.1809999999999971
 21
-0.0000000000000016
 31
0.0
210
0.0
220
0.0
230
1.0
 40
0.577350269189637
 41
0.0000000000000653
 42
0.785398163397503
  0
LINE
  5
C3
330
2
100
AcDbEntity
  8
Visible Narrow (ANSI)
100
AcDbLine
 10
5.996792639308648
 20
5.654742705770142
 30
0.0
 11
5.99679263930865
 21
5.000347513615207
 31
0.0
  0
SPLINE
  5
C4
330
2
100
AcDbEntity
  8
Visible (ANSI)
100
AcDbSpline
210
0.0
220
0.0
230
1.0
 70
     8
 71
     3
 72
    12
 73
     8
 74
     0
 42
0.0000000001
 43
0.0000000001
 40
0.0
 40
0.0
 40
0.0
 40
0.0
 40
0.0896498035475179
 40
0.0896498035475179
 40
0.2254219848713026
 40
0.2254219848713026
 40
0.3611941782475752
 40
0.3611941782475752
 40
0.3611941782475752
 40
0.3611941782475752
 10
5.996792639308648
 20
5.654742705770141
 30
0.0
 10
5.988475884851298
 20
5.659775283739782
 30
0.0
 10
5.980989550068009
 20
5.665263935719906
 30
0.0
 10
5.964520591781068
 20
5.680026882713041
 30
0.0
 10
5.956839483523383
 20
5.689715550629856
 30
0.0
 10
5.946451039259659
 20
5.710089386153869
 30
0.0
 10
5.943800375794657
 20
5.720663442478218
 30
0.0
 10
5.943779095863533
 20
5.731297304920559
 30
0.0
  0
SPLINE
  5
C5
330
2
100
AcDbEntity
  8
Visible (ANSI)
100
AcDbSpline
210
0.0
220
0.0
230
1.0
 70
     8
 71
     3
 72
    12
 73
     8
 74
     0
 42
0.0000000001
 43
0.0000000001
 40
0.0
 40
0.0
 40
0.0
 40
0.0
 40
0.1061936356588621
 40
0.1061936356588621
 40
0.2080817692150157
 40
0.2080817692150157
 40
0.2774862605744532
 40
0.2774862605744532
 40
0.2774862605744532
 40
0.2774862605744532
 10
5.943779095863533
 20
5.731297304920558
 30
0.0
 10
5.943762447047039
 20
5.739342784156923
 30
0.0
 10
5.945376282172489
 20
5.748488897445214
 30
0.0
 10
5.951421198911745
 20
5.768081746658258
 30
0.0
 10
5.955702238688912
 20
5.77834987270266
 30
0.0
 10
5.96434919546066
 20
5.796641312648116
 30
0.0
 10
5.968113018774324
 20
5.804069672820662
 30
0.0
 10
5.971863389792852
 20
5.811490688680357
 30
0.0
  0
LINE
  5
C6
330
2
100
AcDbEntity
  8
Visible Narrow (ANSI)
100
AcDbLine
 10
6.027015685862767
 20
5.672191989833893
 30
0.0
 11
5.996792639308648
 21
5.654742705770142
 31
0.0
  0
LINE
  5
C7
330
2
100
AcDbEntity
  8
Visible (ANSI)
100
AcDbLine
 10
5.97025419900017
 20
5.731315565610899
 30
0.0
 11
5.943779095863533
 21
5.731297304920559
 31
0.0
  0
LINE
  5
C8
330
2
100
AcDbEntity
  8
Visible (ANSI)
100
AcDbLine
 10
5.943778966703416
 20
5.074240454189165
 30
0.0
 11
5.943778966703415
 21
5.731422229516021
 31
0.0
  0
LINE
  5
C9
330
2
100
AcDbEntity
  8
Visible (ANSI)
100
AcDbLine
 10
9.718898560130529
 20
3.730457579267689
 30
0.0
 11
9.730436251683837
 21
3.723796289943561
 31
0.0
  0
SPLINE
  5
CA
330
2
100
AcDbEntity
  8
Visible (ANSI)
100
AcDbSpline
210
0.0
220
0.0
230
1.0
 70
     8
 71
     3
 72
    16
 73
    12
 74
     0
 42
0.0000000001
 43
0.0000000001
 40
0.0
 40
0.0
 40
0.0
 40
0.0
 40
0.0381722825072784
 40
0.0381722825072784
 40
0.0826673242026451
 40
0.0826673242026451
 40
0.1410446832944492
 40
0.1410446832944492
 40
0.1957838783147813
 40
0.1957838783147813
 40
0.286737049482348
 40
0.286737049482348
 40
0.286737049482348
 40
0.286737049482348
 10
9.660110325002808
 20
3.642962075653897
 30
0.0
 10
9.665119807165725
 20
3.642957457893611
 30
0.0
 10
9.67003459902202
 20
3.643932446791301
 30
0.0
 10
9.680164201865027
 20
3.647909503270188
 30
0.0
 10
9.685081553248242
 20
3.651131355848461
 30
0.0
 10
9.695110412987066
 20
3.660150347610626
 30
0.0
 10
9.700104338634554
 20
3.666710879870147
 30
0.0
 10
9.70820603899112
 20
3.681630727684486
 30
0.0
 10
9.711126753427661
 20
3.689287979311959
 30
0.0
 10
9.716953600724545
 20
3.709549262693458
 30
0.0
 10
9.718384171362453
 20
3.721245766585736
 30
0.0
 10
9.718898560130529
 20
3.73045757926769
 30
0.0
  0
LINE
  5
CB
330
2
100
AcDbEntity
  8
Visible (ANSI)
100
AcDbLine
 10
9.660110325001552
 20
3.642962075653898
 30
0.0
 11
9.659992989377951
 21
3.585804439149371
 31
0.0
  0
SPLINE
  5
CC
330
2
100
AcDbEntity
  8
Visible (ANSI)
100
AcDbSpline
210
0.0
220
0.0
230
1.0
 70
     8
 71
     3
 72
    12
 73
     8
 74
     0
 42
0.0000000001
 43
0.0000000001
 40
0.2693786693908414
 40
0.2693786693908414
 40
0.2693786693908414
 40
0.2693786693908414
 40
0.3308571382255375
 40
0.3308571382255375
 40
0.3863366284462166
 40
0.3863366284462166
 40
0.4417399903912368
 40
0.4417399903912368
 40
0.4417399903912368
 40
0.4417399903912368
 10
9.730436182278278
 20
3.605008035539181
 30
0.0
 10
9.722939113231486
 20
3.600515192141387
 30
0.0
 10
9.714991820698772
 20
3.596773975836632
 30
0.0
 10
9.69923319867348
 20
3.591153294823734
 30
0.0
 10
9.691531163717874
 20
3.589145284635902
 30
0.0
 10
9.675867063618207
 20
3.586466488648429
 30
0.0
 10
9.667933426426534
 20
3.585798641835319
 30
0.0
 10
9.659992989380704
 20
3.585804439149368
 30
0.0
  0
LINE
  5
CD
330
2
100
AcDbEntity
  8
Visible Narrow (ANSI)
100
AcDbLine
 10
9.531515263116096
 20
2.959301177828284
 30
0.0
 11
9.531515263116094
 21
3.613772199355286
 31
0.0
  0
LINE
  5
CE
330
2
100
AcDbEntity
  8
Visible Narrow (ANSI)
100
AcDbLine
 10
9.531515263116094
 20
3.613772199355286
 30
0.0
 11
9.570717512310347
 21
3.636405628480425
 31
0.0
  0
LINE
  5
CF
330
2
100
AcDbEntity
  8
Visible Narrow (ANSI)
100
AcDbLine
 10
9.570717512310347
 20
3.636405628480425
 30
0.0
 11
9.601518834453564
 21
3.654188780111207
 31
0.0
  0
SPLINE
  5
D0
330
2
100
AcDbEntity
  8
Visible (ANSI)
100
AcDbSpline
210
0.0
220
0.0
230
1.0
 70
     8
 71
     3
 72
    10
 73
     6
 74
     0
 42
0.0000000001
 43
0.0000000001
 40
0.0
 40
0.0
 40
0.0
 40
0.0
 40
0.0825972436636151
 40
0.0825972436636151
 40
0.1660870238754128
 40
0.1660870238754128
 40
0.1660870238754128
 40
0.1660870238754128
 10
9.601518834453562
 20
3.654188780111207
 30
0.0
 10
9.609172860246699
 20
3.650236816716805
 30
0.0
 10
9.618250781074422
 20
3.647187288001729
 30
0.0
 10
9.638337328823865
 20
3.643286354074679
 30
0.0
 10
9.649168938058304
 20
3.642497424850428
 30
0.0
 10
9.660110325001552
 20
3.642962075653898
 30
0.0
  0
SPLINE
  5
D1
330
2
100
AcDbEntity
  8
Visible (ANSI)
100
AcDbSpline
210
0.0
220
0.0
230
1.0
 70
     8
 71
     3
 72
    12
 73
     8
 74
     0
 42
0.0000000001
 43
0.0000000001
 40
0.0
 40
0.0
 40
0.0
 40
0.0
 40
0.090145359803846
 40
0.090145359803846
 40
0.2266699858504291
 40
0.2266699858504291
 40
0.3631946240163639
 40
0.3631946240163639
 40
0.3631946240163639
 40
0.3631946240163639
 10
9.659992989377952
 20
3.58580443914937
 30
0.0
 10
9.648166332492943
 20
3.585579795089555
 30
0.0
 10
9.636369149540929
 20
3.586021235903757
 30
0.0
 10
9.60720031439162
 20
3.588779297158672
 30
0.0
 10
9.590242476044101
 20
3.591928770450073
 30
0.0
 10
9.558646406992467
 20
3.60096998712712
 30
0.0
 10
9.54418054797617
 20
3.606812372322446
 30
0.0
 10
9.531515263116094
 20
3.613772199355286
 30
0.0
  0
ELLIPSE
  5
D2
330
2
100
AcDbEntity
  8
Visible (ANSI)
100
AcDbEllipse
 10
9.660208697292047
 20
3.033602366692705
 30
0.0
 11
0.181999999999998
 21
0.0000000000000102
 31
0.0
210
0.0
220
0.0
230
1.0
 40
0.5773502691896243
 41
3.926990816986998
 42
5.108534973359757
  0
LINE
  5
D3
330
2
100
AcDbEntity
  8
Visible (ANSI)
100
AcDbLine
 10
6.014317445633162
 20
5.863791927778548
 30
0.0
 11
6.03660106668032
 21
5.850926473168441
 31
0.0
  0
LINE
  5
D4
330
2
100
AcDbEntity
  8
Visible (ANSI)
100
AcDbLine
 10
6.03660106668032
 20
5.850926473168441
 30
0.0
 11
6.05168554965251
 21
5.84221744286386
 31
0.0
  0
LINE
  5
D5
330
2
100
AcDbEntity
  8
Visible (ANSI)
100
AcDbLine
 10
6.05168554965251
 20
5.84221744286386
 30
0.0
 11
6.027304896780441
 21
5.878727018163448
 31
0.0
  0
ELLIPSE
  5
D6
330
2
100
AcDbEntity
  8
Visible (ANSI)
100
AcDbEllipse
 10
6.136799781983565
 20
5.714760459219301
 30
0.0
 11
-0.0989999999999595
 21
0.1714730299493683
 31
0.0
210
0.0
220
0.0
230
1.0
 40
0.5773502691895751
 41
0.1125766413376024
 42
0.2796849585710515
  0
SPLINE
  5
D7
330
2
100
AcDbEntity
  8
Visible (ANSI)
100
AcDbSpline
210
0.0
220
0.0
230
1.0
 70
     8
 71
     3
 72
    10
 73
     6
 74
     0
 42
0.0000000001
 43
0.0000000001
 40
0.0
 40
0.0
 40
0.0
 40
0.0
 40
0.0720256453521089
 40
0.0720256453521089
 40
0.1440512907026606
 40
0.1440512907026606
 40
0.1440512907026606
 40
0.1440512907026606
 10
9.531233553507815
 20
7.847203625028645
 30
0.0
 10
9.524237009823696
 20
7.843508159292131
 30
0.0
 10
9.517240564916786
 20
7.839811384955339
 30
0.0
 10
9.503247751435008
 20
7.8324151394816
 30
0.0
 10
9.496251477808742
 20
7.828715718532085
 30
0.0
 10
9.489255276680834
 20
7.825014959650985
 30
0.0
  0
SPLINE
  5
D8
330
2
100
AcDbEntity
  8
Visible (ANSI)
100
AcDbSpline
210
0.0
220
0.0
230
1.0
 70
     8
 71
     3
 72
    18
 73
    14
 74
     0
 42
0.0000000001
 43
0.0000000001
 40
0.0
 40
0.0
 40
0.0
 40
0.0
 40
0.0408564478791771
 40
0.0408564478791771
 40
0.0746193373913773
 40
0.0746193373913773
 40
0.1035541881350389
 40
0.1035541881350389
 40
0.1528575377168776
 40
0.1528575377168776
 40
0.2008659276488165
 40
0.2008659276488165
 40
0.222227648882957
 40
0.222227648882957
 40
0.222227648882957
 40
0.222227648882957
 10
9.489255276680893
 20
7.825014959650954
 30
0.0
 10
9.485287480822028
 20
7.822915288256091
 30
0.0
 10
9.478379524359462
 20
7.819692135798475
 30
0.0
 10
9.459161087185705
 20
7.814277413084706
 30
0.0
 10
9.44992587631912
 20
7.812515989961275
 30
0.0
 10
9.432556850066022
 20
7.80988642079703
 30
0.0
 10
9.424518005766232
 20
7.808931147745114
 30
0.0
 10
9.403220828219478
 20
7.806480706633764
 30
0.0
 10
9.389806436604745
 20
7.805028017013176
 30
0.0
 10
9.364845370461424
 20
7.8007195858347
 30
0.0
 10
9.353941034377193
 20
7.797993210945121
 30
0.0
 10
9.340766536287096
 20
7.792822653716159
 30
0.0
 10
9.337080063712699
 20
7.791073600066461
 30
0.0
 10
9.333790940135235
 20
7.789174830795316
 30
0.0
  0
ELLIPSE
  5
D9
330
2
100
AcDbEntity
  8
Visible (ANSI)
100
AcDbEllipse
 10
5.975038786698065
 20
5.621367705046862
 30
0.0
 11
0.0990000000003305
 21
-0.1714730299491278
 31
0.0
210
0.0
220
0.0
230
1.0
 40
0.5773502691878621
 41
2.356194490191462
 42
2.407692894647016
  0
LINE
  5
DA
330
2
100
AcDbEntity
  8
Visible (ANSI)
100
AcDbLine
 10
5.971435307749726
 20
5.70417417155208
 30
0.0
 11
5.96783182880176
 21
5.786980638057515
 31
0.0
  0
ELLIPSE
  5
DB
330
2
100
AcDbEntity
  8
Visible (ANSI)
100
AcDbEllipse
 10
5.975038786697691
 20
5.621367705046641
 30
0.0
 11
-0.049499999999973
 21
0.0857365149746816
 31
0.0
210
0.0
220
0.0
230
0.9999999999999998
 40
0.57735026918938
 41
5.497787143782346
 42
5.549285548237882
  0
LINE
  5
DC
330
2
100
AcDbEntity
  8
Visible Narrow (ANSI)
100
AcDbLine
 10
5.975038786697691
 20
5.783034028070336
 30
0.0
 11
5.975038786697691
 21
5.702200866558492
 31
0.0
  0
SPLINE
  5
DD
330
2
100
AcDbEntity
  8
Visible (ANSI)
100
AcDbSpline
210
0.0
220
0.0
230
1.0
 70
     8
 71
     3
 72
    18
 73
    14
 74
     0
 42
0.0000000001
 43
0.0000000001
 40
0.0
 40
0.0
 40
0.0
 40
0.0
 40
0.0622747317458011
 40
0.0622747317458011
 40
0.1873035618635872
 40
0.1873035618635872
 40
0.3165262541972557
 40
0.3165262541972557
 40
0.4253399002484193
 40
0.4253399002484193
 40
0.4882808903669035
 40
0.4882808903669035
 40
0.5794908314706807
 40
0.5794908314706807
 40
0.5794908314706807
 40
0.5794908314706807
 10
6.027304896780442
 20
5.878727018163447
 30
0.0
 10
6.031551476229496
 20
5.88223176838146
 30
0.0
 10
6.035696136191451
 20
5.885104519940294
 30
0.0
 10
6.047876574235615
 20
5.891842126769536
 30
0.0
 10
6.055518207585874
 20
5.893678655875238
 30
0.0
 10
6.068677636134749
 20
5.891998397894449
 30
0.0
 10
6.073667261764821
 20
5.888369377621537
 30
0.0
 10
6.078492398370959
 20
5.878749638335373
 30
0.0
 10
6.079090142935564
 20
5.873074925470678
 30
0.0
 10
6.076147270684876
 20
5.863238326067186
 30
0.0
 10
6.074252866931175
 20
5.859503396557393
 30
0.0
 10
6.067280667192397
 20
5.850498994631291
 30
0.0
 10
6.061977950969622
 20
5.846407101099734
 30
0.0
 10
6.057353080680679
 20
5.84352728236118
 30
0.0
  0
SPLINE
  5
DE
330
2
100
AcDbEntity
  8
Visible (ANSI)
100
AcDbSpline
210
0.0
220
0.0
230
1.0
 70
     8
 71
     3
 72
    10
 73
     6
 74
     0
 42
0.0000000001
 43
0.0000000001
 40
0.0
 40
0.0
 40
0.0
 40
0.0
 40
0.1690926950881759
 40
0.1690926950881759
 40
0.3381853901768118
 40
0.3381853901768118
 40
0.3381853901768118
 40
0.3381853901768118
 10
6.057353080680688
 20
5.843527282361175
 30
0.0
 10
6.042431900565869
 20
5.834117350347551
 30
0.0
 10
6.027511474846376
 20
5.824700259902019
 30
0.0
 10
5.997670960645413
 20
5.805851243104002
 30
0.0
 10
5.982751359616377
 20
5.796419624654721
 30
0.0
 10
5.96783182880176
 20
5.786980638057515
 30
0.0
  0
ELLIPSE
  5
DF
330
2
100
AcDbEntity
  8
Visible (ANSI)
100
AcDbEllipse
 10
9.541108135773573
 20
7.680238803684944
 30
0.0
 11
-0.0989999999998302
 21
0.1714730299487952
 31
0.0
210
0.0
220
0.0
230
1.0
 40
0.5773502691900613
 41
5.548632218702472
 42
5.568374880060941
  0
ELLIPSE
  5
E0
330
2
100
AcDbEntity
  8
Visible (ANSI)
100
AcDbEllipse
 10
9.541108135773603
 20
7.68023880368447
 30
0.0
 11
0.0990000000000039
 21
-0.1714730299493497
 31
0.0
210
0.0
220
0.0
230
0.9999999999999998
 40
0.5773502691896239
 41
2.356194490192606
 42
2.407039565113308
  0
SPLINE
  5
E1
330
2
100
AcDbEntity
  8
Visible (ANSI)
100
AcDbSpline
210
0.0
220
0.0
230
1.0
 70
     8
 71
     3
 72
    12
 73
     8
 74
     0
 42
0.0000000001
 43
0.0000000001
 40
-0.1857013206808207
 40
-0.1857013206808207
 40
-0.1857013206808207
 40
-0.1857013206808207
 40
-0.1380057361374432
 40
-0.1380057361374432
 40
-0.0908819866227237
 40
-0.0908819866227237
 40
-0.0000020637256993
 40
-0.0000020637256993
 40
-0.0000020637256993
 40
-0.0000020637256993
 10
6.014317445633161
 20
5.863791927778547
 30
0.0
 10
6.011429909384647
 20
5.86016079897059
 30
0.0
 10
6.008401246430613
 20
5.856220370169267
 30
0.0
 10
6.001771666378227
 20
5.847626472639892
 30
0.0
 10
5.998289062944133
 20
5.843122637941164
 30
0.0
 10
5.987475549946032
 20
5.82947956685025
 30
0.0
 10
5.979840886497855
 20
5.820284206492267
 30
0.0
 10
5.971863389789673
 20
5.811490688682979
 30
0.0
  0
LINE
  5
E2
330
2
100
AcDbEntity
  8
Visible Narrow (ANSI)
100
AcDbLine
 10
9.541108135773603
 20
7.841905126708185
 30
0.0
 11
5.975038786697691
 21
5.783034028070336
 31
0.0
  0
LINE
  5
E3
330
2
100
AcDbEntity
  8
Visible (ANSI)
100
AcDbLine
 10
6.05168554965251
 20
5.84221744286386
 30
0.0
 11
6.053560156264536
 21
5.841135138231782
 31
0.0
  0
LINE
  5
E4
330
2
100
AcDbEntity
  8
Visible (ANSI)
100
AcDbLine
 10
9.333790948772792
 20
7.789174876561034
 30
0.0
 11
6.038715787571019
 21
5.886762345241142
 31
0.0
  0
LINE
  5
E5
330
2
100
AcDbEntity
  8
Visible (ANSI)
100
AcDbLine
 10
6.440080062173677
 20
5.323232346170778
 30
0.0
 11
6.22640756080234
 21
5.199868469985617
 31
0.0
  0
LINE
  5
E6
330
2
100
AcDbEntity
  8
Visible (ANSI)
100
AcDbLine
 10
6.064252199911899
 20
4.961399718141507
 30
0.0
 11
5.99679263930865
 21
5.000347513615207
 31
0.0
  0
LINE
  5
E7
330
2
100
AcDbEntity
  8
Visible (ANSI)
100
AcDbLine
 10
5.996792639308648
 20
5.654742705770142
 30
0.0
 11
6.064252199911895
 21
5.613095074069899
 31
0.0
  0
ELLIPSE
  5
E8
330
2
100
AcDbEntity
  8
Visible (ANSI)
100
AcDbEllipse
 10
6.335426161499859
 20
5.234103744201705
 30
0.0
 11
-0.1562499999999994
 21
0.0000000000000139
 31
0.0
210
0.0
220
0.0
230
1.0
 40
0.8164965809277269
 41
0.5744935111203722
 42
2.18661321731734
  0
ELLIPSE
  5
E9
330
2
100
AcDbEntity
  8
Visible (ANSI)
100
AcDbEllipse
 10
6.335426161499859
 20
5.291261420851478
 30
0.0
 11
0.1562499999999991
 21
0.0000000000000126
 31
0.0
210
0.0
220
0.0
230
1.0
 40
0.8164965809277278
 41
3.716086164709883
 42
5.328205870906914
  0
LINE
  5
EA
330
2
100
AcDbEntity
  8
Visible (ANSI)
100
AcDbLine
 10
6.425680152780133
 20
4.927917526353806
 30
0.0
 11
6.204259342586835
 21
4.927917526353806
 31
0.0
  0
ELLIPSE
  5
EB
330
2
100
AcDbEntity
  8
Visible (ANSI)
100
AcDbEllipse
 10
6.335426161499861
 20
5.234103744201706
 30
0.0
 11
0.1562499999999995
 21
-0.0000000000000145
 31
0.0
210
0.0
220
0.0
230
1.0
 40
0.8164965809277282
 41
0.9549794362726835
 42
2.56709914246973
  0
LINE
  5
EC
330
2
100
AcDbEntity
  8
Visible (ANSI)
100
AcDbLine
 10
6.651797390650448
 20
4.690201270588244
 30
0.0
 11
6.651797390650448
 21
5.31147410438997
 31
0.0
  0
LINE
  5
ED
330
2
100
AcDbEntity
  8
Visible (ANSI)
100
AcDbLine
 10
6.553174115539365
 20
5.312120867112965
 30
0.0
 11
6.642833026463811
 21
5.316649682466239
 31
0.0
  0
LINE
  5
EE
330
2
100
AcDbEntity
  8
Visible (ANSI)
100
AcDbLine
 10
6.553174115539365
 20
5.312120867112965
 30
0.0
 11
6.553174115539365
 21
4.685219650826103
 31
0.0
  0
LINE
  5
EF
330
2
100
AcDbEntity
  8
Visible (ANSI)
100
AcDbLine
 10
6.553174115539365
 20
4.685219650826103
 30
0.0
 11
6.651797390650448
 21
4.690201270588244
 31
0.0
  0
LINE
  5
F0
330
2
100
AcDbEntity
  8
Visible (ANSI)
100
AcDbLine
 10
6.553174115539365
 20
4.685219650826103
 30
0.0
 11
6.524303427891216
 21
4.875741469466174
 31
0.0
  0
LINE
  5
F1
330
2
100
AcDbEntity
  8
Visible (ANSI)
100
AcDbLine
 10
6.544304113927604
 20
5.37353537664198
 30
0.0
 11
6.553174115539365
 21
5.312120867112965
 31
0.0
  0
LINE
  5
F2
330
2
100
AcDbEntity
  8
Visible (ANSI)
100
AcDbLine
 10
9.601518834453564
 20
3.654188780111207
 30
0.0
 11
9.534614634217582
 21
3.690138328283933
 31
0.0
  0
LINE
  5
F3
330
2
100
AcDbEntity
  8
Visible (ANSI)
100
AcDbLine
 10
9.531515263116096
 20
2.959301177828284
 30
0.0
 11
9.464611062880116
 21
2.997928335844445
 31
0.0
  0
LINE
  5
F4
330
2
100
AcDbEntity
  8
Visible (ANSI)
100
AcDbLine
 10
9.464611062880114
 20
3.649721747528011
 30
0.0
 11
9.531515263116094
 21
3.613772199355286
 31
0.0
  0
LINE
  5
F5
330
2
100
AcDbEntity
  8
Visible (ANSI)
100
AcDbLine
 10
9.324809375144079
 20
3.26647950757562
 30
0.0
 11
8.992462024007052
 21
3.300313275451461
 31
0.0
  0
LINE
  5
F6
330
2
100
AcDbEntity
  8
Visible (ANSI)
100
AcDbLine
 10
8.992462024007048
 20
3.927312547493515
 30
0.0
 11
9.05746152087428
 21
3.92256327122541
 31
0.0
  0
LINE
  5
F7
330
2
100
AcDbEntity
  8
Visible (ANSI)
100
AcDbLine
 10
8.992462024007052
 20
3.300313275451461
 30
0.0
 11
8.992462024007048
 21
3.927312547493515
 31
0.0
  0
LINE
  5
F8
330
2
100
AcDbEntity
  8
Visible (ANSI)
100
AcDbLine
 10
8.992462024007048
 20
3.927312547493515
 30
0.0
 11
9.000972159031588
 21
3.955177419491639
 31
0.0
  0
LINE
  5
F9
330
2
100
AcDbEntity
  8
Visible (ANSI)
100
AcDbLine
 10
5.975038786697691
 20
5.702200866558491
 30
0.0
 11
9.486578633139895
 21
3.674812390944981
 31
0.0
  0
LINE
  5
FA
330
2
100
AcDbEntity
  8
Visible (ANSI)
100
AcDbLine
 10
9.486578633139895
 20
3.755645552456826
 30
0.0
 11
5.975038786697691
 21
5.783034028070336
 31
0.0
  0
LINE
  5
FB
330
2
100
AcDbEntity
  8
Visible Narrow (ANSI)
100
AcDbLine
 10
6.064252199911899
 20
4.961399718141507
 30
0.0
 11
6.064252199911895
 21
5.613095074069899
 31
0.0
  0
SPLINE
  5
FC
330
2
100
AcDbEntity
  8
Visible (ANSI)
100
AcDbSpline
210
0.0
220
0.0
230
1.0
 70
     8
 71
     3
 72
    16
 73
    12
 74
     0
 42
0.0000000001
 43
0.0000000001
 40
0.0
 40
0.0
 40
0.0
 40
0.0
 40
0.0501035659362844
 40
0.0501035659362844
 40
0.0921369275279866
 40
0.0921369275279866
 40
0.1303117336684175
 40
0.1303117336684175
 40
0.1577529591276801
 40
0.1577529591276801
 40
0.1904190663735091
 40
0.1904190663735091
 40
0.1904190663735091
 40
0.1904190663735091
 10
6.204259342586833
 20
5.164776846505659
 30
0.0
 10
6.199883559026788
 20
5.168784065702758
 30
0.0
 10
6.189802535332963
 20
5.178393840602675
 30
0.0
 10
6.17483161430838
 20
5.204690260144423
 30
0.0
 10
6.170713112310671
 20
5.217488019231772
 30
0.0
 10
6.168962620688001
 20
5.2421351142827
 30
0.0
 10
6.170810106492067
 20
5.253443665395545
 30
0.0
 10
6.178241447002241
 20
5.271858984394076
 30
0.0
 10
6.182562851809252
 20
5.279104767063949
 30
0.0
 10
6.19427769282786
 20
5.29420518232947
 30
0.0
 10
6.200701603399044
 20
5.300172564669766
 30
0.0
 10
6.204259342586833
 20
5.303430641897751
 30
0.0
  0
LINE
  5
FD
330
2
100
AcDbEntity
  8
Visible (ANSI)
100
AcDbLine
 10
6.204259342586835
 20
5.19614518190137
 30
0.0
 11
6.204259342586833
 21
5.164776846505659
 31
0.0
  0
LINE
  5
FE
330
2
100
AcDbEntity
  8
Visible (ANSI)
100
AcDbLine
 10
6.204259342586833
 20
5.221934523155431
 30
0.0
 11
6.204259342586834
 21
5.19614518190137
 31
0.0
  0
SPLINE
  5
FF
330
2
100
AcDbEntity
  8
Visible (ANSI)
100
AcDbSpline
210
0.0
220
0.0
230
1.0
 70
     8
 71
     3
 72
    10
 73
     6
 74
     0
 42
0.0000000001
 43
0.0000000001
 40
0.0954425212126381
 40
0.0954425212126381
 40
0.0954425212126381
 40
0.0954425212126381
 40
0.1092207894749626
 40
0.1092207894749626
 40
0.1864218657571353
 40
0.1864218657571353
 40
0.1864218657571353
 40
0.1864218657571353
 10
6.187096499007667
 20
5.284925166632222
 30
0.0
 10
6.187314016057031
 20
5.28033824868224
 30
0.0
 10
6.187739632229759
 20
5.275713806262515
 30
0.0
 10
6.19196918817257
 20
5.245030002557536
 30
0.0
 10
6.201277673627191
 20
5.227376160660638
 30
0.0
 10
6.204259342586833
 20
5.221934523155432
 30
0.0
  0
SPLINE
  5
100
330
2
100
AcDbEntity
  8
Visible (ANSI)
100
AcDbSpline
210
0.0
220
0.0
230
1.0
 70
     8
 71
     3
 72
    12
 73
     8
 74
     0
 42
0.0000000001
 43
0.0000000001
 40
0.0310662004564538
 40
0.0310662004564538
 40
0.0310662004564538
 40
0.0310662004564538
 40
0.0980743705453013
 40
0.0980743705453013
 40
0.2469029598691134
 40
0.2469029598691134
 40
0.3957315624874065
 40
0.3957315624874065
 40
0.3957315624874065
 40
0.3957315624874065
 10
6.192047357085815
 20
5.576910910342632
 30
0.0
 10
6.183282096997793
 20
5.577402567357933
 30
0.0
 10
6.174558051416987
 20
5.578230617517021
 30
0.0
 10
6.14677736890112
 20
5.58197206430573
 30
0.0
 10
6.12828538277197
 20
5.586173771124201
 30
0.0
 10
6.093831651264359
 20
5.597582009687106
 30
0.0
 10
6.078058625267301
 20
5.604726092517577
 30
0.0
 10
6.064252199911896
 20
5.613095074069899
 30
0.0
  0
LINE
  5
101
330
2
100
AcDbEntity
  8
Visible Narrow (ANSI)
100
AcDbLine
 10
6.064252199911895
 20
5.613095074069899
 30
0.0
 11
6.096813373224259
 21
5.631894276246922
 31
0.0
  0
ELLIPSE
  5
102
330
2
100
AcDbEntity
  8
Visible (ANSI)
100
AcDbEllipse
 10
6.204259342586836
 20
5.042232879653353
 30
0.0
 11
0.198000000000001
 21
0.0000000000000195
 31
0.0
210
0.0
220
0.0
230
1.0
 40
0.5773502691896053
 41
3.926990816986982
 42
4.712388980384554
  0
LINE
  5
103
330
2
100
AcDbEntity
  8
Visible Narrow (ANSI)
100
AcDbLine
 10
6.204259342586831
 20
5.5698603169121
 30
0.0
 11
6.204259342586833
 21
5.303430641897752
 31
0.0
  0
LINE
  5
104
330
2
100
AcDbEntity
  8
Visible Narrow (ANSI)
100
AcDbLine
 10
6.204259342586833
 20
5.164776846505659
 30
0.0
 11
6.204259342586835
 21
4.927917526353806
 31
0.0
  0
LINE
  5
105
330
2
100
AcDbEntity
  8
Visible (ANSI)
100
AcDbLine
 10
6.425680152780133
 20
5.129961919244966
 30
0.0
 11
6.425680152780133
 21
5.156071846748246
 31
0.0
  0
LINE
  5
106
330
2
100
AcDbEntity
  8
Visible (ANSI)
100
AcDbLine
 10
6.425680152780133
 20
5.156071846748246
 30
0.0
 11
6.425680152780133
 21
5.187119595894738
 31
0.0
  0
LINE
  5
107
330
2
100
AcDbEntity
  8
Visible Narrow (ANSI)
100
AcDbLine
 10
6.425680152780133
 20
4.927917526353806
 30
0.0
 11
6.425680152780133
 21
5.129961919244966
 31
0.0
  0
LINE
  5
108
330
2
100
AcDbEntity
  8
Visible Narrow (ANSI)
100
AcDbLine
 10
6.425680152780133
 20
5.338245569158445
 30
0.0
 11
6.425680152780133
 21
5.442022952542811
 31
0.0
  0
ELLIPSE
  5
109
330
2
100
AcDbEntity
  8
Visible (ANSI)
100
AcDbEllipse
 10
6.425680152780133
 20
4.870759849704033
 30
0.0
 11
0.0989999999999993
 21
-0.0000000000000036
 31
0.0
210
0.0
220
0.0
230
1.0
 40
0.5773502691896235
 41
0.0872664625996649
 42
1.570796326794946
  0
SPLINE
  5
10A
330
2
100
AcDbEntity
  8
Visible (ANSI)
100
AcDbSpline
210
0.0
220
0.0
230
1.0
 70
     8
 71
     3
 72
    26
 73
    22
 74
     0
 42
0.0000000001
 43
0.0000000001
 40
0.0
 40
0.0
 40
0.0
 40
0.0
 40
0.0146312193843283
 40
0.0146312193843283
 40
0.0430125871595894
 40
0.0430125871595894
 40
0.18603815885455
 40
0.18603815885455
 40
0.2935705533252724
 40
0.2935705533252724
 40
0.3916311086801234
 40
0.3916311086801234
 40
0.486241228727766
 40
0.486241228727766
 40
0.5607558688645465
 40
0.5607558688645465
 40
0.6019832950611805
 40
0.6019832950611805
 40
0.6206979541204536
 40
0.6206979541204536
 40
0.6386012145149432
 40
0.6386012145149432
 40
0.6386012145149432
 40
0.6386012145149432
 10
6.425680152780133
 20
5.338245569158445
 30
0.0
 10
6.427019767154079
 20
5.33712240509837
 30
0.0
 10
6.42832030123704
 20
5.335975096883251
 30
0.0
 10
6.432086498020607
 20
5.332450883111599
 30
0.0
 10
6.434422491116258
 20
5.329996446572507
 30
0.0
 10
6.447612069469736
 20
5.314737507105928
 30
0.0
 10
6.456060889111632
 20
5.298688056370256
 30
0.0
 10
6.466007158298545
 20
5.267425190789043
 30
0.0
 10
6.468491853652867
 20
5.25370356460358
 30
0.0
 10
6.470314931641494
 20
5.228305216849544
 30
0.0
 10
6.469920364978884
 20
5.216365205039793
 30
0.0
 10
6.466570881864779
 20
5.19406077540651
 30
0.0
 10
6.463696577789733
 20
5.183559615155613
 30
0.0
 10
6.455969309891569
 20
5.165844801903476
 30
0.0
 10
6.451639064281471
 20
5.15835817730341
 30
0.0
 10
6.443251299906049
 20
5.147278250603244
 30
0.0
 10
6.43993592646711
 20
5.143437480945404
 30
0.0
 10
6.434603240944336
 20
5.137992674131389
 30
0.0
 10
6.432855148549212
 20
5.136300846783602
 30
0.0
 10
6.429300595807605
 20
5.133047724636965
 30
0.0
 10
6.427533585051624
 20
5.131515880262114
 30
0.0
 10
6.425680152780133
 20
5.129961919244965
 30
0.0
  0
SPLINE
  5
10B
330
2
100
AcDbEntity
  8
Visible (ANSI)
100
AcDbSpline
210
0.0
220
0.0
230
1.0
 70
     8
 71
     3
 72
     8
 73
     4
 74
     0
 42
0.0000000001
 43
0.0000000001
 40
0.0
 40
0.0
 40
0.0
 40
0.0
 40
0.1682029151010742
 40
0.1682029151010742
 40
0.1682029151010742
 40
0.1682029151010742
 10
6.425680152780134
 20
5.187119595894738
 30
0.0
 10
6.445299755098203
 20
5.195379018415358
 30
0.0
 10
6.458972668107667
 20
5.202428400635352
 30
0.0
 10
6.468686038821963
 20
5.208337428124415
 30
0.0
  0
LINE
  5
10C
330
2
100
AcDbEntity
  8
Visible Narrow (ANSI)
100
AcDbLine
 10
6.524303427891215
 20
5.385082778109064
 30
0.0
 11
6.524303427891216
 21
4.875741469466174
 31
0.0
  0
LINE
  5
10D
330
2
100
AcDbEntity
  8
Visible (ANSI)
100
AcDbLine
 10
9.541108135773603
 20
7.841905126708185
 30
0.0
 11
9.533992528943283
 21
7.846013324227117
 31
0.0
  0
LINE
  5
10E
330
2
100
AcDbEntity
  8
Visible (ANSI)
100
AcDbLine
 10
9.533992528943283
 20
7.846013324227117
 30
0.0
 11
9.533992528943278
 21
7.845804397604401
 31
0.0
  0
SPLINE
  5
10F
330
2
100
AcDbEntity
  8
Visible (ANSI)
100
AcDbSpline
210
0.0
220
0.0
230
1.0
 70
     8
 71
     3
 72
    12
 73
     8
 74
     0
 42
0.0000000001
 43
0.0000000001
 40
0.3961338161342041
 40
0.3961338161342041
 40
0.3961338161342041
 40
0.3961338161342041
 40
0.4912951126393299
 40
0.4912951126393299
 40
0.6416974215019773
 40
0.6416974215019773
 40
0.792099168393902
 40
0.792099168393902
 40
0.792099168393902
 40
0.792099168393902
 10
9.63573656913465
 20
7.854235661136149
 30
0.0
 10
9.629304340767257
 20
7.857949315946171
 30
0.0
 10
9.622286369824101
 20
7.860650555975717
 30
0.0
 10
9.602875763870887
 20
7.864883810289984
 30
0.0
 10
9.589881513247927
 20
7.864793381572225
 30
0.0
 10
9.562513634353214
 20
7.859269857592456
 30
0.0
 10
9.548293055506473
 20
7.853867711339011
 30
0.0
 10
9.533992528943285
 20
7.846013324227116
 30
0.0
  0
LINE
  5
110
330
2
100
AcDbEntity
  8
Visible Narrow (ANSI)
100
AcDbLine
 10
12.12995855154234
 20
6.347231642272427
 30
0.0
 11
9.541108135773603
 21
7.841905126708185
 31
0.0
  0
LINE
  5
111
330
2
100
AcDbEntity
  8
Visible (ANSI)
100
AcDbLine
 10
12.1879514088674
 20
6.380713834060128
 30
0.0
 11
9.635736611127997
 21
7.854235734564723
 31
0.0
  0
LINE
  5
112
330
2
100
AcDbEntity
  8
Visible Narrow (ANSI)
100
AcDbLine
 10
9.464611062880114
 20
3.649721747528011
 30
0.0
 11
9.464611062880116
 21
2.997928335844445
 31
0.0
  0
ELLIPSE
  5
113
330
2
100
AcDbEntity
  8
Visible (ANSI)
100
AcDbEllipse
 10
9.604618205555048
 20
3.078761497356287
 30
0.0
 11
-0.1979999999999969
 21
0.000000000000007
 31
0.0
210
0.0
220
0.0
230
1.0
 40
0.5773502691896555
 41
0.0
 42
0.7853981633973915
  0
SPLINE
  5
114
330
2
100
AcDbEntity
  8
Visible (ANSI)
100
AcDbSpline
210
0.0
220
0.0
230
1.0
 70
     8
 71
     3
 72
    12
 73
     8
 74
     0
 42
0.0000000001
 43
0.0000000001
 40
0.0
 40
0.0
 40
0.0
 40
0.0
 40
0.0980743705452842
 40
0.0980743705452842
 40
0.2469029598690785
 40
0.2469029598690785
 40
0.3655096992678282
 40
0.3655096992678282
 40
0.3655096992678282
 40
0.3655096992678282
 10
9.464611062880114
 20
3.649721747528011
 30
0.0
 10
9.4555129698228
 20
3.654712368491732
 30
0.0
 10
9.447323333481806
 20
3.660203137450736
 30
0.0
 10
9.429285532202197
 20
3.675076660624655
 30
0.0
 10
9.420871136384347
 20
3.684921571318362
 30
0.0
 10
9.410660242504189
 20
3.703586526417679
 30
0.0
 10
9.407906388035197
 20
3.712136433573325
 30
0.0
 10
9.40697470001205
 20
3.720771746285985
 30
0.0
  0
LINE
  5
115
330
2
100
AcDbEntity
  8
Visible Narrow (ANSI)
100
AcDbLine
 10
9.503813346950838
 20
3.672355196789091
 30
0.0
 11
9.464611062880114
 21
3.649721747528011
 31
0.0
  0
LINE
  5
116
330
2
100
AcDbEntity
  8
Visible Narrow (ANSI)
100
AcDbLine
 10
9.534614634217582
 20
3.690138328283933
 30
0.0
 11
9.503813346950838
 21
3.672355196789091
 31
0.0
  0
SPLINE
  5
117
330
2
100
AcDbEntity
  8
Visible (ANSI)
100
AcDbSpline
210
0.0
220
0.0
230
1.0
 70
     8
 71
     3
 72
     8
 73
     4
 74
     0
 42
0.0000000001
 43
0.0000000001
 40
0.1754022212787863
 40
0.1754022212787863
 40
0.1754022212787863
 40
0.1754022212787863
 40
0.198375255042436
 40
0.198375255042436
 40
0.198375255042436
 40
0.198375255042436
 10
9.528538230732461
 20
3.693614118690832
 30
0.0
 10
9.530458282394006
 20
3.692405027177437
 30
0.0
 10
9.532485474979715
 20
3.691244893644218
 30
0.0
 10
9.534614634217582
 20
3.690138328283932
 30
0.0
  0
LINE
  5
118
330
2
100
AcDbEntity
  8
Visible (ANSI)
100
AcDbLine
 10
9.406618205555052
 20
3.078761497356289
 30
0.0
 11
9.40661820555505
 21
3.720977565335609
 31
0.0
  0
LINE
  5
119
330
2
100
AcDbEntity
  8
Visible Narrow (ANSI)
100
AcDbLine
 10
9.324809375144079
 20
3.26647950757562
 30
0.0
 11
9.324809375144079
 21
3.768209915595473
 31
0.0
  0
ELLIPSE
  5
11A
330
2
100
AcDbEntity
  8
Visible (ANSI)
100
AcDbEllipse
 10
9.307618205555055
 20
3.210190184466759
 30
0.0
 11
0.0989999999999991
 21
-0.0000000000000003
 31
0.0
210
0.0
220
0.0
230
1.0
 40
0.5773502691896219
 41
0.0
 42
1.396263401595465
  0
LINE
  5
11B
330
2
100
AcDbEntity
  8
Visible Narrow (ANSI)
100
AcDbLine
 10
9.486578633139897
 20
3.674812390944981
 30
0.0
 11
9.486578633139897
 21
3.755645552456825
 31
0.0
  0
ELLIPSE
  5
11C
330
2
100
AcDbEntity
  8
Visible (ANSI)
100
AcDbEllipse
 10
9.486578633139895
 20
3.5939792294331
 30
0.0
 11
-0.0494999999999597
 21
0.0857365149747324
 31
0.0
210
0.0
220
0.0
230
0.9999999999999996
 40
0.5773502691891688
 41
5.445446334141365
 42
5.497787143782534
  0
ELLIPSE
  5
11D
330
2
100
AcDbEntity
  8
Visible (ANSI)
100
AcDbEllipse
 10
9.648894988793076
 20
3.687692621063373
 30
0.0
 11
-0.0494999999999858
 21
0.0857365149746351
 31
0.0
210
0.0
220
0.0
230
0.9999999999999998
 40
0.5773502691896239
 41
4.409461135311862
 42
4.641610368306127
  0
SPLINE
  5
11E
330
2
100
AcDbEntity
  8
Visible (ANSI)
100
AcDbSpline
210
0.0
220
0.0
230
1.0
 70
     8
 71
     3
 72
    18
 73
    14
 74
     0
 42
0.0000000001
 43
0.0000000001
 40
0.0
 40
0.0
 40
0.0
 40
0.0
 40
0.0366537963153634
 40
0.0366537963153634
 40
0.0708439579883169
 40
0.0708439579883169
 40
0.1120242868918696
 40
0.1120242868918696
 40
0.1590359766670063
 40
0.1590359766670063
 40
0.1887148847074666
 40
0.1887148847074666
 40
0.2278794171516192
 40
0.2278794171516192
 40
0.2278794171516192
 40
0.2278794171516192
 10
9.70177166945028
 20
3.710136658667113
 30
0.0
 10
9.70005762092391
 20
3.714629335836431
 30
0.0
 10
9.697293464181971
 20
3.719686117705747
 30
0.0
 10
9.688675825365381
 20
3.728971661432772
 30
0.0
 10
9.683699461972173
 20
3.73252527310807
 30
0.0
 10
9.671646808107164
 20
3.738444048699867
 30
0.0
 10
9.664085032167266
 20
3.740545611093605
 30
0.0
 10
9.646338080030751
 20
3.742442337525246
 30
0.0
 10
9.636169486781284
 20
3.741856632908081
 30
0.0
 10
9.619035415476146
 20
3.738481993529866
 30
0.0
 10
9.612644027256333
 20
3.736660555359215
 30
0.0
 10
9.59856643246019
 20
3.731618008025205
 30
0.0
 10
9.59102130998079
 20
3.728087992531203
 30
0.0
 10
9.584342273300167
 20
3.724231330822186
 30
0.0
  0
SPLINE
  5
11F
330
2
100
AcDbEntity
  8
Visible (ANSI)
100
AcDbSpline
210
0.0
220
0.0
230
1.0
 70
     8
 71
     3
 72
    10
 73
     6
 74
     0
 42
0.0000000001
 43
0.0000000001
 40
0.0
 40
0.0
 40
0.0
 40
0.0
 40
0.1651473637667206
 40
0.1651473637667206
 40
0.3302947275306093
 40
0.3302947275306093
 40
0.3302947275306093
 40
0.3302947275306093
 10
9.584342273300169
 20
3.724231330822186
 30
0.0
 10
9.568659063285339
 20
3.71563022648618
 30
0.0
 10
9.552975854949426
 20
3.707026126927708
 30
0.0
 10
9.521608576984123
 20
3.689811356036667
 30
0.0
 10
9.505924983755946
 20
3.681200946159157
 30
0.0
 10
9.490241003992524
 20
3.672587221760603
 30
0.0
  0
ELLIPSE
  5
120
330
2
100
AcDbEntity
  8
Visible (ANSI)
100
AcDbEllipse
 10
9.486578633139894
 20
3.593979229433121
 30
0.0
 11
0.0989999999998741
 21
-0.1714730299494096
 31
0.0
210
0.0
220
0.0
230
1.0
 40
0.5773502691891687
 41
2.30385368055178
 42
2.356194490193002
  0
SPLINE
  5
121
330
2
100
AcDbEntity
  8
Visible (ANSI)
100
AcDbSpline
210
0.0
220
0.0
230
1.0
 70
     8
 71
     3
 72
    10
 73
     6
 74
     0
 42
0.0000000001
 43
0.0000000001
 40
0.0
 40
0.0
 40
0.0
 40
0.0
 40
0.16528686897342
 40
0.16528686897342
 40
0.3305737379475778
 40
0.3305737379475778
 40
0.3305737379475778
 40
0.3305737379475778
 10
9.493903374845151
 20
3.75119521408807
 30
0.0
 10
9.509950609885576
 20
3.759577238478924
 30
0.0
 10
9.525997304536433
 20
3.767952768165937
 30
0.0
 10
9.558090411496078
 20
3.784691461135938
 30
0.0
 10
9.574136336363046
 20
3.793054370185235
 30
0.0
 10
9.590182031906117
 20
3.801411154450892
 30
0.0
  0
SPLINE
  5
122
330
2
100
AcDbEntity
  8
Visible (ANSI)
100
AcDbSpline
210
0.0
220
0.0
230
1.0
 70
     8
 71
     3
 72
    18
 73
    14
 74
     0
 42
0.0000000001
 43
0.0000000001
 40
0.0
 40
0.0
 40
0.0
 40
0.0
 40
0.029626482978677
 40
0.029626482978677
 40
0.0500156311667034
 40
0.0500156311667034
 40
0.0710441815723896
 40
0.0710441815723896
 40
0.1018743484706885
 40
0.1018743484706885
 40
0.1531807504953942
 40
0.1531807504953942
 40
0.2076665148768358
 40
0.2076665148768358
 40
0.2076665148768358
 40
0.2076665148768358
 10
9.590182031906117
 20
3.801411154450892
 30
0.0
 10
9.592929982631389
 20
3.802999277522575
 30
0.0
 10
9.597375667824692
 20
3.805311846928706
 30
0.0
 10
9.608251251174836
 20
3.808917506074195
 30
0.0
 10
9.612942899780167
 20
3.810066844827862
 30
0.0
 10
9.622835084005552
 20
3.811724616283811
 30
0.0
 10
9.628016744420403
 20
3.812206619809888
 30
0.0
 10
9.640988349192436
 20
3.812501958387661
 30
0.0
 10
9.648807758054106
 20
3.81189706051167
 30
0.0
 10
9.66942401950396
 20
3.808287038354569
 30
0.0
 10
9.682448881734476
 20
3.803893556129791
 30
0.0
 10
9.708244402120188
 20
3.789991761254322
 30
0.0
 10
9.720215804576401
 20
3.780583538399219
 30
0.0
 10
9.730436254591332
 20
3.769403396434495
 30
0.0
  0
LINE
  5
123
330
2
100
AcDbEntity
  8
Visible Narrow (ANSI)
100
AcDbLine
 10
9.486578633139895
 20
3.755645552456826
 30
0.0
 11
9.730436251683835
 21
3.89643681416711
 31
0.0
  0
LINE
  5
124
330
2
100
AcDbEntity
  8
Visible (ANSI)
100
AcDbLine
 10
9.490241003992526
 20
3.672587221760603
 30
0.0
 11
9.493903374845153
 21
3.75119521408807
 31
0.0
  0
LINE
  5
125
330
2
100
AcDbEntity
  8
Visible (ANSI)
100
AcDbLine
 10
9.584342273300167
 20
3.724231330822186
 30
0.0
 11
9.590182031906117
 21
3.801411154450892
 31
0.0
  0
LINE
  5
126
330
2
100
AcDbEntity
  8
Visible (ANSI)
100
AcDbLine
 10
9.701771669450282
 20
3.710136658667114
 30
0.0
 11
9.717545687524188
 21
3.716832098895443
 31
0.0
  0
ENDSEC
  0
SECTION
  2
OBJECTS
  0
DICTIONARY
  5
7
330
0
100
AcDbDictionary
281
     1
  3
ACAD_CIP_PREVIOUS_PRODUCT_INFO
350
15E
  3
ACAD_COLOR
350
40
  3
ACAD_GROUP
350
2C
  3
ACAD_LAYOUT
350
15
  3
ACAD_MATERIAL
350
9
  3
ACAD_MLEADERSTYLE
350
43
  3
ACAD_MLINESTYLE
350
2D
  3
ACAD_PLOTSETTINGS
350
2E
  3
ACAD_PLOTSTYLENAME
350
6
  3
ACAD_SCALELIST
350
41
  3
ACAD_TABLESTYLE
350
42
  3
ACAD_VISUALSTYLE
350
26
  3
ACDB_RECOMPOSE_DATA
350
165
  3
AcDbVariableDictionary
350
138
  3
DWGPROPS
350
166
  0
XRECORD
  5
15E
102
{ACAD_REACTORS
330
7
102
}
330
7
100
AcDbXrecord
280
     1
300
AMECH_PP
300
2012
300
85794PDSS_2012_0F
  0
DICTIONARY
  5
40
102
{ACAD_REACTORS
330
7
102
}
330
7
100
AcDbDictionary
281
     1
  0
DICTIONARY
  5
2C
102
{ACAD_REACTORS
330
7
102
}
330
7
100
AcDbDictionary
281
     1
  0
DICTIONARY
  5
15
102
{ACAD_REACTORS
330
7
102
}
330
7
100
AcDbDictionary
281
     1
  3
Layout1
350
19
  3
Model
350
14
  0
DICTIONARY
  5
9
102
{ACAD_REACTORS
330
7
102
}
330
7
100
AcDbDictionary
281
     1
  3
ByBlock
350
38
  3
ByLayer
350
2F
  3
Global
350
8
  0
DICTIONARY
  5
43
102
{ACAD_REACTORS
330
7
102
}
330
7
100
AcDbDictionary
281
     1
  3
Standard
350
15B
  0
DICTIONARY
  5
2D
102
{ACAD_REACTORS
330
7
102
}
330
7
100
AcDbDictionary
281
     1
  3
Standard
350
44
  0
DICTIONARY
  5
2E
102
{ACAD_REACTORS
330
7
102
}
330
7
100
AcDbDictionary
281
     1
  0
ACDBDICTIONARYWDFLT
  5
6
102
{ACAD_REACTORS
330
7
102
}
330
7
100
AcDbDictionary
281
     1
  3
Normal
350
5
100
AcDbDictionaryWithDefault
340
5
  0
DICTIONARY
  5
41
102
{ACAD_REACTORS
330
7
102
}
330
7
100
AcDbDictionary
281
     1
  3
A0
350
49
  3
A1
350
4A
  3
A2
350
4B
  3
A3
350
4C
  3
A4
350
4D
  3
A5
350
4E
  3
A6
350
4F
  3
A7
350
50
  3
A8
350
51
  3
A9
350
52
  3
B0
350
53
  3
B1
350
54
  3
B2
350
55
  3
B3
350
56
  3
B4
350
57
  3
B5
350
58
  3
B6
350
59
  0
DICTIONARY
  5
42
102
{ACAD_REACTORS
330
7
102
}
330
7
100
AcDbDictionary
281
     1
  3
Standard
350
45
  0
DICTIONARY
  5
26
102
{ACAD_REACTORS
330
7
102
}
330
7
100
AcDbDictionary
281
     1
  3
2dWireframe
350
25
  3
Basic
350
14A
  3
Brighten
350
14E
  3
ColorChange
350
152
  3
Conceptual
350
14C
  3
Dim
350
14D
  3
EdgeColorOff
350
15A
  3
Facepattern
350
151
  3
Flat
350
146
  3
FlatWithEdges
350
147
  3
Gouraud
350
148
  3
GouraudWithEdges
350
149
  3
Hidden
350
14B
  3
JitterOff
350
158
  3
Linepattern
350
150
  3
OverhangOff
350
159
  3
Realistic
350
46
  3
Shaded
350
157
  3
Shaded with edges
350
156
  3
Shades of Gray
350
153
  3
Sketchy
350
154
  3
Thicken
350
14F
  3
Wireframe
350
47
  3
X-Ray
350
155
  0
XRECORD
  5
165
102
{ACAD_REACTORS
330
7
102
}
330
7
100
AcDbXrecord
280
     1
 90
        1
330
45
  0
DICTIONARY
  5
138
102
{ACAD_REACTORS
330
7
102
}
330
7
100
AcDbDictionary
281
     1
  3
CANNOSCALE
350
13C
  3
CMLEADERSTYLE
350
13A
  3
CTABLESTYLE
350
139
  3
DIMASSOC
350
143
  3
HIDETEXT
350
142
  3
INDEXCTL
350
141
  3
LAYEREVAL
350
13E
  3
LAYERNOTIFY
350
13F
  3
LIGHTINGUNITS
350
13D
  3
MSLTSCALE
350
13B
  3
SORTENTS
350
140
  3
XCLIPFRAME
350
161
  0
XRECORD
  5
166
102
{ACAD_REACTORS
330
7
102
}
330
7
100
AcDbXrecord
280
     1
  1
DWGPROPS COOKIE
  2

  3

  4

  6

  7

  8
jwalls
  9

300
=
301
=
302
=
303
=
304
=
305
=
306
=
307
=
308
=
309
=
 40
0.0117192361111111
 41
2456514.656774109
 42
2456514.672976076
  1

 90
        0
  0
LAYOUT
  5
19
102
{ACAD_XDICTIONARY
360
16A
102
}
102
{ACAD_REACTORS
330
15
102
}
330
15
100
AcDbPlotSettings
  1

  2

  4

  6

 40
0.0
 41
0.0
 42
0.0
 43
0.0
 44
0.0
 45
0.0
 46
0.0
 47
0.0
 48
0.0
 49
0.0
140
0.0
141
0.0
142
1.0
143
1.0
 70
   688
 72
     0
 73
     0
 74
     5
  7

 75
    16
147
1.0
148
0.0
149
0.0
100
AcDbLayout
  1
Layout1
 70
     1
 71
     1
 10
0.0
 20
0.0
 11
17.0
 21
11.0
 12
0.0
 22
0.0
 32
0.0
 14
0.0
 24
0.0
 34
0.0
 15
17.0
 25
11.0
 35
0.0
146
0.0
 13
0.0
 23
0.0
 33
0.0
 16
1.0
 26
0.0
 36
0.0
 17
0.0
 27
1.0
 37
0.0
 76
     0
330
16
  0
LAYOUT
  5
14
102
{ACAD_XDICTIONARY
360
168
102
}
102
{ACAD_REACTORS
330
15
102
}
330
15
100
AcDbPlotSettings
  1

  2

  4

  6

 40
0.0
 41
0.0
 42
0.0
 43
0.0
 44
0.0
 45
0.0
 46
0.0
 47
0.0
 48
0.0
 49
0.0
140
0.0
141
0.0
142
1.0
143
1.0
 70
  1712
 72
     0
 73
     0
 74
     0
  7

 75
     0
147
1.0
148
0.0
149
0.0
100
AcDbLayout
  1
Model
 70
     1
 71
     0
 10
0.0
 20
0.0
 11
12.0
 21
9.0
 12
0.0
 22
0.0
 32
0.0
 14
0.0
 24
0.0
 34
0.0
 15
0.0
 25
0.0
 35
0.0
146
0.0
 13
0.0
 23
0.0
 33
0.0
 16
1.0
 26
0.0
 36
0.0
 17
0.0
 27
1.0
 37
0.0
 76
     0
330
2
331
24
  0
MATERIAL
  5
38
102
{ACAD_XDICTIONARY
360
39
102
}
102
{ACAD_REACTORS
330
9
102
}
330
9
100
AcDbMaterial
  1
ByBlock
 72
     0
 43
0.0208333333333333
 43
0.0
 43
0.0
 43
0.0
 43
0.0
 43
0.0208333333333333
 43
0.0
 43
0.0
 43
0.0
 43
0.0
 43
1.0
 43
0.0
 43
0.0
 43
0.0
 43
0.0
 43
1.0
 77
     0
 47
0.0208333333333333
 47
0.0
 47
0.0
 47
0.0
 47
0.0
 47
0.0208333333333333
 47
0.0
 47
0.0
 47
0.0
 47
0.0
 47
1.0
 47
0.0
 47
0.0
 47
0.0
 47
0.0
 47
1.0
171
     0
 49
0.0208333333333333
 49
0.0
 49
0.0
 49
0.0
 49
0.0
 49
0.0208333333333333
 49
0.0
 49
0.0
 49
0.0
 49
0.0
 49
1.0
 49
0.0
 49
0.0
 49
0.0
 49
0.0
 49
1.0
175
     0
142
0.0208333333333333
142
0.0
142
0.0
142
0.0
142
0.0
142
0.0208333333333333
142
0.0
142
0.0
142
0.0
142
0.0
142
1.0
142
0.0
142
0.0
142
0.0
142
0.0
142
1.0
179
     0
144
0.0208333333333333
144
0.0
144
0.0
144
0.0
144
0.0
144
0.0208333333333333
144
0.0
144
0.0
144
0.0
144
0.0
144
1.0
144
0.0
144
0.0
144
0.0
144
0.0
144
1.0
147
0.0208333333333333
147
0.0
147
0.0
147
0.0
147
0.0
147
0.0208333333333333
147
0.0
147
0.0
147
0.0
147
0.0
147
1.0
147
0.0
147
0.0
147
0.0
147
0.0
147
1.0
  0
MATERIAL
  5
2F
102
{ACAD_XDICTIONARY
360
30
102
}
102
{ACAD_REACTORS
330
9
102
}
330
9
100
AcDbMaterial
  1
ByLayer
 72
     0
 43
0.0208333333333333
 43
0.0
 43
0.0
 43
0.0
 43
0.0
 43
0.0208333333333333
 43
0.0
 43
0.0
 43
0.0
 43
0.0
 43
1.0
 43
0.0
 43
0.0
 43
0.0
 43
0.0
 43
1.0
 77
     0
 47
0.0208333333333333
 47
0.0
 47
0.0
 47
0.0
 47
0.0
 47
0.0208333333333333
 47
0.0
 47
0.0
 47
0.0
 47
0.0
 47
1.0
 47
0.0
 47
0.0
 47
0.0
 47
0.0
 47
1.0
171
     0
 49
0.0208333333333333
 49
0.0
 49
0.0
 49
0.0
 49
0.0
 49
0.0208333333333333
 49
0.0
 49
0.0
 49
0.0
 49
0.0
 49
1.0
 49
0.0
 49
0.0
 49
0.0
 49
0.0
 49
1.0
175
     0
142
0.0208333333333333
142
0.0
142
0.0
142
0.0
142
0.0
142
0.0208333333333333
142
0.0
142
0.0
142
0.0
142
0.0
142
1.0
142
0.0
142
0.0
142
0.0
142
0.0
142
1.0
179
     0
144
0.0208333333333333
144
0.0
144
0.0
144
0.0
144
0.0
144
0.0208333333333333
144
0.0
144
0.0
144
0.0
144
0.0
144
1.0
144
0.0
144
0.0
144
0.0
144
0.0
144
1.0
147
0.0208333333333333
147
0.0
147
0.0
147
0.0
147
0.0
147
0.0208333333333333
147
0.0
147
0.0
147
0.0
147
0.0
147
1.0
147
0.0
147
0.0
147
0.0
147
0.0
147
1.0
  0
MATERIAL
  5
8
102
{ACAD_XDICTIONARY
360
A
102
}
102
{ACAD_REACTORS
330
9
102
}
330
9
100
AcDbMaterial
  1
Global
 72
     0
 43
0.0208333333333333
 43
0.0
 43
0.0
 43
0.0
 43
0.0
 43
0.0208333333333333
 43
0.0
 43
0.0
 43
0.0
 43
0.0
 43
1.0
 43
0.0
 43
0.0
 43
0.0
 43
0.0
 43
1.0
 77
     0
 47
0.0208333333333333
 47
0.0
 47
0.0
 47
0.0
 47
0.0
 47
0.0208333333333333
 47
0.0
 47
0.0
 47
0.0
 47
0.0
 47
1.0
 47
0.0
 47
0.0
 47
0.0
 47
0.0
 47
1.0
171
     0
 49
0.0208333333333333
 49
0.0
 49
0.0
 49
0.0
 49
0.0
 49
0.0208333333333333
 49
0.0
 49
0.0
 49
0.0
 49
0.0
 49
1.0
 49
0.0
 49
0.0
 49
0.0
 49
0.0
 49
1.0
175
     0
142
0.0208333333333333
142
0.0
142
0.0
142
0.0
142
0.0
142
0.0208333333333333
142
0.0
142
0.0
142
0.0
142
0.0
142
1.0
142
0.0
142
0.0
142
0.0
142
0.0
142
1.0
179
     0
144
0.0208333333333333
144
0.0
144
0.0
144
0.0
144
0.0
144
0.0208333333333333
144
0.0
144
0.0
144
0.0
144
0.0
144
1.0
144
0.0
144
0.0
144
0.0
144
0.0
144
1.0
147
0.0208333333333333
147
0.0
147
0.0
147
0.0
147
0.0
147
0.0208333333333333
147
0.0
147
0.0
147
0.0
147
0.0
147
1.0
147
0.0
147
0.0
147
0.0
147
0.0
147
1.0
  0
MLEADERSTYLE
  5
15B
102
{ACAD_XDICTIONARY
360
163
102
}
102
{ACAD_REACTORS
330
43
102
}
330
43
100
AcDbMLeaderStyle
170
     2
171
     1
172
     0
 90
        2
 40
0.0
 41
0.0
173
     1
 91
-1056964608
340
1F
 92
       -2
290
     1
 42
0.09
291
     1
 43
0.36
  3
Standard
 44
0.18
300

342
1C
174
     1
178
     6
175
     1
176
     0
 93
-1056964608
 45
0.18
292
     0
297
     0
 46
0.18
 94
-1056964608
 47
1.0
 49
1.0
140
1.0
293
     1
141
0.0
294
     1
177
     0
142
1.0
295
     0
296
     0
143
0.125
1001
ACAD_MLEADERVER
1070
     2
  0
MLINESTYLE
  5
44
102
{ACAD_REACTORS
330
2D
102
}
330
2D
100
AcDbMlineStyle
  2
STANDARD
 70
     0
  3

 62
   256
 51
90.0
 52
90.0
 71
     2
 49
0.5
 62
   256
  6
BYLAYER
 49
-0.5
 62
   256
  6
BYLAYER
  0
ACDBPLACEHOLDER
  5
5
102
{ACAD_REACTORS
330
6
102
}
330
6
  0
SCALE
  5
49
102
{ACAD_REACTORS
330
41
102
}
330
41
100
AcDbScale
 70
     0
300
1:1
140
1.0
141
1.0
290
     1
  0
SCALE
  5
4A
102
{ACAD_REACTORS
330
41
102
}
330
41
100
AcDbScale
 70
     0
300
1/128" = 1'-0"
140
0.0078125
141
12.0
290
     0
  0
SCALE
  5
4B
102
{ACAD_REACTORS
330
41
102
}
330
41
100
AcDbScale
 70
     0
300
1/64" = 1'-0"
140
0.015625
141
12.0
290
     0
  0
SCALE
  5
4C
102
{ACAD_REACTORS
330
41
102
}
330
41
100
AcDbScale
 70
     0
300
1/32" = 1'-0"
140
0.03125
141
12.0
290
     0
  0
SCALE
  5
4D
102
{ACAD_REACTORS
330
41
102
}
330
41
100
AcDbScale
 70
     0
300
1/16" = 1'-0"
140
0.0625
141
12.0
290
     0
  0
SCALE
  5
4E
102
{ACAD_REACTORS
330
41
102
}
330
41
100
AcDbScale
 70
     0
300
3/32" = 1'-0"
140
0.09375
141
12.0
290
     0
  0
SCALE
  5
4F
102
{ACAD_REACTORS
330
41
102
}
330
41
100
AcDbScale
 70
     0
300
1/8" = 1'-0"
140
0.125
141
12.0
290
     0
  0
SCALE
  5
50
102
{ACAD_REACTORS
330
41
102
}
330
41
100
AcDbScale
 70
     0
300
3/16" = 1'-0"
140
0.1875
141
12.0
290
     0
  0
SCALE
  5
51
102
{ACAD_REACTORS
330
41
102
}
330
41
100
AcDbScale
 70
     0
300
1/4" = 1'-0"
140
0.25
141
12.0
290
     0
  0
SCALE
  5
52
102
{ACAD_REACTORS
330
41
102
}
330
41
100
AcDbScale
 70
     0
300
3/8" = 1'-0"
140
0.375
141
12.0
290
     0
  0
SCALE
  5
53
102
{ACAD_REACTORS
330
41
102
}
330
41
100
AcDbScale
 70
     0
300
1/2" = 1'-0"
140
0.5
141
12.0
290
     0
  0
SCALE
  5
54
102
{ACAD_REACTORS
330
41
102
}
330
41
100
AcDbScale
 70
     0
300
3/4" = 1'-0"
140
0.75
141
12.0
290
     0
  0
SCALE
  5
55
102
{ACAD_REACTORS
330
41
102
}
330
41
100
AcDbScale
 70
     0
300
1" = 1'-0"
140
1.0
141
12.0
290
     0
  0
SCALE
  5
56
102
{ACAD_REACTORS
330
41
102
}
330
41
100
AcDbScale
 70
     0
300
1-1/2" = 1'-0"
140
1.5
141
12.0
290
     0
  0
SCALE
  5
57
102
{ACAD_REACTORS
330
41
102
}
330
41
100
AcDbScale
 70
     0
300
3" = 1'-0"
140
3.0
141
12.0
290
     0
  0
SCALE
  5
58
102
{ACAD_REACTORS
330
41
102
}
330
41
100
AcDbScale
 70
     0
300
6" = 1'-0"
140
6.0
141
12.0
290
     0
  0
SCALE
  5
59
102
{ACAD_REACTORS
330
41
102
}
330
41
100
AcDbScale
 70
     0
300
1'-0" = 1'-0"
140
12.0
141
12.0
290
     0
  0
TABLESTYLE
  5
45
102
{ACAD_XDICTIONARY
360
127
102
}
102
{ACAD_REACTORS
330
42
102
}
330
42
100
AcDbTableStyle
  3
Standard
 70
     0
 71
     0
 40
0.06
 41
0.06
280
     0
281
     0
  7
Standard
140
0.18
170
     2
 62
     0
 63
     7
283
     0
274
    -2
284
     1
 64
     0
275
    -2
285
     1
 65
     0
276
    -2
286
     1
 66
     0
277
    -2
287
     1
 67
     0
278
    -2
288
     1
 68
     0
279
    -2
289
     1
 69
     0
  7
Standard
140
0.25
170
     5
 62
     0
 63
     7
283
     0
274
    -2
284
     1
 64
     0
275
    -2
285
     1
 65
     0
276
    -2
286
     1
 66
     0
277
    -2
287
     1
 67
     0
278
    -2
288
     1
 68
     0
279
    -2
289
     1
 69
     0
  7
Standard
140
0.18
170
     5
 62
     0
 63
     7
283
     0
274
    -2
284
     1
 64
     0
275
    -2
285
     1
 65
     0
276
    -2
286
     1
 66
     0
277
    -2
287
     1
 67
     0
278
    -2
288
     1
 68
     0
279
    -2
289
     1
 69
     0
  0
VISUALSTYLE
  5
25
102
{ACAD_XDICTIONARY
360
16C
102
}
102
{ACAD_REACTORS
330
26
102
}
330
26
100
AcDbVisualStyle
  2
2dWireframe
 70
     4
 71
     0
 72
     2
 73
     0
 90
        0
 40
-0.6
 41
-30.0
 62
     5
 63
     7
 74
     1
 91
        4
 64
     7
 65
   257
 75
     1
175
     1
 42
1.0
 92
        0
 66
   257
 43
1.0
 76
     1
 77
     6
 78
     2
 67
     7
 79
     5
170
     0
171
     0
290
     0
174
     0
 93
        1
 44
0.0
173
     0
291
     0
 45
0.0
1001
ACAD
1000
AcDbSavedByObjectVersion
1070
     0
  0
VISUALSTYLE
  5
14A
102
{ACAD_XDICTIONARY
360
17D
102
}
102
{ACAD_REACTORS
330
26
102
}
330
26
100
AcDbVisualStyle
  2
Basic
 70
     7
 71
     1
 72
     0
 73
     1
 90
        0
 40
-0.6
 41
-30.0
 62
     5
 63
     7
 74
     0
 91
        4
 64
     7
 65
   257
 75
     1
175
     1
 42
1.0
 92
        8
 66
     7
 43
1.0
 76
     1
 77
     6
 78
     2
 67
     7
 79
     5
170
     0
171
     0
290
     0
174
     0
 93
        1
 44
0.0
173
     0
291
     1
 45
0.0
1001
ACAD
1000
AcDbSavedByObjectVersion
1070
     0
  0
VISUALSTYLE
  5
14E
102
{ACAD_XDICTIONARY
360
185
102
}
102
{ACAD_REACTORS
330
26
102
}
330
26
100
AcDbVisualStyle
  2
Brighten
 70
    12
 71
     2
 72
     2
 73
     0
 90
        0
 40
-0.6
 41
-30.0
 62
     5
 63
     7
 74
     1
 91
        4
 64
     7
 65
   257
 75
     1
175
     1
 42
1.0
 92
        8
 66
     7
 43
1.0
 76
     1
 77
     6
 78
     2
 67
     7
 79
     5
170
     0
171
     0
290
     0
174
     0
 93
        1
 44
50.0
173
     0
291
     1
 45
0.0
1001
ACAD
1000
AcDbSavedByObjectVersion
1070
     0
  0
VISUALSTYLE
  5
152
102
{ACAD_XDICTIONARY
360
18D
102
}
102
{ACAD_REACTORS
330
26
102
}
330
26
100
AcDbVisualStyle
  2
ColorChange
 70
    16
 71
     2
 72
     2
 73
     3
 90
        0
 40
-0.6
 41
-30.0
 62
     5
 63
     8
 74
     1
 91
        4
 64
     7
 65
   257
 75
     1
175
     1
 42
1.0
 92
        8
 66
     8
 43
1.0
 76
     1
 77
     6
 78
     2
 67
     7
 79
     5
170
     0
171
     0
290
     0
174
     0
 93
        1
 44
0.0
173
     0
291
     1
 45
0.0
1001
ACAD
1000
AcDbSavedByObjectVersion
1070
     0
  0
VISUALSTYLE
  5
14C
102
{ACAD_XDICTIONARY
360
181
102
}
102
{ACAD_REACTORS
330
26
102
}
330
26
100
AcDbVisualStyle
  2
Conceptual
 70
     9
 71
     3
 72
     2
 73
     0
 90
        0
 40
-0.6
 41
-30.0
 62
     5
 63
     7
 74
     2
 91
        2
 64
     7
 65
   257
 75
     1
175
     1
 42
179.0
 92
        8
 66
     7
 43
1.0
 76
     1
 77
     6
 78
     2
 67
     7
 79
     3
170
     0
171
     0
290
     0
174
     0
 93
        1
 44
0.0
173
     0
291
     0
 45
0.0
1001
ACAD
1000
AcDbSavedByObjectVersion
1070
     0
  0
VISUALSTYLE
  5
14D
102
{ACAD_XDICTIONARY
360
183
102
}
102
{ACAD_REACTORS
330
26
102
}
330
26
100
AcDbVisualStyle
  2
Dim
 70
    11
 71
     2
 72
     2
 73
     0
 90
        0
 40
-0.6
 41
-30.0
 62
     5
 63
     7
 74
     1
 91
        4
 64
     7
 65
   257
 75
     1
175
     1
 42
1.0
 92
        8
 66
     7
 43
1.0
 76
     1
 77
     6
 78
     2
 67
     7
 79
     5
170
     0
171
     0
290
     0
174
     0
 93
        1
 44
-50.0
173
     0
291
     1
 45
0.0
1001
ACAD
1000
AcDbSavedByObjectVersion
1070
     0
  0
VISUALSTYLE
  5
15A
102
{ACAD_XDICTIONARY
360
19D
102
}
102
{ACAD_REACTORS
330
26
102
}
330
26
100
AcDbVisualStyle
  2
EdgeColorOff
 70
    22
 71
     2
 72
     2
 73
     0
 90
        0
 40
-0.6
 41
-30.0
 62
     5
 63
     7
 74
     1
 91
        4
 64
     7
 65
   257
 75
     1
175
     1
 42
1.0
 92
        8
 66
     7
 43
1.0
 76
     1
 77
     6
 78
     2
 67
     7
 79
     5
170
     0
171
     0
290
     0
174
     0
 93
        1
 44
0.0
173
     0
291
     1
 45
0.0
1001
ACAD
1000
AcDbSavedByObjectVersion
1070
     0
  0
VISUALSTYLE
  5
151
102
{ACAD_XDICTIONARY
360
18B
102
}
102
{ACAD_REACTORS
330
26
102
}
330
26
100
AcDbVisualStyle
  2
Facepattern
 70
    15
 71
     2
 72
     2
 73
     0
 90
        0
 40
-0.6
 41
-30.0
 62
     5
 63
     7
 74
     1
 91
        4
 64
     7
 65
   257
 75
     1
175
     1
 42
1.0
 92
        8
 66
     7
 43
1.0
 76
     1
 77
     6
 78
     2
 67
     7
 79
     5
170
     0
171
     0
290
     0
174
     0
 93
        1
 44
0.0
173
     0
291
     1
 45
0.0
1001
ACAD
1000
AcDbSavedByObjectVersion
1070
     0
  0
VISUALSTYLE
  5
146
102
{ACAD_XDICTIONARY
360
175
102
}
102
{ACAD_REACTORS
330
26
102
}
330
26
100
AcDbVisualStyle
  2
Flat
 70
     0
 71
     2
 72
     1
 73
     1
 90
        2
 40
-0.6
 41
30.0
 62
     5
 63
     7
 74
     0
 91
        0
 64
     7
 65
   257
 75
     1
175
     1
 42
1.0
 92
        8
 66
     7
 43
1.0
 76
     1
 77
     6
 78
     2
 67
     7
 79
     5
170
     0
171
     0
290
     0
174
     0
 93
       13
 44
0.0
173
     0
291
     1
 45
0.0
1001
ACAD
1000
AcDbSavedByObjectVersion
1070
     0
  0
VISUALSTYLE
  5
147
102
{ACAD_XDICTIONARY
360
177
102
}
102
{ACAD_REACTORS
330
26
102
}
330
26
100
AcDbVisualStyle
  2
FlatWithEdges
 70
     1
 71
     2
 72
     1
 73
     1
 90
        2
 40
-0.6
 41
30.0
 62
     5
 63
     7
 74
     1
 91
        0
 64
     7
 65
   257
 75
     1
175
     1
 42
1.0
 92
        0
 66
   257
 43
1.0
 76
     1
 77
     6
 78
     2
 67
     7
 79
     5
170
     0
171
     0
290
     0
174
     0
 93
       13
 44
0.0
173
     0
291
     1
 45
0.0
1001
ACAD
1000
AcDbSavedByObjectVersion
1070
     0
  0
VISUALSTYLE
  5
148
102
{ACAD_XDICTIONARY
360
179
102
}
102
{ACAD_REACTORS
330
26
102
}
330
26
100
AcDbVisualStyle
  2
Gouraud
 70
     2
 71
     2
 72
     2
 73
     1
 90
        2
 40
-0.6
 41
30.0
 62
     5
 63
     7
 74
     0
 91
        0
 64
     7
 65
   257
 75
     1
175
     1
 42
1.0
 92
        0
 66
     7
 43
1.0
 76
     1
 77
     6
 78
     2
 67
     7
 79
     5
170
     0
171
     0
290
     0
174
     0
 93
       13
 44
0.0
173
     0
291
     1
 45
0.0
1001
ACAD
1000
AcDbSavedByObjectVersion
1070
     0
  0
VISUALSTYLE
  5
149
102
{ACAD_XDICTIONARY
360
17B
102
}
102
{ACAD_REACTORS
330
26
102
}
330
26
100
AcDbVisualStyle
  2
GouraudWithEdges
 70
     3
 71
     2
 72
     2
 73
     1
 90
        2
 40
-0.6
 41
30.0
 62
     5
 63
     7
 74
     1
 91
        0
 64
     7
 65
   257
 75
     1
175
     1
 42
1.0
 92
        0
 66
   257
 43
1.0
 76
     1
 77
     6
 78
     2
 67
     7
 79
     5
170
     0
171
     0
290
     0
174
     0
 93
       13
 44
0.0
173
     0
291
     1
 45
0.0
1001
ACAD
1000
AcDbSavedByObjectVersion
1070
     0
  0
VISUALSTYLE
  5
14B
102
{ACAD_XDICTIONARY
360
17F
102
}
102
{ACAD_REACTORS
330
26
102
}
330
26
100
AcDbVisualStyle
  2
Hidden
 70
     6
 71
     1
 72
     2
 73
     2
 90
        0
 40
-0.6
 41
-30.0
 62
     5
 63
     7
 74
     2
 91
        2
 64
     7
 65
   257
 75
     2
175
     1
 42
40.0
 92
        0
 66
   257
 43
1.0
 76
     1
 77
     6
 78
     2
 67
     7
 79
     3
170
     0
171
     0
290
     0
174
     0
 93
        1
 44
0.0
173
     0
291
     0
 45
0.0
1001
ACAD
1000
AcDbSavedByObjectVersion
1070
     0
  0
VISUALSTYLE
  5
158
102
{ACAD_XDICTIONARY
360
199
102
}
102
{ACAD_REACTORS
330
26
102
}
330
26
100
AcDbVisualStyle
  2
JitterOff
 70
    20
 71
     2
 72
     2
 73
     0
 90
        0
 40
-0.6
 41
-30.0
 62
     5
 63
     7
 74
     1
 91
        4
 64
     7
 65
   257
 75
     1
175
     1
 42
1.0
 92
       10
 66
     7
 43
1.0
 76
     1
 77
     6
 78
     2
 67
     7
 79
     5
170
     0
171
     0
290
     0
174
     0
 93
        1
 44
0.0
173
     0
291
     1
 45
0.0
1001
ACAD
1000
AcDbSavedByObjectVersion
1070
     0
  0
VISUALSTYLE
  5
150
102
{ACAD_XDICTIONARY
360
189
102
}
102
{ACAD_REACTORS
330
26
102
}
330
26
100
AcDbVisualStyle
  2
Linepattern
 70
    14
 71
     2
 72
     2
 73
     0
 90
        0
 40
-0.6
 41
-30.0
 62
     5
 63
     7
 74
     1
 91
        4
 64
     7
 65
   257
 75
     7
175
     7
 42
1.0
 92
        8
 66
     7
 43
1.0
 76
     1
 77
     6
 78
     2
 67
     7
 79
     5
170
     0
171
     0
290
     0
174
     0
 93
        1
 44
0.0
173
     0
291
     1
 45
0.0
1001
ACAD
1000
AcDbSavedByObjectVersion
1070
     0
  0
VISUALSTYLE
  5
159
102
{ACAD_XDICTIONARY
360
19B
102
}
102
{ACAD_REACTORS
330
26
102
}
330
26
100
AcDbVisualStyle
  2
OverhangOff
 70
    21
 71
     2
 72
     2
 73
     0
 90
        0
 40
-0.6
 41
-30.0
 62
     5
 63
     7
 74
     1
 91
        4
 64
     7
 65
   257
 75
     1
175
     1
 42
1.0
 92
        9
 66
     7
 43
1.0
 76
     1
 77
     6
 78
     2
 67
     7
 79
     5
170
     0
171
     0
290
     0
174
     0
 93
        1
 44
0.0
173
     0
291
     1
 45
0.0
1001
ACAD
1000
AcDbSavedByObjectVersion
1070
     0
  0
VISUALSTYLE
  5
46
102
{ACAD_XDICTIONARY
360
171
102
}
102
{ACAD_REACTORS
330
26
102
}
330
26
100
AcDbVisualStyle
  2
Realistic
 70
     8
 71
     2
 72
     2
 73
     0
 90
        2
 40
-0.6
 41
30.0
 62
     5
 63
     7
 74
     0
 91
        0
 64
     7
 65
   257
 75
     1
175
     1
 42
1.0
 92
        8
 66
   257
 43
1.0
 76
     1
 77
     6
 78
     2
 67
     7
 79
     3
170
     0
171
     0
290
     0
174
     0
 93
       13
 44
0.0
173
     0
291
     0
 45
0.0
1001
ACAD
1000
AcDbSavedByObjectVersion
1070
     0
  0
VISUALSTYLE
  5
157
102
{ACAD_XDICTIONARY
360
197
102
}
102
{ACAD_REACTORS
330
26
102
}
330
26
100
AcDbVisualStyle
  2
Shaded
 70
    27
 71
     2
 72
     2
 73
     1
 90
        2
 40
-0.6
 41
30.0
 62
     5
 63
     7
 74
     0
 91
        4
 64
     7
 65
   257
 75
     1
175
     1
 42
1.0
 92
        8
 66
   257
 43
1.0
 76
     1
 77
     6
 78
     2
 67
     8
 79
     3
170
     0
171
     0
290
     0
174
     0
 93
        5
 44
0.0
173
     0
291
     0
 45
0.0
1001
ACAD
1000
AcDbSavedByObjectVersion
1070
     0
  0
VISUALSTYLE
  5
156
102
{ACAD_XDICTIONARY
360
195
102
}
102
{ACAD_REACTORS
330
26
102
}
330
26
100
AcDbVisualStyle
  2
Shaded with edges
 70
    26
 71
     2
 72
     2
 73
     1
 90
        2
 40
-0.6
 41
30.0
 62
     5
 63
     7
 74
     1
 91
       10
 64
     7
 65
   257
 75
     2
175
     1
 42
1.0
 92
        8
 66
   257
 43
1.0
 76
     1
 77
     6
 78
     2
 67
     7
 79
     3
170
     0
171
     0
290
     0
174
     0
 93
        5
 44
0.0
173
     0
291
     0
 45
0.0
1001
ACAD
1000
AcDbSavedByObjectVersion
1070
     0
  0
VISUALSTYLE
  5
153
102
{ACAD_XDICTIONARY
360
18F
102
}
102
{ACAD_REACTORS
330
26
102
}
330
26
100
AcDbVisualStyle
  2
Shades of Gray
 70
    23
 71
     2
 72
     2
 73
     3
 90
        0
 40
-0.6
 41
-30.0
 62
     5
 63
     7
 74
     2
 91
        2
 64
     7
 65
     7
 75
     1
175
     1
 42
40.0
 92
        8
 66
     7
 43
1.0
 76
     1
 77
     6
 78
     2
 67
     7
 79
     3
170
     0
171
     0
290
     0
174
     0
 93
        1
 44
0.0
173
     0
291
     0
 45
0.0
1001
ACAD
1000
AcDbSavedByObjectVersion
1070
     0
  0
VISUALSTYLE
  5
154
102
{ACAD_XDICTIONARY
360
191
102
}
102
{ACAD_REACTORS
330
26
102
}
330
26
100
AcDbVisualStyle
  2
Sketchy
 70
    24
 71
     1
 72
     2
 73
     2
 90
        0
 40
-0.6
 41
-30.0
 62
     5
 63
     7
 74
     2
 91
        2
 64
     7
 65
     7
 75
     1
175
     1
 42
40.0
 92
       11
 66
     7
 43
1.0
 76
     1
 77
     6
 78
     2
 67
     7
 79
     6
170
     0
171
     0
290
     0
174
     0
 93
        1
 44
0.0
173
     0
291
     0
 45
0.0
1001
ACAD
1000
AcDbSavedByObjectVersion
1070
     0
  0
VISUALSTYLE
  5
14F
102
{ACAD_XDICTIONARY
360
187
102
}
102
{ACAD_REACTORS
330
26
102
}
330
26
100
AcDbVisualStyle
  2
Thicken
 70
    13
 71
     2
 72
     2
 73
     0
 90
        0
 40
-0.6
 41
-30.0
 62
     5
 63
     7
 74
     1
 91
        4
 64
     7
 65
   257
 75
     1
175
     1
 42
1.0
 92
       12
 66
     7
 43
1.0
 76
     1
 77
     6
 78
     2
 67
     7
 79
     5
170
     0
171
     0
290
     0
174
     0
 93
        1
 44
0.0
173
     0
291
     1
 45
0.0
1001
ACAD
1000
AcDbSavedByObjectVersion
1070
     0
  0
VISUALSTYLE
  5
47
102
{ACAD_XDICTIONARY
360
173
102
}
102
{ACAD_REACTORS
330
26
102
}
330
26
100
AcDbVisualStyle
  2
Wireframe
 70
     5
 71
     0
 72
     2
 73
     0
 90
        0
 40
-0.6
 41
-30.0
 62
     5
 63
     7
 74
     1
 91
        4
 64
     7
 65
   257
 75
     1
175
     1
 42
1.0
 92
        0
 66
   257
 43
1.0
 76
     1
 77
     6
 78
     2
 67
     7
 79
     3
170
     0
171
     0
290
     0
174
     0
 93
        1
 44
0.0
173
     0
291
     0
 45
0.0
1001
ACAD
1000
AcDbSavedByObjectVersion
1070
     0
  0
VISUALSTYLE
  5
155
102
{ACAD_XDICTIONARY
360
193
102
}
102
{ACAD_REACTORS
330
26
102
}
330
26
100
AcDbVisualStyle
  2
X-Ray
 70
    25
 71
     2
 72
     2
 73
     1
 90
        1
 40
0.5
 41
-30.0
 62
     5
 63
     7
 74
     1
 91
        0
 64
     7
 65
   257
 75
     1
175
     1
 42
1.0
 92
        8
 66
     7
 43
1.0
 76
     1
 77
     6
 78
     2
 67
     7
 79
     3
170
     0
171
     0
290
     0
174
     0
 93
       13
 44
0.0
173
     0
291
     0
 45
0.0
1001
ACAD
1000
AcDbSavedByObjectVersion
1070
     0
  0
DICTIONARYVAR
  5
13C
102
{ACAD_REACTORS
330
138
102
}
330
138
100
DictionaryVariables
280
     0
  1
1:1
  0
DICTIONARYVAR
  5
13A
102
{ACAD_REACTORS
330
138
102
}
330
138
100
DictionaryVariables
280
     0
  1
STANDARD
  0
DICTIONARYVAR
  5
139
102
{ACAD_REACTORS
330
138
102
}
330
138
100
DictionaryVariables
280
     0
  1
STANDARD
  0
DICTIONARYVAR
  5
143
102
{ACAD_REACTORS
330
138
102
}
330
138
100
DictionaryVariables
280
     0
  1
1
  0
DICTIONARYVAR
  5
142
102
{ACAD_REACTORS
330
138
102
}
330
138
100
DictionaryVariables
280
     0
  1
1
  0
DICTIONARYVAR
  5
141
102
{ACAD_REACTORS
330
138
102
}
330
138
100
DictionaryVariables
280
     0
  1
0
  0
DICTIONARYVAR
  5
13E
102
{ACAD_REACTORS
330
138
102
}
330
138
100
DictionaryVariables
280
     0
  1
0
  0
DICTIONARYVAR
  5
13F
102
{ACAD_REACTORS
330
138
102
}
330
138
100
DictionaryVariables
280
     0
  1
0
  0
DICTIONARYVAR
  5
13D
102
{ACAD_REACTORS
330
138
102
}
330
138
100
DictionaryVariables
280
     0
  1
2
  0
DICTIONARYVAR
  5
13B
102
{ACAD_REACTORS
330
138
102
}
330
138
100
DictionaryVariables
280
     0
  1
1
  0
DICTIONARYVAR
  5
140
102
{ACAD_REACTORS
330
138
102
}
330
138
100
DictionaryVariables
280
     0
  1
127
  0
DICTIONARYVAR
  5
161
102
{ACAD_REACTORS
330
138
102
}
330
138
100
DictionaryVariables
280
     0
  1
2
  0
DICTIONARY
  5
16A
330
19
100
AcDbDictionary
280
     1
281
     1
  3
ACAD_XREC_ROUNDTRIP
360
16B
  0
DICTIONARY
  5
168
330
14
100
AcDbDictionary
280
     1
281
     1
  3
ACAD_XREC_ROUNDTRIP
360
169
  0
DICTIONARY
  5
39
330
38
100
AcDbDictionary
280
     1
281
     1
  3
ACAD_XREC_ROUNDTRIP
360
16F
  3
BUMPTILE
360
3A
  3
DIFFUSETILE
360
3B
  3
OPACITYTILE
360
3C
  3
REFLECTIONTILE
360
3D
  3
REFRACTIONTILE
360
3E
  3
SPECULARTILE
360
3F
  0
DICTIONARY
  5
30
330
2F
100
AcDbDictionary
280
     1
281
     1
  3
ACAD_XREC_ROUNDTRIP
360
16E
  3
BUMPTILE
360
31
  3
DIFFUSETILE
360
32
  3
FBXASSET
360
33
  3
OPACITYTILE
360
34
  3
REFLECTIONTILE
360
35
  3
REFRACTIONTILE
360
36
  3
SPECULARTILE
360
37
  0
DICTIONARY
  5
A
330
8
100
AcDbDictionary
280
     1
281
     1
  3
ACAD_XREC_ROUNDTRIP
360
167
  3
BUMPTILE
360
B
  3
DIFFUSETILE
360
C
  3
FBXASSET
360
D
  3
OPACITYTILE
360
E
  3
REFLECTIONTILE
360
F
  3
REFRACTIONTILE
360
10
  3
SPECULARTILE
360
11
  0
DICTIONARY
  5
163
330
15B
100
AcDbDictionary
280
     1
281
     1
  3
ACAD_XREC_ROUNDTRIP
360
164
  0
DICTIONARY
  5
127
330
45
100
AcDbDictionary
280
     1
281
     1
  3
ACAD_ROUNDTRIP_2008_TABLESTYLE_CELLSTYLEMAP
360
162
  3
ACAD_XREC_ROUNDTRIP
360
170
  0
DICTIONARY
  5
16C
330
25
100
AcDbDictionary
280
     1
281
     1
  3
ACAD_XREC_ROUNDTRIP
360
16D
  0
DICTIONARY
  5
17D
330
14A
100
AcDbDictionary
280
     1
281
     1
  3
ACAD_XREC_ROUNDTRIP
360
17E
  0
DICTIONARY
  5
185
330
14E
100
AcDbDictionary
280
     1
281
     1
  3
ACAD_XREC_ROUNDTRIP
360
186
  0
DICTIONARY
  5
18D
330
152
100
AcDbDictionary
280
     1
281
     1
  3
ACAD_XREC_ROUNDTRIP
360
18E
  0
DICTIONARY
  5
181
330
14C
100
AcDbDictionary
280
     1
281
     1
  3
ACAD_XREC_ROUNDTRIP
360
182
  0
DICTIONARY
  5
183
330
14D
100
AcDbDictionary
280
     1
281
     1
  3
ACAD_XREC_ROUNDTRIP
360
184
  0
DICTIONARY
  5
19D
330
15A
100
AcDbDictionary
280
     1
281
     1
  3
ACAD_XREC_ROUNDTRIP
360
19E
  0
DICTIONARY
  5
18B
330
151
100
AcDbDictionary
280
     1
281
     1
  3
ACAD_XREC_ROUNDTRIP
360
18C
  0
DICTIONARY
  5
175
330
146
100
AcDbDictionary
280
     1
281
     1
  3
ACAD_XREC_ROUNDTRIP
360
176
  0
DICTIONARY
  5
177
330
147
100
AcDbDictionary
280
     1
281
     1
  3
ACAD_XREC_ROUNDTRIP
360
178
  0
DICTIONARY
  5
179
330
148
100
AcDbDictionary
280
     1
281
     1
  3
ACAD_XREC_ROUNDTRIP
360
17A
  0
DICTIONARY
  5
17B
330
149
100
AcDbDictionary
280
     1
281
     1
  3
ACAD_XREC_ROUNDTRIP
360
17C
  0
DICTIONARY
  5
17F
330
14B
100
AcDbDictionary
280
     1
281
     1
  3
ACAD_XREC_ROUNDTRIP
360
180
  0
DICTIONARY
  5
199
330
158
100
AcDbDictionary
280
     1
281
     1
  3
ACAD_XREC_ROUNDTRIP
360
19A
  0
DICTIONARY
  5
189
330
150
100
AcDbDictionary
280
     1
281
     1
  3
ACAD_XREC_ROUNDTRIP
360
18A
  0
DICTIONARY
  5
19B
330
159
100
AcDbDictionary
280
     1
281
     1
  3
ACAD_XREC_ROUNDTRIP
360
19C
  0
DICTIONARY
  5
171
330
46
100
AcDbDictionary
280
     1
281
     1
  3
ACAD_XREC_ROUNDTRIP
360
172
  0
DICTIONARY
  5
197
330
157
100
AcDbDictionary
280
     1
281
     1
  3
ACAD_XREC_ROUNDTRIP
360
198
  0
DICTIONARY
  5
195
330
156
100
AcDbDictionary
280
     1
281
     1
  3
ACAD_XREC_ROUNDTRIP
360
196
  0
DICTIONARY
  5
18F
330
153
100
AcDbDictionary
280
     1
281
     1
  3
ACAD_XREC_ROUNDTRIP
360
190
  0
DICTIONARY
  5
191
330
154
100
AcDbDictionary
280
     1
281
     1
  3
ACAD_XREC_ROUNDTRIP
360
192
  0
DICTIONARY
  5
187
330
14F
100
AcDbDictionary
280
     1
281
     1
  3
ACAD_XREC_ROUNDTRIP
360
188
  0
DICTIONARY
  5
173
330
47
100
AcDbDictionary
280
     1
281
     1
  3
ACAD_XREC_ROUNDTRIP
360
174
  0
DICTIONARY
  5
193
330
155
100
AcDbDictionary
280
     1
281
     1
  3
ACAD_XREC_ROUNDTRIP
360
194
  0
XRECORD
  5
16B
102
{ACAD_REACTORS
330
16A
102
}
330
16A
100
AcDbXrecord
280
     1
102
SHADEPLOT
 70
     0
102
SHADEPLOTRESLEVEL
 70
     2
102
SHADEPLOTCUSTOMDPI
 70
   300
  0
XRECORD
  5
169
102
{ACAD_REACTORS
330
168
102
}
330
168
100
AcDbXrecord
280
     1
102
SHADEPLOT
 70
     0
102
SHADEPLOTRESLEVEL
 70
     2
102
SHADEPLOTCUSTOMDPI
 70
   300
  0
XRECORD
  5
16F
102
{ACAD_REACTORS
330
39
102
}
330
39
100
AcDbXrecord
280
     1
102
MATERIAL
148
0.0
149
0.0
149
0.0
 93
        0
 94
      127
282
     0
 72
     0
 77
     0
171
     0
175
     0
179
     0
273
     0
  0
XRECORD
  5
3A
102
{ACAD_REACTORS
330
39
102
}
330
39
100
AcDbXrecord
280
     1
270
     1
271
     1
  0
XRECORD
  5
3B
102
{ACAD_REACTORS
330
39
102
}
330
39
100
AcDbXrecord
280
     1
270
     1
271
     1
  0
XRECORD
  5
3C
102
{ACAD_REACTORS
330
39
102
}
330
39
100
AcDbXrecord
280
     1
270
     1
271
     1
  0
XRECORD
  5
3D
102
{ACAD_REACTORS
330
39
102
}
330
39
100
AcDbXrecord
280
     1
270
     1
271
     1
  0
XRECORD
  5
3E
102
{ACAD_REACTORS
330
39
102
}
330
39
100
AcDbXrecord
280
     1
270
     1
271
     1
  0
XRECORD
  5
3F
102
{ACAD_REACTORS
330
39
102
}
330
39
100
AcDbXrecord
280
     1
270
     1
271
     1
  0
XRECORD
  5
16E
102
{ACAD_REACTORS
330
30
102
}
330
30
100
AcDbXrecord
280
     1
102
MATERIAL
148
0.0
149
0.0
149
0.0
 93
        0
 94
      127
282
     0
 72
     0
 77
     0
171
     0
175
     0
179
     0
273
     0
  0
XRECORD
  5
31
102
{ACAD_REACTORS
330
30
102
}
330
30
100
AcDbXrecord
280
     1
270
     1
271
     1
  0
XRECORD
  5
32
102
{ACAD_REACTORS
330
30
102
}
330
30
100
AcDbXrecord
280
     1
270
     1
271
     1
  0
XRECORD
  5
33
102
{ACAD_REACTORS
330
30
102
}
330
30
100
AcDbXrecord
280
     1
 70
     1
 90
1959938040
 71
     1
  1
9ED85ABE-2745-4983-AD9D-17947975EA1C
311
504B03040A0000080000BA7D09433DEE336E79000000790000001B0000006175746F6465736B2D64657369676E2D7061636B6167652E786D6C3C3F786D6C2076657273696F6E3D22312E302220656E636F64696E673D227574662D3822203F3E3C666F726D6174733E3C666F726D61743E687474703A2F2F736368656D612E
311
6175746F6465736B2E636F6D2F64657369676E2D7061636B6167652F323030393C2F666F726D61743E3C2F666F726D6174733E504B0304140006080800BA7D0943D486FD9CA0000000F4000000130000005B436F6E74656E745F54797065735D2E786D6C7D8EC10E82300C865F65E91D8A1E8C310C0EEA1BF002731658846E
311
D98AC1B77784ABF1D8FE5FBFBF75BBCE937A534CCEB38643598122B6FEE978D0B0485F9C41B54DDD7D022595594E1A469170414C76A4D9A4D207E29CF43ECE46F218070CC6BECC4078ACAA135ACF422C856C0E68EA1BF5669944DDD7BCDE7B1F8E415D77AECB980613C2E4AC91FC167A2B244592486606FC29C8FD7F045B9A
311
EF7053A7E60B504B0304140006080800BA7D0943E06F3143E90000007C01000008000000636F72652E786D6C8D904D6EC3201085AF82668F0D8E5DFF0813C96E7B825E0001715162B00C543D7E2171A476D7D50C8FF7CD8C1E3B7FAF37F4A5776F9C1D81160490B6D22963971162B8E00ED099B3DDB9F0CB06C88A558F9065
311
E06CD95DDC0E493A1BB40D49B54EE94314DEEB0048DE523382979F7A1585882139FCB5D884BC8A4517F4D9253846A3D0638951699EB918BD036FDF68DF4C73853B52B7B89EE61A4FDD6B8BDFC93CD76DD3D297BE636586390B667DEE97BB16412BE015A1274C3A4CFA0FDA0C753334F93910C2CA6CFF03C54DFD138AC68653
311
759CFBC03C709A0EB97F7056E62C52B907956ACE8DFF00504B0304140006080800BA7D094355019EA25F0000007C00000007000000636E782E786D6C4DCB3B0E80201045D1AD90E915ED2CF8AC45050C11660C8261F98AB1B07AC9C97D42D718D865D3E909258CFD00CCE24AC6E326A164D74DC0B4128928FF326038472BA1
311
3128B1252AC747C6BAB984FC68F0B87FE8960A5C09FE86CFB69FBA01504B0304140006080800BA7D09436531BEFF65010000020300000C0000006662782F636F72652E786D6C8D52416E833010FC8AE53BD8102824328E14DABEA01F70C0A128602363A33CBF6B20A2A9A2A84202B3B3B3333BC08EB7BE43933463AB5581A3
311
90622455A5EB56350576F612E4181D39335ADB5F6D1829D1CB02FB32E6AC31DA0D6BA9D2CA4A65A1AA742DD7A218476931AA3A381478ACBE652F42E12C748CD77010D55534328C4280A18FB3D11A308016117FC7FC72BE31B2D43973AEAD57B4AD41ADBDB4D2609E7D44FBF454C6414E932C484E65129CF2F72CF8A4659964
311
6916BDED73463C9933DBF677779591C2CA1AF39846BB80E601DD7F45E921490FA97F3D50CA886F7F20B9A1FE27C9B5CAEEE2D5EE421B318FC0C80CFCD91622B2681413F8219C111F223CE6841F83864020642BCEDD7D8F2B942659596D12406AED3668129D93A04AD17C31B2A030791E009B3D9D13BF98F37A067C40A11AB0
311
262C1CCFCE7A75B6A8AE510CD20493BD21A54D2FBACDDC6271BB6F424FE995EEB4F90F9BACAB92354CE2FF5EFE03504B0304140006080800BA7D09434D8E99B87C0000009D0000000B0000006662782F636E782E786D6C4DCCDF0A83201C86E15B91DFB9A529CC811AFDA1FB886521331D4E63973F1B1DECE883878F57B69F
311
DDA1C3C4B70D5E01AD0820E31F61B17E5390D38A05A056CB1842FABB01F2F36E149C0C5A6E31E4D7458B59E7EC525167FDF342C1EEFD340E044F4D2330A78C63D1F11BA6C5868E9191B21E6A2DEB5FA9EC19D65F504B0304140006080800BA7D09430F7509BF2901000014020000310000006662782F38333942464443302D
311
463232382D343133342D384134372D3144433043413330443133422F636F72652E786D6C8D514B6EC32014BC0A62952EB0C1C6A91361A27C9413F40214488A1283C5A7CAF10BB523B5BB6C7830CCCC1BBDC7768FF10EBEB50FC6D901920A43A0AD74CAD8EB0053BCA01E821D67DEB9F887068115A31E6081216757EFD2B440
311
D2D9A86DCCA8754A2FA008414708E43D5F0618E4971E452552CC8C70AB26216FE2AA2B52E5EFCCE32C449F0380B9493921EFDBCDE17C3A62746E9A1E51D252D4EFE93B22193BEE5B7C22ED81D5B390B3948C5AE446E538E662B47FD5A488398B667CC6975E8BA815E40D262DC23DC29B0FD26D69B7EDCA738B31AB0BFD9F28
311
4DEA45513236B6CD12779605C809ABE70FCE944B9FF76718FD989C8FA0F45B052DDF20C715C69BBEA1EB86D533350F207BAEE9E219A2F379C0ABDB6766936E365E53CEEAB2A35C7E17986BD927FF01504B0304140006080800BA7D0943B7319CA84C01000033030000300000006662782F38333942464443302D463232382D
311
343133342D384134372D3144433043413330443133422F636E782E786D6CD593CD6EC23010845FC5F23D7F25208A1C23F5D027E8A157C75EC0E0D8917FAAF2F65D83A15C38F4D88B95CC7E9E598D12B6FD9E0CF9021FB4B303EDEA9612B0D2296DF7034D7157AD29D972E69D8B0F1825564C30D02C53CEF6DEA5B9480A7622
311
9988AAD1F654440FC1252F21A09C6F12E3A4306800B64A28C2348252A0C81DC4A71D785C05C5F14CE201C8FBDB2771E311640CACC92E9C353983B37C96A4078812694408030DF20093A8458A4E4138D54A445177F52DEBC94EBF4E245FB84526AF490E1F683E292F1BD5D8236B70C859881EDB2B503CCF40B99867A3A58858
311
727301AF0C6749DBB8EA0BABB1788F74B75AF43D9A5D669C453D4121A407114151FED2768BAA5D57EDEB47B7DCF4CBCD32BF6EDA963519E76C74CE944B6803DECD443A1BC146CA3BD6E4F1B3FA0A4794F6D8B5F3E73F14890594D46B3B778FFFDC4F73F9BEB12E8F7F01FF01504B0304140006080800BA7D0943D8F578E0A5
311
05000081100000340000006662782F38333942464443302D463232382D343133342D384134372D3144433043413330443133422F6F626A656374732E786D6CAD57DB6EDB3810FD1541FBB2FB60CBB29D265E282A1C3B298C366D5123C53E1830288952B8A12E20A9D4D9AFDF43899225C74EBD8BBEE8C2CB70E6CC990BBDF7
311
BB945BCF54489667D7B63B1CD916CDC23C6259726D972A1E5CD9D67BDF1379AE3ACB6C2B2329BDB6F5B0ED7B89C8CBC20C453426255707A377377F5932A419B5AD901329AF6D193ED2940C49A9F288CAA76144141926F16EE80EEB857DB18920C5E381D082089A29688AF10C52AC5A29B7FF3BB21DDF73F4BCEFE9A7593539
311
BDCAA9ECE99FCF32A94816BE3AEC40CCC49D2E6FC717B3C1C5743A194CDF8DDDC1CDDDCD72E05E4E468B778BC56C7E3BC3C1520948329A081ADBFE07602358E839F594EF952C5393B159621CE408FACCB4A76C7F6CB99E53AF69AD33461E533FCCB38C86155640A3B2CF888E6841B3083E675442B30E42A3FEAFAB71EC4C4F
311
F4BF39B23B7C1E02DD1D1D418DEECDBBAB691EFC0D13E4390C12926A06D6581A436BAE8EF6080779CECD1C93564A14158C708BB34010F162FB58AA97F85E4F8C66B2D0D1A02DB07D78A19EEED30561F4739E1FD3322E39D734B6FD2A0AB68815AA64A519FB878ABDF65D64A0137CA5D970650C522F05B5FD594D91AB0336D5
311
405A3127095C0E33F5CEC9F8C0D0858ED3D5D2F63FDE05BBB58EDDE38717222FA8509A3EA056E3B8E6AD51323AB967794E6FB00F54D983F20DC87F46A8EF5581DF04DB4D7753738A122493712E52F8C61A5983111E23CBAD9EFABBF3E539EDE6BEF74EE109676BA87E019E7D1BBABEECC0E97BCF207C2E26C6B4754838D2C6
311
3DCB00902689C5730C210FC7C1CEF657C872C8CAD845B8EFC264A8FB8C4FCF31629028AA933AEF0C581EA4C533123460AB1809356AF21B05F77E7A95CEAA83CDB253F05EFC12BACE97EB8FEB52C424A4F726A6973466195328717BDE7415EA61DEB3E889BEFCC84504435FE3BDEEE29D9AA324D0D6986BE09326A7EB9FFDC9
311
BD0342EC4B729D6EBC9F9C00237461EDC8BF6732A49C938CE66573EE9BF50365A3865807BB66725B60F68505A4A9670E6210453A14ACD020B6D5AA4D9AC313D63DAC3E8391B67FF3F289BC74B357B0CFBD61CE73B10D5EB6755A3A0AF5F73EB70D068E9602BA5741D2C4BF017D1BB1382E2592E0115CBFAF165DDFE9B48014
311
D148ADA3650AFB115C4418D2367251AD054125CDB32D43DD44DC1D3DA02B1F901A0654024F692C298FB78CF332DDC68CA31A6D53529C80E3FFEB1F9469B125695E66EA84EC9EEAA80E7DDD7BEC953F880A1F6D7F5DBD0737C8BD118D4E9041D7922358F55C3BBB5D5E5DCC6F6E07E3CBE9C5603ABB9A0CE6CB99EE9F66D3CB
311
D9E5C5EDDC85E946A3AA89F2BDA6D474231A5E4269F34AC18CFB1E56881F93046CFF9E28B9F9508767F37E580DD10B7B0EF6A05EB61BE7D133FA3E1AFD5CC07EE55141ABB4E034A599223A86EEF507FF46D067F494A9C7572949E81952BE7C581F18839133F67DD5F14E7F1CEC35A30B1D904785A8C7320D32C2F8C1C6A446
311
72586489C1AFF149FBAE0B4DF3ABFF8C63D099CA9CB3087930B2129AA754211B9E5184444A25A8D7EDE92373F73863F773DD212A1270DA68F248D0247389B000C9CB50F5C7ADDFD0D4E9BEEADA46B91D3EE16132856D8133D7369A74C5422A87010AB46E852AE1E052B7930767499670F4DAF5A6F6BFDDA5B1E995E476C939
311
FD93B1AB4EE1C600A491027D031A2278A752C6F72ADDCC7CF89F0C6FD4B188C26750AAD696FD406B4C750C42B436CADC16D0C43C99A37708D4B7CD7287D59A1E2267DDB2DE24412D75A08848AA9B82D6CFA8345F7E75D0A158AB2F56C1CB04BE3C5FD2405090B9D4010E16811546664114A8BAF873F355E4B8C9A6D61D0305
311
ACDF7757EFFED82CF234CDB37A683337F7616BFD88DB6DB44172A0FA5A2237E3913BDE54D7017343D90644D22189E41306E059C15AA07BEE072FEB3B23EA503DD1AE73B42B0E18BA5A5AA6B04D21D4D0A59B5B3538683C326A2186F49552474C7741F1E68DC0A9964205815EDEFF17504B0304140006080000BA7D09430000
311
00000000000000000000350000006662782F38333942464443302D463232382D343133342D384134372D3144433043413330443133422F76657274696365732E62696E504B0304140006080800BA7D0943F270F1330600000004000000360000006662782F38333942464443302D463232382D343133342D384134372D3144
311
433043413330443133422F747269616E676C65732E62696E636660600000504B0304140006080000BA7D0943000000000000000000000000370000006662782F38333942464443302D463232382D343133342D384134372D3144433043413330443133422F617474726962757465732E62696E504B0304140006080800BA7D
311
0943D5987DFC8F00000041010000360000006662782F38333942464443302D463232382D343133342D384134372D3144433043413330443133422F6469726563746F72792E786D6C858F410EC2201045AF4266AF15DDB800BA74E7C21B903225242D6328188F2FA5C4183471359997F9FF81E89FF3C41E1816475E02DF1F80
311
A11FC8386F25A438EECEC07A250251FC3803E6F58C12560C4AD840E95E91C151A72936F496F35732D860FE635F62C8F2DA16B505C545B74125BAA2FA9E05D7CC053D063734D5C7665FD55B6B8D15D5E9BFEAFD8490FFA45E504B0304140006080800BA7D094388856C72FB000000A00100003B0000006662782F3833394246
311
4443302D463232382D343133342D384134372D3144433043413330443133422F7265736F75726365732F636F72652E786D6C8D504B6E833010BD0A9ABDC14EA040641C09DA9EA017B0CC24B1126CE44FD5E3D70E546A77DD783CEFA3797AFCFCB53C8A4F745E5B33002B291468949DB5B90E10C38574509C0577D6865F3228
311
8C5C70800C83E05767E3BA43CA9A802624D4D81977507A8F010AF5489F01BCBAE1224B194352F87BB94A7597572C5999E8A413DC07970214DB91FC8270E86D740A3DAF3656F018F5BC6BF49C6EEA8B4607A27D637D334E8C74B46E493D4E3519BBD796BCD369AADBA6652F7DC7AB6C163CE8E527A3722803CE200E941D09ED
311
08ED3F5873AA9B5393D713A5BCCAF23FA6B8CEFF34456DC2F1B0C7DD6C1E044B419E84E055EE2B8D679969E66EC537504B010214000A0000080000BA7D09433DEE336E79000000790000001B00000000000000000000000000000000006175746F6465736B2D64657369676E2D7061636B6167652E786D6C504B0102140014
311
0006080800BA7D0943D486FD9CA0000000F40000001300000000000000000000000000B20000005B436F6E74656E745F54797065735D2E786D6C504B01021400140006080800BA7D0943E06F3143E90000007C010000080000000000000000000000000083010000636F72652E786D6C504B01021400140006080800BA7D09
311
4355019EA25F0000007C000000070000000000000000000000000092020000636E782E786D6C504B01021400140006080800BA7D09436531BEFF65010000020300000C00000000000000000000000000160300006662782F636F72652E786D6C504B01021400140006080800BA7D09434D8E99B87C0000009D0000000B0000
311
0000000000000000000000A50400006662782F636E782E786D6C504B01021400140006080800BA7D09430F7509BF290100001402000031000000000000000000000000004A0500006662782F38333942464443302D463232382D343133342D384134372D3144433043413330443133422F636F72652E786D6C504B01021400
311
140006080800BA7D0943B7319CA84C010000330300003000000000000000000000000000C20600006662782F38333942464443302D463232382D343133342D384134372D3144433043413330443133422F636E782E786D6C504B01021400140006080800BA7D0943D8F578E0A5050000811000003400000000000000000000
311
0000005C0800006662782F38333942464443302D463232382D343133342D384134372D3144433043413330443133422F6F626A656374732E786D6C504B01021400140006080000BA7D09430000000000000000000000003500000000000000000000000000530E00006662782F38333942464443302D463232382D34313334
311
2D384134372D3144433043413330443133422F76657274696365732E62696E504B01021400140006080800BA7D0943F270F13306000000040000003600000000000000000000000000A60E00006662782F38333942464443302D463232382D343133342D384134372D3144433043413330443133422F747269616E676C6573
311
2E62696E504B01021400140006080000BA7D09430000000000000000000000003700000000000000000000000000000F00006662782F38333942464443302D463232382D343133342D384134372D3144433043413330443133422F617474726962757465732E62696E504B01021400140006080800BA7D0943D5987DFC8F00
311
0000410100003600000000000000000000000000550F00006662782F38333942464443302D463232382D343133342D384134372D3144433043413330443133422F6469726563746F72792E786D6C504B01021400140006080800BA7D094388856C72FB000000A00100003B0000000000000000000000000038100000666278
311
2F38333942464443302D463232382D343133342D384134372D3144433043413330443133422F7265736F75726365732F636F72652E786D6C504B0506000000000E000E00800400008C1100000000
310
504B03040A0000080000BA7D09433DEE336E79000000790000001B0000006175746F6465736B2D64657369676E2D7061636B6167652E786D6C3C3F786D6C2076657273696F6E3D22312E302220656E636F64696E673D227574662D3822203F3E3C666F726D6174733E3C666F726D61743E687474703A2F2F736368656D612E
310
6175746F6465736B2E636F6D2F64657369676E2D7061636B6167652F323030393C2F666F726D61743E3C2F666F726D6174733E504B0304140006080800BA7D0943D486FD9CA0000000F4000000130000005B436F6E74656E745F54797065735D2E786D6C7D8EC10E82300C865F65E91D8A1E8C310C0EEA1BF002731658846E
310
D98AC1B77784ABF1D8FE5FBFBF75BBCE937A534CCEB38643598122B6FEE978D0B0485F9C41B54DDD7D022595594E1A469170414C76A4D9A4D207E29CF43ECE46F218070CC6BECC4078ACAA135ACF422C856C0E68EA1BF5669944DDD7BCDE7B1F8E415D77AECB980613C2E4AC91FC167A2B244592486606FC29C8FD7F045B9A
310
EF7053A7E60B504B0304140006080800BA7D0943BD4D938AE80000007C01000008000000636F72652E786D6C8D90DD8EC22010855F85704F85FE286D28C656DF605F800056A285A680D9C75FD09AECDEEDD50C87F3CD4C0E3B7ECF0FF0D4AB37CEF6901418026DA553C64E3D8CE18A280447CE56E7C22F1B0456CCBA875986
310
9C4DAB8BCB26496783B621A9D629BD89C27B1D20908FD4F4D0CB9B9E452162480E7F2F1621EF62D205F974098ED128F05E62549A67AE46AF9093AA1EE865AC10A9F088EA437B46434B2FA8A4C3FEB43F1F869162B6CB3067C1CC9FFD72D5226805798949853045B8FD224D57375D939F1D4E50B6FF81E2A2FE09456343556E
310
E7BE319F6E4D87BC3E38DBE52C527905956ACE8DFF00504B0304140006080800BA7D094355019EA25F0000007C00000007000000636E782E786D6C4DCB3B0E80201045D1AD90E915ED2CF8AC45050C11660C8261F98AB1B07AC9C97D42D718D865D3E909258CFD00CCE24AC6E326A164D74DC0B4128928FF326038472BA131
310
28B1252AC747C6BAB984FC68F0B87FE8960A5C09FE86CFB69FBA01504B0304140006080800BA7D09431EBCCE3E63010000020300000C0000006662782F636F72652E786D6C8D52ED8E8230107C95A6FFCBB78AA6D41CEA1BDC0B54A81C115AD20FE2E3DF16309E17630C09949D9D9DD901BABFF51D1A8536AD92058E830823
310
212B55B7B229B0B3179263B467542B65FFB46124792F0AECCB98D1462B372CA54A492BA485AA54B5588ADC186131AA3A3814D8543FA2E70177163ACC35187875E58D08E20060E863D4580D06D02CE2EF985DCE371ACE75469D6BEB056D6B506B2FADD098C56956E6A7434AE2343A906CB33D92729B9F489297EBAFF571531E
310
F288869ECCA86DFBBBBB4A0B6E458D5912C5298972126DBFE3D52E5BED56FE751701C9B73F91DC507F4872ADB469B2D89D6906BC829109F8B72D446491E123F809190D7D88F098127E0E1A0281902D3F77F73DAE501A456595CE00A9957B4023EF9C00D5084D170D6714264F0360B39773923773DECF800FC86503D6B885E3
310
D959AF4E67D5258A416832DA1B924AF7BC7B989B2D3EEE0FA197F44A754A7FC20E9755C325CCD0FFBDEC17504B0304140006080800BA7D0943943E59087E0000009D0000000B0000006662782F636E782E786D6C4DCC410E83201445D1AD903FA78252740018A9761FA6A2214568109A2EBFDA38E8E825272F57B49FD5A1B7
310
899B0D5E02BD1040C63FC264FD2221A71937805A256208E9EF06C88FAB91703028B1C4905F274D661EB34BBB3AEB9F27960DEB4B4219A6FC4E31AB7B86B5D61C13DE5D6B5275031B6E502851FC4AFB1E61F505504B0304140006080800BA7D09432ECA34112801000014020000310000006662782F32383444323031342D31
310
3646312D343744342D424242362D3036413537303341453445432F636F72652E786D6C8D514B6EC32014BC0A62952EB021C6CE47982869D213F40204488A1283C5A7CAF10BB523B5BB6C7830CCCC1BBDC7768FE10EBEB50FC6D91E920A43A0AD74CAD86B0F53BCA035043BCEBC73F10F0D022B06DDC30243CEAEDEA57186A4
310
B351DB9851EB949E4111828E10C87BBEF430C82F3D884AA49819E1568D42DEC45557A4CADF99C759883E070053937242BE5CD3E312138A48F741105D1D293A1C0E1DC2DDBE5DE1667FA2A777564F42CE52326A961B95E3988BD1FE559322E62C9AE1195F7A2DA256598F4983F01AE1CD2769B7B4DDB6E5B9C598D585FE4F94
310
46F5A228191B9BE51C779205C809ABA70FCE944BE7FB338C7E8CCE4750FA2D82966F90E30A138C312594D513350F207B7674F60CD1F93CE0C5ED9CD9CD6CDC51CEEAB2A35C7E17986BD927FF01504B0304140006080800BA7D0943D19653BF5401000033030000300000006662782F32383444323031342D313646312D3437
310
44342D424242362D3036413537303341453445432F636E782E786D6CBD93CD6EC23010845FC5F23D7F1010458E917AE813F4D0AB632FD4C5B123FF54E5EDBB0643B970A854F56225B3E399D5A784EDBE26433EC107EDEC40BBBAA504AC744ADBC34053DC571B4A769C79E7E29D8D122B26186896296707EFD25C24057B914C
310
44D5687B2CA287E092971050CE37897152180C005B2514611A412950E466C4A73D785C05C5F144E23B9097E737E2C60F9031B026A770D6E40ECEF2599AEE4C94482342186890EF30895AA4E8148463AD441475575FBB1EECF49344F2856B65F29AE4F281E693F2B2518D1C598343CE42F448AF98E26906CAC53C1B2D4544C8
310
CDD978F17096B48DEBBE783582F7E85E2ED69B0D869D679C453D4171480F2282A27CD176CBAADD54EDD36BB7DAF6ABED2ABF6EDB9635D9CED9E89C29973006BC9B897436828D9477ACC9E347F88A8F28ED91B5F3A75F804400A5F542E796F1977CBAF5B2EFFF914F73FEBE1197C7BF807F03504B0304140006080800BA7D09
310
4338072EB6630700009A1B0000340000006662782F32383444323031342D313646312D343744342D424242362D3036413537303341453445432F6F626A656374732E786D6CED59DD73A33610FF5718FAD23E189BD8BE8B3B844E62E76E3C6DDA9BBA77D307CF3032C8448D108C247271FFFAAE3EC0404C827BE95B1F6C4048
310
ABDDDF7E6A097E7ACAA8F388B92039BB727D6FE23A98C57942587AE596723FBA749D9FC280E7B96C4C731D86327CE5AA61370C529E97851D4AF01E955476463FDCFCE9881833EC3A3145425CB922BEC719F25029F3048B072F411279E9FEC9F33D33B14D36E5A8B8EF102D10C74C02A730CE808A6398F2DB8F13771C0663F5
310
3E0CD4BF9D351D346BD63F6BACA56E7349989088C5CF58EA90990E6269EACF56B717F3C5683E9B4D47B37717FEE8E6C3CD6AE4BF9F4E96EF96CBC5F5ED02D8DBE539B53225B8C02C01FD1DDCD00FC6EA4D2DBA45E014D771CE188E3590009516AB4B9060015B35E09BB41F7D2551E3B596B0F13C53EF2D0B8DE1699B4ADFAC
310
6140B4E8822076BB4AE2EADA942FDFFD05828B2146C90596C0AD901CB46BE1E1E0156E3809C666340C76475D10E16448624E107528D971C4412930554D0903B3C09251CEC18194A324D09A33AFDBB6059EF9BAEB9CE2725F52AA3CC30DB56345E07E580ACD19F91BF323F74D64802790B6244C5E5A2EE5A1C06EB808C67A30
310
0CD4657A615F1A209D3D45A9D08898B71D4197CAF5D72B37FCF9C3EE69A3C2C1E9CD0B9E17984B65744A8F9A2F30647B5528D96DFD419A530B401803AA5D7904E57740FE57881E4756406F9C3CCD9E6676AEE488897DCE33D08D33714613F89B38BEFE57F78DBB605C2F6E6BAF0F4F705305D5E5B7E3D996416365F96FC019
310
068F60F0399FDA579B1851B0E73BC2002065240ECD610842FB7EF7E4866B089C10E86115A2A10F2203BB8F701B8C2D99A3562AF7B25EC70051BBC774889200366D91C0468F9E3E42F6E0243EAAA929621FBCF33731D7EBD5E6E74DC9F728C677D6A757784F189190354F33D4C2BC25D1033E7CCD7902823EC77BD3C43BB35B
310
09405B61AE804F2B10D4C371E7D60631AC4B73156E825776002154AE6ED0BF2322C6942286F3B2DAB78E6ECA506B8FB735831B5E1888A7171D13E6F891A8AA029CE638A3C528E4FD98934281E8861F8D6475D0F47AA4FBBCFE152CB29EDF336BCD20F43244FFD041EB040E2DCBAE90B640D402EF8EE13CCE69CEA3DD213291
310
CE855A02D8687BCB97165188F546498A0A7890F6BB2AA4A446DA2821FB7D2920AE9E60F1CB7AD934878937F5E74EF3BFE38C3388B6E0BB885BBFEBEC11910CA538DAA3A46FBBE66E356DA149F690E6784F412EF248E42142329A24383D079AB3882FDE947A4A732108C302F2D549F09B684C3C0824469B15CB4AAB1DA08988
310
322C113D070145A6075C9D76748D1B43E9F03A8FB5F5BEA4B126D1FFC82238825A32671181521472C8AB8CFBDE1C62481B5D8372075FB0B68AB61683965042C487E82B26E9BD3C077543BE07F7188E24A58CF202C560D603C83EF315A5D40EEF3B143FA8FC11C5257D2B031198EE2342699945F0230C4E1E435CBB0E4C2FA2
310
D0206E629FC419146548967CC826EFE69367FB989AA11B021B1BED0985B01D65A8E841BD1510753DE2D4E05BEA3D4ADD955911A12C2FD92043F1A65D6FB2E4BB6A556407F2AB4A45281B2BC29660181026EBAC5AC56C30751D58C18D74A03A4402650535A7B057128F5F7B93A6DCBB01B77EFAB61B6450F8F568AF19516715
310
0C96C7566120BE2219DFBBE1465F4737507F273839A6FAAAD66C568080988AE4252756459FD750DED81ACD0DEF9014DB8F26EB56D7CF6B0FBA1FC118D640ED522F5C2BA033CC245295C99DBAA1BF2308C12D1A667CAD72EA3954AE9344578D887E207DEA6C9511AD4D33E215F798E519FCD896B0989609DEA2443C44779246
310
1BA258B7527A19A9307E51C0DF3E6E3AF0C0C800913EA9020F7FEDACB5A34B552E9D2422EFCB6CC7108120D8122D35BAF10A965A8D545AAEAFEA4C017517189855F1ECFF9345B31DF1FFC922B586F14D278B9BC32FE8D0EC8B34D279ACECFAAC63409D9F1495B73806E8B6434DB5CE2226995BF9AD33451014AB283FB81AAB
310
828621D8C7F1BFCEDA7D59D06CD7E1FFBCACED3FAB38CECA2AADC9AA4B75A2725D3773D8E2767539BFBEB91D5DBC9FCD47B3C5E57474BD5AA806ED62F67EF17E7E7BED2F6B34B5A386411DCC74EE826713D4AA61F5643180AEACC82949E0349F382986982FE14C3FA07DCE332C2079369BDD896DCA0F58FD68FA9C12ED28AE
310
38B947D020A602D23A6054C6B23DEE7C07AD490907ED2B179A46DE03FC59AB741DC83C572EB40A2489B1F076D066520D3D4D1C52AECEFD9618E08358AA52A259543FD7AB1436ADF05F4F199206AC5CAD1E06146E0574BF5A1D0ACD9BE5293E4BF08A1D0749B8DD9512AA3523CB71A016466F7354BF918D12F660B77E02D77D
310
592CDFD3735A880CFA64F0A21118AA238978AAFBDD8A31CBD2F5EAD318FA6CCEFA37A7A0650ABA1C4E69C4311873A90A2AB022B00A4BB340124C75F9E3F613CFE1134FE6E8AAC8F9FEE9F2DD0FDB659E65393343DB6B389525F0A1C8D9DCC3679F640BC50356CD75B1BD98F8175BDDD4B67DF6688704F6545504035531A104
310
E9981CD8E5B306956D5F8E952A3AD3D72BC706516806183B7AD6E3351FB91CF021F53945798CF6F34ADA17FBDA633D156C8243473AFC07504B0304140006080000BA7D0943000000000000000000000000350000006662782F32383444323031342D313646312D343744342D424242362D3036413537303341453445432F76
310
657274696365732E62696E504B0304140006080800BA7D0943F270F1330600000004000000360000006662782F32383444323031342D313646312D343744342D424242362D3036413537303341453445432F747269616E676C65732E62696E636660600000504B0304140006080000BA7D0943000000000000000000000000
310
370000006662782F32383444323031342D313646312D343744342D424242362D3036413537303341453445432F617474726962757465732E62696E504B0304140006080800BA7D0943D5987DFC8F00000041010000360000006662782F32383444323031342D313646312D343744342D424242362D30364135373033414534
310
45432F6469726563746F72792E786D6C858F410EC2201045AF4266AF15DDB800BA74E7C21B903225242D6328188F2FA5C4183471359997F9FF81E89FF3C41E1816475E02DF1F80A11FC8386F25A438EECEC07A250251FC3803E6F58C12560C4AD840E95E91C151A72936F496F35732D860FE635F62C8F2DA16B505C545B741
310
25BAA2FA9E05D7CC053D063734D5C7665FD55B6B8D15D5E9BFEAFD8490FFA45E504B0304140006080800BA7D0943AEE6BD12FA000000A00100003B0000006662782F32383444323031342D313646312D343744342D424242362D3036413537303341453445432F7265736F75726365732F636F72652E786D6C8D50596EC320
310
10BD0AE21F1B6F896D61A2DAC90D7A0184272E4A0C164BD5E31762576AFFFAC3306FD13C3D76F95A9FE813AC53460FB8C82846A0A599955E061CFC9DB4185D38B3C6F85F328CB45861C009C69C2DD684ED80A4D11EB48FA836331CA0700E3C46F2193F0376F203569189E0A3C23DB24DC88758202BB248471D67CEDB1800ED
310
47D28BB905678295E058BEB39C85A0E643A3E67853DD1558CC8BAA1EDBDB5492A2A213A9CFDD958C5D7B23653B9EDE4ED7F338B594E5C9CC9957EB4F4669417898312F695111DA12DABD174D5F377D93D69E465392FF31856DFEA72928EDABF288BBDB5CCC1A83BC08CEF2D4571CAF32E34CDDF26F504B010214000A000008
310
0000BA7D09433DEE336E79000000790000001B00000000000000000000000000000000006175746F6465736B2D64657369676E2D7061636B6167652E786D6C504B01021400140006080800BA7D0943D486FD9CA0000000F40000001300000000000000000000000000B20000005B436F6E74656E745F54797065735D2E786D
310
6C504B01021400140006080800BA7D0943BD4D938AE80000007C010000080000000000000000000000000083010000636F72652E786D6C504B01021400140006080800BA7D094355019EA25F0000007C000000070000000000000000000000000091020000636E782E786D6C504B01021400140006080800BA7D09431EBCCE
310
3E63010000020300000C00000000000000000000000000150300006662782F636F72652E786D6C504B01021400140006080800BA7D0943943E59087E0000009D0000000B00000000000000000000000000A20400006662782F636E782E786D6C504B01021400140006080800BA7D09432ECA34112801000014020000310000
310
0000000000000000000000490500006662782F32383444323031342D313646312D343744342D424242362D3036413537303341453445432F636F72652E786D6C504B01021400140006080800BA7D0943D19653BF54010000330300003000000000000000000000000000C00600006662782F32383444323031342D31364631
310
2D343744342D424242362D3036413537303341453445432F636E782E786D6C504B01021400140006080800BA7D094338072EB6630700009A1B00003400000000000000000000000000620800006662782F32383444323031342D313646312D343744342D424242362D3036413537303341453445432F6F626A656374732E78
310
6D6C504B01021400140006080000BA7D09430000000000000000000000003500000000000000000000000000171000006662782F32383444323031342D313646312D343744342D424242362D3036413537303341453445432F76657274696365732E62696E504B01021400140006080800BA7D0943F270F133060000000400
310
000036000000000000000000000000006A1000006662782F32383444323031342D313646312D343744342D424242362D3036413537303341453445432F747269616E676C65732E62696E504B01021400140006080000BA7D09430000000000000000000000003700000000000000000000000000C41000006662782F323834
310
44323031342D313646312D343744342D424242362D3036413537303341453445432F617474726962757465732E62696E504B01021400140006080800BA7D0943D5987DFC8F000000410100003600000000000000000000000000191100006662782F32383444323031342D313646312D343744342D424242362D3036413537
310
303341453445432F6469726563746F72792E786D6C504B01021400140006080800BA7D0943AEE6BD12FA000000A00100003B00000000000000000000000000FC1100006662782F32383444323031342D313646312D343744342D424242362D3036413537303341453445432F7265736F75726365732F636F72652E786D6C50
310
4B0506000000000E000E00800400004F1300000000
  0
XRECORD
  5
34
102
{ACAD_REACTORS
330
30
102
}
330
30
100
AcDbXrecord
280
     1
270
     1
271
     1
  0
XRECORD
  5
35
102
{ACAD_REACTORS
330
30
102
}
330
30
100
AcDbXrecord
280
     1
270
     1
271
     1
  0
XRECORD
  5
36
102
{ACAD_REACTORS
330
30
102
}
330
30
100
AcDbXrecord
280
     1
270
     1
271
     1
  0
XRECORD
  5
37
102
{ACAD_REACTORS
330
30
102
}
330
30
100
AcDbXrecord
280
     1
270
     1
271
     1
  0
XRECORD
  5
167
102
{ACAD_REACTORS
330
A
102
}
330
A
100
AcDbXrecord
280
     1
102
MATERIAL
148
0.0
149
0.0
149
0.0
 93
        0
 94
      127
282
     0
 72
     0
 77
     0
171
     0
175
     0
179
     0
273
     0
  0
XRECORD
  5
B
102
{ACAD_REACTORS
330
A
102
}
330
A
100
AcDbXrecord
280
     1
270
     1
271
     1
  0
XRECORD
  5
C
102
{ACAD_REACTORS
330
A
102
}
330
A
100
AcDbXrecord
280
     1
270
     1
271
     1
  0
XRECORD
  5
D
102
{ACAD_REACTORS
330
A
102
}
330
A
100
AcDbXrecord
280
     1
 70
     1
 90
1959938040
 71
     1
  1
E05D631B-216D-4FA7-85FE-D8780CBEDCCD
311
504B03040A0000080000B87D09433DEE336E79000000790000001B0000006175746F6465736B2D64657369676E2D7061636B6167652E786D6C3C3F786D6C2076657273696F6E3D22312E302220656E636F64696E673D227574662D3822203F3E3C666F726D6174733E3C666F726D61743E687474703A2F2F736368656D612E
311
6175746F6465736B2E636F6D2F64657369676E2D7061636B6167652F323030393C2F666F726D61743E3C2F666F726D6174733E504B0304140006080800B87D0943D486FD9CA0000000F4000000130000005B436F6E74656E745F54797065735D2E786D6C7D8EC10E82300C865F65E91D8A1E8C310C0EEA1BF002731658846E
311
D98AC1B77784ABF1D8FE5FBFBF75BBCE937A534CCEB38643598122B6FEE978D0B0485F9C41B54DDD7D022595594E1A469170414C76A4D9A4D207E29CF43ECE46F218070CC6BECC4078ACAA135ACF422C856C0E68EA1BF5669944DDD7BCDE7B1F8E415D77AECB980613C2E4AC91FC167A2B244592486606FC29C8FD7F045B9A
311
EF7053A7E60B504B0304140006080800B87D09432B6549C9E90000007C01000008000000636F72652E786D6C8D50D18EC22010FC15B2EFB4D056A58662D4EB7DC1FD0001AC440B4D01739F7F546B72F776C9263B999DD9DD0C3F7C8F77F43073B0DE75400B02C838E5B5754307295E300374107CF63EFE92017272341D2C34
311
083ECC3E4D2BA5BC8BC6C5CC3AAFCD4ACA104C04A4EE197410D4D58CB290296645B815935437399882BE5136A764357A1DB13AEFB3176B6610FDF65CB3B6EA7173622D6E685FE353756E71BD3956CD967DEE3E760D2F17B3E0D18EEFFB6A36321A0DA222B4C68461D27ED1CDBEC99531DB13C2CB45FEC79426FD4F53B22ED6
311
D5FAEECB1640D0FCC8732078B96491DB33A8DC97DCC40F504B0304140006080800B87D094355019EA25F0000007C00000007000000636E782E786D6C4DCB3B0E80201045D1AD90E915ED2CF8AC45050C11660C8261F98AB1B07AC9C97D42D718D865D3E909258CFD00CCE24AC6E326A164D74DC0B4128928FF326038472BA1
311
3128B1252AC747C6BAB984FC68F0B87FE8960A5C09FE86CFB69FBA01504B0304140006080800B87D094393401E2F65010000020300000C0000006662782F636F72652E786D6C8D52D98E823014FD95A6EFA56C2A9A52333ACE17CC0F54A80C115AD285F8F973590CE3C418032937E72EE7DC43D9FED636A897C6D65AE5380A
311
428CA42A7459AB2AC7DE5D4886D19E33A3B5FB53869112ADCCF10063CE2AA37D374385564E2A07A8D2A59C4161AD7418150D0439B6C58F6C4520BC830A7B0D3A515C452583288034D471669D01016822194ECC2FE71BA313CE99F7753967EB12D8EA4B2D0DE6A7F531C9B6F189A4876C4BD2E89490437CDC9264F511A7EBEC
311
6BF3B949191D9A3973757B575718299C2C318FC328216146C2ED77B4DAA5F0429CEDC290D1A1FCA1C977E59B4DBE562E8967B9539BC53C022163E2DFB660914356F4A08772460713E1333AFC68341802263B716EEE7B5C01EA65E1B44921536ABFA47AD17809AC211A1F46A72C4C1E07C0664FE7C42FE6BC9E013F50A80AA4
311
0907E1D9BB819D4DACB3159D34A47737A4B46945B3889B242EE742F4B4BDD08D36EF74D379553A9B4987DBCB7F01504B0304140006080800B87D09435DEE4B4D7E0000009D0000000B0000006662782F636E782E786D6C4DCCD10A83201886E15B91FFDCA522D6408DB4761FB12C64A6A3E9D8E5AF46073BFAE0E1E395ED67
311
0DE8EDB6974F5101BD10402EDED3E4E3A2A0E41937805A2DB794F2DF0D501C57A7E060D072D952799E34B9792C21EF1A7C7C9C6809B36CE82C16E6C63117758F1B6118EE7837F4C45C594D29545A56BFD2BE47587F01504B0304140006080800B87D0943160D83442C01000014020000310000006662782F43303243324541
311
432D364246342D343637442D383642322D4134414544304239323731312F636F72652E786D6C8D515B6EC32010BC0AE22BFDC006C7719C0813E5D513F40214931425068B4795E377A91DA9FD8B8460B53B333BECF2DD63B8A36FED8371B6C3ACA01869AB5C6FECB5C3295E488BD14E70EF5CFC03C3C8CA417738A7B1E057EF
311
D238A794B351DB0859EB7A3D2765083A62A4EE107438A82F3DC842A60888702B46A96EF2AA0B564019708287E8C1009A9AE41B8B23AD8ED5797F24CDE1BD2675B33E91B63954645FEFCF277AD8546BC6783911054FC9F433DDF460C75C8CF6AF8A64B2E0D10C4FFBCA6B19758F4545D992D096D0CD075B6D6B3810B75B4A79
311
99E1FF4869EC5F242563E3B29AED4EB48005FC662A08DEBBF4797F9AD18FD1F98872BF45D0EA0D0B5A50D6B66C4D5B5E4E5018006836F5AC19A2F330E0C5ED13D06CC5CB2CDCD482977947F0FC2E10DEBC4FF103504B0304140006080800B87D0943BD1EA4774C01000033030000300000006662782F43303243324541432D
311
364246342D343637442D383642322D4134414544304239323731312F636E782E786D6CD593CB6EC32010457F05B1F7AB71A334C244EAA25FD045B71826090D068B4755FF7D8784A4D964D165250BA13B77EE8C8E30DB7D4F867C810FDAD98176754B0958E994B68781A6B8AF3694EC38F3CEC53B1B25564C30D02C53CE0EDE
311
A5B9480AF6229988AAD1F654440FC1252F21A09C3B897152180C005B2514611A412950E466C4DB1E3CAE82E2B8907804F2F6FA41DCF8093206D6E414CE9A3C83B37C964977264AA411210C34C8234CA216293A05E1542B1145DDD5D7590F76FA4D22B9E13A32794DF2F081E693F2B2518D1C598345CE42F448AF98E23203E5
311
629E8D962222E4E66CBC78384BDAC6755FBC1AC17B7477EB55DF63D8B9C659D4131487F4202228CA9FDA6E55B59BAA7D79EF9EB73D7E78DF6CDB9635D9CED9E89C294D1803DECD443A1BC146CA3BD6E4F2237CC54794F6C8DAF9E50F201140997AA173CBF8CF7C9AF3FB465C1EFF02FE03504B0304140006080800B87D0943
311
2AAFF33CA505000080100000340000006662782F43303243324541432D364246342D343637442D383642322D4134414544304239323731312F6F626A656374732E786D6CAD57DB6EDB3810FD1541FBB2FBE08B6C2775168A8AC44E0AA3485BD468B10F060C4AA2146D285120A9C4D9AFDF43919225D74EBD8BBE5816351CCE
311
9C3973A1FF7E9733E7990A99F1E2DAF58663D7A145C4E3AC48AFDD4A2583B9EBBC0F7CC1B9EA88B94E41727AEDEA6537F053C1ABD22EC53421155307ABF7B77F3932A205759D881129AF5D193DD29C0C49A5784CE5D330268A0CD36437F48646B0AF3615A47C3C505A12410B054BB15E408B638CF2FAAF637714F823FD3DF0
311
F5AF959A9E961AD5FEF4CFCF0AA94811FD70D8819AA9375BDE4D2EAE0617B3D97430BB9C7883DBFBDBE5C07B371D2F2E178BAB9BBB2B1C2C9580266B89A0891B7C0036228BFC91F914F85556A8E9C48AD8008D047DCE74A4DC60E278FEC8C8B4DE59278F991FF1A2A0518D15D0A8FDB3AA635AD22246CC332A615907A171FF
311
D5D338763E4FF5BB3DB2BB7C1E02DD1D1D458DEDCDB36B290FFF860BF21C06094935030D96D651C3D5F11EE1907366BF65D2C989A22223CC61592888787503886A91C0EFA9D14C163A1BB4076E802898CF7DBA208D7ECEF363562615639AC66E5067C116B94295AC2DCBFEA1626F7D1719D884586936CCAD43EAB5A46E7065
311
28323F609301D24918491172B8A9774E27078E2E749EAE966EF0F13EDCAD75EE1E3FBC14BCA44269FA805A4DE09AA746C9DAE49D1539BDC13D30650FCA5720FF09A9BE37057113D96EB69BD9539420854CB8C8111B67EC0CC6F8193B5EFDABFF77FEF9A376733F7AA7F044B03554BF00CFBE0FDD5876E00CFC67109E8BA975
311
6D1D1186B2F19015004893C4611C4BA8C349B8738315AA1CAA32761116787019E63EE3AF3FB26A5028EA933ACF02581E94C5330A3460AB1909330CF9AD81FB38FD50CEEA83ADD829782F7E095D6F96EB8FEB4A2424A20F36A79734C98A4CA1C5ED79D335A88779CFA327FAFAC2450C477FC47BDDC53BB74749A0AD31D7C0A7
311
4D4DD72FFB937B0744D897725D6EFC9F9C00277463EDE87FC86444192305E55573EE9BFD036DC340AC935D33B96D30FBC602D2982F073988261D89ACD420B6DDAA2D9AC313DE7D5B7D022321CF7848D85E28DC97DE88332EB6E1EBD654A5A3487FEF53DB4230D25AC0F63A479AF4B7986FE32C492A891A7804D6EFAB453774
311
BA2AA042345A4DB2CCE03E728B08CBD9462F9AB52068A4BCD866689B48BBA30774F503514B805AE1298B2565C93663ACCAB749C6D08CB639294FC0F1FFED0FABBCDC929C57853AA1BB673A9A43DFF61E79E50B51D1A31BACEBE7E016A537A6F13ECC3D61DD4A8E60D50BEDDDF8627939F56E0713EF723998DDDFBC1BCC2FEE
311
EF06CBF9BBF978717BB75C2C964D9C8CF2C06F3A4D37A111257436BF12990DDFB715D2C7D6003778204A6E3E98EC6C9EDF56438CC2FE087BD02EDB8D37F133C63E1AFF5CC15EF2A8A2555E329AD342119D420FFA0FFB4A3066F48C31EBAB9CA4F40C2D9F3FAC0F9CC1CA19FBBEE874A72F077BEDEA4227E45125EAB1CAC382
311
64EC60636A901C96456AF16B62D23E4D9F695EF59B0D0C0653C95916A30CC64E4A794E158AE1193D48E454827ADD913EB6578F33763F9B01519190D1C6924782199949A405A85545AABFEEFC86994E8F55D72EBAEDF0093FB652B80E3873ED6246575944E530447FD69350AD1C5CEA0EF298FB4991328CDA6653FBDEEED2D8
311
F43A722B72CEF864FD3215DC3A803252626CC03C84E8D4C6047E6D9BFD1EFD27C71B731CA2F037AC54EBCB7EA175A63E06296A9CB29705CC304FF6E81D12F56DB7BC612DD343E4AC4BD69B24305A078A88B4BE2868FBAC4937CB2F230C28CEEAB353B22A452CCFD734101464AE748283456085D5591205AA2EFEDC7C111C17
311
D9DCB9CF4001E7F7DDFCF28FCD82E7392FCCD2E6C65E879DF5232EB7F106C581EA5B89DC4CC6DE6453DF06EC05651B12498724964F58406445D602DD0B3F7869AE8CE843E6432B37D2A13860E86AE9D8C63683524B976E6DD5E060EE28A8831CD2374A9D315D81F2CD0BC1A816850902A37CF02F504B0304140006080000B8
311
7D0943000000000000000000000000350000006662782F43303243324541432D364246342D343637442D383642322D4134414544304239323731312F76657274696365732E62696E504B0304140006080800B87D0943F270F1330600000004000000360000006662782F43303243324541432D364246342D343637442D3836
311
42322D4134414544304239323731312F747269616E676C65732E62696E636660600000504B0304140006080000B87D0943000000000000000000000000370000006662782F43303243324541432D364246342D343637442D383642322D4134414544304239323731312F617474726962757465732E62696E504B0304140006
311
080800B87D0943D5987DFC8F00000041010000360000006662782F43303243324541432D364246342D343637442D383642322D4134414544304239323731312F6469726563746F72792E786D6C858F410EC2201045AF4266AF15DDB800BA74E7C21B903225242D6328188F2FA5C4183471359997F9FF81E89FF3C41E181647
311
5E02DF1F80A11FC8386F25A438EECEC07A250251FC3803E6F58C12560C4AD840E95E91C151A72936F496F35732D860FE635F62C8F2DA16B505C545B74125BAA2FA9E05D7CC053D063734D5C7665FD55B6B8D15D5E9BFEAFD8490FFA45E504B0304140006080800B87D094338CE6751FC000000A00100003B0000006662782F
311
43303243324541432D364246342D343637442D383642322D4134414544304239323731312F7265736F75726365732F636F72652E786D6C8D50596AC33010BD8A997FD996ED247690159AA527E8058434714462C968293D7EA5C485F6AF2034C35B98C76387AFF9517CA2F3DA9A1168594381465AA5CD34420C57D24371E0CC
311
591B7EC9A03062C611320C9C4DCEC66585A435014D48A8B10A5750788F010AF948CB085EDE7016A5882129FCBD5C84BC8B094B5A263AE938F3C1A500C5EB48FE813BF4363A899E552F96B318B55A355AA59BFAAAD101BF6C4F6D3F3467D21DFB8174F4D29263731A48BB796BBA6DFFBE3BEF3A5665336741CF3F19A5431150
311
016F6ADA92BA27F5F04137FB2EBDB4F7FBBA665596FF31C545FDD314B5096DB3C67DD93C709A823C09CEAADC571ACF32D3CCDDF26F504B010214000A0000080000B87D09433DEE336E79000000790000001B00000000000000000000000000000000006175746F6465736B2D64657369676E2D7061636B6167652E786D6C50
311
4B01021400140006080800B87D0943D486FD9CA0000000F40000001300000000000000000000000000B20000005B436F6E74656E745F54797065735D2E786D6C504B01021400140006080800B87D09432B6549C9E90000007C010000080000000000000000000000000083010000636F72652E786D6C504B01021400140006
311
080800B87D094355019EA25F0000007C000000070000000000000000000000000092020000636E782E786D6C504B01021400140006080800B87D094393401E2F65010000020300000C00000000000000000000000000160300006662782F636F72652E786D6C504B01021400140006080800B87D09435DEE4B4D7E0000009D
311
0000000B00000000000000000000000000A50400006662782F636E782E786D6C504B01021400140006080800B87D0943160D83442C0100001402000031000000000000000000000000004C0500006662782F43303243324541432D364246342D343637442D383642322D4134414544304239323731312F636F72652E786D6C
311
504B01021400140006080800B87D0943BD1EA4774C010000330300003000000000000000000000000000C70600006662782F43303243324541432D364246342D343637442D383642322D4134414544304239323731312F636E782E786D6C504B01021400140006080800B87D09432AAFF33CA5050000801000003400000000
311
000000000000000000610800006662782F43303243324541432D364246342D343637442D383642322D4134414544304239323731312F6F626A656374732E786D6C504B01021400140006080000B87D09430000000000000000000000003500000000000000000000000000580E00006662782F43303243324541432D364246
311
342D343637442D383642322D4134414544304239323731312F76657274696365732E62696E504B01021400140006080800B87D0943F270F13306000000040000003600000000000000000000000000AB0E00006662782F43303243324541432D364246342D343637442D383642322D4134414544304239323731312F747269
311
616E676C65732E62696E504B01021400140006080000B87D09430000000000000000000000003700000000000000000000000000050F00006662782F43303243324541432D364246342D343637442D383642322D4134414544304239323731312F617474726962757465732E62696E504B01021400140006080800B87D0943
311
D5987DFC8F0000004101000036000000000000000000000000005A0F00006662782F43303243324541432D364246342D343637442D383642322D4134414544304239323731312F6469726563746F72792E786D6C504B01021400140006080800B87D094338CE6751FC000000A00100003B000000000000000000000000003D
311
1000006662782F43303243324541432D364246342D343637442D383642322D4134414544304239323731312F7265736F75726365732F636F72652E786D6C504B0506000000000E000E0080040000921100000000
310
504B03040A0000080000B87D09433DEE336E79000000790000001B0000006175746F6465736B2D64657369676E2D7061636B6167652E786D6C3C3F786D6C2076657273696F6E3D22312E302220656E636F64696E673D227574662D3822203F3E3C666F726D6174733E3C666F726D61743E687474703A2F2F736368656D612E
310
6175746F6465736B2E636F6D2F64657369676E2D7061636B6167652F323030393C2F666F726D61743E3C2F666F726D6174733E504B0304140006080800B87D0943D486FD9CA0000000F4000000130000005B436F6E74656E745F54797065735D2E786D6C7D8EC10E82300C865F65E91D8A1E8C310C0EEA1BF002731658846E
310
D98AC1B77784ABF1D8FE5FBFBF75BBCE937A534CCEB38643598122B6FEE978D0B0485F9C41B54DDD7D022595594E1A469170414C76A4D9A4D207E29CF43ECE46F218070CC6BECC4078ACAA135ACF422C856C0E68EA1BF5669944DDD7BCDE7B1F8E415D77AECB980613C2E4AC91FC167A2B244592486606FC29C8FD7F045B9A
310
EF7053A7E60B504B0304140006080800B87D0943E123EB9DEB0000007C01000008000000636F72652E786D6C75905B6EC3201045B782E61F1BFCA8ED0813A54EBB826E0001715062B00C545D7E210FA9F9A88434C3E51E6674D9FE67B9A26FBD79E3EC08B42080B4954E193B8F10C309F780F69C6DCE853F3640562C7A842C
310
0367F3E6E2FA90A4B341DB9054EB947E88C27B1D00C96B6A46F0F2AC1751881892C35F8A55C88B9875419F5D8263340ADD871895FE3327A337E01F87AA7B9F1A82DBE350E366183E717F203D1EA66E9A3ADABE1D6BCACA0C7316CCF29C2F372D8256C02B426B9CFC64F8A2EDAE49A74BD71D21ACCCF61728AEEA3FA87F85A2
310
B1A1AE1EEBDE310F3C2F727BE0ACCC59A4720B2AD59C1BFF05504B0304140006080800B87D094355019EA25F0000007C00000007000000636E782E786D6C4DCB3B0E80201045D1AD90E915ED2CF8AC45050C11660C8261F98AB1B07AC9C97D42D718D865D3E909258CFD00CCE24AC6E326A164D74DC0B4128928FF32603847
310
2BA13128B1252AC747C6BAB984FC68F0B87FE8960A5C09FE86CFB69FBA01504B0304140006080800B87D094387D322A464010000020300000C0000006662782F636F72652E786D6C8D525B6E833010BC8AE57F30AF3421328E52D29EA01770C0A12860233F508EDF3510D154515419197B76677776801E6E7D8746A14DAB64
310
81E330C248C84AD5AD6C0AECEC25D8617460542B657FA56124792F0AEC61CC68A3951B16A852D20A690195AA160BC88D1116A3AA8343814DF52D7A1E726721C35CC3815757DE88300E210C798C1AAB41009A9BF81DB3CBF946C98C33EA5C5B2FD1B6866EEDA5151AB38F63B27D2FB328D89CF234C8F2FC33D81DA35D9097DB
310
B2DCC69BB7531A53E2C98CDAB6BFABABB4E056D49825519C06901FE55FF1669FC1B383EB3E8A28F1E90F2437D4FF24B956DA3459E4CE348399173205FE4C0B165964F8087A08A3C49B08AFC9E147A3C11030D9F273779FE30AD0282AAB7406915AB93534F2CE09E81AA169513247A1F25400267B5A277951E7750DF8805C36
310
208D5B389E9DF5DDE9DC75B162103A18ED0D49A57BDEADE26689EBBE367A4AAF54A7F47FD86419952C6612FFF7B21F504B0304140006080800B87D0943509BE8217E0000009D0000000B0000006662782F636E782E786D6C4DCCD10E82201886E15B61FF390969401BE028B91097E89C088DA075F969F3A0A36F7BF6ED95ED
310
67F5E8EDD26B8E41013D11402E3CE230874941C92316805A2D538CF9EF0628F4AB53B0336839A5589E070D6EEC8BCF9BFA392C07364CD8CE728E29B951DCD0FB191B6E1866B426ECD25D85A92D545A56BFD2B67B587F01504B0304140006080800B87D09433E1E81A82A01000014020000310000006662782F343638454445
310
37372D313042312D343143322D413741362D3631333036354439384133452F636F72652E786D6C8D515B6EC32010BC8AC557FA810DB6633B11264A9BDCA0172086B82831583CAA1CBF4BED48ED5F24C4AE76676647BBECF098EED9B7725E5BD3239A1394293358A9CDD8A318AEB843D98133676DF80343991193EA512A23CE
310
4667E3BC96066B823201AAC64AB51685F72AA06CB843D2233F7CA949E4220640F85B3E8BE1264695D31CDA80E3CC070706B26548FA11AF9BEE7C3AB72DA6E49DE29A7E94F8D81E1BDCD08A34DBD3AE3B5667562C44CE62D472A56B0976F4552BF7AA48227316F4F4B43F3825829288978456987498EC3EE9765FC383BCDB13
310
C28A04FF478AB37C9114B50955B9DA5D681E71CA8AA5C199B4F1727F9A518FD9BA90A5791BAF8637C4494EDABA2D610DAC58A0B000D06CEA55D307EB60C19BDB05D0D52ADCD49C15E946107E0F0831DD93FF00504B0304140006080800B87D0943DBB96B605401000033030000300000006662782F34363845444537372D31
310
3042312D343143322D413741362D3631333036354439384133452F636E782E786D6CBD93CB6EC23010457FC5F23E2F48518A1C2375D12FE8A25B630FE0E2D8911F55F9FB8EC150362C2A559522CBBA73E7CEE8C8619BAFC9904FF0413B3BD2AE6E29012B9DD2763FD21477D540C98633EF5CBCB35162C50423CD32E56CEF5D
310
9A8BA460279289A81A6D8F45F4105CF21202CAB993182785C100B0554211A62D28058ADC8C78DB81C75550DC9E483C00797D79276EFB013206D6E414CE9A3C83B37C964977264AA411218C34C8034CA216293A05E1582B1145DDD5D7590F76FA4922B9E13A32794DF2F091E693F2B2518D1C598345CE42F448AF98E26906CA
310
C53C1B2D4544C8CDD978F17096B48DABBE783582F7E85E2E56C38061E71A67514F501CD28388A0285FB4DDB26A87AA7D7EEB9ED63D7E781FD66DCB9A6CE76CEB9C294D1803DECD443A1BC146CA3BD6E4F2237CC54794F6C8DAF9D32F40228032F542E796F1977CBAD5B2EFFF914F737EDF88CBE35FC0BF01504B0304140006
310
080800B87D0943A02F8DE962070000991B0000340000006662782F34363845444537372D313042312D343143322D413741362D3631333036354439384133452F6F626A656374732E786D6CED595B73A33614FE2B0C7D691F8C4DEC64930EA193D849C6B393DD9D7577A70F9E616490891A211849E4D25FDFA30B1888497037
310
7DDB071B10D2D139DFB9EA10FCF19451E70173417276EEFADEC475308BF384B0F4DC2DE57674EA3A7F8401CF73D998E63A0C65F8DC55C36E18A43C2F0B3B94E02D2AA9EC8C5E5FFEE5881833EC3A3145429CBB22BEC319F25029F3048B7B2F411279E9F6C9F33D33B14D36E5A8B8EB102D10C74C02A730CE808A6398F2DB8F
310
13771C0663F53E0CD4BF9D351D346BD63F6BACA56E7349989088C52F58EA90990E6269EACF165747C767A3E3D96C3A9A9D1CF9A3CBEBCBC5C8FF309DCC4FE6F3B38BAB33606F93E7D4CA94E002B304F4F7EC867E30566F6AD12D02FBB88E73C670AC8104A8B4585D82040BD8AA01DFA4FDE82B891AAFB5848DE7997A6F5968
310
0C4FDB54FA660D03A2451704B1DB551257D7A67CF9E66F105C0C314A2EB0046E85E4A05D0B0F07AF70C3493036A361B0D9E982082743127382A843C986230E4A81A96A4A189805968C720E0EA41C2581D69C79DDB62DF0CCB75D671F97DB9252E5196EA81D2B02F7C35268CEC83F98EFB86F22033C81B42561F2D472299F0B
310
EC8667C1580F8681BA4C8FEC4B03A4B3A528151A11F3B623E85CB9FE72E1861FAF374F2B150EF66F5EF0BCC05C2AA3537AD47C8121DBAB42C96EEB0FD29C5A00C21850EDCA1D285F01F94F103D76AC80DE38799A3DCDEC5CC91113DB9C67A01B67E28C26F037717CFDAFEE1B77C1B85EDCD65E1F9EE0A60AAAD31FC7B32D83
310
C6CAF2DF80330C1EC0E0733EB5AF5631A260CFB7840140CA481C9AC31084F6EDE6C90D97103821D0C32A44431F4406761FE036185B323BAD54EE65BD8E01A2768FE91025016CDA22818D1E3DDD40F6E024DEA9A929621FBCC7EF62AE178BD5C755C9B728C6B7D6A717784B18919035F733D4C2BC25D13D7E7ECC790282BEC4
310
7BD5C43BB35B09405B61AE804F2B10D4C36EE7D60631AC4B73156E823776002154AE6ED0BF2522C6942286F3B2DAB78E6ECA506B8FB735831B1E1988A7471D13E6F881A8AA029C6637A3C528E4FD98934281E8863746B23A687A3DD27D5B7E028BACE7F7CC5A3208BD0CD13F75D0DA8343CBB22BA42D10B5C09B5D388F739A
310
F368F31C9948E7422D016CB4BDE57B8B28C47AA32445053C48FB5D155252236D9490EDB6141057F7B0F87D396F9AC3C49BFAC74EF3BFE38C3388B6E0BB885BBFEBEC11910CA538DAA2A46FBBE66E356DA149F690E6784B412EF240E47384643449707A083407113F7B57EA29CD85200C0BC8577BC16FA231F12090186D562C
310
2BAD76802622CAB044F4100414991E7075DAD1356E0CA5C3DB3CD6D6FB9AC69A44FF278BE0086AC99C45044A51C8216F32EE7BC71043DAE81A943BF882B555B4B518B48412227E8E1E3149EFE421A81BF23DB8C77024296594172806B31E40F685AF28A57678DFA0F85EE58F282EE97B1988C0741B114ACB2C821F6170F218
310
E2DA75607A1585067113FB24CEA02843B2E4433639399EBCD8C7D40CDD10D8D8684B2884ED2843450FEAAD80A8EB11A706DF52EF51EAA6CC8A086579C906198A37ED7A9325DF55AB223B905F552A42D95811B604C380305967D52A6683A9EBC00A6EA403D57324505650730A7B23F1F8B53769CABD1B70EBA7EFBB4106855F
310
8FF69A117556C160796C1506E211C9F8CE0D57FA3ABA84FA3BC1C92ED557B566B30204C454242F39B12AFAB684F2C6D6686E788BA458DF98AC5B5DBF2D3DE87E04635803B54BBD70A980CE3093485526B7EA867E4510825B34CCF852E5D443A85C2489AE1A11BD267DEA6C9511AD4D33E2157798E519FCD89AB09896095EA3
310
44DC47B792462BA258B7527A19A9307E55C0CF37AB0E3C303240A42FAAC0C38F9DB57674AECAA5BD44E45D996D182210045BA2A546375EC152AB914ACBF5559D29A0EE0203B32A9EFD3C5934DB113F4F16A9358C1F3B59D07C83E82EDA34B279ACCCFAA053409D9E1495F73805E8AE434DB54E2226975BF1AD2F451013AB20
310
3FB818AB628621D8C7F17F4EDA7D49D06CD7E1FFB0A4EDBF28380E4A2AADC9AA49B5A7705D3653D8D5E4787132F52F4747FEC96234BBBEF8303A3DBEBE1A2D4E3F9C4EE697578BF97C51A3A9FD340CEA58A653173C9B98560DAB278B013465454E490287F9C44931847C0947FA01DD739E6101B9B3D9EB4E6C4F7EC0EA07D3
310
E694684371C5C91D82FE301590D501A33296ED71E717E84C4A38679FBBD033F2EEE1CF5AA5EB40E23977A15320498C85B7812E93EAE769E2907175EAB7C4001FC4529511CDA2FAB95EA5B06945FF7ACA902C60E56AB530A06E2BA0F9D56A5068DE2C4FF1418257EC3848C2EDA69450AC19597603B5307A9B9DFA8D6C94B07B
310
BBF513B8EEEB62F99E9ED34264D01783578DC0501D49C453DDEE568C59962E165FC6D06673969F9D829629E87238A511C760CCA5AAA7C08AC02A2CCD024930D5F9EFEB2F3C872F3C99A38B22E7D7A7D393DFD6F33CCB726686D61770284BE03B91B3BA83AF3EC91A6A07AC7AEB627D34F18FD6BAA76DDBECD10609ECA9A208
310
06AA5A4209D23139B0CB17FD29DBBD1C2B5574A62F178E0DA2D00B3076F4A2C56BBE7139E043EA6B8AF218EDE795B4AFB6B5C77A2AD804878674F82F504B0304140006080000B87D0943000000000000000000000000350000006662782F34363845444537372D313042312D343143322D413741362D363133303635443938
310
4133452F76657274696365732E62696E504B0304140006080800B87D0943F270F1330600000004000000360000006662782F34363845444537372D313042312D343143322D413741362D3631333036354439384133452F747269616E676C65732E62696E636660600000504B0304140006080000B87D094300000000000000
310
0000000000370000006662782F34363845444537372D313042312D343143322D413741362D3631333036354439384133452F617474726962757465732E62696E504B0304140006080800B87D0943D5987DFC8F00000041010000360000006662782F34363845444537372D313042312D343143322D413741362D3631333036
310
354439384133452F6469726563746F72792E786D6C858F410EC2201045AF4266AF15DDB800BA74E7C21B903225242D6328188F2FA5C4183471359997F9FF81E89FF3C41E1816475E02DF1F80A11FC8386F25A438EECEC07A250251FC3803E6F58C12560C4AD840E95E91C151A72936F496F35732D860FE635F62C8F2DA16B5
310
05C545B74125BAA2FA9E05D7CC053D063734D5C7665FD55B6B8D15D5E9BFEAFD8490FFA45E504B0304140006080800B87D0943B5572485FA000000A00100003B0000006662782F34363845444537372D313042312D343143322D413741362D3631333036354439384133452F7265736F75726365732F636F72652E786D6C8D
310
50596EC32010BD0A9A7FBCC6B51D61A2D4694ED00B203C715162B058AA1EBF10BB52FB570931F016CDD363A7AFE5413ED13A65F400655600412DCDA4F43C40F037DA013971668DF1BF6440B4587080040367B33561DD2169B447ED23AACD843B289C430F443EE26300273F701199083E2ADC3D5B85BC8B19B3328B74D471E6
310
BC8D01C8B624DDC02D3A13AC44C7F28DE52C0435ED1A35C59DEAA6D0027F3B57EDEB585F6973E96B7AE8FB2BEDCE4547FBB11DC7B66C5E2E75C9F264E6CCABE527A3B4283C4EC0ABA2AC69D417FD7BD91C0FF174F17B2C0A9627F91F5358A77F9A82D2BEAEF6B89BCD014F419E046779EA2B8E679971A66EF937504B010214
310
000A0000080000B87D09433DEE336E79000000790000001B00000000000000000000000000000000006175746F6465736B2D64657369676E2D7061636B6167652E786D6C504B01021400140006080800B87D0943D486FD9CA0000000F40000001300000000000000000000000000B20000005B436F6E74656E745F54797065
310
735D2E786D6C504B01021400140006080800B87D0943E123EB9DEB0000007C010000080000000000000000000000000083010000636F72652E786D6C504B01021400140006080800B87D094355019EA25F0000007C000000070000000000000000000000000094020000636E782E786D6C504B01021400140006080800B87D
310
094387D322A464010000020300000C00000000000000000000000000180300006662782F636F72652E786D6C504B01021400140006080800B87D0943509BE8217E0000009D0000000B00000000000000000000000000A60400006662782F636E782E786D6C504B01021400140006080800B87D09433E1E81A82A0100001402
310
000031000000000000000000000000004D0500006662782F34363845444537372D313042312D343143322D413741362D3631333036354439384133452F636F72652E786D6C504B01021400140006080800B87D0943DBB96B6054010000330300003000000000000000000000000000C60600006662782F3436384544453737
310
2D313042312D343143322D413741362D3631333036354439384133452F636E782E786D6C504B01021400140006080800B87D0943A02F8DE962070000991B00003400000000000000000000000000680800006662782F34363845444537372D313042312D343143322D413741362D3631333036354439384133452F6F626A65
310
6374732E786D6C504B01021400140006080000B87D094300000000000000000000000035000000000000000000000000001C1000006662782F34363845444537372D313042312D343143322D413741362D3631333036354439384133452F76657274696365732E62696E504B01021400140006080800B87D0943F270F13306
310
0000000400000036000000000000000000000000006F1000006662782F34363845444537372D313042312D343143322D413741362D3631333036354439384133452F747269616E676C65732E62696E504B01021400140006080000B87D09430000000000000000000000003700000000000000000000000000C91000006662
310
782F34363845444537372D313042312D343143322D413741362D3631333036354439384133452F617474726962757465732E62696E504B01021400140006080800B87D0943D5987DFC8F0000004101000036000000000000000000000000001E1100006662782F34363845444537372D313042312D343143322D413741362D
310
3631333036354439384133452F6469726563746F72792E786D6C504B01021400140006080800B87D0943B5572485FA000000A00100003B00000000000000000000000000011200006662782F34363845444537372D313042312D343143322D413741362D3631333036354439384133452F7265736F75726365732F636F7265
310
2E786D6C504B0506000000000E000E0080040000541300000000
  0
XRECORD
  5
E
102
{ACAD_REACTORS
330
A
102
}
330
A
100
AcDbXrecord
280
     1
270
     1
271
     1
  0
XRECORD
  5
F
102
{ACAD_REACTORS
330
A
102
}
330
A
100
AcDbXrecord
280
     1
270
     1
271
     1
  0
XRECORD
  5
10
102
{ACAD_REACTORS
330
A
102
}
330
A
100
AcDbXrecord
280
     1
270
     1
271
     1
  0
XRECORD
  5
11
102
{ACAD_REACTORS
330
A
102
}
330
A
100
AcDbXrecord
280
     1
270
     1
271
     1
  0
XRECORD
  5
164
102
{ACAD_REACTORS
330
163
102
}
330
163
100
AcDbXrecord
280
     1
102
ACAD_ROUNDTRIP_2012_MLEADER_STYLE
298
     1
  0
CELLSTYLEMAP
  5
162
102
{ACAD_REACTORS
330
127
102
}
330
127
100
AcDbCellStyleMap
 90
        3
300
CELLSTYLE
  1
TABLEFORMAT_BEGIN
 90
        5
170
     1
 91
        0
 92
    32768
 62
   257
 93
        1
300
CONTENTFORMAT
  1
CONTENTFORMAT_BEGIN
 90
        0
 91
        0
 92
      512
 93
        0
300

 40
0.0
140
1.0
 94
        5
 62
     0
340
1C
144
0.25
309
CONTENTFORMAT_END
171
     0
 94
        0
309
TABLEFORMAT_END
  1
CELLSTYLE_BEGIN
 90
        1
 91
        1
300
_TITLE
309
CELLSTYLE_END
300
CELLSTYLE
  1
TABLEFORMAT_BEGIN
 90
        5
170
     1
 91
        0
 92
        0
 62
   257
 93
        1
300
CONTENTFORMAT
  1
CONTENTFORMAT_BEGIN
 90
        0
 91
        0
 92
      512
 93
        0
300

 40
0.0
140
1.0
 94
        5
 62
     0
340
1C
144
0.18
309
CONTENTFORMAT_END
171
     0
 94
        0
309
TABLEFORMAT_END
  1
CELLSTYLE_BEGIN
 90
        2
 91
        1
300
_HEADER
309
CELLSTYLE_END
300
CELLSTYLE
  1
TABLEFORMAT_BEGIN
 90
        5
170
     1
 91
        0
 92
        0
 62
   257
 93
        1
300
CONTENTFORMAT
  1
CONTENTFORMAT_BEGIN
 90
        0
 91
        0
 92
      512
 93
        0
300

 40
0.0
140
1.0
 94
        2
 62
     0
340
1C
144
0.18
309
CONTENTFORMAT_END
171
     0
 94
        0
309
TABLEFORMAT_END
  1
CELLSTYLE_BEGIN
 90
        3
 91
        2
300
_DATA
309
CELLSTYLE_END
  0
XRECORD
  5
170
102
{ACAD_REACTORS
330
127
102
}
330
127
100
AcDbXrecord
280
     1
102
ACAD_ROUNDTRIP_PRE2007_TABLESTYLE
 90
      512
 91
        0
  1

 92
      512
 93
        0
  2

 94
      512
 95
        0
  3

  0
XRECORD
  5
16D
102
{ACAD_REACTORS
330
16C
102
}
330
16C
100
AcDbXrecord
280
     1
102
RTVSPropertyOp0
 70
     1
102
RTVSPropertyOp1
 70
     1
102
RTVSPropertyOp2
 70
     1
102
RTVSPropertyOp3
 70
     1
102
RTVSPropertyOp4
 70
     1
102
RTVSPropertyOp5
 70
     1
102
RTVSPropertyOp6
 70
     1
102
RTVSPropertyOp7
 70
     1
102
RTVSPropertyOp8
 70
     1
102
RTVSPropertyOp9
 70
     1
102
RTVSPropertyOp10
 70
     1
102
RTVSPropertyOp11
 70
     1
102
RTVSPropertyOp12
 70
     1
102
RTVSPropertyOp13
 70
     1
102
RTVSPropertyOp14
 70
     1
102
RTVSPropertyOp15
 70
     1
102
RTVSPropertyOp16
 70
     1
102
RTVSPropertyOp17
 70
     1
102
RTVSPropertyOp18
 70
     1
102
RTVSPropertyOp19
 70
     1
102
RTVSPropertyOp20
 70
     1
102
RTVSPropertyOp21
 70
     1
102
RTVSPropertyOp22
 70
     1
102
RTVSPropertyOp23
 70
     1
102
RTVSPropertyOp24
 70
     1
102
RTVSPropertyOp25
 70
     1
102
RTVSPropertyOp26
 70
     1
102
RTVSPropertyOp27
 70
     1
102
RTVSPropertyOp28
 70
     1
102
RTVSPropertyOp29
 70
     1
102
RTVSPropertyOp30
 70
     1
102
RTVSPropertyOp31
 70
     1
102
RTVSPropertyOp32
 70
     1
  0
XRECORD
  5
17E
102
{ACAD_REACTORS
330
17D
102
}
330
17D
100
AcDbXrecord
280
     1
102
RTVSPropertyOp0
 70
     1
102
RTVSPropertyOp1
 70
     1
102
RTVSPropertyOp2
 70
     1
102
RTVSPropertyOp3
 70
     1
102
RTVSPropertyOp4
 70
     1
102
RTVSPropertyOp5
 70
     1
102
RTVSPropertyOp6
 70
     1
102
RTVSPropertyOp7
 70
     1
102
RTVSPropertyOp8
 70
     1
102
RTVSPropertyOp9
 70
     1
102
RTVSPropertyOp10
 70
     1
102
RTVSPropertyOp11
 70
     1
102
RTVSPropertyOp12
 70
     1
102
RTVSPropertyOp13
 70
     1
102
RTVSPropertyOp14
 70
     1
102
RTVSPropertyOp15
 70
     1
102
RTVSPropertyOp16
 70
     1
102
RTVSPropertyOp17
 70
     1
102
RTVSPropertyOp18
 70
     1
102
RTVSPropertyOp19
 70
     1
102
RTVSPropertyOp20
 70
     1
102
RTVSPropertyOp21
 70
     1
102
RTVSPropertyOp22
 70
     1
102
RTVSPropertyOp23
 70
     1
102
RTVSPropertyOp24
 70
     1
102
RTVSPropertyOp25
 70
     1
102
RTVSPropertyOp26
 70
     1
102
RTVSPropertyOp27
 70
     1
102
RTVSPropertyOp28
 70
     1
102
RTVSPropertyOp29
 70
     1
102
RTVSPropertyOp30
 70
     1
102
RTVSPropertyOp31
 70
     1
102
RTVSPropertyOp32
 70
     1
  0
XRECORD
  5
186
102
{ACAD_REACTORS
330
185
102
}
330
185
100
AcDbXrecord
280
     1
102
RTVSPropertyOp0
 70
     1
102
RTVSPropertyOp1
 70
     1
102
RTVSPropertyOp2
 70
     1
102
RTVSPropertyOp3
 70
     1
102
RTVSPropertyOp4
 70
     1
102
RTVSPropertyOp5
 70
     1
102
RTVSPropertyOp6
 70
     1
102
RTVSPropertyOp7
 70
     1
102
RTVSPropertyOp8
 70
     1
102
RTVSPropertyOp9
 70
     1
102
RTVSPropertyOp10
 70
     1
102
RTVSPropertyOp11
 70
     1
102
RTVSPropertyOp12
 70
     1
102
RTVSPropertyOp13
 70
     1
102
RTVSPropertyOp14
 70
     1
102
RTVSPropertyOp15
 70
     1
102
RTVSPropertyOp16
 70
     1
102
RTVSPropertyOp17
 70
     1
102
RTVSPropertyOp18
 70
     1
102
RTVSPropertyOp19
 70
     1
102
RTVSPropertyOp20
 70
     1
102
RTVSPropertyOp21
 70
     1
102
RTVSPropertyOp22
 70
     1
102
RTVSPropertyOp23
 70
     1
102
RTVSPropertyOp24
 70
     1
102
RTVSPropertyOp25
 70
     1
102
RTVSPropertyOp26
 70
     1
102
RTVSPropertyOp27
 70
     1
102
RTVSPropertyOp28
 70
     1
102
RTVSPropertyOp29
 70
     1
102
RTVSPropertyOp30
 70
     1
102
RTVSPropertyOp31
 70
     1
102
RTVSPropertyOp32
 70
     1
  0
XRECORD
  5
18E
102
{ACAD_REACTORS
330
18D
102
}
330
18D
100
AcDbXrecord
280
     1
102
RTVSPropertyOp0
 70
     1
102
RTVSPropertyOp1
 70
     1
102
RTVSPropertyOp2
 70
     1
102
RTVSPropertyOp3
 70
     1
102
RTVSPropertyOp4
 70
     1
102
RTVSPropertyOp5
 70
     1
102
RTVSPropertyOp6
 70
     1
102
RTVSPropertyOp7
 70
     1
102
RTVSPropertyOp8
 70
     1
102
RTVSPropertyOp9
 70
     1
102
RTVSPropertyOp10
 70
     1
102
RTVSPropertyOp11
 70
     1
102
RTVSPropertyOp12
 70
     1
102
RTVSPropertyOp13
 70
     1
102
RTVSPropertyOp14
 70
     1
102
RTVSPropertyOp15
 70
     1
102
RTVSPropertyOp16
 70
     1
102
RTVSPropertyOp17
 70
     1
102
RTVSPropertyOp18
 70
     1
102
RTVSPropertyOp19
 70
     1
102
RTVSPropertyOp20
 70
     1
102
RTVSPropertyOp21
 70
     1
102
RTVSPropertyOp22
 70
     1
102
RTVSPropertyOp23
 70
     1
102
RTVSPropertyOp24
 70
     1
102
RTVSPropertyOp25
 70
     1
102
RTVSPropertyOp26
 70
     1
102
RTVSPropertyOp27
 70
     1
102
RTVSPropertyOp28
 70
     1
102
RTVSPropertyOp29
 70
     1
102
RTVSPropertyOp30
 70
     1
102
RTVSPropertyOp31
 70
     1
102
RTVSPropertyOp32
 70
     1
  0
XRECORD
  5
182
102
{ACAD_REACTORS
330
181
102
}
330
181
100
AcDbXrecord
280
     1
102
RTVSPropertyOp0
 70
     1
102
RTVSPropertyOp1
 70
     1
102
RTVSPropertyOp2
 70
     1
102
RTVSPropertyOp3
 70
     1
102
RTVSPropertyOp4
 70
     1
102
RTVSPropertyOp5
 70
     1
102
RTVSPropertyOp6
 70
     1
102
RTVSPropertyOp7
 70
     1
102
RTVSPropertyOp8
 70
     1
102
RTVSPropertyOp9
 70
     1
102
RTVSPropertyOp10
 70
     1
102
RTVSPropertyOp11
 70
     1
102
RTVSPropertyOp12
 70
     1
102
RTVSPropertyOp13
 70
     1
102
RTVSPropertyOp14
 70
     1
102
RTVSPropertyOp15
 70
     1
102
RTVSPropertyOp16
 70
     1
102
RTVSPropertyOp17
 70
     1
102
RTVSPropertyOp18
 70
     1
102
RTVSPropertyOp19
 70
     1
102
RTVSPropertyOp20
 70
     1
102
RTVSPropertyOp21
 70
     1
102
RTVSPropertyOp22
 70
     1
102
RTVSPropertyOp23
 70
     1
102
RTVSPropertyOp24
 70
     1
102
RTVSPropertyOp25
 70
     1
102
RTVSPropertyOp26
 70
     1
102
RTVSPropertyOp27
 70
     1
102
RTVSPropertyOp28
 70
     1
102
RTVSPropertyOp29
 70
     1
102
RTVSPropertyOp30
 70
     1
102
RTVSPropertyOp31
 70
     1
102
RTVSPropertyOp32
 70
     1
  0
XRECORD
  5
184
102
{ACAD_REACTORS
330
183
102
}
330
183
100
AcDbXrecord
280
     1
102
RTVSPropertyOp0
 70
     1
102
RTVSPropertyOp1
 70
     1
102
RTVSPropertyOp2
 70
     1
102
RTVSPropertyOp3
 70
     1
102
RTVSPropertyOp4
 70
     1
102
RTVSPropertyOp5
 70
     1
102
RTVSPropertyOp6
 70
     1
102
RTVSPropertyOp7
 70
     1
102
RTVSPropertyOp8
 70
     1
102
RTVSPropertyOp9
 70
     1
102
RTVSPropertyOp10
 70
     1
102
RTVSPropertyOp11
 70
     1
102
RTVSPropertyOp12
 70
     1
102
RTVSPropertyOp13
 70
     1
102
RTVSPropertyOp14
 70
     1
102
RTVSPropertyOp15
 70
     1
102
RTVSPropertyOp16
 70
     1
102
RTVSPropertyOp17
 70
     1
102
RTVSPropertyOp18
 70
     1
102
RTVSPropertyOp19
 70
     1
102
RTVSPropertyOp20
 70
     1
102
RTVSPropertyOp21
 70
     1
102
RTVSPropertyOp22
 70
     1
102
RTVSPropertyOp23
 70
     1
102
RTVSPropertyOp24
 70
     1
102
RTVSPropertyOp25
 70
     1
102
RTVSPropertyOp26
 70
     1
102
RTVSPropertyOp27
 70
     1
102
RTVSPropertyOp28
 70
     1
102
RTVSPropertyOp29
 70
     1
102
RTVSPropertyOp30
 70
     1
102
RTVSPropertyOp31
 70
     1
102
RTVSPropertyOp32
 70
     1
  0
XRECORD
  5
19E
102
{ACAD_REACTORS
330
19D
102
}
330
19D
100
AcDbXrecord
280
     1
102
RTVSPropertyOp0
 70
     0
102
RTVSPropertyOp1
 70
     0
102
RTVSPropertyOp2
 70
     0
102
RTVSPropertyOp3
 70
     0
102
RTVSPropertyOp4
 70
     0
102
RTVSPropertyOp5
 70
     0
102
RTVSPropertyOp6
 70
     0
102
RTVSPropertyOp7
 70
     0
102
RTVSPropertyOp8
 70
     0
102
RTVSPropertyOp9
 70
     0
102
RTVSPropertyOp10
 70
     0
102
RTVSPropertyOp11
 70
     0
102
RTVSPropertyOp12
 70
     0
102
RTVSPropertyOp13
 70
     0
102
RTVSPropertyOp14
 70
     2
102
RTVSPropertyOp15
 70
     0
102
RTVSPropertyOp16
 70
     0
102
RTVSPropertyOp17
 70
     0
102
RTVSPropertyOp18
 70
     0
102
RTVSPropertyOp19
 70
     0
102
RTVSPropertyOp20
 70
     0
102
RTVSPropertyOp21
 70
     0
102
RTVSPropertyOp22
 70
     0
102
RTVSPropertyOp23
 70
     0
102
RTVSPropertyOp24
 70
     0
102
RTVSPropertyOp25
 70
     0
102
RTVSPropertyOp26
 70
     0
102
RTVSPropertyOp27
 70
     0
102
RTVSPropertyOp28
 70
     0
102
RTVSPropertyOp29
 70
     0
102
RTVSPropertyOp30
 70
     0
102
RTVSPropertyOp31
 70
     0
102
RTVSPropertyOp32
 70
     0
  0
XRECORD
  5
18C
102
{ACAD_REACTORS
330
18B
102
}
330
18B
100
AcDbXrecord
280
     1
102
RTVSPropertyOp0
 70
     1
102
RTVSPropertyOp1
 70
     1
102
RTVSPropertyOp2
 70
     1
102
RTVSPropertyOp3
 70
     1
102
RTVSPropertyOp4
 70
     1
102
RTVSPropertyOp5
 70
     1
102
RTVSPropertyOp6
 70
     1
102
RTVSPropertyOp7
 70
     1
102
RTVSPropertyOp8
 70
     1
102
RTVSPropertyOp9
 70
     1
102
RTVSPropertyOp10
 70
     1
102
RTVSPropertyOp11
 70
     1
102
RTVSPropertyOp12
 70
     1
102
RTVSPropertyOp13
 70
     1
102
RTVSPropertyOp14
 70
     1
102
RTVSPropertyOp15
 70
     1
102
RTVSPropertyOp16
 70
     1
102
RTVSPropertyOp17
 70
     1
102
RTVSPropertyOp18
 70
     1
102
RTVSPropertyOp19
 70
     1
102
RTVSPropertyOp20
 70
     1
102
RTVSPropertyOp21
 70
     1
102
RTVSPropertyOp22
 70
     1
102
RTVSPropertyOp23
 70
     1
102
RTVSPropertyOp24
 70
     1
102
RTVSPropertyOp25
 70
     1
102
RTVSPropertyOp26
 70
     1
102
RTVSPropertyOp27
 70
     1
102
RTVSPropertyOp28
 70
     1
102
RTVSPropertyOp29
 70
     1
102
RTVSPropertyOp30
 70
     1
102
RTVSPropertyOp31
 70
     1
102
RTVSPropertyOp32
 70
     1
  0
XRECORD
  5
176
102
{ACAD_REACTORS
330
175
102
}
330
175
100
AcDbXrecord
280
     1
102
RTVSPropertyOp0
 70
     1
102
RTVSPropertyOp1
 70
     1
102
RTVSPropertyOp2
 70
     1
102
RTVSPropertyOp3
 70
     1
102
RTVSPropertyOp4
 70
     1
102
RTVSPropertyOp5
 70
     1
102
RTVSPropertyOp6
 70
     1
102
RTVSPropertyOp7
 70
     1
102
RTVSPropertyOp8
 70
     1
102
RTVSPropertyOp9
 70
     1
102
RTVSPropertyOp10
 70
     1
102
RTVSPropertyOp11
 70
     1
102
RTVSPropertyOp12
 70
     1
102
RTVSPropertyOp13
 70
     1
102
RTVSPropertyOp14
 70
     1
102
RTVSPropertyOp15
 70
     1
102
RTVSPropertyOp16
 70
     1
102
RTVSPropertyOp17
 70
     1
102
RTVSPropertyOp18
 70
     1
102
RTVSPropertyOp19
 70
     1
102
RTVSPropertyOp20
 70
     1
102
RTVSPropertyOp21
 70
     1
102
RTVSPropertyOp22
 70
     1
102
RTVSPropertyOp23
 70
     1
102
RTVSPropertyOp24
 70
     1
102
RTVSPropertyOp25
 70
     1
102
RTVSPropertyOp26
 70
     1
102
RTVSPropertyOp27
 70
     1
102
RTVSPropertyOp28
 70
     1
102
RTVSPropertyOp29
 70
     1
102
RTVSPropertyOp30
 70
     1
102
RTVSPropertyOp31
 70
     1
102
RTVSPropertyOp32
 70
     1
  0
XRECORD
  5
178
102
{ACAD_REACTORS
330
177
102
}
330
177
100
AcDbXrecord
280
     1
102
RTVSPropertyOp0
 70
     1
102
RTVSPropertyOp1
 70
     1
102
RTVSPropertyOp2
 70
     1
102
RTVSPropertyOp3
 70
     1
102
RTVSPropertyOp4
 70
     1
102
RTVSPropertyOp5
 70
     1
102
RTVSPropertyOp6
 70
     1
102
RTVSPropertyOp7
 70
     1
102
RTVSPropertyOp8
 70
     1
102
RTVSPropertyOp9
 70
     1
102
RTVSPropertyOp10
 70
     1
102
RTVSPropertyOp11
 70
     1
102
RTVSPropertyOp12
 70
     1
102
RTVSPropertyOp13
 70
     1
102
RTVSPropertyOp14
 70
     1
102
RTVSPropertyOp15
 70
     1
102
RTVSPropertyOp16
 70
     1
102
RTVSPropertyOp17
 70
     1
102
RTVSPropertyOp18
 70
     1
102
RTVSPropertyOp19
 70
     1
102
RTVSPropertyOp20
 70
     1
102
RTVSPropertyOp21
 70
     1
102
RTVSPropertyOp22
 70
     1
102
RTVSPropertyOp23
 70
     1
102
RTVSPropertyOp24
 70
     1
102
RTVSPropertyOp25
 70
     1
102
RTVSPropertyOp26
 70
     1
102
RTVSPropertyOp27
 70
     1
102
RTVSPropertyOp28
 70
     1
102
RTVSPropertyOp29
 70
     1
102
RTVSPropertyOp30
 70
     1
102
RTVSPropertyOp31
 70
     1
102
RTVSPropertyOp32
 70
     1
  0
XRECORD
  5
17A
102
{ACAD_REACTORS
330
179
102
}
330
179
100
AcDbXrecord
280
     1
102
RTVSPropertyOp0
 70
     1
102
RTVSPropertyOp1
 70
     1
102
RTVSPropertyOp2
 70
     1
102
RTVSPropertyOp3
 70
     1
102
RTVSPropertyOp4
 70
     1
102
RTVSPropertyOp5
 70
     1
102
RTVSPropertyOp6
 70
     1
102
RTVSPropertyOp7
 70
     1
102
RTVSPropertyOp8
 70
     1
102
RTVSPropertyOp9
 70
     1
102
RTVSPropertyOp10
 70
     1
102
RTVSPropertyOp11
 70
     1
102
RTVSPropertyOp12
 70
     1
102
RTVSPropertyOp13
 70
     1
102
RTVSPropertyOp14
 70
     1
102
RTVSPropertyOp15
 70
     1
102
RTVSPropertyOp16
 70
     1
102
RTVSPropertyOp17
 70
     1
102
RTVSPropertyOp18
 70
     1
102
RTVSPropertyOp19
 70
     1
102
RTVSPropertyOp20
 70
     1
102
RTVSPropertyOp21
 70
     1
102
RTVSPropertyOp22
 70
     1
102
RTVSPropertyOp23
 70
     1
102
RTVSPropertyOp24
 70
     1
102
RTVSPropertyOp25
 70
     1
102
RTVSPropertyOp26
 70
     1
102
RTVSPropertyOp27
 70
     1
102
RTVSPropertyOp28
 70
     1
102
RTVSPropertyOp29
 70
     1
102
RTVSPropertyOp30
 70
     1
102
RTVSPropertyOp31
 70
     1
102
RTVSPropertyOp32
 70
     1
  0
XRECORD
  5
17C
102
{ACAD_REACTORS
330
17B
102
}
330
17B
100
AcDbXrecord
280
     1
102
RTVSPropertyOp0
 70
     1
102
RTVSPropertyOp1
 70
     1
102
RTVSPropertyOp2
 70
     1
102
RTVSPropertyOp3
 70
     1
102
RTVSPropertyOp4
 70
     1
102
RTVSPropertyOp5
 70
     1
102
RTVSPropertyOp6
 70
     1
102
RTVSPropertyOp7
 70
     1
102
RTVSPropertyOp8
 70
     1
102
RTVSPropertyOp9
 70
     1
102
RTVSPropertyOp10
 70
     1
102
RTVSPropertyOp11
 70
     1
102
RTVSPropertyOp12
 70
     1
102
RTVSPropertyOp13
 70
     1
102
RTVSPropertyOp14
 70
     1
102
RTVSPropertyOp15
 70
     1
102
RTVSPropertyOp16
 70
     1
102
RTVSPropertyOp17
 70
     1
102
RTVSPropertyOp18
 70
     1
102
RTVSPropertyOp19
 70
     1
102
RTVSPropertyOp20
 70
     1
102
RTVSPropertyOp21
 70
     1
102
RTVSPropertyOp22
 70
     1
102
RTVSPropertyOp23
 70
     1
102
RTVSPropertyOp24
 70
     1
102
RTVSPropertyOp25
 70
     1
102
RTVSPropertyOp26
 70
     1
102
RTVSPropertyOp27
 70
     1
102
RTVSPropertyOp28
 70
     1
102
RTVSPropertyOp29
 70
     1
102
RTVSPropertyOp30
 70
     1
102
RTVSPropertyOp31
 70
     1
102
RTVSPropertyOp32
 70
     1
  0
XRECORD
  5
180
102
{ACAD_REACTORS
330
17F
102
}
330
17F
100
AcDbXrecord
280
     1
102
RTVSPropertyOp0
 70
     1
102
RTVSPropertyOp1
 70
     1
102
RTVSPropertyOp2
 70
     1
102
RTVSPropertyOp3
 70
     1
102
RTVSPropertyOp4
 70
     1
102
RTVSPropertyOp5
 70
     1
102
RTVSPropertyOp6
 70
     1
102
RTVSPropertyOp7
 70
     1
102
RTVSPropertyOp8
 70
     1
102
RTVSPropertyOp9
 70
     1
102
RTVSPropertyOp10
 70
     1
102
RTVSPropertyOp11
 70
     1
102
RTVSPropertyOp12
 70
     1
102
RTVSPropertyOp13
 70
     1
102
RTVSPropertyOp14
 70
     1
102
RTVSPropertyOp15
 70
     1
102
RTVSPropertyOp16
 70
     1
102
RTVSPropertyOp17
 70
     1
102
RTVSPropertyOp18
 70
     1
102
RTVSPropertyOp19
 70
     1
102
RTVSPropertyOp20
 70
     1
102
RTVSPropertyOp21
 70
     1
102
RTVSPropertyOp22
 70
     1
102
RTVSPropertyOp23
 70
     1
102
RTVSPropertyOp24
 70
     1
102
RTVSPropertyOp25
 70
     1
102
RTVSPropertyOp26
 70
     1
102
RTVSPropertyOp27
 70
     1
102
RTVSPropertyOp28
 70
     1
102
RTVSPropertyOp29
 70
     1
102
RTVSPropertyOp30
 70
     1
102
RTVSPropertyOp31
 70
     1
102
RTVSPropertyOp32
 70
     1
  0
XRECORD
  5
19A
102
{ACAD_REACTORS
330
199
102
}
330
199
100
AcDbXrecord
280
     1
102
RTVSPropertyOp0
 70
     0
102
RTVSPropertyOp1
 70
     0
102
RTVSPropertyOp2
 70
     0
102
RTVSPropertyOp3
 70
     0
102
RTVSPropertyOp4
 70
     0
102
RTVSPropertyOp5
 70
     0
102
RTVSPropertyOp6
 70
     0
102
RTVSPropertyOp7
 70
     0
102
RTVSPropertyOp8
 70
     0
102
RTVSPropertyOp9
 70
     0
102
RTVSPropertyOp10
 70
     0
102
RTVSPropertyOp11
 70
     0
102
RTVSPropertyOp12
 70
     0
102
RTVSPropertyOp13
 70
     0
102
RTVSPropertyOp14
 70
     2
102
RTVSPropertyOp15
 70
     0
102
RTVSPropertyOp16
 70
     0
102
RTVSPropertyOp17
 70
     0
102
RTVSPropertyOp18
 70
     0
102
RTVSPropertyOp19
 70
     0
102
RTVSPropertyOp20
 70
     0
102
RTVSPropertyOp21
 70
     0
102
RTVSPropertyOp22
 70
     0
102
RTVSPropertyOp23
 70
     0
102
RTVSPropertyOp24
 70
     0
102
RTVSPropertyOp25
 70
     0
102
RTVSPropertyOp26
 70
     0
102
RTVSPropertyOp27
 70
     0
102
RTVSPropertyOp28
 70
     0
102
RTVSPropertyOp29
 70
     0
102
RTVSPropertyOp30
 70
     0
102
RTVSPropertyOp31
 70
     0
102
RTVSPropertyOp32
 70
     0
  0
XRECORD
  5
18A
102
{ACAD_REACTORS
330
189
102
}
330
189
100
AcDbXrecord
280
     1
102
RTVSPropertyOp0
 70
     1
102
RTVSPropertyOp1
 70
     1
102
RTVSPropertyOp2
 70
     1
102
RTVSPropertyOp3
 70
     1
102
RTVSPropertyOp4
 70
     1
102
RTVSPropertyOp5
 70
     1
102
RTVSPropertyOp6
 70
     1
102
RTVSPropertyOp7
 70
     1
102
RTVSPropertyOp8
 70
     1
102
RTVSPropertyOp9
 70
     1
102
RTVSPropertyOp10
 70
     1
102
RTVSPropertyOp11
 70
     1
102
RTVSPropertyOp12
 70
     1
102
RTVSPropertyOp13
 70
     1
102
RTVSPropertyOp14
 70
     1
102
RTVSPropertyOp15
 70
     1
102
RTVSPropertyOp16
 70
     1
102
RTVSPropertyOp17
 70
     1
102
RTVSPropertyOp18
 70
     1
102
RTVSPropertyOp19
 70
     1
102
RTVSPropertyOp20
 70
     1
102
RTVSPropertyOp21
 70
     1
102
RTVSPropertyOp22
 70
     1
102
RTVSPropertyOp23
 70
     1
102
RTVSPropertyOp24
 70
     1
102
RTVSPropertyOp25
 70
     1
102
RTVSPropertyOp26
 70
     1
102
RTVSPropertyOp27
 70
     1
102
RTVSPropertyOp28
 70
     1
102
RTVSPropertyOp29
 70
     1
102
RTVSPropertyOp30
 70
     1
102
RTVSPropertyOp31
 70
     1
102
RTVSPropertyOp32
 70
     1
  0
XRECORD
  5
19C
102
{ACAD_REACTORS
330
19B
102
}
330
19B
100
AcDbXrecord
280
     1
102
RTVSPropertyOp0
 70
     0
102
RTVSPropertyOp1
 70
     0
102
RTVSPropertyOp2
 70
     0
102
RTVSPropertyOp3
 70
     0
102
RTVSPropertyOp4
 70
     0
102
RTVSPropertyOp5
 70
     0
102
RTVSPropertyOp6
 70
     0
102
RTVSPropertyOp7
 70
     0
102
RTVSPropertyOp8
 70
     0
102
RTVSPropertyOp9
 70
     0
102
RTVSPropertyOp10
 70
     0
102
RTVSPropertyOp11
 70
     0
102
RTVSPropertyOp12
 70
     0
102
RTVSPropertyOp13
 70
     0
102
RTVSPropertyOp14
 70
     2
102
RTVSPropertyOp15
 70
     0
102
RTVSPropertyOp16
 70
     0
102
RTVSPropertyOp17
 70
     0
102
RTVSPropertyOp18
 70
     0
102
RTVSPropertyOp19
 70
     0
102
RTVSPropertyOp20
 70
     0
102
RTVSPropertyOp21
 70
     0
102
RTVSPropertyOp22
 70
     0
102
RTVSPropertyOp23
 70
     0
102
RTVSPropertyOp24
 70
     0
102
RTVSPropertyOp25
 70
     0
102
RTVSPropertyOp26
 70
     0
102
RTVSPropertyOp27
 70
     0
102
RTVSPropertyOp28
 70
     0
102
RTVSPropertyOp29
 70
     0
102
RTVSPropertyOp30
 70
     0
102
RTVSPropertyOp31
 70
     0
102
RTVSPropertyOp32
 70
     0
  0
XRECORD
  5
172
102
{ACAD_REACTORS
330
171
102
}
330
171
100
AcDbXrecord
280
     1
102
RTVSPropertyOp0
 70
     1
102
RTVSPropertyOp1
 70
     1
102
RTVSPropertyOp2
 70
     1
102
RTVSPropertyOp3
 70
     1
102
RTVSPropertyOp4
 70
     1
102
RTVSPropertyOp5
 70
     1
102
RTVSPropertyOp6
 70
     1
102
RTVSPropertyOp7
 70
     1
102
RTVSPropertyOp8
 70
     1
102
RTVSPropertyOp9
 70
     1
102
RTVSPropertyOp10
 70
     1
102
RTVSPropertyOp11
 70
     1
102
RTVSPropertyOp12
 70
     1
102
RTVSPropertyOp13
 70
     1
102
RTVSPropertyOp14
 70
     1
102
RTVSPropertyOp15
 70
     1
102
RTVSPropertyOp16
 70
     1
102
RTVSPropertyOp17
 70
     1
102
RTVSPropertyOp18
 70
     1
102
RTVSPropertyOp19
 70
     1
102
RTVSPropertyOp20
 70
     1
102
RTVSPropertyOp21
 70
     1
102
RTVSPropertyOp22
 70
     1
102
RTVSPropertyOp23
 70
     1
102
RTVSPropertyOp24
 70
     1
102
RTVSPropertyOp25
 70
     1
102
RTVSPropertyOp26
 70
     1
102
RTVSPropertyOp27
 70
     1
102
RTVSPropertyOp28
 70
     1
102
RTVSPropertyOp29
 70
     1
102
RTVSPropertyOp30
 70
     1
102
RTVSPropertyOp31
 70
     1
102
RTVSPropertyOp32
 70
     1
  0
XRECORD
  5
198
102
{ACAD_REACTORS
330
197
102
}
330
197
100
AcDbXrecord
280
     1
102
RTVSPropertyOp0
 70
     1
102
RTVSPropertyOp1
 70
     1
102
RTVSPropertyOp2
 70
     1
102
RTVSPropertyOp3
 70
     1
102
RTVSPropertyOp4
 70
     1
102
RTVSPropertyOp5
 70
     1
102
RTVSPropertyOp6
 70
     1
102
RTVSPropertyOp7
 70
     1
102
RTVSPropertyOp8
 70
     1
102
RTVSPropertyOp9
 70
     1
102
RTVSPropertyOp10
 70
     1
102
RTVSPropertyOp11
 70
     1
102
RTVSPropertyOp12
 70
     1
102
RTVSPropertyOp13
 70
     1
102
RTVSPropertyOp14
 70
     1
102
RTVSPropertyOp15
 70
     1
102
RTVSPropertyOp16
 70
     1
102
RTVSPropertyOp17
 70
     1
102
RTVSPropertyOp18
 70
     1
102
RTVSPropertyOp19
 70
     1
102
RTVSPropertyOp20
 70
     1
102
RTVSPropertyOp21
 70
     1
102
RTVSPropertyOp22
 70
     1
102
RTVSPropertyOp23
 70
     1
102
RTVSPropertyOp24
 70
     1
102
RTVSPropertyOp25
 70
     1
102
RTVSPropertyOp26
 70
     1
102
RTVSPropertyOp27
 70
     1
102
RTVSPropertyOp28
 70
     1
102
RTVSPropertyOp29
 70
     1
102
RTVSPropertyOp30
 70
     1
102
RTVSPropertyOp31
 70
     1
102
RTVSPropertyOp32
 70
     1
  0
XRECORD
  5
196
102
{ACAD_REACTORS
330
195
102
}
330
195
100
AcDbXrecord
280
     1
102
RTVSPropertyOp0
 70
     1
102
RTVSPropertyOp1
 70
     1
102
RTVSPropertyOp2
 70
     1
102
RTVSPropertyOp3
 70
     1
102
RTVSPropertyOp4
 70
     1
102
RTVSPropertyOp5
 70
     1
102
RTVSPropertyOp6
 70
     1
102
RTVSPropertyOp7
 70
     1
102
RTVSPropertyOp8
 70
     1
102
RTVSPropertyOp9
 70
     1
102
RTVSPropertyOp10
 70
     1
102
RTVSPropertyOp11
 70
     1
102
RTVSPropertyOp12
 70
     1
102
RTVSPropertyOp13
 70
     1
102
RTVSPropertyOp14
 70
     1
102
RTVSPropertyOp15
 70
     1
102
RTVSPropertyOp16
 70
     1
102
RTVSPropertyOp17
 70
     1
102
RTVSPropertyOp18
 70
     1
102
RTVSPropertyOp19
 70
     1
102
RTVSPropertyOp20
 70
     1
102
RTVSPropertyOp21
 70
     1
102
RTVSPropertyOp22
 70
     1
102
RTVSPropertyOp23
 70
     1
102
RTVSPropertyOp24
 70
     1
102
RTVSPropertyOp25
 70
     1
102
RTVSPropertyOp26
 70
     1
102
RTVSPropertyOp27
 70
     1
102
RTVSPropertyOp28
 70
     1
102
RTVSPropertyOp29
 70
     1
102
RTVSPropertyOp30
 70
     1
102
RTVSPropertyOp31
 70
     1
102
RTVSPropertyOp32
 70
     1
  0
XRECORD
  5
190
102
{ACAD_REACTORS
330
18F
102
}
330
18F
100
AcDbXrecord
280
     1
102
RTVSPropertyOp0
 70
     1
102
RTVSPropertyOp1
 70
     1
102
RTVSPropertyOp2
 70
     1
102
RTVSPropertyOp3
 70
     1
102
RTVSPropertyOp4
 70
     1
102
RTVSPropertyOp5
 70
     1
102
RTVSPropertyOp6
 70
     1
102
RTVSPropertyOp7
 70
     1
102
RTVSPropertyOp8
 70
     1
102
RTVSPropertyOp9
 70
     1
102
RTVSPropertyOp10
 70
     1
102
RTVSPropertyOp11
 70
     1
102
RTVSPropertyOp12
 70
     1
102
RTVSPropertyOp13
 70
     1
102
RTVSPropertyOp14
 70
     1
102
RTVSPropertyOp15
 70
     1
102
RTVSPropertyOp16
 70
     1
102
RTVSPropertyOp17
 70
     1
102
RTVSPropertyOp18
 70
     1
102
RTVSPropertyOp19
 70
     1
102
RTVSPropertyOp20
 70
     1
102
RTVSPropertyOp21
 70
     1
102
RTVSPropertyOp22
 70
     1
102
RTVSPropertyOp23
 70
     1
102
RTVSPropertyOp24
 70
     1
102
RTVSPropertyOp25
 70
     1
102
RTVSPropertyOp26
 70
     1
102
RTVSPropertyOp27
 70
     1
102
RTVSPropertyOp28
 70
     1
102
RTVSPropertyOp29
 70
     1
102
RTVSPropertyOp30
 70
     1
102
RTVSPropertyOp31
 70
     1
102
RTVSPropertyOp32
 70
     1
  0
XRECORD
  5
192
102
{ACAD_REACTORS
330
191
102
}
330
191
100
AcDbXrecord
280
     1
102
RTVSPropertyOp0
 70
     1
102
RTVSPropertyOp1
 70
     1
102
RTVSPropertyOp2
 70
     1
102
RTVSPropertyOp3
 70
     1
102
RTVSPropertyOp4
 70
     1
102
RTVSPropertyOp5
 70
     1
102
RTVSPropertyOp6
 70
     1
102
RTVSPropertyOp7
 70
     1
102
RTVSPropertyOp8
 70
     1
102
RTVSPropertyOp9
 70
     1
102
RTVSPropertyOp10
 70
     1
102
RTVSPropertyOp11
 70
     1
102
RTVSPropertyOp12
 70
     1
102
RTVSPropertyOp13
 70
     1
102
RTVSPropertyOp14
 70
     1
102
RTVSPropertyOp15
 70
     1
102
RTVSPropertyOp16
 70
     1
102
RTVSPropertyOp17
 70
     1
102
RTVSPropertyOp18
 70
     1
102
RTVSPropertyOp19
 70
     1
102
RTVSPropertyOp20
 70
     1
102
RTVSPropertyOp21
 70
     1
102
RTVSPropertyOp22
 70
     1
102
RTVSPropertyOp23
 70
     1
102
RTVSPropertyOp24
 70
     1
102
RTVSPropertyOp25
 70
     1
102
RTVSPropertyOp26
 70
     1
102
RTVSPropertyOp27
 70
     1
102
RTVSPropertyOp28
 70
     1
102
RTVSPropertyOp29
 70
     1
102
RTVSPropertyOp30
 70
     1
102
RTVSPropertyOp31
 70
     1
102
RTVSPropertyOp32
 70
     1
  0
XRECORD
  5
188
102
{ACAD_REACTORS
330
187
102
}
330
187
100
AcDbXrecord
280
     1
102
RTVSPropertyOp0
 70
     1
102
RTVSPropertyOp1
 70
     1
102
RTVSPropertyOp2
 70
     1
102
RTVSPropertyOp3
 70
     1
102
RTVSPropertyOp4
 70
     1
102
RTVSPropertyOp5
 70
     1
102
RTVSPropertyOp6
 70
     1
102
RTVSPropertyOp7
 70
     1
102
RTVSPropertyOp8
 70
     1
102
RTVSPropertyOp9
 70
     1
102
RTVSPropertyOp10
 70
     1
102
RTVSPropertyOp11
 70
     1
102
RTVSPropertyOp12
 70
     1
102
RTVSPropertyOp13
 70
     1
102
RTVSPropertyOp14
 70
     1
102
RTVSPropertyOp15
 70
     1
102
RTVSPropertyOp16
 70
     1
102
RTVSPropertyOp17
 70
     1
102
RTVSPropertyOp18
 70
     1
102
RTVSPropertyOp19
 70
     1
102
RTVSPropertyOp20
 70
     1
102
RTVSPropertyOp21
 70
     1
102
RTVSPropertyOp22
 70
     1
102
RTVSPropertyOp23
 70
     1
102
RTVSPropertyOp24
 70
     1
102
RTVSPropertyOp25
 70
     1
102
RTVSPropertyOp26
 70
     1
102
RTVSPropertyOp27
 70
     1
102
RTVSPropertyOp28
 70
     1
102
RTVSPropertyOp29
 70
     1
102
RTVSPropertyOp30
 70
     1
102
RTVSPropertyOp31
 70
     1
102
RTVSPropertyOp32
 70
     1
  0
XRECORD
  5
174
102
{ACAD_REACTORS
330
173
102
}
330
173
100
AcDbXrecord
280
     1
102
RTVSPropertyOp0
 70
     1
102
RTVSPropertyOp1
 70
     1
102
RTVSPropertyOp2
 70
     1
102
RTVSPropertyOp3
 70
     1
102
RTVSPropertyOp4
 70
     1
102
RTVSPropertyOp5
 70
     1
102
RTVSPropertyOp6
 70
     1
102
RTVSPropertyOp7
 70
     1
102
RTVSPropertyOp8
 70
     1
102
RTVSPropertyOp9
 70
     1
102
RTVSPropertyOp10
 70
     1
102
RTVSPropertyOp11
 70
     1
102
RTVSPropertyOp12
 70
     1
102
RTVSPropertyOp13
 70
     1
102
RTVSPropertyOp14
 70
     1
102
RTVSPropertyOp15
 70
     1
102
RTVSPropertyOp16
 70
     1
102
RTVSPropertyOp17
 70
     1
102
RTVSPropertyOp18
 70
     1
102
RTVSPropertyOp19
 70
     1
102
RTVSPropertyOp20
 70
     1
102
RTVSPropertyOp21
 70
     1
102
RTVSPropertyOp22
 70
     1
102
RTVSPropertyOp23
 70
     1
102
RTVSPropertyOp24
 70
     1
102
RTVSPropertyOp25
 70
     1
102
RTVSPropertyOp26
 70
     1
102
RTVSPropertyOp27
 70
     1
102
RTVSPropertyOp28
 70
     1
102
RTVSPropertyOp29
 70
     1
102
RTVSPropertyOp30
 70
     1
102
RTVSPropertyOp31
 70
     1
102
RTVSPropertyOp32
 70
     1
  0
XRECORD
  5
194
102
{ACAD_REACTORS
330
193
102
}
330
193
100
AcDbXrecord
280
     1
102
RTVSPropertyOp0
 70
     1
102
RTVSPropertyOp1
 70
     1
102
RTVSPropertyOp2
 70
     1
102
RTVSPropertyOp3
 70
     1
102
RTVSPropertyOp4
 70
     1
102
RTVSPropertyOp5
 70
     1
102
RTVSPropertyOp6
 70
     1
102
RTVSPropertyOp7
 70
     1
102
RTVSPropertyOp8
 70
     1
102
RTVSPropertyOp9
 70
     1
102
RTVSPropertyOp10
 70
     1
102
RTVSPropertyOp11
 70
     1
102
RTVSPropertyOp12
 70
     1
102
RTVSPropertyOp13
 70
     1
102
RTVSPropertyOp14
 70
     1
102
RTVSPropertyOp15
 70
     1
102
RTVSPropertyOp16
 70
     1
102
RTVSPropertyOp17
 70
     1
102
RTVSPropertyOp18
 70
     1
102
RTVSPropertyOp19
 70
     1
102
RTVSPropertyOp20
 70
     1
102
RTVSPropertyOp21
 70
     1
102
RTVSPropertyOp22
 70
     1
102
RTVSPropertyOp23
 70
     1
102
RTVSPropertyOp24
 70
     1
102
RTVSPropertyOp25
 70
     1
102
RTVSPropertyOp26
 70
     1
102
RTVSPropertyOp27
 70
     1
102
RTVSPropertyOp28
 70
     1
102
RTVSPropertyOp29
 70
     1
102
RTVSPropertyOp30
 70
     1
102
RTVSPropertyOp31
 70
     1
102
RTVSPropertyOp32
 70
     1
  0
ENDSEC
  0
EOF
