  0
SECTION
  2
HEADER
  9
$ACADVER
  1
AC1015
  9
$ACADMAINTVER
 70
    20
  9
$DWGCODEPAGE
  3
ANSI_1252
  9
$INSBASE
 10
3.30262160084753
 20
1.467661477362408
 30
0.0
  9
$EXTMIN
 10
3.309629319544104
 20
1.446044335444349
 30
0.0
  9
$EXTMAX
 10
13.26811268582884
 20
9.722445501709103
 30
0.0
  9
$LIMMIN
 10
0.0
 20
0.0
  9
$LIMMAX
 10
17.0
 20
11.0
  9
$ORTHOMODE
 70
     0
  9
$REGENMODE
 70
     1
  9
$FILLMODE
 70
     1
  9
$QTEXTMODE
 70
     0
  9
$MIRRTEXT
 70
     0
  9
$LTSCALE
 40
1.0
  9
$ATTMODE
 70
     1
  9
$TEXTSIZE
 40
0.2
  9
$TRACEWID
 40
0.05
  9
$TEXTSTYLE
  7
Standard
  9
$CLAYER
  8
0
  9
$CELTYPE
  6
ByLayer
  9
$CECOLOR
 62
   256
  9
$CELTSCALE
 40
1.0
  9
$DISPSILH
 70
     0
  9
$DIMSCALE
 40
1.0
  9
$DIMASZ
 40
0.0708661417322835
  9
$DIMEXO
 40
0.0625
  9
$DIMDLI
 40
0.38
  9
$DIMRND
 40
0.0
  9
$DIMDLE
 40
0.0
  9
$DIMEXE
 40
0.18
  9
$DIMTP
 40
0.0
  9
$DIMTM
 40
0.0
  9
$DIMTXT
 40
0.0708661417322835
  9
$DIMCEN
 40
0.09
  9
$DIMTSZ
 40
0.0
  9
$DIMTOL
 70
     0
  9
$DIMLIM
 70
     0
  9
$DIMTIH
 70
     1
  9
$DIMTOH
 70
     1
  9
$DIMSE1
 70
     0
  9
$DIMSE2
 70
     0
  9
$DIMTAD
 70
     0
  9
$DIMZIN
 70
     0
  9
$DIMBLK
  1

  9
$DIMASO
 70
     1
  9
$DIMSHO
 70
     1
  9
$DIMPOST
  1

  9
$DIMAPOST
  1

  9
$DIMALT
 70
     0
  9
$DIMALTD
 70
     2
  9
$DIMALTF
 40
25.4
  9
$DIMLFAC
 40
1.0
  9
$DIMTOFL
 70
     0
  9
$DIMTVP
 40
0.0
  9
$DIMTIX
 70
     0
  9
$DIMSOXD
 70
     0
  9
$DIMSAH
 70
     0
  9
$DIMBLK1
  1

  9
$DIMBLK2
  1

  9
$DIMSTYLE
  2
Standard
  9
$DIMCLRD
 70
     0
  9
$DIMCLRE
 70
     0
  9
$DIMCLRT
 70
     0
  9
$DIMTFAC
 40
1.0
  9
$DIMGAP
 40
0.09
  9
$DIMJUST
 70
     0
  9
$DIMSD1
 70
     0
  9
$DIMSD2
 70
     0
  9
$DIMTOLJ
 70
     1
  9
$DIMTZIN
 70
     0
  9
$DIMALTZ
 70
     0
  9
$DIMALTTZ
 70
     0
  9
$DIMUPT
 70
     0
  9
$DIMDEC
 70
     4
  9
$DIMTDEC
 70
     4
  9
$DIMALTU
 70
     2
  9
$DIMALTTD
 70
     2
  9
$DIMTXSTY
  7
Standard
  9
$DIMAUNIT
 70
     0
  9
$DIMADEC
 70
     0
  9
$DIMALTRND
 40
0.0
  9
$DIMAZIN
 70
     0
  9
$DIMDSEP
 70
    46
  9
$DIMATFIT
 70
     3
  9
$DIMFRAC
 70
     0
  9
$DIMLDRBLK
  1

  9
$DIMLUNIT
 70
     2
  9
$DIMLWD
 70
    -2
  9
$DIMLWE
 70
    -2
  9
$DIMTMOVE
 70
     0
  9
$LUNITS
 70
     2
  9
$LUPREC
 70
     4
  9
$SKETCHINC
 40
0.1
  9
$FILLETRAD
 40
0.0
  9
$AUNITS
 70
     0
  9
$AUPREC
 70
     0
  9
$MENU
  1
.
  9
$ELEVATION
 40
0.0
  9
$PELEVATION
 40
0.0
  9
$THICKNESS
 40
0.0
  9
$LIMCHECK
 70
     0
  9
$CHAMFERA
 40
0.0
  9
$CHAMFERB
 40
0.0
  9
$CHAMFERC
 40
0.0
  9
$CHAMFERD
 40
0.0
  9
$SKPOLY
 70
     0
  9
$TDCREATE
 40
2456514.569027604
  9
$TDUCREATE
 40
2456514.860694271
  9
$TDUPDATE
 40
2456514.574206678
  9
$TDUUPDATE
 40
2456514.865873345
  9
$TDINDWG
 40
0.0013399884
  9
$TDUSRTIMER
 40
0.0013399884
  9
$USRTIMER
 70
     1
  9
$ANGBASE
 50
0.0
  9
$ANGDIR
 70
     0
  9
$PDMODE
 70
     0
  9
$PDSIZE
 40
0.0
  9
$PLINEWID
 40
0.0
  9
$SPLFRAME
 70
     0
  9
$SPLINETYPE
 70
     6
  9
$SPLINESEGS
 70
     8
  9
$HANDSEED
  5
192
  9
$SURFTAB1
 70
     6
  9
$SURFTAB2
 70
     6
  9
$SURFTYPE
 70
     6
  9
$SURFU
 70
     6
  9
$SURFV
 70
     6
  9
$UCSBASE
  2

  9
$UCSNAME
  2

  9
$UCSORG
 10
0.0
 20
0.0
 30
0.0
  9
$UCSXDIR
 10
1.0
 20
0.0
 30
0.0
  9
$UCSYDIR
 10
0.0
 20
1.0
 30
0.0
  9
$UCSORTHOREF
  2

  9
$UCSORTHOVIEW
 70
     0
  9
$UCSORGTOP
 10
0.0
 20
0.0
 30
0.0
  9
$UCSORGBOTTOM
 10
0.0
 20
0.0
 30
0.0
  9
$UCSORGLEFT
 10
0.0
 20
0.0
 30
0.0
  9
$UCSORGRIGHT
 10
0.0
 20
0.0
 30
0.0
  9
$UCSORGFRONT
 10
0.0
 20
0.0
 30
0.0
  9
$UCSORGBACK
 10
0.0
 20
0.0
 30
0.0
  9
$PUCSBASE
  2

  9
$PUCSNAME
  2

  9
$PUCSORG
 10
0.0
 20
0.0
 30
0.0
  9
$PUCSXDIR
 10
1.0
 20
0.0
 30
0.0
  9
$PUCSYDIR
 10
0.0
 20
1.0
 30
0.0
  9
$PUCSORTHOREF
  2

  9
$PUCSORTHOVIEW
 70
     0
  9
$PUCSORGTOP
 10
0.0
 20
0.0
 30
0.0
  9
$PUCSORGBOTTOM
 10
0.0
 20
0.0
 30
0.0
  9
$PUCSORGLEFT
 10
0.0
 20
0.0
 30
0.0
  9
$PUCSORGRIGHT
 10
0.0
 20
0.0
 30
0.0
  9
$PUCSORGFRONT
 10
0.0
 20
0.0
 30
0.0
  9
$PUCSORGBACK
 10
0.0
 20
0.0
 30
0.0
  9
$USERI1
 70
     0
  9
$USERI2
 70
     0
  9
$USERI3
 70
     0
  9
$USERI4
 70
     0
  9
$USERI5
 70
     0
  9
$USERR1
 40
0.0
  9
$USERR2
 40
0.0
  9
$USERR3
 40
0.0
  9
$USERR4
 40
0.0
  9
$USERR5
 40
0.0
  9
$WORLDVIEW
 70
     1
  9
$SHADEDGE
 70
     3
  9
$SHADEDIF
 70
    70
  9
$TILEMODE
 70
     1
  9
$MAXACTVP
 70
    64
  9
$PINSBASE
 10
0.0
 20
0.0
 30
0.0
  9
$PLIMCHECK
 70
     0
  9
$PEXTMIN
 10
0.0
 20
0.0
 30
0.0
  9
$PEXTMAX
 10
17.0
 20
11.0
 30
0.0
  9
$PLIMMIN
 10
0.0
 20
0.0
  9
$PLIMMAX
 10
17.0
 20
11.0
  9
$UNITMODE
 70
     0
  9
$VISRETAIN
 70
     1
  9
$PLINEGEN
 70
     0
  9
$PSLTSCALE
 70
     1
  9
$TREEDEPTH
 70
  3020
  9
$CMLSTYLE
  2
Standard
  9
$CMLJUST
 70
     0
  9
$CMLSCALE
 40
1.0
  9
$PROXYGRAPHICS
 70
     1
  9
$MEASUREMENT
 70
     0
  9
$CELWEIGHT
370
    -1
  9
$ENDCAPS
280
     0
  9
$JOINSTYLE
280
     0
  9
$LWDISPLAY
290
     0
  9
$INSUNITS
 70
     1
  9
$HYPERLINKBASE
  1

  9
$STYLESHEET
  1

  9
$XEDIT
290
     1
  9
$CEPSNTYPE
380
     0
  9
$PSTYLEMODE
290
     1
  9
$FINGERPRINTGUID
  2
{E41305F6-9C39-4619-B4FE-D42EBD033DF9}
  9
$VERSIONGUID
  2
{A6A50132-C4EB-4E50-AB89-D10F16FE6A28}
  9
$EXTNAMES
290
     1
  9
$PSVPSCALE
 40
0.0
  9
$OLESTARTUP
290
     0
  0
ENDSEC
  0
SECTION
  2
CLASSES
  0
CLASS
  1
ACDBDICTIONARYWDFLT
  2
AcDbDictionaryWithDefault
  3
ObjectDBX Classes
 90
        0
280
     0
281
     0
  0
CLASS
  1
MATERIAL
  2
AcDbMaterial
  3
ObjectDBX Classes
 90
     1153
280
     0
281
     0
  0
CLASS
  1
VISUALSTYLE
  2
AcDbVisualStyle
  3
ObjectDBX Classes
 90
     4095
280
     0
281
     0
  0
CLASS
  1
SCALE
  2
AcDbScale
  3
ObjectDBX Classes
 90
     1153
280
     0
281
     0
  0
CLASS
  1
TABLESTYLE
  2
AcDbTableStyle
  3
ObjectDBX Classes
 90
     4095
280
     0
281
     0
  0
CLASS
  1
MLEADERSTYLE
  2
AcDbMLeaderStyle
  3
ACDB_MLEADERSTYLE_CLASS
 90
     4095
280
     0
281
     0
  0
CLASS
  1
DICTIONARYVAR
  2
AcDbDictionaryVar
  3
ObjectDBX Classes
 90
        0
280
     0
281
     0
  0
CLASS
  1
CELLSTYLEMAP
  2
AcDbCellStyleMap
  3
ObjectDBX Classes
 90
     1152
280
     0
281
     0
  0
CLASS
  1
ACDBPLACEHOLDER
  2
AcDbPlaceHolder
  3
ObjectDBX Classes
 90
        0
280
     0
281
     0
  0
CLASS
  1
LAYOUT
  2
AcDbLayout
  3
ObjectDBX Classes
 90
        0
280
     0
281
     0
  0
ENDSEC
  0
SECTION
  2
TABLES
  0
TABLE
  2
VPORT
  5
23
330
0
100
AcDbSymbolTable
 70
     1
  0
VPORT
  5
24
330
23
100
AcDbSymbolTableRecord
100
AcDbViewportTableRecord
  2
*Active
 70
     0
 10
0.0
 20
0.0
 11
1.0
 21
1.0
 12
11.11395856052344
 22
5.5
 13
0.0
 23
0.0
 14
1.0
 24
1.0
 15
0.0
 25
0.0
 16
0.0
 26
0.0
 36
1.0
 17
0.0
 27
0.0
 37
0.0
 40
11.00236903489836
 41
2.02071973827699
 42
50.0
 43
0.0
 44
0.0
 50
0.0
 51
0.0
 71
     0
 72
   100
 73
     1
 74
     1
 75
     0
 76
     0
 77
     0
 78
     0
281
     0
 65
     1
110
0.0
120
0.0
130
0.0
111
1.0
121
0.0
131
0.0
112
0.0
122
1.0
132
0.0
 79
     0
146
0.0
1001
ACAD_NAV_VCDISPLAY
1070
     3
  0
ENDTAB
  0
TABLE
  2
LTYPE
  5
1E
330
0
100
AcDbSymbolTable
 70
     3
  0
LTYPE
  5
1F
330
1E
100
AcDbSymbolTableRecord
100
AcDbLinetypeTableRecord
  2
ByBlock
 70
     0
  3

 72
    65
 73
     0
 40
0.0
  0
LTYPE
  5
20
330
1E
100
AcDbSymbolTableRecord
100
AcDbLinetypeTableRecord
  2
ByLayer
 70
     0
  3

 72
    65
 73
     0
 40
0.0
  0
LTYPE
  5
12
330
1E
100
AcDbSymbolTableRecord
100
AcDbLinetypeTableRecord
  2
Continuous
 70
     0
  3
Solid line
 72
    65
 73
     0
 40
0.0
  0
LTYPE
  5
151
330
1E
100
AcDbSymbolTableRecord
100
AcDbLinetypeTableRecord
  2
DASHED
 70
     0
  3
Dashed __ __ __ __ __ __ __ __ __ __ __ __ __ _
 72
    65
 73
     2
 40
0.75
 49
0.5
 74
     0
 49
-0.25
 74
     0
  0
LTYPE
  5
152
330
1E
100
AcDbSymbolTableRecord
100
AcDbLinetypeTableRecord
  2
DOT
 70
     0
  3
Dot . . . . . . . . . . . . . . . . . . . . . .
 72
    65
 73
     2
 40
0.25
 49
0.0
 74
     0
 49
-0.25
 74
     0
  0
ENDTAB
  0
TABLE
  2
LAYER
  5
1A
330
0
100
AcDbSymbolTable
 70
     3
  0
LAYER
  5
4
330
1A
100
AcDbSymbolTableRecord
100
AcDbLayerTableRecord
  2
0
 70
     0
 62
     7
  6
Continuous
370
    -3
390
5
  0
LAYER
  5
5B
330
1A
100
AcDbSymbolTableRecord
100
AcDbLayerTableRecord
  2
Visible (ANSI)
 70
     0
 62
     7
  6
Continuous
370
    18
390
5
  0
LAYER
  5
5D
330
1A
100
AcDbSymbolTableRecord
100
AcDbLayerTableRecord
  2
Visible Narrow (ANSI)
 70
     0
 62
     7
  6
Continuous
370
     9
390
5
  0
ENDTAB
  0
TABLE
  2
STYLE
  5
1B
330
0
100
AcDbSymbolTable
 70
     1
  0
STYLE
  5
1C
330
1B
100
AcDbSymbolTableRecord
100
AcDbTextStyleTableRecord
  2
Standard
 70
     0
 40
0.0
 41
0.8000000119209289
 50
0.0
 71
     0
 42
0.2
  3
txt
  4

  0
ENDTAB
  0
TABLE
  2
VIEW
  5
21
330
0
100
AcDbSymbolTable
 70
     0
  0
ENDTAB
  0
TABLE
  2
UCS
  5
22
330
0
100
AcDbSymbolTable
 70
     0
  0
ENDTAB
  0
TABLE
  2
APPID
  5
28
330
0
100
AcDbSymbolTable
 70
     3
  0
APPID
  5
29
330
28
100
AcDbSymbolTableRecord
100
AcDbRegAppTableRecord
  2
ACAD
 70
     0
  0
APPID
  5
27
330
28
100
AcDbSymbolTableRecord
100
AcDbRegAppTableRecord
  2
ACAD_NAV_VCDISPLAY
 70
     0
  0
APPID
  5
191
330
28
100
AcDbSymbolTableRecord
100
AcDbRegAppTableRecord
  2
ACAD_MLEADERVER
 70
     0
  0
ENDTAB
  0
TABLE
  2
DIMSTYLE
  5
2A
330
0
100
AcDbSymbolTable
 70
     1
100
AcDbDimStyleTable
 71
     0
  0
DIMSTYLE
105
48
330
2A
100
AcDbSymbolTableRecord
100
AcDbDimStyleTableRecord
  2
Standard
 70
     0
340
1C
  0
ENDTAB
  0
TABLE
  2
BLOCK_RECORD
  5
1
330
0
100
AcDbSymbolTable
 70
     0
  0
BLOCK_RECORD
  5
2
330
1
100
AcDbSymbolTableRecord
100
AcDbBlockTableRecord
  2
*Model_Space
340
14
  0
BLOCK_RECORD
  5
16
330
1
100
AcDbSymbolTableRecord
100
AcDbBlockTableRecord
  2
*Paper_Space
340
19
  0
ENDTAB
  0
ENDSEC
  0
SECTION
  2
BLOCKS
  0
BLOCK
  5
3
330
2
100
AcDbEntity
  8
0
100
AcDbBlockBegin
  2
*Model_Space
 70
     0
 10
0.0
 20
0.0
 30
0.0
  3
*Model_Space
  1

  0
ENDBLK
  5
13
330
2
100
AcDbEntity
  8
0
100
AcDbBlockEnd
  0
BLOCK
  5
17
330
16
100
AcDbEntity
 67
     1
  8
0
100
AcDbBlockBegin
  2
*Paper_Space
 70
     0
 10
0.0
 20
0.0
 30
0.0
  3
*Paper_Space
  1

  0
ENDBLK
  5
18
330
16
100
AcDbEntity
 67
     1
  8
0
100
AcDbBlockEnd
  0
ENDSEC
  0
SECTION
  2
ENTITIES
  0
ELLIPSE
  5
5A
330
2
100
AcDbEntity
  8
Visible (ANSI)
100
AcDbEllipse
 10
5.469799112595196
 20
5.016301613477192
 30
0.0
 11
-0.0750624999999901
 21
0.1300120637431436
 31
0.0
210
0.0
220
0.0
230
1.0
 40
0.5773502691896154
 41
0.7853981633976055
 42
1.986222575382351
  0
LINE
  5
5C
330
2
100
AcDbEntity
  8
Visible Narrow (ANSI)
100
AcDbLine
 10
5.469799112595196
 20
4.952512818092213
 30
0.0
 11
5.469799112595196
 21
4.94634126202775
 31
0.0
  0
ELLIPSE
  5
5E
330
2
100
AcDbEntity
  8
Visible (ANSI)
100
AcDbEllipse
 10
5.469799112595196
 20
5.016301613477192
 30
0.0
 11
0.0390625000000029
 21
-0.0676582346706573
 31
0.0
210
0.0
220
0.0
230
1.0
 40
0.577350269189614
 41
3.926990816986991
 42
5.497787143781896
  0
LINE
  5
5F
330
2
100
AcDbEntity
  8
Visible Narrow (ANSI)
100
AcDbLine
 10
5.363644707069566
 20
5.077589888083078
 30
0.0
 11
5.414556395314997
 21
5.048196011169681
 31
0.0
  0
LINE
  5
60
330
2
100
AcDbEntity
  8
Visible Narrow (ANSI)
100
AcDbLine
 10
5.702282771601594
 20
5.086737321201746
 30
0.0
 11
5.469799112595196
 21
4.952512818092213
 31
0.0
  0
LINE
  5
61
330
2
100
AcDbEntity
  8
Visible Narrow (ANSI)
100
AcDbLine
 10
5.414556395314997
 20
5.048196011169681
 30
0.0
 11
5.702282771601594
 21
5.214314911971703
 31
0.0
  0
ELLIPSE
  5
62
330
2
100
AcDbEntity
  8
Visible (ANSI)
100
AcDbEllipse
 10
4.193512796027287
 20
3.444011468974494
 30
0.0
 11
-0.0779999999999998
 21
0.0000000000000047
 31
0.0
210
0.0
220
0.0
230
1.0
 40
0.5773502691896262
 41
0.0
 42
6.283185307179586
  0
ELLIPSE
  5
63
330
2
100
AcDbEntity
  8
Visible (ANSI)
100
AcDbEllipse
 10
5.430949663103739
 20
2.729576960662734
 30
0.0
 11
-0.0779999999999998
 21
0.0000000000000047
 31
0.0
210
0.0
220
0.0
230
1.0
 40
0.5773502691896262
 41
0.0
 42
6.283185307179586
  0
ELLIPSE
  5
64
330
2
100
AcDbEntity
  8
Visible (ANSI)
100
AcDbEllipse
 10
6.668386530180193
 20
2.015142452350976
 30
0.0
 11
-0.0779999999999998
 21
0.0000000000000047
 31
0.0
210
0.0
220
0.0
230
1.0
 40
0.5773502691896262
 41
0.0
 42
6.283185307179586
  0
LINE
  5
65
330
2
100
AcDbEntity
  8
Visible (ANSI)
100
AcDbLine
 10
8.922289395212303
 20
2.959216624048657
 30
0.0
 11
8.811803960651907
 21
2.895427828663677
 31
0.0
  0
LINE
  5
66
330
2
100
AcDbEntity
  8
Visible (ANSI)
100
AcDbLine
 10
8.811803960651907
 20
2.895427828663677
 30
0.0
 11
7.485978745927136
 21
3.660893373283419
 31
0.0
  0
LINE
  5
67
330
2
100
AcDbEntity
  8
Visible (ANSI)
100
AcDbLine
 10
7.485978745927136
 20
3.660893373283419
 30
0.0
 11
7.596464180487534
 21
3.724682168668397
 31
0.0
  0
LINE
  5
68
330
2
100
AcDbEntity
  8
Visible (ANSI)
100
AcDbLine
 10
7.596464180487534
 20
3.724682168668397
 30
0.0
 11
8.922289395212303
 21
2.959216624048658
 31
0.0
  0
LINE
  5
69
330
2
100
AcDbEntity
  8
Visible (ANSI)
100
AcDbLine
 10
5.71821179296077
 20
4.681514099443077
 30
0.0
 11
5.828697227521174
 21
4.745302894828052
 31
0.0
  0
LINE
  5
6A
330
2
100
AcDbEntity
  8
Visible (ANSI)
100
AcDbLine
 10
5.828697227521174
 20
4.745302894828052
 30
0.0
 11
7.154522442245939
 21
3.979837350208313
 31
0.0
  0
LINE
  5
6B
330
2
100
AcDbEntity
  8
Visible (ANSI)
100
AcDbLine
 10
7.154522442245939
 20
3.979837350208314
 30
0.0
 11
7.044037007685551
 21
3.916048554823329
 31
0.0
  0
LINE
  5
6C
330
2
100
AcDbEntity
  8
Visible (ANSI)
100
AcDbLine
 10
7.044037007685551
 20
3.916048554823329
 30
0.0
 11
5.71821179296077
 21
4.681514099443077
 31
0.0
  0
LINE
  5
6D
330
2
100
AcDbEntity
  8
Visible (ANSI)
100
AcDbLine
 10
5.828697227521174
 20
4.686515141001255
 30
0.0
 11
5.769123481206204
 21
4.652120222529678
 31
0.0
  0
LINE
  5
6E
330
2
100
AcDbEntity
  8
Visible (ANSI)
100
AcDbLine
 10
7.103610754000513
 20
3.950443473294913
 30
0.0
 11
5.828697227521174
 21
4.686515141001256
 31
0.0
  0
LINE
  5
6F
330
2
100
AcDbEntity
  8
Visible (ANSI)
100
AcDbLine
 10
8.871377706966873
 20
2.929822747135259
 30
0.0
 11
7.596464180487534
 21
3.665894414841601
 31
0.0
  0
LINE
  5
70
330
2
100
AcDbEntity
  8
Visible (ANSI)
100
AcDbLine
 10
7.596464180487534
 20
3.665894414841601
 30
0.0
 11
7.536890434172567
 21
3.631499496370021
 31
0.0
  0
ELLIPSE
  5
71
330
2
100
AcDbEntity
  8
Visible (ANSI)
100
AcDbEllipse
 10
6.668386530180193
 20
1.956354698524179
 30
0.0
 11
-0.0779999999999999
 21
-0.0000000000000046
 31
0.0
210
0.0
220
0.0
230
1.0
 40
0.5773502691896261
 41
3.852753867702418
 42
5.572024093066387
  0
ELLIPSE
  5
72
330
2
100
AcDbEntity
  8
Visible (ANSI)
100
AcDbEllipse
 10
5.430949663103739
 20
2.670789206835939
 30
0.0
 11
-0.0779999999999998
 21
-0.0000000000000046
 31
0.0
210
0.0
220
0.0
230
1.0
 40
0.5773502691896261
 41
3.852753867702425
 42
5.572024093066399
  0
ELLIPSE
  5
73
330
2
100
AcDbEntity
  8
Visible (ANSI)
100
AcDbEllipse
 10
4.193512796027287
 20
3.385223715147696
 30
0.0
 11
-0.0780000000000001
 21
-0.0000000000000046
 31
0.0
210
0.0
220
0.0
230
1.0
 40
0.5773502691896261
 41
3.85275386770243
 42
5.572024093066405
  0
LINE
  5
74
330
2
100
AcDbEntity
  8
Visible (ANSI)
100
AcDbLine
 10
5.828697227521174
 20
4.686515141001255
 30
0.0
 11
5.828697227521174
 21
4.745302894828052
 31
0.0
  0
LINE
  5
75
330
2
100
AcDbEntity
  8
Visible (ANSI)
100
AcDbLine
 10
7.596464180487534
 20
3.665894414841601
 30
0.0
 11
7.596464180487534
 21
3.724682168668397
 31
0.0
  0
ELLIPSE
  5
76
330
2
100
AcDbEntity
  8
Visible (ANSI)
100
AcDbEllipse
 10
12.29743987363714
 20
7.651024357949047
 30
0.0
 11
0.0389999999999998
 21
-0.0675499814951861
 31
0.0
210
0.0
220
0.0
230
1.0
 40
0.5773502691896254
 41
0.0
 42
6.283185307179586
  0
ELLIPSE
  5
77
330
2
100
AcDbEntity
  8
Visible (ANSI)
100
AcDbEllipse
 10
11.3693622233298
 20
8.186850239182867
 30
0.0
 11
0.0389999999999998
 21
-0.0675499814951861
 31
0.0
210
0.0
220
0.0
230
1.0
 40
0.5773502691896254
 41
0.0
 42
6.283185307179586
  0
ELLIPSE
  5
78
330
2
100
AcDbEntity
  8
Visible (ANSI)
100
AcDbEllipse
 10
11.42027391157523
 20
8.216244116096264
 30
0.0
 11
0.0390000000000041
 21
-0.0675499814951841
 31
0.0
210
0.0
220
0.0
230
0.9999999999999998
 40
0.5773502691896255
 41
3.852753867702427
 42
5.57202409306637
  0
ELLIPSE
  5
79
330
2
100
AcDbEntity
  8
Visible (ANSI)
100
AcDbEllipse
 10
12.34835156188257
 20
7.680418234862444
 30
0.0
 11
0.0390000000000037
 21
-0.0675499814951834
 31
0.0
210
0.0
220
0.0
230
1.0
 40
0.5773502691896254
 41
3.852753867702412
 42
5.572024093066422
  0
ELLIPSE
  5
7A
330
2
100
AcDbEntity
  8
Visible (ANSI)
100
AcDbEllipse
 10
11.28097387568148
 20
6.107008364902226
 30
0.0
 11
0.0389999999999961
 21
0.0675499814951888
 31
0.0
210
0.0
220
0.0
230
1.0
 40
0.577350269189626
 41
3.852753867702393
 42
5.572024093066367
  0
ELLIPSE
  5
7B
330
2
100
AcDbEntity
  8
Visible (ANSI)
100
AcDbEllipse
 10
11.33188556392692
 20
6.077614487988827
 30
0.0
 11
-0.039000000000004
 21
-0.0675499814951837
 31
0.0
210
0.0
220
0.0
230
1.0
 40
0.5773502691896255
 41
0.0
 42
6.283185307179586
  0
ELLIPSE
  5
7C
330
2
100
AcDbEntity
  8
Visible (ANSI)
100
AcDbEllipse
 10
10.04353700860503
 20
5.392573856590471
 30
0.0
 11
0.0389999999999961
 21
0.0675499814951888
 31
0.0
210
0.0
220
0.0
230
1.0
 40
0.577350269189626
 41
3.852753867702393
 42
5.572024093066367
  0
ELLIPSE
  5
7D
330
2
100
AcDbEntity
  8
Visible (ANSI)
100
AcDbEllipse
 10
10.09444869685046
 20
5.363179979677073
 30
0.0
 11
-0.039000000000004
 21
-0.0675499814951837
 31
0.0
210
0.0
220
0.0
230
1.0
 40
0.5773502691896255
 41
0.0
 42
6.283185307179586
  0
ELLIPSE
  5
7E
330
2
100
AcDbEntity
  8
Visible (ANSI)
100
AcDbEllipse
 10
12.51841074275793
 20
6.821442873213988
 30
0.0
 11
0.0389999999999962
 21
0.0675499814951889
 31
0.0
210
0.0
220
0.0
230
1.0
 40
0.5773502691896258
 41
3.852753867702446
 42
5.572024093066415
  0
ELLIPSE
  5
7F
330
2
100
AcDbEntity
  8
Visible (ANSI)
100
AcDbEllipse
 10
12.56932243100337
 20
6.79204899630059
 30
0.0
 11
-0.039000000000004
 21
-0.0675499814951837
 31
0.0
210
0.0
220
0.0
230
1.0
 40
0.5773502691896255
 41
0.0
 42
6.283185307179586
  0
ELLIPSE
  5
80
330
2
100
AcDbEntity
  8
Visible (ANSI)
100
AcDbEllipse
 10
10.16599671270647
 20
8.881613640674752
 30
0.0
 11
0.0389999999999998
 21
-0.0675499814951861
 31
0.0
210
0.0
220
0.0
230
0.9999999999999998
 40
0.5773502691896258
 41
0.0
 42
6.283185307179586
  0
ELLIPSE
  5
81
330
2
100
AcDbEntity
  8
Visible (ANSI)
100
AcDbEllipse
 10
10.2169084009519
 20
8.911007517588151
 30
0.0
 11
0.0390000000000039
 21
-0.0675499814951839
 31
0.0
210
0.0
220
0.0
230
1.0
 40
0.5773502691896254
 41
3.852753867702405
 42
5.572024093066371
  0
ELLIPSE
  5
82
330
2
100
AcDbEntity
  8
Visible (ANSI)
100
AcDbEllipse
 10
7.226517522105522
 20
8.294756723132955
 30
0.0
 11
-0.0390000000000039
 21
-0.0675499814951837
 31
0.0
210
0.0
220
0.0
230
0.9999999999999998
 40
0.5773502691896261
 41
0.0
 42
6.283185307179586
  0
ELLIPSE
  5
83
330
2
100
AcDbEntity
  8
Visible (ANSI)
100
AcDbEllipse
 10
7.17560583386009
 20
8.324150600046353
 30
0.0
 11
0.0389999999999961
 21
0.0675499814951888
 31
0.0
210
0.0
220
0.0
230
1.0
 40
0.577350269189626
 41
3.852753867702393
 42
5.572024093066378
  0
ELLIPSE
  5
84
330
2
100
AcDbEntity
  8
Visible (ANSI)
100
AcDbEllipse
 10
5.989080655029072
 20
7.580322214821201
 30
0.0
 11
-0.0390000000000039
 21
-0.0675499814951837
 31
0.0
210
0.0
220
0.0
230
0.9999999999999998
 40
0.5773502691896261
 41
0.0
 42
6.283185307179586
  0
ELLIPSE
  5
85
330
2
100
AcDbEntity
  8
Visible (ANSI)
100
AcDbEllipse
 10
5.93816896678364
 20
7.609716091734599
 30
0.0
 11
0.0389999999999956
 21
0.0675499814951879
 31
0.0
210
0.0
220
0.0
230
0.9999999999999998
 40
0.5773502691896259
 41
3.852753867702393
 42
5.572024093066393
  0
ELLIPSE
  5
86
330
2
100
AcDbEntity
  8
Visible (ANSI)
100
AcDbEllipse
 10
8.463954389181978
 20
9.00919123144471
 30
0.0
 11
-0.0390000000000039
 21
-0.0675499814951837
 31
0.0
210
0.0
220
0.0
230
0.9999999999999998
 40
0.5773502691896261
 41
0.0
 42
6.283185307179586
  0
ELLIPSE
  5
87
330
2
100
AcDbEntity
  8
Visible (ANSI)
100
AcDbEllipse
 10
8.413042700936545
 20
9.038585108358109
 30
0.0
 11
0.0389999999999962
 21
0.0675499814951888
 31
0.0
210
0.0
220
0.0
230
0.9999999999999998
 40
0.5773502691896258
 41
3.852753867702393
 42
5.572024093066379
  0
LINE
  5
88
330
2
100
AcDbEntity
  8
Visible (ANSI)
100
AcDbLine
 10
5.475143836927899
 20
4.949427040059982
 30
0.0
 11
5.469799112595196
 21
4.952512818092213
 31
0.0
  0
LINE
  5
89
330
2
100
AcDbEntity
  8
Visible (ANSI)
100
AcDbLine
 10
3.309629319544104
 20
3.699166650514407
 30
0.0
 11
5.475143836927899
 21
4.949427040059982
 31
0.0
  0
LINE
  5
8A
330
2
100
AcDbEntity
  8
Visible (ANSI)
100
AcDbLine
 10
7.110328268421784
 20
1.504832089271146
 30
0.0
 11
3.309629319544104
 21
3.699166650514407
 31
0.0
  0
LINE
  5
8B
330
2
100
AcDbEntity
  8
Visible (ANSI)
100
AcDbLine
 10
9.275842785805579
 20
2.755092478816721
 30
0.0
 11
7.110328268421784
 21
1.504832089271145
 31
0.0
  0
LINE
  5
8C
330
2
100
AcDbEntity
  8
Visible (ANSI)
100
AcDbLine
 10
9.281187510138282
 20
2.752006700784491
 30
0.0
 11
9.275842785805579
 21
2.755092478816721
 31
0.0
  0
LINE
  5
8D
330
2
100
AcDbEntity
  8
Visible (ANSI)
100
AcDbLine
 10
9.275842785805579
 20
2.696304724989925
 30
0.0
 11
9.281187510138282
 21
2.693218946957695
 31
0.0
  0
LINE
  5
8E
330
2
100
AcDbEntity
  8
Visible (ANSI)
100
AcDbLine
 10
7.110328268421784
 20
1.44604433544435
 30
0.0
 11
9.275842785805579
 21
2.696304724989926
 31
0.0
  0
LINE
  5
8F
330
2
100
AcDbEntity
  8
Visible (ANSI)
100
AcDbLine
 10
3.309629319544104
 20
3.640378896687611
 30
0.0
 11
7.110328268421784
 21
1.446044335444349
 31
0.0
  0
LINE
  5
90
330
2
100
AcDbEntity
  8
Visible (ANSI)
100
AcDbLine
 10
3.309629319544104
 20
3.699166650514407
 30
0.0
 11
3.309629319544104
 21
3.640378896687611
 31
0.0
  0
LINE
  5
91
330
2
100
AcDbEntity
  8
Visible (ANSI)
100
AcDbLine
 10
7.110328268421784
 20
1.504832089271146
 30
0.0
 11
7.110328268421784
 21
1.44604433544435
 31
0.0
  0
LINE
  5
92
330
2
100
AcDbEntity
  8
Visible (ANSI)
100
AcDbLine
 10
9.275842785805579
 20
2.755092478816721
 30
0.0
 11
9.275842785805579
 21
2.696304724989925
 31
0.0
  0
LINE
  5
93
330
2
100
AcDbEntity
  8
Visible (ANSI)
100
AcDbLine
 10
11.01580883273653
 20
8.697160602262691
 30
0.0
 11
13.18293249098223
 21
7.445971174807323
 31
0.0
  0
LINE
  5
94
330
2
100
AcDbEntity
  8
Visible (ANSI)
100
AcDbLine
 10
11.01580883273653
 20
6.875929922217831
 30
0.0
 11
11.01580883273653
 21
8.697160602262691
 31
0.0
  0
LINE
  5
95
330
2
100
AcDbEntity
  8
Visible (ANSI)
100
AcDbLine
 10
13.23384417922767
 20
7.475365051720721
 30
0.0
 11
11.06672052098196
 21
8.726554479176089
 31
0.0
  0
LINE
  5
96
330
2
100
AcDbEntity
  8
Visible (ANSI)
100
AcDbLine
 10
11.01580883273653
 20
8.697160602262691
 30
0.0
 11
11.06672052098196
 21
8.726554479176089
 31
0.0
  0
LINE
  5
97
330
2
100
AcDbEntity
  8
Visible (ANSI)
100
AcDbLine
 10
13.23223503836575
 20
5.082509279983165
 30
0.0
 11
13.23223503836575
 21
4.97435730096083
 31
0.0
  0
LINE
  5
98
330
2
100
AcDbEntity
  8
Visible (ANSI)
100
AcDbLine
 10
13.18293249098223
 20
7.409228828665577
 30
0.0
 11
9.336430227418482
 21
5.18844971135854
 31
0.0
  0
LINE
  5
99
330
2
100
AcDbEntity
  8
Visible (ANSI)
100
AcDbLine
 10
9.336430227418482
 20
5.18844971135854
 30
0.0
 11
9.387341915663913
 21
5.159055834445141
 31
0.0
  0
LINE
  5
9A
330
2
100
AcDbEntity
  8
Visible (ANSI)
100
AcDbLine
 10
9.387341915663913
 20
5.159055834445141
 30
0.0
 11
13.23384417922767
 21
7.379834951752179
 31
0.0
  0
LINE
  5
9B
330
2
100
AcDbEntity
  8
Visible (ANSI)
100
AcDbLine
 10
13.23384417922766
 20
5.083438317892954
 30
0.0
 11
13.23223503836575
 21
5.082509279983165
 31
0.0
  0
LINE
  5
9C
330
2
100
AcDbEntity
  8
Visible (ANSI)
100
AcDbLine
 10
9.387341915663911
 20
2.754507221563582
 30
0.0
 11
9.387341915663913
 21
5.159055834445141
 31
0.0
  0
LINE
  5
9D
330
2
100
AcDbEntity
  8
Visible (ANSI)
100
AcDbLine
 10
9.336430227418482
 20
5.18844971135854
 30
0.0
 11
9.33643022741848
 21
2.78390109847698
 31
0.0
  0
LINE
  5
9E
330
2
100
AcDbEntity
  8
Visible (ANSI)
100
AcDbLine
 10
10.96149184154133
 20
8.728520531750806
 30
0.0
 11
10.96149184154133
 21
6.90728985170595
 31
0.0
  0
LINE
  5
9F
330
2
100
AcDbEntity
  8
Visible (ANSI)
100
AcDbLine
 10
9.324698269185541
 20
9.673523741358277
 30
0.0
 11
10.96149184154133
 21
8.728520531750808
 31
0.0
  0
LINE
  5
A0
330
2
100
AcDbEntity
  8
Visible (ANSI)
100
AcDbLine
 10
11.01240352978676
 20
8.757914408664206
 30
0.0
 11
9.37560995743097
 21
9.702917618271673
 31
0.0
  0
LINE
  5
A1
330
2
100
AcDbEntity
  8
Visible (ANSI)
100
AcDbLine
 10
11.01240352978676
 20
6.877895974792552
 30
0.0
 11
11.01240352978677
 21
8.757914408664206
 31
0.0
  0
LINE
  5
A2
330
2
100
AcDbEntity
  8
Visible (ANSI)
100
AcDbLine
 10
10.96149184154133
 20
8.728520531750806
 30
0.0
 11
11.01240352978677
 21
8.757914408664206
 31
0.0
  0
LINE
  5
A3
330
2
100
AcDbEntity
  8
Visible (ANSI)
100
AcDbLine
 10
5.414556395314997
 20
5.048196011169681
 30
0.0
 11
5.414556395314998
 21
7.45274462405124
 31
0.0
  0
LINE
  5
A4
330
2
100
AcDbEntity
  8
Visible (ANSI)
100
AcDbLine
 10
5.414556395314998
 20
7.45274462405124
 30
0.0
 11
5.363644707069567
 21
7.482138500964638
 31
0.0
  0
LINE
  5
A5
330
2
100
AcDbEntity
  8
Visible (ANSI)
100
AcDbLine
 10
5.363644707069567
 20
7.482138500964638
 30
0.0
 11
5.363644707069566
 21
5.077589888083078
 31
0.0
  0
LINE
  5
A6
330
2
100
AcDbEntity
  8
Visible (ANSI)
100
AcDbLine
 10
9.210146970633321
 20
9.702917618271674
 30
0.0
 11
5.363644707069567
 21
7.482138500964638
 31
0.0
  0
LINE
  5
A7
330
2
100
AcDbEntity
  8
Visible (ANSI)
100
AcDbLine
 10
5.414556395314998
 20
7.45274462405124
 30
0.0
 11
9.261058658878752
 21
9.673523741358277
 31
0.0
  0
LINE
  5
A8
330
2
100
AcDbEntity
  8
Visible Narrow (ANSI)
100
AcDbLine
 10
9.281187510138282
 20
2.752006700784491
 30
0.0
 11
9.336430227418482
 21
2.783901098476981
 31
0.0
  0
ELLIPSE
  5
A9
330
2
100
AcDbEntity
  8
Visible (ANSI)
100
AcDbEllipse
 10
9.281187510138281
 20
2.81579549616947
 30
0.0
 11
0.0750624999999998
 21
-0.1300120637431388
 31
0.0
210
0.0
220
0.0
230
1.0
 40
0.5773502691896254
 41
5.497787143782152
 42
7.068583470577038
  0
LINE
  5
AA
330
2
100
AcDbEntity
  8
Visible Narrow (ANSI)
100
AcDbLine
 10
9.33643022741848
 20
2.78390109847698
 30
0.0
 11
9.387341915663911
 21
2.754507221563582
 31
0.0
  0
ELLIPSE
  5
AB
330
2
100
AcDbEntity
  8
Visible (ANSI)
100
AcDbEllipse
 10
9.281187510138282
 20
2.815795496169469
 30
0.0
 11
0.0390624999999997
 21
-0.067658234670659
 31
0.0
210
0.0
220
0.0
230
1.0
 40
0.5773502691896255
 41
5.497787143782139
 42
7.068583470577025
  0
LINE
  5
AC
330
2
100
AcDbEntity
  8
Visible Narrow (ANSI)
100
AcDbLine
 10
9.281187510138282
 20
2.693218946957695
 30
0.0
 11
9.281187510138282
 21
2.752006700784491
 31
0.0
  0
ELLIPSE
  5
AD
330
2
100
AcDbEntity
  8
Visible (ANSI)
100
AcDbEllipse
 10
13.12608063284012
 20
5.035645575566713
 30
0.0
 11
0.0750625000000101
 21
-0.1300120637431318
 31
0.0
210
0.0
220
0.0
230
1.0
 40
0.5773502691897004
 41
0.0000000000002965
 42
0.7853981633976543
  0
LINE
  5
AE
330
2
100
AcDbEntity
  8
Visible Narrow (ANSI)
100
AcDbLine
 10
9.387341915663911
 20
2.754507221563582
 30
0.0
 11
13.23223503836575
 21
4.97435730096083
 31
0.0
  0
LINE
  5
AF
330
2
100
AcDbEntity
  8
Visible (ANSI)
100
AcDbLine
 10
13.20114313284013
 20
4.905633511823582
 30
0.0
 11
9.35625001013828
 21
2.68578343242633
 31
0.0
  0
LINE
  5
B0
330
2
100
AcDbEntity
  8
Visible Narrow (ANSI)
100
AcDbLine
 10
13.18293249098224
 20
7.409228828665575
 30
0.0
 11
13.18293249098223
 21
7.445971174807325
 31
0.0
  0
LINE
  5
B1
330
2
100
AcDbEntity
  8
Visible Narrow (ANSI)
100
AcDbLine
 10
13.18293249098223
 20
7.445971174807323
 30
0.0
 11
13.23384417922767
 21
7.475365051720721
 31
0.0
  0
LINE
  5
B2
330
2
100
AcDbEntity
  8
Visible Narrow (ANSI)
100
AcDbLine
 10
13.23384417922767
 20
7.379834951752179
 30
0.0
 11
13.18293249098223
 21
7.409228828665577
 31
0.0
  0
ELLIPSE
  5
B3
330
2
100
AcDbEntity
  8
Visible (ANSI)
100
AcDbEllipse
 10
13.15111268582884
 20
7.427600001736448
 30
0.0
 11
0.0449999999999999
 21
0.0000000000000008
 31
0.0
210
0.0
220
0.0
230
1.0
 40
0.5773502691896293
 41
5.497787143782179
 42
7.068583470577033
  0
ELLIPSE
  5
B4
330
2
100
AcDbEntity
  8
Visible (ANSI)
100
AcDbEllipse
 10
13.15111268582884
 20
5.131203367877227
 30
0.0
 11
0.1170000000000024
 21
-0.0000000000000016
 31
0.0
210
0.0
220
0.0
230
1.0
 40
0.5773502691896201
 41
5.497787143782159
 42
6.283185307179589
  0
ELLIPSE
  5
B5
330
2
100
AcDbEntity
  8
Visible (ANSI)
100
AcDbEllipse
 10
13.15111268582884
 20
7.427600001736448
 30
0.0
 11
0.117
 21
0.0000000000000013
 31
0.0
210
0.0
220
0.0
230
1.0
 40
0.5773502691896288
 41
5.497787143782143
 42
7.068583470577032
  0
LINE
  5
B6
330
2
100
AcDbEntity
  8
Visible Narrow (ANSI)
100
AcDbLine
 10
13.23384417922766
 20
5.083438317892954
 30
0.0
 11
13.23384417922767
 21
7.379834951752179
 31
0.0
  0
LINE
  5
B7
330
2
100
AcDbEntity
  8
Visible (ANSI)
100
AcDbLine
 10
13.26811268582884
 20
5.131203367877225
 30
0.0
 11
13.26811268582884
 21
7.427600001736442
 31
0.0
  0
LINE
  5
B8
330
2
100
AcDbEntity
  8
Visible Narrow (ANSI)
100
AcDbLine
 10
9.324698269185541
 20
9.673523741358277
 30
0.0
 11
9.324698269185541
 21
7.817478074577646
 31
0.0
  0
LINE
  5
B9
330
2
100
AcDbEntity
  8
Visible Narrow (ANSI)
100
AcDbLine
 10
9.375609957430972
 20
9.702917618271674
 30
0.0
 11
9.324698269185541
 21
9.673523741358277
 31
0.0
  0
LINE
  5
BA
330
2
100
AcDbEntity
  8
Visible Narrow (ANSI)
100
AcDbLine
 10
9.261058658878752
 20
9.673523741358277
 30
0.0
 11
9.210146970633321
 21
9.702917618271674
 31
0.0
  0
ELLIPSE
  5
BB
330
2
100
AcDbEntity
  8
Visible (ANSI)
100
AcDbEllipse
 10
9.292878464032146
 20
9.6551525682874
 30
0.0
 11
-0.0450000000000013
 21
-0.0000000000000017
 31
0.0
210
0.0
220
0.0
230
1.0
 40
0.577350269189614
 41
3.926990816987025
 42
5.49778714378186
  0
LINE
  5
BC
330
2
100
AcDbEntity
  8
Visible Narrow (ANSI)
100
AcDbLine
 10
9.26105865887875
 20
7.789955489643324
 30
0.0
 11
9.261058658878752
 21
9.673523741358277
 31
0.0
  0
ELLIPSE
  5
BD
330
2
100
AcDbEntity
  8
Visible (ANSI)
100
AcDbEllipse
 10
9.292878464032147
 20
9.655152568287403
 30
0.0
 11
0.117
 21
-0.0000000000000094
 31
0.0
210
0.0
220
0.0
230
1.0
 40
0.5773502691896093
 41
0.7853981633976908
 42
2.356194490192589
  0
ELLIPSE
  5
BE
330
2
100
AcDbEntity
  8
Visible (ANSI)
100
AcDbEllipse
 10
5.883282771601605
 20
5.032147603739407
 30
0.0
 11
-0.1809999999999991
 21
-0.0000000000000022
 31
0.0
210
0.0
220
0.0
230
1.0
 40
0.5773502691896369
 41
0.0000000000000425
 42
0.7853981633974785
  0
LINE
  5
BF
330
2
100
AcDbEntity
  8
Visible Narrow (ANSI)
100
AcDbLine
 10
5.755296444206838
 20
5.612649855320384
 30
0.0
 11
5.755296444206839
 21
4.958254663165449
 31
0.0
  0
SPLINE
  5
C0
330
2
100
AcDbEntity
  8
Visible (ANSI)
100
AcDbSpline
210
0.0
220
0.0
230
1.0
 70
     8
 71
     3
 72
    12
 73
     8
 74
     0
 42
0.0000000001
 43
0.0000000001
 40
0.0
 40
0.0
 40
0.0
 40
0.0
 40
0.0896498035475179
 40
0.0896498035475179
 40
0.2254219848713026
 40
0.2254219848713026
 40
0.3611941782475752
 40
0.3611941782475752
 40
0.3611941782475752
 40
0.3611941782475752
 10
5.755296444206838
 20
5.612649855320384
 30
0.0
 10
5.746979689749488
 20
5.617682433290024
 30
0.0
 10
5.739493354966199
 20
5.623171085270148
 30
0.0
 10
5.723024396679258
 20
5.637934032263283
 30
0.0
 10
5.715343288421573
 20
5.647622700180098
 30
0.0
 10
5.704954844157849
 20
5.667996535704111
 30
0.0
 10
5.702304180692847
 20
5.67857059202846
 30
0.0
 10
5.702282900761722
 20
5.689204454470801
 30
0.0
  0
SPLINE
  5
C1
330
2
100
AcDbEntity
  8
Visible (ANSI)
100
AcDbSpline
210
0.0
220
0.0
230
1.0
 70
     8
 71
     3
 72
    12
 73
     8
 74
     0
 42
0.0000000001
 43
0.0000000001
 40
0.0
 40
0.0
 40
0.0
 40
0.0
 40
0.1061936356588621
 40
0.1061936356588621
 40
0.2080817692150157
 40
0.2080817692150157
 40
0.2774862605744532
 40
0.2774862605744532
 40
0.2774862605744532
 40
0.2774862605744532
 10
5.702282900761722
 20
5.6892044544708
 30
0.0
 10
5.702266251945229
 20
5.697249933707166
 30
0.0
 10
5.703880087070679
 20
5.706396046995457
 30
0.0
 10
5.709925003809935
 20
5.7259888962085
 30
0.0
 10
5.714206043587101
 20
5.736257022252903
 30
0.0
 10
5.72285300035885
 20
5.754548462198358
 30
0.0
 10
5.726616823672515
 20
5.761976822370904
 30
0.0
 10
5.730367194691042
 20
5.769397838230599
 30
0.0
  0
LINE
  5
C2
330
2
100
AcDbEntity
  8
Visible Narrow (ANSI)
100
AcDbLine
 10
5.785519490760957
 20
5.630099139384135
 30
0.0
 11
5.755296444206838
 21
5.612649855320384
 31
0.0
  0
LINE
  5
C3
330
2
100
AcDbEntity
  8
Visible (ANSI)
100
AcDbLine
 10
5.728758003898359
 20
5.689222715161141
 30
0.0
 11
5.702282900761722
 21
5.689204454470802
 31
0.0
  0
LINE
  5
C4
330
2
100
AcDbEntity
  8
Visible (ANSI)
100
AcDbLine
 10
5.702282771601606
 20
5.032147603739407
 30
0.0
 11
5.702282771601605
 21
5.689329379066263
 31
0.0
  0
LINE
  5
C5
330
2
100
AcDbEntity
  8
Visible (ANSI)
100
AcDbLine
 10
5.772821250531352
 20
5.82169907732879
 30
0.0
 11
5.79510487157851
 21
5.808833622718683
 31
0.0
  0
LINE
  5
C6
330
2
100
AcDbEntity
  8
Visible (ANSI)
100
AcDbLine
 10
5.79510487157851
 20
5.808833622718683
 30
0.0
 11
5.8101893545507
 21
5.800124592414102
 31
0.0
  0
LINE
  5
C7
330
2
100
AcDbEntity
  8
Visible (ANSI)
100
AcDbLine
 10
5.8101893545507
 20
5.800124592414102
 30
0.0
 11
5.785808701678631
 21
5.83663416771369
 31
0.0
  0
ELLIPSE
  5
C8
330
2
100
AcDbEntity
  8
Visible (ANSI)
100
AcDbEllipse
 10
5.895303586881754
 20
5.672667608769543
 30
0.0
 11
-0.0989999999999595
 21
0.1714730299493683
 31
0.0
210
0.0
220
0.0
230
1.0
 40
0.5773502691895751
 41
0.1125766413376024
 42
0.2796849585710515
  0
SPLINE
  5
C9
330
2
100
AcDbEntity
  8
Visible (ANSI)
100
AcDbSpline
210
0.0
220
0.0
230
1.0
 70
     8
 71
     3
 72
    10
 73
     6
 74
     0
 42
0.0000000001
 43
0.0000000001
 40
0.0
 40
0.0
 40
0.0
 40
0.0
 40
0.0720256453521089
 40
0.0720256453521089
 40
0.1440512907026606
 40
0.1440512907026606
 40
0.1440512907026606
 40
0.1440512907026606
 10
9.289737358406005
 20
7.805110774578887
 30
0.0
 10
9.282740814721886
 20
7.801415308842374
 30
0.0
 10
9.275744369814974
 20
7.797718534505581
 30
0.0
 10
9.261751556333198
 20
7.790322289031842
 30
0.0
 10
9.254755282706932
 20
7.786622868082327
 30
0.0
 10
9.247759081579024
 20
7.782922109201227
 30
0.0
  0
SPLINE
  5
CA
330
2
100
AcDbEntity
  8
Visible (ANSI)
100
AcDbSpline
210
0.0
220
0.0
230
1.0
 70
     8
 71
     3
 72
    18
 73
    14
 74
     0
 42
0.0000000001
 43
0.0000000001
 40
0.0
 40
0.0
 40
0.0
 40
0.0
 40
0.0408564478791771
 40
0.0408564478791771
 40
0.0746193373913773
 40
0.0746193373913773
 40
0.1035541881350389
 40
0.1035541881350389
 40
0.1528575377168776
 40
0.1528575377168776
 40
0.2008659276488165
 40
0.2008659276488165
 40
0.222227648882957
 40
0.222227648882957
 40
0.222227648882957
 40
0.222227648882957
 10
9.247759081579081
 20
7.782922109201196
 30
0.0
 10
9.243791285720217
 20
7.780822437806333
 30
0.0
 10
9.236883329257652
 20
7.777599285348717
 30
0.0
 10
9.217664892083895
 20
7.772184562634948
 30
0.0
 10
9.208429681217308
 20
7.770423139511517
 30
0.0
 10
9.191060654964212
 20
7.767793570347272
 30
0.0
 10
9.183021810664421
 20
7.766838297295356
 30
0.0
 10
9.161724633117668
 20
7.764387856184006
 30
0.0
 10
9.148310241502935
 20
7.762935166563418
 30
0.0
 10
9.123349175359612
 20
7.758626735384942
 30
0.0
 10
9.112444839275383
 20
7.755900360495363
 30
0.0
 10
9.099270341185286
 20
7.750729803266401
 30
0.0
 10
9.095583868610889
 20
7.748980749616705
 30
0.0
 10
9.092294745033425
 20
7.747081980345558
 30
0.0
  0
ELLIPSE
  5
CB
330
2
100
AcDbEntity
  8
Visible (ANSI)
100
AcDbEllipse
 10
5.733542591596254
 20
5.579274854597104
 30
0.0
 11
0.0990000000003305
 21
-0.1714730299491278
 31
0.0
210
0.0
220
0.0
230
1.0
 40
0.5773502691878621
 41
2.356194490191462
 42
2.407692894647016
  0
LINE
  5
CC
330
2
100
AcDbEntity
  8
Visible (ANSI)
100
AcDbLine
 10
5.729939112647915
 20
5.662081321102322
 30
0.0
 11
5.72633563369995
 21
5.744887787607757
 31
0.0
  0
ELLIPSE
  5
CD
330
2
100
AcDbEntity
  8
Visible (ANSI)
100
AcDbEllipse
 10
5.733542591595881
 20
5.579274854596883
 30
0.0
 11
-0.049499999999973
 21
0.0857365149746816
 31
0.0
210
0.0
220
0.0
230
0.9999999999999998
 40
0.57735026918938
 41
5.497787143782346
 42
5.549285548237882
  0
LINE
  5
CE
330
2
100
AcDbEntity
  8
Visible Narrow (ANSI)
100
AcDbLine
 10
5.733542591595881
 20
5.740941177620578
 30
0.0
 11
5.733542591595881
 21
5.660108016108734
 31
0.0
  0
SPLINE
  5
CF
330
2
100
AcDbEntity
  8
Visible (ANSI)
100
AcDbSpline
210
0.0
220
0.0
230
1.0
 70
     8
 71
     3
 72
    18
 73
    14
 74
     0
 42
0.0000000001
 43
0.0000000001
 40
0.0
 40
0.0
 40
0.0
 40
0.0
 40
0.0622747317458011
 40
0.0622747317458011
 40
0.1873035618635872
 40
0.1873035618635872
 40
0.3165262541972557
 40
0.3165262541972557
 40
0.4253399002484193
 40
0.4253399002484193
 40
0.4882808903669035
 40
0.4882808903669035
 40
0.5794908314706807
 40
0.5794908314706807
 40
0.5794908314706807
 40
0.5794908314706807
 10
5.785808701678631
 20
5.836634167713689
 30
0.0
 10
5.790055281127686
 20
5.840138917931702
 30
0.0
 10
5.794199941089641
 20
5.843011669490536
 30
0.0
 10
5.806380379133805
 20
5.849749276319778
 30
0.0
 10
5.814022012484064
 20
5.851585805425481
 30
0.0
 10
5.827181441032939
 20
5.849905547444692
 30
0.0
 10
5.832171066663011
 20
5.846276527171779
 30
0.0
 10
5.836996203269148
 20
5.836656787885615
 30
0.0
 10
5.837593947833754
 20
5.830982075020921
 30
0.0
 10
5.834651075583066
 20
5.821145475617428
 30
0.0
 10
5.832756671829365
 20
5.817410546107635
 30
0.0
 10
5.825784472090587
 20
5.808406144181534
 30
0.0
 10
5.820481755867811
 20
5.804314250649976
 30
0.0
 10
5.815856885578869
 20
5.801434431911422
 30
0.0
  0
SPLINE
  5
D0
330
2
100
AcDbEntity
  8
Visible (ANSI)
100
AcDbSpline
210
0.0
220
0.0
230
1.0
 70
     8
 71
     3
 72
    10
 73
     6
 74
     0
 42
0.0000000001
 43
0.0000000001
 40
0.0
 40
0.0
 40
0.0
 40
0.0
 40
0.1690926950881759
 40
0.1690926950881759
 40
0.3381853901768118
 40
0.3381853901768118
 40
0.3381853901768118
 40
0.3381853901768118
 10
5.815856885578877
 20
5.801434431911417
 30
0.0
 10
5.800935705464059
 20
5.792024499897793
 30
0.0
 10
5.786015279744566
 20
5.782607409452261
 30
0.0
 10
5.756174765543603
 20
5.763758392654245
 30
0.0
 10
5.741255164514566
 20
5.754326774204963
 30
0.0
 10
5.72633563369995
 20
5.744887787607757
 30
0.0
  0
ELLIPSE
  5
D1
330
2
100
AcDbEntity
  8
Visible (ANSI)
100
AcDbEllipse
 10
9.299611940671763
 20
7.638145953235186
 30
0.0
 11
-0.0989999999998302
 21
0.1714730299487952
 31
0.0
210
0.0
220
0.0
230
1.0
 40
0.5773502691900613
 41
5.548632218702472
 42
5.568374880060941
  0
ELLIPSE
  5
D2
330
2
100
AcDbEntity
  8
Visible (ANSI)
100
AcDbEllipse
 10
9.299611940671793
 20
7.638145953234712
 30
0.0
 11
0.0990000000000039
 21
-0.1714730299493498
 31
0.0
210
0.0
220
0.0
230
1.0
 40
0.5773502691896236
 41
2.356194490192606
 42
2.407039565113308
  0
SPLINE
  5
D3
330
2
100
AcDbEntity
  8
Visible (ANSI)
100
AcDbSpline
210
0.0
220
0.0
230
1.0
 70
     8
 71
     3
 72
    12
 73
     8
 74
     0
 42
0.0000000001
 43
0.0000000001
 40
-0.1857013206808207
 40
-0.1857013206808207
 40
-0.1857013206808207
 40
-0.1857013206808207
 40
-0.1380057361374432
 40
-0.1380057361374432
 40
-0.0908819866227237
 40
-0.0908819866227237
 40
-0.0000020637256993
 40
-0.0000020637256993
 40
-0.0000020637256993
 40
-0.0000020637256993
 10
5.772821250531351
 20
5.821699077328789
 30
0.0
 10
5.769933714282837
 20
5.818067948520832
 30
0.0
 10
5.766905051328803
 20
5.814127519719509
 30
0.0
 10
5.760275471276417
 20
5.805533622190134
 30
0.0
 10
5.756792867842323
 20
5.801029787491406
 30
0.0
 10
5.745979354844222
 20
5.787386716400492
 30
0.0
 10
5.738344691396044
 20
5.77819135604251
 30
0.0
 10
5.730367194687862
 20
5.769397838233221
 30
0.0
  0
LINE
  5
D4
330
2
100
AcDbEntity
  8
Visible Narrow (ANSI)
100
AcDbLine
 10
9.299611940671793
 20
7.799812276258427
 30
0.0
 11
5.733542591595881
 21
5.740941177620578
 31
0.0
  0
LINE
  5
D5
330
2
100
AcDbEntity
  8
Visible (ANSI)
100
AcDbLine
 10
5.8101893545507
 20
5.800124592414102
 30
0.0
 11
5.812063961162725
 21
5.799042287782024
 31
0.0
  0
LINE
  5
D6
330
2
100
AcDbEntity
  8
Visible (ANSI)
100
AcDbLine
 10
9.092294753670982
 20
7.747082026111276
 30
0.0
 11
5.797219592469209
 21
5.844669494791384
 31
0.0
  0
LINE
  5
D7
330
2
100
AcDbEntity
  8
Visible (ANSI)
100
AcDbLine
 10
6.198583867071866
 20
5.28113949572102
 30
0.0
 11
5.984911365700529
 21
5.157775619535859
 31
0.0
  0
LINE
  5
D8
330
2
100
AcDbEntity
  8
Visible (ANSI)
100
AcDbLine
 10
5.822756004810089
 20
4.91930686769175
 30
0.0
 11
5.755296444206839
 21
4.958254663165449
 31
0.0
  0
LINE
  5
D9
330
2
100
AcDbEntity
  8
Visible (ANSI)
100
AcDbLine
 10
5.755296444206838
 20
5.612649855320384
 30
0.0
 11
5.822756004810085
 21
5.571002223620141
 31
0.0
  0
ELLIPSE
  5
DA
330
2
100
AcDbEntity
  8
Visible (ANSI)
100
AcDbEllipse
 10
6.093929966398049
 20
5.192010893751947
 30
0.0
 11
-0.1562499999999994
 21
0.0000000000000139
 31
0.0
210
0.0
220
0.0
230
1.0
 40
0.8164965809277269
 41
0.5744935111203651
 42
2.186613217317336
  0
ELLIPSE
  5
DB
330
2
100
AcDbEntity
  8
Visible (ANSI)
100
AcDbEllipse
 10
6.093929966398049
 20
5.24916857040172
 30
0.0
 11
0.1562499999999991
 21
0.0000000000000126
 31
0.0
210
0.0
220
0.0
230
1.0
 40
0.8164965809277278
 41
3.716086164709883
 42
5.328205870906914
  0
LINE
  5
DC
330
2
100
AcDbEntity
  8
Visible (ANSI)
100
AcDbLine
 10
6.184183957678322
 20
4.885824675904048
 30
0.0
 11
5.962763147485024
 21
4.885824675904048
 31
0.0
  0
ELLIPSE
  5
DD
330
2
100
AcDbEntity
  8
Visible (ANSI)
100
AcDbEllipse
 10
6.09392996639805
 20
5.192010893751948
 30
0.0
 11
0.1562499999999995
 21
-0.0000000000000145
 31
0.0
210
0.0
220
0.0
230
1.0
 40
0.8164965809277282
 41
0.9549794362726835
 42
2.56709914246973
  0
LINE
  5
DE
330
2
100
AcDbEntity
  8
Visible (ANSI)
100
AcDbLine
 10
6.410301195548638
 20
4.648108420138486
 30
0.0
 11
6.410301195548638
 21
5.269381253940213
 31
0.0
  0
LINE
  5
DF
330
2
100
AcDbEntity
  8
Visible (ANSI)
100
AcDbLine
 10
6.311677920437554
 20
5.270028016663207
 30
0.0
 11
6.401336831362001
 21
5.274556832016481
 31
0.0
  0
LINE
  5
E0
330
2
100
AcDbEntity
  8
Visible (ANSI)
100
AcDbLine
 10
6.311677920437554
 20
5.270028016663207
 30
0.0
 11
6.311677920437554
 21
4.643126800376345
 31
0.0
  0
LINE
  5
E1
330
2
100
AcDbEntity
  8
Visible (ANSI)
100
AcDbLine
 10
6.311677920437554
 20
4.643126800376345
 30
0.0
 11
6.410301195548638
 21
4.648108420138486
 31
0.0
  0
LINE
  5
E2
330
2
100
AcDbEntity
  8
Visible (ANSI)
100
AcDbLine
 10
6.311677920437554
 20
4.643126800376345
 30
0.0
 11
6.282807232789406
 21
4.833648619016417
 31
0.0
  0
LINE
  5
E3
330
2
100
AcDbEntity
  8
Visible (ANSI)
100
AcDbLine
 10
6.302807918825793
 20
5.331442526192223
 30
0.0
 11
6.311677920437554
 21
5.270028016663207
 31
0.0
  0
LINE
  5
E4
330
2
100
AcDbEntity
  8
Visible (ANSI)
100
AcDbLine
 10
9.3364302274185
 20
3.624772810131043
 30
0.0
 11
9.293118439115772
 21
3.648045477834175
 31
0.0
  0
LINE
  5
E5
330
2
100
AcDbEntity
  8
Visible (ANSI)
100
AcDbLine
 10
9.290019068014286
 20
2.917208327378526
 30
0.0
 11
9.223114867778305
 21
2.955835485394687
 31
0.0
  0
LINE
  5
E6
330
2
100
AcDbEntity
  8
Visible (ANSI)
100
AcDbLine
 10
9.223114867778305
 20
3.607628897078253
 30
0.0
 11
9.290019068014284
 21
3.571679348905528
 31
0.0
  0
LINE
  5
E7
330
2
100
AcDbEntity
  8
Visible (ANSI)
100
AcDbLine
 10
9.083313180042269
 20
3.224386657125862
 30
0.0
 11
8.750965828905242
 21
3.258220425001703
 31
0.0
  0
LINE
  5
E8
330
2
100
AcDbEntity
  8
Visible (ANSI)
100
AcDbLine
 10
8.750965828905238
 20
3.885219697043758
 30
0.0
 11
8.81596532577247
 21
3.880470420775653
 31
0.0
  0
LINE
  5
E9
330
2
100
AcDbEntity
  8
Visible (ANSI)
100
AcDbLine
 10
8.750965828905242
 20
3.258220425001703
 30
0.0
 11
8.750965828905238
 21
3.885219697043758
 31
0.0
  0
LINE
  5
EA
330
2
100
AcDbEntity
  8
Visible (ANSI)
100
AcDbLine
 10
8.750965828905238
 20
3.885219697043758
 30
0.0
 11
8.759475963929777
 21
3.913084569041882
 31
0.0
  0
LINE
  5
EB
330
2
100
AcDbEntity
  8
Visible (ANSI)
100
AcDbLine
 10
5.733542591595881
 20
5.660108016108733
 30
0.0
 11
9.245082438038085
 21
3.632719540495223
 31
0.0
  0
LINE
  5
EC
330
2
100
AcDbEntity
  8
Visible (ANSI)
100
AcDbLine
 10
9.245082438038085
 20
3.713552702007068
 30
0.0
 11
5.733542591595881
 21
5.740941177620578
 31
0.0
  0
LINE
  5
ED
330
2
100
AcDbEntity
  8
Visible Narrow (ANSI)
100
AcDbLine
 10
5.822756004810089
 20
4.91930686769175
 30
0.0
 11
5.822756004810085
 21
5.571002223620141
 31
0.0
  0
SPLINE
  5
EE
330
2
100
AcDbEntity
  8
Visible (ANSI)
100
AcDbSpline
210
0.0
220
0.0
230
1.0
 70
     8
 71
     3
 72
    16
 73
    12
 74
     0
 42
0.0000000001
 43
0.0000000001
 40
0.0
 40
0.0
 40
0.0
 40
0.0
 40
0.0501035659362844
 40
0.0501035659362844
 40
0.0921369275279866
 40
0.0921369275279866
 40
0.1303117336684175
 40
0.1303117336684175
 40
0.1577529591276801
 40
0.1577529591276801
 40
0.1904190663735091
 40
0.1904190663735091
 40
0.1904190663735091
 40
0.1904190663735091
 10
5.962763147485024
 20
5.122683996055901
 30
0.0
 10
5.958387363924978
 20
5.126691215253
 30
0.0
 10
5.948306340231153
 20
5.136300990152918
 30
0.0
 10
5.93333541920657
 20
5.162597409694665
 30
0.0
 10
5.929216917208861
 20
5.175395168782014
 30
0.0
 10
5.927466425586191
 20
5.200042263832942
 30
0.0
 10
5.929313911390257
 20
5.211350814945787
 30
0.0
 10
5.93674525190043
 20
5.229766133944318
 30
0.0
 10
5.941066656707442
 20
5.237011916614191
 30
0.0
 10
5.952781497726049
 20
5.252112331879712
 30
0.0
 10
5.959205408297234
 20
5.258079714220009
 30
0.0
 10
5.962763147485022
 20
5.261337791447994
 30
0.0
  0
LINE
  5
EF
330
2
100
AcDbEntity
  8
Visible (ANSI)
100
AcDbLine
 10
5.962763147485024
 20
5.154052331451613
 30
0.0
 11
5.962763147485024
 21
5.122683996055901
 31
0.0
  0
LINE
  5
F0
330
2
100
AcDbEntity
  8
Visible (ANSI)
100
AcDbLine
 10
5.962763147485024
 20
5.179841672705673
 30
0.0
 11
5.962763147485024
 21
5.154052331451613
 31
0.0
  0
SPLINE
  5
F1
330
2
100
AcDbEntity
  8
Visible (ANSI)
100
AcDbSpline
210
0.0
220
0.0
230
1.0
 70
     8
 71
     3
 72
    10
 73
     6
 74
     0
 42
0.0000000001
 43
0.0000000001
 40
0.0954425212126388
 40
0.0954425212126388
 40
0.0954425212126388
 40
0.0954425212126388
 40
0.1092207894749626
 40
0.1092207894749626
 40
0.1864218657571353
 40
0.1864218657571353
 40
0.1864218657571353
 40
0.1864218657571353
 10
5.945600303905857
 20
5.242832316182463
 30
0.0
 10
5.945817820955221
 20
5.238245398232482
 30
0.0
 10
5.946243437127948
 20
5.233620955812757
 30
0.0
 10
5.950472993070759
 20
5.202937152107778
 30
0.0
 10
5.95978147852538
 20
5.185283310210881
 30
0.0
 10
5.962763147485024
 20
5.179841672705674
 30
0.0
  0
SPLINE
  5
F2
330
2
100
AcDbEntity
  8
Visible (ANSI)
100
AcDbSpline
210
0.0
220
0.0
230
1.0
 70
     8
 71
     3
 72
    12
 73
     8
 74
     0
 42
0.0000000001
 43
0.0000000001
 40
0.0310662004564499
 40
0.0310662004564499
 40
0.0310662004564499
 40
0.0310662004564499
 40
0.0980743705453013
 40
0.0980743705453013
 40
0.2469029598691134
 40
0.2469029598691134
 40
0.3957315624874065
 40
0.3957315624874065
 40
0.3957315624874065
 40
0.3957315624874065
 10
5.950551161984006
 20
5.534818059892874
 30
0.0
 10
5.941785901895983
 20
5.535309716908175
 30
0.0
 10
5.933061856315177
 20
5.536137767067263
 30
0.0
 10
5.905281173799309
 20
5.539879213855972
 30
0.0
 10
5.886789187670159
 20
5.544080920674443
 30
0.0
 10
5.852335456162548
 20
5.555489159237348
 30
0.0
 10
5.836562430165491
 20
5.562633242067819
 30
0.0
 10
5.822756004810086
 20
5.571002223620141
 30
0.0
  0
LINE
  5
F3
330
2
100
AcDbEntity
  8
Visible Narrow (ANSI)
100
AcDbLine
 10
5.822756004810085
 20
5.571002223620141
 30
0.0
 11
5.855317178122449
 21
5.589801425797164
 31
0.0
  0
ELLIPSE
  5
F4
330
2
100
AcDbEntity
  8
Visible (ANSI)
100
AcDbEllipse
 10
5.962763147485025
 20
5.000140029203595
 30
0.0
 11
0.198000000000001
 21
0.0000000000000195
 31
0.0
210
0.0
220
0.0
230
1.0
 40
0.5773502691896053
 41
3.926990816986982
 42
4.712388980384554
  0
LINE
  5
F5
330
2
100
AcDbEntity
  8
Visible Narrow (ANSI)
100
AcDbLine
 10
5.962763147485021
 20
5.527767466462343
 30
0.0
 11
5.962763147485023
 21
5.261337791447994
 31
0.0
  0
LINE
  5
F6
330
2
100
AcDbEntity
  8
Visible Narrow (ANSI)
100
AcDbLine
 10
5.962763147485024
 20
5.122683996055901
 30
0.0
 11
5.962763147485024
 21
4.885824675904048
 31
0.0
  0
LINE
  5
F7
330
2
100
AcDbEntity
  8
Visible (ANSI)
100
AcDbLine
 10
6.184183957678322
 20
5.087869068795208
 30
0.0
 11
6.184183957678323
 21
5.113978996298488
 31
0.0
  0
LINE
  5
F8
330
2
100
AcDbEntity
  8
Visible (ANSI)
100
AcDbLine
 10
6.184183957678322
 20
5.113978996298488
 30
0.0
 11
6.184183957678323
 21
5.14502674544498
 31
0.0
  0
LINE
  5
F9
330
2
100
AcDbEntity
  8
Visible Narrow (ANSI)
100
AcDbLine
 10
6.184183957678322
 20
4.885824675904048
 30
0.0
 11
6.184183957678322
 21
5.087869068795208
 31
0.0
  0
LINE
  5
FA
330
2
100
AcDbEntity
  8
Visible Narrow (ANSI)
100
AcDbLine
 10
6.184183957678322
 20
5.296152718708688
 30
0.0
 11
6.184183957678322
 21
5.399930102093054
 31
0.0
  0
ELLIPSE
  5
FB
330
2
100
AcDbEntity
  8
Visible (ANSI)
100
AcDbEllipse
 10
6.184183957678322
 20
4.828666999254275
 30
0.0
 11
0.0989999999999993
 21
-0.0000000000000036
 31
0.0
210
0.0
220
0.0
230
1.0
 40
0.5773502691896235
 41
0.0872664625996649
 42
1.570796326794939
  0
SPLINE
  5
FC
330
2
100
AcDbEntity
  8
Visible (ANSI)
100
AcDbSpline
210
0.0
220
0.0
230
1.0
 70
     8
 71
     3
 72
    26
 73
    22
 74
     0
 42
0.0000000001
 43
0.0000000001
 40
0.0
 40
0.0
 40
0.0
 40
0.0
 40
0.0146312193843283
 40
0.0146312193843283
 40
0.0430125871595894
 40
0.0430125871595894
 40
0.18603815885455
 40
0.18603815885455
 40
0.2935705533252724
 40
0.2935705533252724
 40
0.3916311086801234
 40
0.3916311086801234
 40
0.486241228727766
 40
0.486241228727766
 40
0.5607558688645465
 40
0.5607558688645465
 40
0.6019832950611805
 40
0.6019832950611805
 40
0.6206979541204536
 40
0.6206979541204536
 40
0.6386012145149432
 40
0.6386012145149432
 40
0.6386012145149432
 40
0.6386012145149432
 10
6.184183957678322
 20
5.296152718708688
 30
0.0
 10
6.185523572052268
 20
5.295029554648612
 30
0.0
 10
6.186824106135229
 20
5.293882246433494
 30
0.0
 10
6.190590302918797
 20
5.290358032661842
 30
0.0
 10
6.192926296014447
 20
5.28790359612275
 30
0.0
 10
6.206115874367925
 20
5.27264465665617
 30
0.0
 10
6.214564694009822
 20
5.256595205920498
 30
0.0
 10
6.224510963196734
 20
5.225332340339285
 30
0.0
 10
6.226995658551056
 20
5.211610714153822
 30
0.0
 10
6.228818736539683
 20
5.186212366399787
 30
0.0
 10
6.228424169877074
 20
5.174272354590035
 30
0.0
 10
6.225074686762969
 20
5.151967924956753
 30
0.0
 10
6.222200382687923
 20
5.141466764705855
 30
0.0
 10
6.214473114789759
 20
5.123751951453718
 30
0.0
 10
6.21014286917966
 20
5.116265326853652
 30
0.0
 10
6.201755104804239
 20
5.105185400153486
 30
0.0
 10
6.198439731365299
 20
5.101344630495646
 30
0.0
 10
6.193107045842526
 20
5.095899823681631
 30
0.0
 10
6.191358953447402
 20
5.094207996333844
 30
0.0
 10
6.187804400705795
 20
5.090954874187207
 30
0.0
 10
6.186037389949814
 20
5.089423029812356
 30
0.0
 10
6.184183957678323
 20
5.087869068795207
 30
0.0
  0
SPLINE
  5
FD
330
2
100
AcDbEntity
  8
Visible (ANSI)
100
AcDbSpline
210
0.0
220
0.0
230
1.0
 70
     8
 71
     3
 72
     8
 73
     4
 74
     0
 42
0.0000000001
 43
0.0000000001
 40
0.0
 40
0.0
 40
0.0
 40
0.0
 40
0.1682029151010751
 40
0.1682029151010751
 40
0.1682029151010751
 40
0.1682029151010751
 10
6.184183957678324
 20
5.14502674544498
 30
0.0
 10
6.203803559996392
 20
5.153286167965601
 30
0.0
 10
6.217476473005856
 20
5.160335550185595
 30
0.0
 10
6.227189843720153
 20
5.166244577674658
 30
0.0
  0
LINE
  5
FE
330
2
100
AcDbEntity
  8
Visible Narrow (ANSI)
100
AcDbLine
 10
6.282807232789405
 20
5.342989927659308
 30
0.0
 11
6.282807232789406
 21
4.833648619016417
 31
0.0
  0
LINE
  5
FF
330
2
100
AcDbEntity
  8
Visible (ANSI)
100
AcDbLine
 10
9.299611940671793
 20
7.799812276258427
 30
0.0
 11
9.292496333841473
 21
7.80392047377736
 31
0.0
  0
LINE
  5
100
330
2
100
AcDbEntity
  8
Visible (ANSI)
100
AcDbLine
 10
9.292496333841473
 20
7.80392047377736
 30
0.0
 11
9.292496333841469
 21
7.803711547154643
 31
0.0
  0
SPLINE
  5
101
330
2
100
AcDbEntity
  8
Visible (ANSI)
100
AcDbSpline
210
0.0
220
0.0
230
1.0
 70
     8
 71
     3
 72
    12
 73
     8
 74
     0
 42
0.0000000001
 43
0.0000000001
 40
0.3961338161342043
 40
0.3961338161342043
 40
0.3961338161342043
 40
0.3961338161342043
 40
0.4912951126393299
 40
0.4912951126393299
 40
0.6416974215019773
 40
0.6416974215019773
 40
0.792099168393902
 40
0.792099168393902
 40
0.792099168393902
 40
0.792099168393902
 10
9.39424037403284
 20
7.812142810686391
 30
0.0
 10
9.387808145665447
 20
7.815856465496413
 30
0.0
 10
9.380790174722291
 20
7.818557705525959
 30
0.0
 10
9.361379568769077
 20
7.822790959840226
 30
0.0
 10
9.348385318146117
 20
7.822700531122467
 30
0.0
 10
9.321017439251404
 20
7.817177007142698
 30
0.0
 10
9.306796860404663
 20
7.811774860889253
 30
0.0
 10
9.292496333841473
 20
7.803920473777358
 30
0.0
  0
LINE
  5
102
330
2
100
AcDbEntity
  8
Visible Narrow (ANSI)
100
AcDbLine
 10
11.57952740374012
 20
6.483502469926332
 30
0.0
 11
9.299611940671793
 21
7.799812276258427
 31
0.0
  0
LINE
  5
103
330
2
100
AcDbEntity
  8
Visible (ANSI)
100
AcDbLine
 10
11.63752026106518
 20
6.516984661714033
 30
0.0
 11
9.394240416026187
 21
7.812142884114965
 31
0.0
  0
LINE
  5
104
330
2
100
AcDbEntity
  8
Visible Narrow (ANSI)
100
AcDbLine
 10
9.290019068014286
 20
2.917208327378526
 30
0.0
 11
9.290019068014284
 21
3.571679348905528
 31
0.0
  0
LINE
  5
105
330
2
100
AcDbEntity
  8
Visible Narrow (ANSI)
100
AcDbLine
 10
9.290019068014284
 20
3.571679348905528
 30
0.0
 11
9.329221317208537
 21
3.594312778030667
 31
0.0
  0
LINE
  5
106
330
2
100
AcDbEntity
  8
Visible Narrow (ANSI)
100
AcDbLine
 10
9.329221317208537
 20
3.594312778030667
 30
0.0
 11
9.336430227418501
 21
3.598474844280954
 31
0.0
  0
SPLINE
  5
107
330
2
100
AcDbEntity
  8
Visible (ANSI)
100
AcDbSpline
210
0.0
220
0.0
230
1.0
 70
     8
 71
     3
 72
    10
 73
     6
 74
     0
 42
0.0000000001
 43
0.0000000001
 40
0.2166926198261526
 40
0.2166926198261526
 40
0.2166926198261526
 40
0.2166926198261526
 40
0.2266699858504291
 40
0.2266699858504291
 40
0.3631946240163639
 40
0.3631946240163639
 40
0.3631946240163639
 40
0.3631946240163639
 10
9.336430227544555
 20
3.553387430242494
 30
0.0
 10
9.335263515946056
 20
3.553703109376741
 30
0.0
 10
9.334102784364883
 20
3.554026157249435
 30
0.0
 10
9.317150211890657
 20
3.558877136677362
 30
0.0
 10
9.30268435287436
 20
3.564719521872688
 30
0.0
 10
9.290019068014284
 20
3.571679348905528
 30
0.0
  0
ELLIPSE
  5
108
330
2
100
AcDbEntity
  8
Visible (ANSI)
100
AcDbEllipse
 10
9.41871250219024
 20
2.991509516242949
 30
0.0
 11
0.1820000000000019
 21
0.0000000000000108
 31
0.0
210
0.0
220
0.0
230
1.0
 40
0.5773502691896262
 41
3.926990816987
 42
4.243270235134685
  0
LINE
  5
109
330
2
100
AcDbEntity
  8
Visible Narrow (ANSI)
100
AcDbLine
 10
9.223114867778305
 20
3.607628897078253
 30
0.0
 11
9.223114867778305
 21
2.955835485394687
 31
0.0
  0
ELLIPSE
  5
10A
330
2
100
AcDbEntity
  8
Visible (ANSI)
100
AcDbEllipse
 10
9.363122010453238
 20
3.036668646906529
 30
0.0
 11
-0.1979999999999969
 21
0.000000000000007
 31
0.0
210
0.0
220
0.0
230
1.0
 40
0.5773502691896555
 41
0.0
 42
0.7853981633973915
  0
SPLINE
  5
10B
330
2
100
AcDbEntity
  8
Visible (ANSI)
100
AcDbSpline
210
0.0
220
0.0
230
1.0
 70
     8
 71
     3
 72
    12
 73
     8
 74
     0
 42
0.0000000001
 43
0.0000000001
 40
0.0
 40
0.0
 40
0.0
 40
0.0
 40
0.0980743705452842
 40
0.0980743705452842
 40
0.2469029598690785
 40
0.2469029598690785
 40
0.3655096992678309
 40
0.3655096992678309
 40
0.3655096992678309
 40
0.3655096992678309
 10
9.223114867778305
 20
3.607628897078253
 30
0.0
 10
9.21401677472099
 20
3.612619518041974
 30
0.0
 10
9.205827138379996
 20
3.618110287000978
 30
0.0
 10
9.187789337100387
 20
3.632983810174897
 30
0.0
 10
9.179374941282537
 20
3.642828720868604
 30
0.0
 10
9.169164047402379
 20
3.661493675967921
 30
0.0
 10
9.166410192933387
 20
3.670043583123567
 30
0.0
 10
9.165478504910238
 20
3.678678895836228
 30
0.0
  0
LINE
  5
10C
330
2
100
AcDbEntity
  8
Visible Narrow (ANSI)
100
AcDbLine
 10
9.262317151849027
 20
3.630262346339333
 30
0.0
 11
9.223114867778305
 21
3.607628897078253
 31
0.0
  0
LINE
  5
10D
330
2
100
AcDbEntity
  8
Visible Narrow (ANSI)
100
AcDbLine
 10
9.293118439115772
 20
3.648045477834175
 30
0.0
 11
9.262317151849027
 21
3.630262346339333
 31
0.0
  0
SPLINE
  5
10E
330
2
100
AcDbEntity
  8
Visible (ANSI)
100
AcDbSpline
210
0.0
220
0.0
230
1.0
 70
     8
 71
     3
 72
     8
 73
     4
 74
     0
 42
0.0000000001
 43
0.0000000001
 40
0.1754022212787839
 40
0.1754022212787839
 40
0.1754022212787839
 40
0.1754022212787839
 40
0.198375255042436
 40
0.198375255042436
 40
0.198375255042436
 40
0.198375255042436
 10
9.287042035630651
 20
3.651521268241074
 30
0.0
 10
9.288962087292194
 20
3.650312176727679
 30
0.0
 10
9.290989279877905
 20
3.64915204319446
 30
0.0
 10
9.293118439115772
 20
3.648045477834174
 30
0.0
  0
LINE
  5
10F
330
2
100
AcDbEntity
  8
Visible (ANSI)
100
AcDbLine
 10
9.165122010453242
 20
3.036668646906531
 30
0.0
 11
9.16512201045324
 21
3.678884714885852
 31
0.0
  0
LINE
  5
110
330
2
100
AcDbEntity
  8
Visible Narrow (ANSI)
100
AcDbLine
 10
9.083313180042269
 20
3.224386657125862
 30
0.0
 11
9.083313180042269
 21
3.726117065145715
 31
0.0
  0
ELLIPSE
  5
111
330
2
100
AcDbEntity
  8
Visible (ANSI)
100
AcDbEllipse
 10
9.066122010453243
 20
3.168097334017001
 30
0.0
 11
0.0989999999999991
 21
-0.0000000000000003
 31
0.0
210
0.0
220
0.0
230
1.0
 40
0.5773502691896219
 41
0.0
 42
1.396263401595465
  0
LINE
  5
112
330
2
100
AcDbEntity
  8
Visible Narrow (ANSI)
100
AcDbLine
 10
9.245082438038087
 20
3.632719540495223
 30
0.0
 11
9.245082438038085
 21
3.713552702007067
 31
0.0
  0
ELLIPSE
  5
113
330
2
100
AcDbEntity
  8
Visible (ANSI)
100
AcDbEllipse
 10
9.245082438038084
 20
3.551886378983343
 30
0.0
 11
-0.0494999999999597
 21
0.0857365149747324
 31
0.0
210
0.0
220
0.0
230
0.9999999999999996
 40
0.5773502691891688
 41
5.445446334141365
 42
5.497787143782534
  0
SPLINE
  5
114
330
2
100
AcDbEntity
  8
Visible (ANSI)
100
AcDbSpline
210
0.0
220
0.0
230
1.0
 70
     8
 71
     3
 72
    10
 73
     6
 74
     0
 42
0.0000000001
 43
0.0000000001
 40
0.0225200639418152
 40
0.0225200639418152
 40
0.0225200639418152
 40
0.0225200639418152
 40
0.1651473637667206
 40
0.1651473637667206
 40
0.3302947275306093
 40
0.3302947275306093
 40
0.3302947275306093
 40
0.3302947275306093
 10
9.3364302274185
 20
3.678619683816893
 30
0.0
 10
9.322885627448689
 20
3.67119074557092
 30
0.0
 10
9.309340984759641
 20
3.663759543720821
 30
0.0
 10
9.280112381882313
 20
3.647718505586909
 30
0.0
 10
9.264428788654136
 20
3.639108095709399
 30
0.0
 10
9.248744808890714
 20
3.630494371310846
 30
0.0
  0
ELLIPSE
  5
115
330
2
100
AcDbEntity
  8
Visible (ANSI)
100
AcDbEllipse
 10
9.245082438038084
 20
3.551886378983364
 30
0.0
 11
0.098999999999874
 21
-0.1714730299494096
 31
0.0
210
0.0
220
0.0
230
0.9999999999999998
 40
0.5773502691891686
 41
2.303853680551782
 42
2.356194490193002
  0
SPLINE
  5
116
330
2
100
AcDbEntity
  8
Visible (ANSI)
100
AcDbSpline
210
0.0
220
0.0
230
1.0
 70
     8
 71
     3
 72
    10
 73
     6
 74
     0
 42
0.0000000001
 43
0.0000000001
 40
0.0
 40
0.0
 40
0.0
 40
0.0
 40
0.16528686897342
 40
0.16528686897342
 40
0.2884921957388917
 40
0.2884921957388917
 40
0.2884921957388917
 40
0.2884921957388917
 10
9.252407179743341
 20
3.709102363638312
 30
0.0
 10
9.268454414783766
 20
3.717484388029166
 30
0.0
 10
9.284501109434623
 20
3.725859917716179
 30
0.0
 10
9.312508811898693
 20
3.74046780011693
 30
0.0
 10
9.324469611609547
 20
3.746702759228476
 30
0.0
 10
9.3364302274185
 20
3.752934271025348
 30
0.0
  0
LINE
  5
117
330
2
100
AcDbEntity
  8
Visible Narrow (ANSI)
100
AcDbLine
 10
9.245082438038085
 20
3.713552702007068
 30
0.0
 11
9.336430227418501
 21
3.766292372795728
 31
0.0
  0
LINE
  5
118
330
2
100
AcDbEntity
  8
Visible (ANSI)
100
AcDbLine
 10
9.248744808890714
 20
3.630494371310846
 30
0.0
 11
9.252407179743341
 21
3.709102363638312
 31
0.0
  0
ENDSEC
  0
SECTION
  2
OBJECTS
  0
DICTIONARY
  5
7
330
0
100
AcDbDictionary
281
     1
  3
ACAD_CIP_PREVIOUS_PRODUCT_INFO
350
150
  3
ACAD_COLOR
350
40
  3
ACAD_GROUP
350
2C
  3
ACAD_LAYOUT
350
15
  3
ACAD_MATERIAL
350
9
  3
ACAD_MLEADERSTYLE
350
43
  3
ACAD_MLINESTYLE
350
2D
  3
ACAD_PLOTSETTINGS
350
2E
  3
ACAD_PLOTSTYLENAME
350
6
  3
ACAD_SCALELIST
350
41
  3
ACAD_TABLESTYLE
350
42
  3
ACAD_VISUALSTYLE
350
26
  3
ACDB_RECOMPOSE_DATA
350
157
  3
AcDbVariableDictionary
350
12A
  3
DWGPROPS
350
158
  0
XRECORD
  5
150
102
{ACAD_REACTORS
330
7
102
}
330
7
100
AcDbXrecord
280
     1
300
AMECH_PP
300
2012
300
85794PDSS_2012_0F
  0
DICTIONARY
  5
40
102
{ACAD_REACTORS
330
7
102
}
330
7
100
AcDbDictionary
281
     1
  0
DICTIONARY
  5
2C
102
{ACAD_REACTORS
330
7
102
}
330
7
100
AcDbDictionary
281
     1
  0
DICTIONARY
  5
15
102
{ACAD_REACTORS
330
7
102
}
330
7
100
AcDbDictionary
281
     1
  3
Layout1
350
19
  3
Model
350
14
  0
DICTIONARY
  5
9
102
{ACAD_REACTORS
330
7
102
}
330
7
100
AcDbDictionary
281
     1
  3
ByBlock
350
38
  3
ByLayer
350
2F
  3
Global
350
8
  0
DICTIONARY
  5
43
102
{ACAD_REACTORS
330
7
102
}
330
7
100
AcDbDictionary
281
     1
  3
Standard
350
14D
  0
DICTIONARY
  5
2D
102
{ACAD_REACTORS
330
7
102
}
330
7
100
AcDbDictionary
281
     1
  3
Standard
350
44
  0
DICTIONARY
  5
2E
102
{ACAD_REACTORS
330
7
102
}
330
7
100
AcDbDictionary
281
     1
  0
ACDBDICTIONARYWDFLT
  5
6
102
{ACAD_REACTORS
330
7
102
}
330
7
100
AcDbDictionary
281
     1
  3
Normal
350
5
100
AcDbDictionaryWithDefault
340
5
  0
DICTIONARY
  5
41
102
{ACAD_REACTORS
330
7
102
}
330
7
100
AcDbDictionary
281
     1
  3
A0
350
49
  3
A1
350
4A
  3
A2
350
4B
  3
A3
350
4C
  3
A4
350
4D
  3
A5
350
4E
  3
A6
350
4F
  3
A7
350
50
  3
A8
350
51
  3
A9
350
52
  3
B0
350
53
  3
B1
350
54
  3
B2
350
55
  3
B3
350
56
  3
B4
350
57
  3
B5
350
58
  3
B6
350
59
  0
DICTIONARY
  5
42
102
{ACAD_REACTORS
330
7
102
}
330
7
100
AcDbDictionary
281
     1
  3
Standard
350
45
  0
DICTIONARY
  5
26
102
{ACAD_REACTORS
330
7
102
}
330
7
100
AcDbDictionary
281
     1
  3
2dWireframe
350
25
  3
Basic
350
13C
  3
Brighten
350
140
  3
ColorChange
350
144
  3
Conceptual
350
13E
  3
Dim
350
13F
  3
EdgeColorOff
350
14C
  3
Facepattern
350
143
  3
Flat
350
138
  3
FlatWithEdges
350
139
  3
Gouraud
350
13A
  3
GouraudWithEdges
350
13B
  3
Hidden
350
13D
  3
JitterOff
350
14A
  3
Linepattern
350
142
  3
OverhangOff
350
14B
  3
Realistic
350
46
  3
Shaded
350
149
  3
Shaded with edges
350
148
  3
Shades of Gray
350
145
  3
Sketchy
350
146
  3
Thicken
350
141
  3
Wireframe
350
47
  3
X-Ray
350
147
  0
XRECORD
  5
157
102
{ACAD_REACTORS
330
7
102
}
330
7
100
AcDbXrecord
280
     1
 90
        1
330
45
  0
DICTIONARY
  5
12A
102
{ACAD_REACTORS
330
7
102
}
330
7
100
AcDbDictionary
281
     1
  3
CANNOSCALE
350
12E
  3
CMLEADERSTYLE
350
12C
  3
CTABLESTYLE
350
12B
  3
DIMASSOC
350
135
  3
HIDETEXT
350
134
  3
INDEXCTL
350
133
  3
LAYEREVAL
350
130
  3
LAYERNOTIFY
350
131
  3
LIGHTINGUNITS
350
12F
  3
MSLTSCALE
350
12D
  3
SORTENTS
350
132
  3
XCLIPFRAME
350
153
  0
XRECORD
  5
158
102
{ACAD_REACTORS
330
7
102
}
330
7
100
AcDbXrecord
280
     1
  1
DWGPROPS COOKIE
  2

  3

  4

  6

  7

  8
jwalls
  9

300
=
301
=
302
=
303
=
304
=
305
=
306
=
307
=
308
=
309
=
 40
0.0013398842592593
 41
2456514.569027604
 42
2456514.574206678
  1

 90
        0
  0
LAYOUT
  5
19
102
{ACAD_XDICTIONARY
360
15C
102
}
102
{ACAD_REACTORS
330
15
102
}
330
15
100
AcDbPlotSettings
  1

  2

  4

  6

 40
0.0
 41
0.0
 42
0.0
 43
0.0
 44
0.0
 45
0.0
 46
0.0
 47
0.0
 48
0.0
 49
0.0
140
0.0
141
0.0
142
1.0
143
1.0
 70
   688
 72
     0
 73
     0
 74
     5
  7

 75
    16
147
1.0
148
0.0
149
0.0
100
AcDbLayout
  1
Layout1
 70
     1
 71
     1
 10
0.0
 20
0.0
 11
17.0
 21
11.0
 12
0.0
 22
0.0
 32
0.0
 14
0.0
 24
0.0
 34
0.0
 15
17.0
 25
11.0
 35
0.0
146
0.0
 13
0.0
 23
0.0
 33
0.0
 16
1.0
 26
0.0
 36
0.0
 17
0.0
 27
1.0
 37
0.0
 76
     0
330
16
  0
LAYOUT
  5
14
102
{ACAD_XDICTIONARY
360
15A
102
}
102
{ACAD_REACTORS
330
15
102
}
330
15
100
AcDbPlotSettings
  1

  2

  4

  6

 40
0.0
 41
0.0
 42
0.0
 43
0.0
 44
0.0
 45
0.0
 46
0.0
 47
0.0
 48
0.0
 49
0.0
140
0.0
141
0.0
142
1.0
143
1.0
 70
  1712
 72
     0
 73
     0
 74
     0
  7

 75
     0
147
1.0
148
0.0
149
0.0
100
AcDbLayout
  1
Model
 70
     1
 71
     0
 10
0.0
 20
0.0
 11
12.0
 21
9.0
 12
0.0
 22
0.0
 32
0.0
 14
0.0
 24
0.0
 34
0.0
 15
0.0
 25
0.0
 35
0.0
146
0.0
 13
0.0
 23
0.0
 33
0.0
 16
1.0
 26
0.0
 36
0.0
 17
0.0
 27
1.0
 37
0.0
 76
     0
330
2
331
24
  0
MATERIAL
  5
38
102
{ACAD_XDICTIONARY
360
39
102
}
102
{ACAD_REACTORS
330
9
102
}
330
9
100
AcDbMaterial
  1
ByBlock
 72
     0
 43
0.0208333333333333
 43
0.0
 43
0.0
 43
0.0
 43
0.0
 43
0.0208333333333333
 43
0.0
 43
0.0
 43
0.0
 43
0.0
 43
1.0
 43
0.0
 43
0.0
 43
0.0
 43
0.0
 43
1.0
 77
     0
 47
0.0208333333333333
 47
0.0
 47
0.0
 47
0.0
 47
0.0
 47
0.0208333333333333
 47
0.0
 47
0.0
 47
0.0
 47
0.0
 47
1.0
 47
0.0
 47
0.0
 47
0.0
 47
0.0
 47
1.0
171
     0
 49
0.0208333333333333
 49
0.0
 49
0.0
 49
0.0
 49
0.0
 49
0.0208333333333333
 49
0.0
 49
0.0
 49
0.0
 49
0.0
 49
1.0
 49
0.0
 49
0.0
 49
0.0
 49
0.0
 49
1.0
175
     0
142
0.0208333333333333
142
0.0
142
0.0
142
0.0
142
0.0
142
0.0208333333333333
142
0.0
142
0.0
142
0.0
142
0.0
142
1.0
142
0.0
142
0.0
142
0.0
142
0.0
142
1.0
179
     0
144
0.0208333333333333
144
0.0
144
0.0
144
0.0
144
0.0
144
0.0208333333333333
144
0.0
144
0.0
144
0.0
144
0.0
144
1.0
144
0.0
144
0.0
144
0.0
144
0.0
144
1.0
147
0.0208333333333333
147
0.0
147
0.0
147
0.0
147
0.0
147
0.0208333333333333
147
0.0
147
0.0
147
0.0
147
0.0
147
1.0
147
0.0
147
0.0
147
0.0
147
0.0
147
1.0
  0
MATERIAL
  5
2F
102
{ACAD_XDICTIONARY
360
30
102
}
102
{ACAD_REACTORS
330
9
102
}
330
9
100
AcDbMaterial
  1
ByLayer
 72
     0
 43
0.0208333333333333
 43
0.0
 43
0.0
 43
0.0
 43
0.0
 43
0.0208333333333333
 43
0.0
 43
0.0
 43
0.0
 43
0.0
 43
1.0
 43
0.0
 43
0.0
 43
0.0
 43
0.0
 43
1.0
 77
     0
 47
0.0208333333333333
 47
0.0
 47
0.0
 47
0.0
 47
0.0
 47
0.0208333333333333
 47
0.0
 47
0.0
 47
0.0
 47
0.0
 47
1.0
 47
0.0
 47
0.0
 47
0.0
 47
0.0
 47
1.0
171
     0
 49
0.0208333333333333
 49
0.0
 49
0.0
 49
0.0
 49
0.0
 49
0.0208333333333333
 49
0.0
 49
0.0
 49
0.0
 49
0.0
 49
1.0
 49
0.0
 49
0.0
 49
0.0
 49
0.0
 49
1.0
175
     0
142
0.0208333333333333
142
0.0
142
0.0
142
0.0
142
0.0
142
0.0208333333333333
142
0.0
142
0.0
142
0.0
142
0.0
142
1.0
142
0.0
142
0.0
142
0.0
142
0.0
142
1.0
179
     0
144
0.0208333333333333
144
0.0
144
0.0
144
0.0
144
0.0
144
0.0208333333333333
144
0.0
144
0.0
144
0.0
144
0.0
144
1.0
144
0.0
144
0.0
144
0.0
144
0.0
144
1.0
147
0.0208333333333333
147
0.0
147
0.0
147
0.0
147
0.0
147
0.0208333333333333
147
0.0
147
0.0
147
0.0
147
0.0
147
1.0
147
0.0
147
0.0
147
0.0
147
0.0
147
1.0
  0
MATERIAL
  5
8
102
{ACAD_XDICTIONARY
360
A
102
}
102
{ACAD_REACTORS
330
9
102
}
330
9
100
AcDbMaterial
  1
Global
 72
     0
 43
0.0208333333333333
 43
0.0
 43
0.0
 43
0.0
 43
0.0
 43
0.0208333333333333
 43
0.0
 43
0.0
 43
0.0
 43
0.0
 43
1.0
 43
0.0
 43
0.0
 43
0.0
 43
0.0
 43
1.0
 77
     0
 47
0.0208333333333333
 47
0.0
 47
0.0
 47
0.0
 47
0.0
 47
0.0208333333333333
 47
0.0
 47
0.0
 47
0.0
 47
0.0
 47
1.0
 47
0.0
 47
0.0
 47
0.0
 47
0.0
 47
1.0
171
     0
 49
0.0208333333333333
 49
0.0
 49
0.0
 49
0.0
 49
0.0
 49
0.0208333333333333
 49
0.0
 49
0.0
 49
0.0
 49
0.0
 49
1.0
 49
0.0
 49
0.0
 49
0.0
 49
0.0
 49
1.0
175
     0
142
0.0208333333333333
142
0.0
142
0.0
142
0.0
142
0.0
142
0.0208333333333333
142
0.0
142
0.0
142
0.0
142
0.0
142
1.0
142
0.0
142
0.0
142
0.0
142
0.0
142
1.0
179
     0
144
0.0208333333333333
144
0.0
144
0.0
144
0.0
144
0.0
144
0.0208333333333333
144
0.0
144
0.0
144
0.0
144
0.0
144
1.0
144
0.0
144
0.0
144
0.0
144
0.0
144
1.0
147
0.0208333333333333
147
0.0
147
0.0
147
0.0
147
0.0
147
0.0208333333333333
147
0.0
147
0.0
147
0.0
147
0.0
147
1.0
147
0.0
147
0.0
147
0.0
147
0.0
147
1.0
  0
MLEADERSTYLE
  5
14D
102
{ACAD_XDICTIONARY
360
155
102
}
102
{ACAD_REACTORS
330
43
102
}
330
43
100
AcDbMLeaderStyle
170
     2
171
     1
172
     0
 90
        2
 40
0.0
 41
0.0
173
     1
 91
-1056964608
340
1F
 92
       -2
290
     1
 42
0.09
291
     1
 43
0.36
  3
Standard
 44
0.18
300

342
1C
174
     1
178
     6
175
     1
176
     0
 93
-1056964608
 45
0.18
292
     0
297
     0
 46
0.18
 94
-1056964608
 47
1.0
 49
1.0
140
1.0
293
     1
141
0.0
294
     1
177
     0
142
1.0
295
     0
296
     0
143
0.125
1001
ACAD_MLEADERVER
1070
     2
  0
MLINESTYLE
  5
44
102
{ACAD_REACTORS
330
2D
102
}
330
2D
100
AcDbMlineStyle
  2
STANDARD
 70
     0
  3

 62
   256
 51
90.0
 52
90.0
 71
     2
 49
0.5
 62
   256
  6
BYLAYER
 49
-0.5
 62
   256
  6
BYLAYER
  0
ACDBPLACEHOLDER
  5
5
102
{ACAD_REACTORS
330
6
102
}
330
6
  0
SCALE
  5
49
102
{ACAD_REACTORS
330
41
102
}
330
41
100
AcDbScale
 70
     0
300
1:1
140
1.0
141
1.0
290
     1
  0
SCALE
  5
4A
102
{ACAD_REACTORS
330
41
102
}
330
41
100
AcDbScale
 70
     0
300
1/128" = 1'-0"
140
0.0078125
141
12.0
290
     0
  0
SCALE
  5
4B
102
{ACAD_REACTORS
330
41
102
}
330
41
100
AcDbScale
 70
     0
300
1/64" = 1'-0"
140
0.015625
141
12.0
290
     0
  0
SCALE
  5
4C
102
{ACAD_REACTORS
330
41
102
}
330
41
100
AcDbScale
 70
     0
300
1/32" = 1'-0"
140
0.03125
141
12.0
290
     0
  0
SCALE
  5
4D
102
{ACAD_REACTORS
330
41
102
}
330
41
100
AcDbScale
 70
     0
300
1/16" = 1'-0"
140
0.0625
141
12.0
290
     0
  0
SCALE
  5
4E
102
{ACAD_REACTORS
330
41
102
}
330
41
100
AcDbScale
 70
     0
300
3/32" = 1'-0"
140
0.09375
141
12.0
290
     0
  0
SCALE
  5
4F
102
{ACAD_REACTORS
330
41
102
}
330
41
100
AcDbScale
 70
     0
300
1/8" = 1'-0"
140
0.125
141
12.0
290
     0
  0
SCALE
  5
50
102
{ACAD_REACTORS
330
41
102
}
330
41
100
AcDbScale
 70
     0
300
3/16" = 1'-0"
140
0.1875
141
12.0
290
     0
  0
SCALE
  5
51
102
{ACAD_REACTORS
330
41
102
}
330
41
100
AcDbScale
 70
     0
300
1/4" = 1'-0"
140
0.25
141
12.0
290
     0
  0
SCALE
  5
52
102
{ACAD_REACTORS
330
41
102
}
330
41
100
AcDbScale
 70
     0
300
3/8" = 1'-0"
140
0.375
141
12.0
290
     0
  0
SCALE
  5
53
102
{ACAD_REACTORS
330
41
102
}
330
41
100
AcDbScale
 70
     0
300
1/2" = 1'-0"
140
0.5
141
12.0
290
     0
  0
SCALE
  5
54
102
{ACAD_REACTORS
330
41
102
}
330
41
100
AcDbScale
 70
     0
300
3/4" = 1'-0"
140
0.75
141
12.0
290
     0
  0
SCALE
  5
55
102
{ACAD_REACTORS
330
41
102
}
330
41
100
AcDbScale
 70
     0
300
1" = 1'-0"
140
1.0
141
12.0
290
     0
  0
SCALE
  5
56
102
{ACAD_REACTORS
330
41
102
}
330
41
100
AcDbScale
 70
     0
300
1-1/2" = 1'-0"
140
1.5
141
12.0
290
     0
  0
SCALE
  5
57
102
{ACAD_REACTORS
330
41
102
}
330
41
100
AcDbScale
 70
     0
300
3" = 1'-0"
140
3.0
141
12.0
290
     0
  0
SCALE
  5
58
102
{ACAD_REACTORS
330
41
102
}
330
41
100
AcDbScale
 70
     0
300
6" = 1'-0"
140
6.0
141
12.0
290
     0
  0
SCALE
  5
59
102
{ACAD_REACTORS
330
41
102
}
330
41
100
AcDbScale
 70
     0
300
1'-0" = 1'-0"
140
12.0
141
12.0
290
     0
  0
TABLESTYLE
  5
45
102
{ACAD_XDICTIONARY
360
119
102
}
102
{ACAD_REACTORS
330
42
102
}
330
42
100
AcDbTableStyle
  3
Standard
 70
     0
 71
     0
 40
0.06
 41
0.06
280
     0
281
     0
  7
Standard
140
0.18
170
     2
 62
     0
 63
     7
283
     0
274
    -2
284
     1
 64
     0
275
    -2
285
     1
 65
     0
276
    -2
286
     1
 66
     0
277
    -2
287
     1
 67
     0
278
    -2
288
     1
 68
     0
279
    -2
289
     1
 69
     0
  7
Standard
140
0.25
170
     5
 62
     0
 63
     7
283
     0
274
    -2
284
     1
 64
     0
275
    -2
285
     1
 65
     0
276
    -2
286
     1
 66
     0
277
    -2
287
     1
 67
     0
278
    -2
288
     1
 68
     0
279
    -2
289
     1
 69
     0
  7
Standard
140
0.18
170
     5
 62
     0
 63
     7
283
     0
274
    -2
284
     1
 64
     0
275
    -2
285
     1
 65
     0
276
    -2
286
     1
 66
     0
277
    -2
287
     1
 67
     0
278
    -2
288
     1
 68
     0
279
    -2
289
     1
 69
     0
  0
VISUALSTYLE
  5
25
102
{ACAD_XDICTIONARY
360
15E
102
}
102
{ACAD_REACTORS
330
26
102
}
330
26
100
AcDbVisualStyle
  2
2dWireframe
 70
     4
 71
     0
 72
     2
 73
     0
 90
        0
 40
-0.6
 41
-30.0
 62
     5
 63
     7
 74
     1
 91
        4
 64
     7
 65
   257
 75
     1
175
     1
 42
1.0
 92
        0
 66
   257
 43
1.0
 76
     1
 77
     6
 78
     2
 67
     7
 79
     5
170
     0
171
     0
290
     0
174
     0
 93
        1
 44
0.0
173
     0
291
     0
 45
0.0
1001
ACAD
1000
AcDbSavedByObjectVersion
1070
     0
  0
VISUALSTYLE
  5
13C
102
{ACAD_XDICTIONARY
360
16F
102
}
102
{ACAD_REACTORS
330
26
102
}
330
26
100
AcDbVisualStyle
  2
Basic
 70
     7
 71
     1
 72
     0
 73
     1
 90
        0
 40
-0.6
 41
-30.0
 62
     5
 63
     7
 74
     0
 91
        4
 64
     7
 65
   257
 75
     1
175
     1
 42
1.0
 92
        8
 66
     7
 43
1.0
 76
     1
 77
     6
 78
     2
 67
     7
 79
     5
170
     0
171
     0
290
     0
174
     0
 93
        1
 44
0.0
173
     0
291
     1
 45
0.0
1001
ACAD
1000
AcDbSavedByObjectVersion
1070
     0
  0
VISUALSTYLE
  5
140
102
{ACAD_XDICTIONARY
360
177
102
}
102
{ACAD_REACTORS
330
26
102
}
330
26
100
AcDbVisualStyle
  2
Brighten
 70
    12
 71
     2
 72
     2
 73
     0
 90
        0
 40
-0.6
 41
-30.0
 62
     5
 63
     7
 74
     1
 91
        4
 64
     7
 65
   257
 75
     1
175
     1
 42
1.0
 92
        8
 66
     7
 43
1.0
 76
     1
 77
     6
 78
     2
 67
     7
 79
     5
170
     0
171
     0
290
     0
174
     0
 93
        1
 44
50.0
173
     0
291
     1
 45
0.0
1001
ACAD
1000
AcDbSavedByObjectVersion
1070
     0
  0
VISUALSTYLE
  5
144
102
{ACAD_XDICTIONARY
360
17F
102
}
102
{ACAD_REACTORS
330
26
102
}
330
26
100
AcDbVisualStyle
  2
ColorChange
 70
    16
 71
     2
 72
     2
 73
     3
 90
        0
 40
-0.6
 41
-30.0
 62
     5
 63
     8
 74
     1
 91
        4
 64
     7
 65
   257
 75
     1
175
     1
 42
1.0
 92
        8
 66
     8
 43
1.0
 76
     1
 77
     6
 78
     2
 67
     7
 79
     5
170
     0
171
     0
290
     0
174
     0
 93
        1
 44
0.0
173
     0
291
     1
 45
0.0
1001
ACAD
1000
AcDbSavedByObjectVersion
1070
     0
  0
VISUALSTYLE
  5
13E
102
{ACAD_XDICTIONARY
360
173
102
}
102
{ACAD_REACTORS
330
26
102
}
330
26
100
AcDbVisualStyle
  2
Conceptual
 70
     9
 71
     3
 72
     2
 73
     0
 90
        0
 40
-0.6
 41
-30.0
 62
     5
 63
     7
 74
     2
 91
        2
 64
     7
 65
   257
 75
     1
175
     1
 42
179.0
 92
        8
 66
     7
 43
1.0
 76
     1
 77
     6
 78
     2
 67
     7
 79
     3
170
     0
171
     0
290
     0
174
     0
 93
        1
 44
0.0
173
     0
291
     0
 45
0.0
1001
ACAD
1000
AcDbSavedByObjectVersion
1070
     0
  0
VISUALSTYLE
  5
13F
102
{ACAD_XDICTIONARY
360
175
102
}
102
{ACAD_REACTORS
330
26
102
}
330
26
100
AcDbVisualStyle
  2
Dim
 70
    11
 71
     2
 72
     2
 73
     0
 90
        0
 40
-0.6
 41
-30.0
 62
     5
 63
     7
 74
     1
 91
        4
 64
     7
 65
   257
 75
     1
175
     1
 42
1.0
 92
        8
 66
     7
 43
1.0
 76
     1
 77
     6
 78
     2
 67
     7
 79
     5
170
     0
171
     0
290
     0
174
     0
 93
        1
 44
-50.0
173
     0
291
     1
 45
0.0
1001
ACAD
1000
AcDbSavedByObjectVersion
1070
     0
  0
VISUALSTYLE
  5
14C
102
{ACAD_XDICTIONARY
360
18F
102
}
102
{ACAD_REACTORS
330
26
102
}
330
26
100
AcDbVisualStyle
  2
EdgeColorOff
 70
    22
 71
     2
 72
     2
 73
     0
 90
        0
 40
-0.6
 41
-30.0
 62
     5
 63
     7
 74
     1
 91
        4
 64
     7
 65
   257
 75
     1
175
     1
 42
1.0
 92
        8
 66
     7
 43
1.0
 76
     1
 77
     6
 78
     2
 67
     7
 79
     5
170
     0
171
     0
290
     0
174
     0
 93
        1
 44
0.0
173
     0
291
     1
 45
0.0
1001
ACAD
1000
AcDbSavedByObjectVersion
1070
     0
  0
VISUALSTYLE
  5
143
102
{ACAD_XDICTIONARY
360
17D
102
}
102
{ACAD_REACTORS
330
26
102
}
330
26
100
AcDbVisualStyle
  2
Facepattern
 70
    15
 71
     2
 72
     2
 73
     0
 90
        0
 40
-0.6
 41
-30.0
 62
     5
 63
     7
 74
     1
 91
        4
 64
     7
 65
   257
 75
     1
175
     1
 42
1.0
 92
        8
 66
     7
 43
1.0
 76
     1
 77
     6
 78
     2
 67
     7
 79
     5
170
     0
171
     0
290
     0
174
     0
 93
        1
 44
0.0
173
     0
291
     1
 45
0.0
1001
ACAD
1000
AcDbSavedByObjectVersion
1070
     0
  0
VISUALSTYLE
  5
138
102
{ACAD_XDICTIONARY
360
167
102
}
102
{ACAD_REACTORS
330
26
102
}
330
26
100
AcDbVisualStyle
  2
Flat
 70
     0
 71
     2
 72
     1
 73
     1
 90
        2
 40
-0.6
 41
30.0
 62
     5
 63
     7
 74
     0
 91
        0
 64
     7
 65
   257
 75
     1
175
     1
 42
1.0
 92
        8
 66
     7
 43
1.0
 76
     1
 77
     6
 78
     2
 67
     7
 79
     5
170
     0
171
     0
290
     0
174
     0
 93
       13
 44
0.0
173
     0
291
     1
 45
0.0
1001
ACAD
1000
AcDbSavedByObjectVersion
1070
     0
  0
VISUALSTYLE
  5
139
102
{ACAD_XDICTIONARY
360
169
102
}
102
{ACAD_REACTORS
330
26
102
}
330
26
100
AcDbVisualStyle
  2
FlatWithEdges
 70
     1
 71
     2
 72
     1
 73
     1
 90
        2
 40
-0.6
 41
30.0
 62
     5
 63
     7
 74
     1
 91
        0
 64
     7
 65
   257
 75
     1
175
     1
 42
1.0
 92
        0
 66
   257
 43
1.0
 76
     1
 77
     6
 78
     2
 67
     7
 79
     5
170
     0
171
     0
290
     0
174
     0
 93
       13
 44
0.0
173
     0
291
     1
 45
0.0
1001
ACAD
1000
AcDbSavedByObjectVersion
1070
     0
  0
VISUALSTYLE
  5
13A
102
{ACAD_XDICTIONARY
360
16B
102
}
102
{ACAD_REACTORS
330
26
102
}
330
26
100
AcDbVisualStyle
  2
Gouraud
 70
     2
 71
     2
 72
     2
 73
     1
 90
        2
 40
-0.6
 41
30.0
 62
     5
 63
     7
 74
     0
 91
        0
 64
     7
 65
   257
 75
     1
175
     1
 42
1.0
 92
        0
 66
     7
 43
1.0
 76
     1
 77
     6
 78
     2
 67
     7
 79
     5
170
     0
171
     0
290
     0
174
     0
 93
       13
 44
0.0
173
     0
291
     1
 45
0.0
1001
ACAD
1000
AcDbSavedByObjectVersion
1070
     0
  0
VISUALSTYLE
  5
13B
102
{ACAD_XDICTIONARY
360
16D
102
}
102
{ACAD_REACTORS
330
26
102
}
330
26
100
AcDbVisualStyle
  2
GouraudWithEdges
 70
     3
 71
     2
 72
     2
 73
     1
 90
        2
 40
-0.6
 41
30.0
 62
     5
 63
     7
 74
     1
 91
        0
 64
     7
 65
   257
 75
     1
175
     1
 42
1.0
 92
        0
 66
   257
 43
1.0
 76
     1
 77
     6
 78
     2
 67
     7
 79
     5
170
     0
171
     0
290
     0
174
     0
 93
       13
 44
0.0
173
     0
291
     1
 45
0.0
1001
ACAD
1000
AcDbSavedByObjectVersion
1070
     0
  0
VISUALSTYLE
  5
13D
102
{ACAD_XDICTIONARY
360
171
102
}
102
{ACAD_REACTORS
330
26
102
}
330
26
100
AcDbVisualStyle
  2
Hidden
 70
     6
 71
     1
 72
     2
 73
     2
 90
        0
 40
-0.6
 41
-30.0
 62
     5
 63
     7
 74
     2
 91
        2
 64
     7
 65
   257
 75
     2
175
     1
 42
40.0
 92
        0
 66
   257
 43
1.0
 76
     1
 77
     6
 78
     2
 67
     7
 79
     3
170
     0
171
     0
290
     0
174
     0
 93
        1
 44
0.0
173
     0
291
     0
 45
0.0
1001
ACAD
1000
AcDbSavedByObjectVersion
1070
     0
  0
VISUALSTYLE
  5
14A
102
{ACAD_XDICTIONARY
360
18B
102
}
102
{ACAD_REACTORS
330
26
102
}
330
26
100
AcDbVisualStyle
  2
JitterOff
 70
    20
 71
     2
 72
     2
 73
     0
 90
        0
 40
-0.6
 41
-30.0
 62
     5
 63
     7
 74
     1
 91
        4
 64
     7
 65
   257
 75
     1
175
     1
 42
1.0
 92
       10
 66
     7
 43
1.0
 76
     1
 77
     6
 78
     2
 67
     7
 79
     5
170
     0
171
     0
290
     0
174
     0
 93
        1
 44
0.0
173
     0
291
     1
 45
0.0
1001
ACAD
1000
AcDbSavedByObjectVersion
1070
     0
  0
VISUALSTYLE
  5
142
102
{ACAD_XDICTIONARY
360
17B
102
}
102
{ACAD_REACTORS
330
26
102
}
330
26
100
AcDbVisualStyle
  2
Linepattern
 70
    14
 71
     2
 72
     2
 73
     0
 90
        0
 40
-0.6
 41
-30.0
 62
     5
 63
     7
 74
     1
 91
        4
 64
     7
 65
   257
 75
     7
175
     7
 42
1.0
 92
        8
 66
     7
 43
1.0
 76
     1
 77
     6
 78
     2
 67
     7
 79
     5
170
     0
171
     0
290
     0
174
     0
 93
        1
 44
0.0
173
     0
291
     1
 45
0.0
1001
ACAD
1000
AcDbSavedByObjectVersion
1070
     0
  0
VISUALSTYLE
  5
14B
102
{ACAD_XDICTIONARY
360
18D
102
}
102
{ACAD_REACTORS
330
26
102
}
330
26
100
AcDbVisualStyle
  2
OverhangOff
 70
    21
 71
     2
 72
     2
 73
     0
 90
        0
 40
-0.6
 41
-30.0
 62
     5
 63
     7
 74
     1
 91
        4
 64
     7
 65
   257
 75
     1
175
     1
 42
1.0
 92
        9
 66
     7
 43
1.0
 76
     1
 77
     6
 78
     2
 67
     7
 79
     5
170
     0
171
     0
290
     0
174
     0
 93
        1
 44
0.0
173
     0
291
     1
 45
0.0
1001
ACAD
1000
AcDbSavedByObjectVersion
1070
     0
  0
VISUALSTYLE
  5
46
102
{ACAD_XDICTIONARY
360
163
102
}
102
{ACAD_REACTORS
330
26
102
}
330
26
100
AcDbVisualStyle
  2
Realistic
 70
     8
 71
     2
 72
     2
 73
     0
 90
        2
 40
-0.6
 41
30.0
 62
     5
 63
     7
 74
     0
 91
        0
 64
     7
 65
   257
 75
     1
175
     1
 42
1.0
 92
        8
 66
   257
 43
1.0
 76
     1
 77
     6
 78
     2
 67
     7
 79
     3
170
     0
171
     0
290
     0
174
     0
 93
       13
 44
0.0
173
     0
291
     0
 45
0.0
1001
ACAD
1000
AcDbSavedByObjectVersion
1070
     0
  0
VISUALSTYLE
  5
149
102
{ACAD_XDICTIONARY
360
189
102
}
102
{ACAD_REACTORS
330
26
102
}
330
26
100
AcDbVisualStyle
  2
Shaded
 70
    27
 71
     2
 72
     2
 73
     1
 90
        2
 40
-0.6
 41
30.0
 62
     5
 63
     7
 74
     0
 91
        4
 64
     7
 65
   257
 75
     1
175
     1
 42
1.0
 92
        8
 66
   257
 43
1.0
 76
     1
 77
     6
 78
     2
 67
     8
 79
     3
170
     0
171
     0
290
     0
174
     0
 93
        5
 44
0.0
173
     0
291
     0
 45
0.0
1001
ACAD
1000
AcDbSavedByObjectVersion
1070
     0
  0
VISUALSTYLE
  5
148
102
{ACAD_XDICTIONARY
360
187
102
}
102
{ACAD_REACTORS
330
26
102
}
330
26
100
AcDbVisualStyle
  2
Shaded with edges
 70
    26
 71
     2
 72
     2
 73
     1
 90
        2
 40
-0.6
 41
30.0
 62
     5
 63
     7
 74
     1
 91
       10
 64
     7
 65
   257
 75
     2
175
     1
 42
1.0
 92
        8
 66
   257
 43
1.0
 76
     1
 77
     6
 78
     2
 67
     7
 79
     3
170
     0
171
     0
290
     0
174
     0
 93
        5
 44
0.0
173
     0
291
     0
 45
0.0
1001
ACAD
1000
AcDbSavedByObjectVersion
1070
     0
  0
VISUALSTYLE
  5
145
102
{ACAD_XDICTIONARY
360
181
102
}
102
{ACAD_REACTORS
330
26
102
}
330
26
100
AcDbVisualStyle
  2
Shades of Gray
 70
    23
 71
     2
 72
     2
 73
     3
 90
        0
 40
-0.6
 41
-30.0
 62
     5
 63
     7
 74
     2
 91
        2
 64
     7
 65
     7
 75
     1
175
     1
 42
40.0
 92
        8
 66
     7
 43
1.0
 76
     1
 77
     6
 78
     2
 67
     7
 79
     3
170
     0
171
     0
290
     0
174
     0
 93
        1
 44
0.0
173
     0
291
     0
 45
0.0
1001
ACAD
1000
AcDbSavedByObjectVersion
1070
     0
  0
VISUALSTYLE
  5
146
102
{ACAD_XDICTIONARY
360
183
102
}
102
{ACAD_REACTORS
330
26
102
}
330
26
100
AcDbVisualStyle
  2
Sketchy
 70
    24
 71
     1
 72
     2
 73
     2
 90
        0
 40
-0.6
 41
-30.0
 62
     5
 63
     7
 74
     2
 91
        2
 64
     7
 65
     7
 75
     1
175
     1
 42
40.0
 92
       11
 66
     7
 43
1.0
 76
     1
 77
     6
 78
     2
 67
     7
 79
     6
170
     0
171
     0
290
     0
174
     0
 93
        1
 44
0.0
173
     0
291
     0
 45
0.0
1001
ACAD
1000
AcDbSavedByObjectVersion
1070
     0
  0
VISUALSTYLE
  5
141
102
{ACAD_XDICTIONARY
360
179
102
}
102
{ACAD_REACTORS
330
26
102
}
330
26
100
AcDbVisualStyle
  2
Thicken
 70
    13
 71
     2
 72
     2
 73
     0
 90
        0
 40
-0.6
 41
-30.0
 62
     5
 63
     7
 74
     1
 91
        4
 64
     7
 65
   257
 75
     1
175
     1
 42
1.0
 92
       12
 66
     7
 43
1.0
 76
     1
 77
     6
 78
     2
 67
     7
 79
     5
170
     0
171
     0
290
     0
174
     0
 93
        1
 44
0.0
173
     0
291
     1
 45
0.0
1001
ACAD
1000
AcDbSavedByObjectVersion
1070
     0
  0
VISUALSTYLE
  5
47
102
{ACAD_XDICTIONARY
360
165
102
}
102
{ACAD_REACTORS
330
26
102
}
330
26
100
AcDbVisualStyle
  2
Wireframe
 70
     5
 71
     0
 72
     2
 73
     0
 90
        0
 40
-0.6
 41
-30.0
 62
     5
 63
     7
 74
     1
 91
        4
 64
     7
 65
   257
 75
     1
175
     1
 42
1.0
 92
        0
 66
   257
 43
1.0
 76
     1
 77
     6
 78
     2
 67
     7
 79
     3
170
     0
171
     0
290
     0
174
     0
 93
        1
 44
0.0
173
     0
291
     0
 45
0.0
1001
ACAD
1000
AcDbSavedByObjectVersion
1070
     0
  0
VISUALSTYLE
  5
147
102
{ACAD_XDICTIONARY
360
185
102
}
102
{ACAD_REACTORS
330
26
102
}
330
26
100
AcDbVisualStyle
  2
X-Ray
 70
    25
 71
     2
 72
     2
 73
     1
 90
        1
 40
0.5
 41
-30.0
 62
     5
 63
     7
 74
     1
 91
        0
 64
     7
 65
   257
 75
     1
175
     1
 42
1.0
 92
        8
 66
     7
 43
1.0
 76
     1
 77
     6
 78
     2
 67
     7
 79
     3
170
     0
171
     0
290
     0
174
     0
 93
       13
 44
0.0
173
     0
291
     0
 45
0.0
1001
ACAD
1000
AcDbSavedByObjectVersion
1070
     0
  0
DICTIONARYVAR
  5
12E
102
{ACAD_REACTORS
330
12A
102
}
330
12A
100
DictionaryVariables
280
     0
  1
1:1
  0
DICTIONARYVAR
  5
12C
102
{ACAD_REACTORS
330
12A
102
}
330
12A
100
DictionaryVariables
280
     0
  1
STANDARD
  0
DICTIONARYVAR
  5
12B
102
{ACAD_REACTORS
330
12A
102
}
330
12A
100
DictionaryVariables
280
     0
  1
STANDARD
  0
DICTIONARYVAR
  5
135
102
{ACAD_REACTORS
330
12A
102
}
330
12A
100
DictionaryVariables
280
     0
  1
1
  0
DICTIONARYVAR
  5
134
102
{ACAD_REACTORS
330
12A
102
}
330
12A
100
DictionaryVariables
280
     0
  1
1
  0
DICTIONARYVAR
  5
133
102
{ACAD_REACTORS
330
12A
102
}
330
12A
100
DictionaryVariables
280
     0
  1
0
  0
DICTIONARYVAR
  5
130
102
{ACAD_REACTORS
330
12A
102
}
330
12A
100
DictionaryVariables
280
     0
  1
0
  0
DICTIONARYVAR
  5
131
102
{ACAD_REACTORS
330
12A
102
}
330
12A
100
DictionaryVariables
280
     0
  1
0
  0
DICTIONARYVAR
  5
12F
102
{ACAD_REACTORS
330
12A
102
}
330
12A
100
DictionaryVariables
280
     0
  1
2
  0
DICTIONARYVAR
  5
12D
102
{ACAD_REACTORS
330
12A
102
}
330
12A
100
DictionaryVariables
280
     0
  1
1
  0
DICTIONARYVAR
  5
132
102
{ACAD_REACTORS
330
12A
102
}
330
12A
100
DictionaryVariables
280
     0
  1
127
  0
DICTIONARYVAR
  5
153
102
{ACAD_REACTORS
330
12A
102
}
330
12A
100
DictionaryVariables
280
     0
  1
2
  0
DICTIONARY
  5
15C
330
19
100
AcDbDictionary
280
     1
281
     1
  3
ACAD_XREC_ROUNDTRIP
360
15D
  0
DICTIONARY
  5
15A
330
14
100
AcDbDictionary
280
     1
281
     1
  3
ACAD_XREC_ROUNDTRIP
360
15B
  0
DICTIONARY
  5
39
330
38
100
AcDbDictionary
280
     1
281
     1
  3
ACAD_XREC_ROUNDTRIP
360
161
  3
BUMPTILE
360
3A
  3
DIFFUSETILE
360
3B
  3
OPACITYTILE
360
3C
  3
REFLECTIONTILE
360
3D
  3
REFRACTIONTILE
360
3E
  3
SPECULARTILE
360
3F
  0
DICTIONARY
  5
30
330
2F
100
AcDbDictionary
280
     1
281
     1
  3
ACAD_XREC_ROUNDTRIP
360
160
  3
BUMPTILE
360
31
  3
DIFFUSETILE
360
32
  3
FBXASSET
360
33
  3
OPACITYTILE
360
34
  3
REFLECTIONTILE
360
35
  3
REFRACTIONTILE
360
36
  3
SPECULARTILE
360
37
  0
DICTIONARY
  5
A
330
8
100
AcDbDictionary
280
     1
281
     1
  3
ACAD_XREC_ROUNDTRIP
360
159
  3
BUMPTILE
360
B
  3
DIFFUSETILE
360
C
  3
FBXASSET
360
D
  3
OPACITYTILE
360
E
  3
REFLECTIONTILE
360
F
  3
REFRACTIONTILE
360
10
  3
SPECULARTILE
360
11
  0
DICTIONARY
  5
155
330
14D
100
AcDbDictionary
280
     1
281
     1
  3
ACAD_XREC_ROUNDTRIP
360
156
  0
DICTIONARY
  5
119
330
45
100
AcDbDictionary
280
     1
281
     1
  3
ACAD_ROUNDTRIP_2008_TABLESTYLE_CELLSTYLEMAP
360
154
  3
ACAD_XREC_ROUNDTRIP
360
162
  0
DICTIONARY
  5
15E
330
25
100
AcDbDictionary
280
     1
281
     1
  3
ACAD_XREC_ROUNDTRIP
360
15F
  0
DICTIONARY
  5
16F
330
13C
100
AcDbDictionary
280
     1
281
     1
  3
ACAD_XREC_ROUNDTRIP
360
170
  0
DICTIONARY
  5
177
330
140
100
AcDbDictionary
280
     1
281
     1
  3
ACAD_XREC_ROUNDTRIP
360
178
  0
DICTIONARY
  5
17F
330
144
100
AcDbDictionary
280
     1
281
     1
  3
ACAD_XREC_ROUNDTRIP
360
180
  0
DICTIONARY
  5
173
330
13E
100
AcDbDictionary
280
     1
281
     1
  3
ACAD_XREC_ROUNDTRIP
360
174
  0
DICTIONARY
  5
175
330
13F
100
AcDbDictionary
280
     1
281
     1
  3
ACAD_XREC_ROUNDTRIP
360
176
  0
DICTIONARY
  5
18F
330
14C
100
AcDbDictionary
280
     1
281
     1
  3
ACAD_XREC_ROUNDTRIP
360
190
  0
DICTIONARY
  5
17D
330
143
100
AcDbDictionary
280
     1
281
     1
  3
ACAD_XREC_ROUNDTRIP
360
17E
  0
DICTIONARY
  5
167
330
138
100
AcDbDictionary
280
     1
281
     1
  3
ACAD_XREC_ROUNDTRIP
360
168
  0
DICTIONARY
  5
169
330
139
100
AcDbDictionary
280
     1
281
     1
  3
ACAD_XREC_ROUNDTRIP
360
16A
  0
DICTIONARY
  5
16B
330
13A
100
AcDbDictionary
280
     1
281
     1
  3
ACAD_XREC_ROUNDTRIP
360
16C
  0
DICTIONARY
  5
16D
330
13B
100
AcDbDictionary
280
     1
281
     1
  3
ACAD_XREC_ROUNDTRIP
360
16E
  0
DICTIONARY
  5
171
330
13D
100
AcDbDictionary
280
     1
281
     1
  3
ACAD_XREC_ROUNDTRIP
360
172
  0
DICTIONARY
  5
18B
330
14A
100
AcDbDictionary
280
     1
281
     1
  3
ACAD_XREC_ROUNDTRIP
360
18C
  0
DICTIONARY
  5
17B
330
142
100
AcDbDictionary
280
     1
281
     1
  3
ACAD_XREC_ROUNDTRIP
360
17C
  0
DICTIONARY
  5
18D
330
14B
100
AcDbDictionary
280
     1
281
     1
  3
ACAD_XREC_ROUNDTRIP
360
18E
  0
DICTIONARY
  5
163
330
46
100
AcDbDictionary
280
     1
281
     1
  3
ACAD_XREC_ROUNDTRIP
360
164
  0
DICTIONARY
  5
189
330
149
100
AcDbDictionary
280
     1
281
     1
  3
ACAD_XREC_ROUNDTRIP
360
18A
  0
DICTIONARY
  5
187
330
148
100
AcDbDictionary
280
     1
281
     1
  3
ACAD_XREC_ROUNDTRIP
360
188
  0
DICTIONARY
  5
181
330
145
100
AcDbDictionary
280
     1
281
     1
  3
ACAD_XREC_ROUNDTRIP
360
182
  0
DICTIONARY
  5
183
330
146
100
AcDbDictionary
280
     1
281
     1
  3
ACAD_XREC_ROUNDTRIP
360
184
  0
DICTIONARY
  5
179
330
141
100
AcDbDictionary
280
     1
281
     1
  3
ACAD_XREC_ROUNDTRIP
360
17A
  0
DICTIONARY
  5
165
330
47
100
AcDbDictionary
280
     1
281
     1
  3
ACAD_XREC_ROUNDTRIP
360
166
  0
DICTIONARY
  5
185
330
147
100
AcDbDictionary
280
     1
281
     1
  3
ACAD_XREC_ROUNDTRIP
360
186
  0
XRECORD
  5
15D
102
{ACAD_REACTORS
330
15C
102
}
330
15C
100
AcDbXrecord
280
     1
102
SHADEPLOT
 70
     0
102
SHADEPLOTRESLEVEL
 70
     2
102
SHADEPLOTCUSTOMDPI
 70
   300
  0
XRECORD
  5
15B
102
{ACAD_REACTORS
330
15A
102
}
330
15A
100
AcDbXrecord
280
     1
102
SHADEPLOT
 70
     0
102
SHADEPLOTRESLEVEL
 70
     2
102
SHADEPLOTCUSTOMDPI
 70
   300
  0
XRECORD
  5
161
102
{ACAD_REACTORS
330
39
102
}
330
39
100
AcDbXrecord
280
     1
102
MATERIAL
148
0.0
149
0.0
149
0.0
 93
        0
 94
      127
282
     0
 72
     0
 77
     0
171
     0
175
     0
179
     0
273
     0
  0
XRECORD
  5
3A
102
{ACAD_REACTORS
330
39
102
}
330
39
100
AcDbXrecord
280
     1
270
     1
271
     1
  0
XRECORD
  5
3B
102
{ACAD_REACTORS
330
39
102
}
330
39
100
AcDbXrecord
280
     1
270
     1
271
     1
  0
XRECORD
  5
3C
102
{ACAD_REACTORS
330
39
102
}
330
39
100
AcDbXrecord
280
     1
270
     1
271
     1
  0
XRECORD
  5
3D
102
{ACAD_REACTORS
330
39
102
}
330
39
100
AcDbXrecord
280
     1
270
     1
271
     1
  0
XRECORD
  5
3E
102
{ACAD_REACTORS
330
39
102
}
330
39
100
AcDbXrecord
280
     1
270
     1
271
     1
  0
XRECORD
  5
3F
102
{ACAD_REACTORS
330
39
102
}
330
39
100
AcDbXrecord
280
     1
270
     1
271
     1
  0
XRECORD
  5
160
102
{ACAD_REACTORS
330
30
102
}
330
30
100
AcDbXrecord
280
     1
102
MATERIAL
148
0.0
149
0.0
149
0.0
 93
        0
 94
      127
282
     0
 72
     0
 77
     0
171
     0
175
     0
179
     0
273
     0
  0
XRECORD
  5
31
102
{ACAD_REACTORS
330
30
102
}
330
30
100
AcDbXrecord
280
     1
270
     1
271
     1
  0
XRECORD
  5
32
102
{ACAD_REACTORS
330
30
102
}
330
30
100
AcDbXrecord
280
     1
270
     1
271
     1
  0
XRECORD
  5
33
102
{ACAD_REACTORS
330
30
102
}
330
30
100
AcDbXrecord
280
     1
 70
     1
 90
1959938040
 71
     1
  1
6DC65F06-DF41-43D5-92AC-77E944CC4D3C
311
504B03040A0000080000EC6C09433DEE336E79000000790000001B0000006175746F6465736B2D64657369676E2D7061636B6167652E786D6C3C3F786D6C2076657273696F6E3D22312E302220656E636F64696E673D227574662D3822203F3E3C666F726D6174733E3C666F726D61743E687474703A2F2F736368656D612E
311
6175746F6465736B2E636F6D2F64657369676E2D7061636B6167652F323030393C2F666F726D61743E3C2F666F726D6174733E504B0304140006080800EC6C0943D486FD9CA0000000F4000000130000005B436F6E74656E745F54797065735D2E786D6C7D8EC10E82300C865F65E91D8A1E8C310C0EEA1BF002731658846E
311
D98AC1B77784ABF1D8FE5FBFBF75BBCE937A534CCEB38643598122B6FEE978D0B0485F9C41B54DDD7D022595594E1A469170414C76A4D9A4D207E29CF43ECE46F218070CC6BECC4078ACAA135ACF422C856C0E68EA1BF5669944DDD7BCDE7B1F8E415D77AECB980613C2E4AC91FC167A2B244592486606FC29C8FD7F045B9A
311
EF7053A7E60B504B0304140006080800EC6C0943F6037980E80000007C01000008000000636F72652E786D6C8D50D18E832010FC15B2EF288A4DD4208DADF60BEE0708504B5AC10834F7F987AD4DEEDEEE697767677627C38EDFF3033DF5EA8DB31D141901A4AD74CAD8A98318AEB80674E46C752EFCA201B262D61D6C3070
311
36AD2E2E3B249D0DDA86845AA7F40E0AEF7500241FA9E9C0CB9B9E452662480C7FCF1621EF62D259F1E9923846A3D0FB8951E99EB91ABD022FFAC3D88CB4C4F4D2505C8D03C1A7B23EE3BEBA1CC869A8FB711858BE89390B66FEFC97AB16412BE0252928263526CD57415BDAB46595C69610966FF43FA2B8A87F8AA2B18196
311
BBDDB7CC27AFC9C86BC159BE6591CA2BA854B7DCF80F504B0304140006080800EC6C094355019EA25F0000007C00000007000000636E782E786D6C4DCB3B0E80201045D1AD90E915ED2CF8AC45050C11660C8261F98AB1B07AC9C97D42D718D865D3E909258CFD00CCE24AC6E326A164D74DC0B4128928FF326038472BA131
311
28B1252AC747C6BAB984FC68F0B87FE8960A5C09FE86CFB69FBA01504B0304140006080800EC6C09436DB2A0DD65010000020300000C0000006662782F636F72652E786D6C8D52ED8A8330107C9590FF9AF851D01253DAD33EC1BD40AAA927D54462227DFC5B3F8AD7A3942268DCD9D9991D65877BD7A2519AA1D12AC3814F
311
3192AAD455A3EA0C3B7BF5128C0E9C19ADED9F368C94E86486A732E6AC36DAF56BA9D4CA4A65A1AA7425D7A2180669312A5B386478287F64277CE12C740C37BF17E54DD4D20F7C80A18FB3C11A30801691E98EF9F5726764A973E65C53AD6853815A736DA4C13C38EE8AB488422F3AA791171739F54E61F2E51DE3F38E9EF2
311
E458E43923139933DB740F77A591C2CA0AF390069147138FA6DF41B48FD27D18C3EB9E5246A6F62792EBAB0F49AE51360A57BB0B6D00AF606406FE6D0B1159348811FC10CEC814223CE6849F83864020642B2EED638F1B9446595A6D62402AED366814AD93A04AD17C31B2A030791E009BBD9C13BE99F37E067C40A16AB026
311
2C1C2FCE4EEA6C515DA3E8A5F1467B474A9B4EB49BB9C5E276DF845ED24BDD6AF3099BACAB92354C32FDBDFC17504B0304140006080800EC6C0943B0973A357E0000009D0000000B0000006662782F636E782E786D6C4DCCDF0AC2201C86E15B91DFB9CD3FC319A843A3EE633437A44DC334BAFCB6D841471F3C7CBCAAFFAC
311
0B7AFBFC0A296AA02702C8C77B1A439C35D4326109A8372AA754FE6E80E2B07A0D3B8351734EF579D0E8A7A12E65D325C4C781947494BBDB15778C09DC3AC2B13B5B8E8993565E0413B2B5D018D5FC4ADBEE61F305504B0304140006080800EC6C0943CE0D6BD82B01000015020000310000006662782F3130373133424645
311
2D373232362D344230332D423941332D3042384138433632363834412F636F72652E786D6C8D51CB6EC32010FC15C4293D6083715C1261A2B86ABFA03FE0D8244589C1E251E5F3BBD48ED4DE7261D1ECCCEC68571EEED30D7D6B1F8CB32D6605C548DBC18DC65E5A9CE299088C0E4A7AE7E21F1A46B69F748B338C95BC7897
311
E6151A9C8DDA4640AD1BF50AF621E888D170834F8BC3F0A5A7BEE8530446B816733F5CFB8B2E58016DE02919A287006819925FAC187D65BCFB7827AF55D590BAA39C74BB2327B41347F1D6548DA88FB25C844AA664C6556E468863CE46FB674DB258C968A647FCC1EB3EEA11AB8A32982808DD7D32BEE7BB7D55132AF694CA
311
32D3FF89D23C3E294AC6465EAD71175980ACB25C1A4A8E2E9D6E8F30FA3E3B1F519EB7097A78C18A16940ACAC59635B25CB8B001306DEAD53444E761C39BEB09E86CBB3837B592653E1294DF0B42CD07553F504B0304140006080800EC6C0943010BA7654C01000033030000300000006662782F31303731334246452D3732
311
32362D344230332D423941332D3042384138433632363834412F636E782E786D6CD593CD6EC23010845FC5F23D7F2442801C23F5D027E8A157C75EA88B6347FEA9CADB770D8672E1D0632F5632FB7966354AD8FE7B36E40B7CD0CE8EB4AB5B4AC04AA7B43D8E34C543B5A164CF99772E3E60945831C348B34C393B7A979622
311
2938886422AA46DB53113D0497BC848072BE498C93C2A001D82AA108F3044A812277109F0EE0711514A733891F405E5FDE899B3E41C6C09AECC259933338CB67497A802891468430D2203F6016B548D12908A75A8928EAAEBE653DD9E9D789E40BB7C8E435C9E123CD27E565A31A7B640D0E390BD1637B058AE7052817CB62
311
B414114B6E2EE095E12C691BD743613516EF91EED6FD30A0D965C659D43314427A101114E5ABB6EBAB7653B5DBB7AEDFF5DBDD6AC0D75DDBB226E39C4DCE9972096DC0BB85486723D84879C79A3C7E565FE188D21EBB76FEFC8722B180927A6DE7EEF19FFB692EDF37D6E5F12FE03F504B0304140006080800EC6C0943380B
311
1BE3A605000081100000340000006662782F31303731334246452D373232362D344230332D423941332D3042384138433632363834412F6F626A656374732E786D6CAD575B6FDB3614FE2B82F6B23DC8B26C254D064543623785D1A52D6AB4D88301839228850B750149A5CE7EFD3E4A942CB976EA0D7DD18597C373BEF39D
311
0B833F7639B79EA990AC2C6E6C6F32B52D5AC465C28AECC6AE55EA5CD9D61F6120CA520D96D95641727A63EB613B0C3251D695194A684A6AAE0E46EFEFFEB2644C0B6A5B312752DED8327EA43999905A9509954F93842832C9D2DDC49BB40BC7623341AAC703A11511B450D014E305A458AD52DEF8776ABB61E0EAF930D04F
311
B36A7E7A95DBD8333E9F15529122FEEEB0033173CF5FBE9D5D5C3B17BE3F77FCCB99E7DCDDDF2D1DEFCD7CBAB85C2CAE6FDF5EE360A90424194D044DEDF01DB0112C0EDC762A0C6A56A8F9CC2C310E72057D66DA537638B3BCC06DD7F4D619238FA91F974541E3062BA0D1D8674427B4A245029F332AA1D900A1E9F8D7D338
311
0EA6E7FADF1C391C3E0F81E18E81A04EF7EE3DD4B48CFE8609F21C06094935035B2C8DA12D57A77B84A3B2E4668E492B278A0A46B8C559248878B1432CD54BC26024463359E868D016D821BCD04E8FE98230FA31CF8F6999D69C6B1ADB6113055BC40A55B2D18CFD43C55EFB2132D009BED26CB83206A9978ADAE1754B91AB
311
0336B5405A2927195C0E33F5CEF9ECC0D0858ED3D5D20EDFDF47BBB58EDDE38757A2ACA8509A3EA056E7B8EEAD51323A7967794E6FB00F54D983F219C87F40A8EF5581DF04DBF93BDF9CA20429645A8A1CBEB1A69633C5636A79CD537F0FBE02B7DF3CF6DE293CE16C0DD54FC0736CC3D0970338C3E019842FC5DC98B68E09
311
47DA78600500D224B1788921E4E134DAD9E10A590E5919BB080F3D980C759FF119B8460C124573D2E05D00CB83B4784682066C0D23A1464B7EA3E0DE4FDFA5B3E660B3EC14BC173F85AEB7CBF5FB752D5212D30713D34B9AB2822994B83D6F860A8D301F59F4445FBE952281A1DFE3BD1EE29D9BA324D0D6986BE0B32EA7EB
311
9FFDC9A30362ECCB4A9D6E821F9C002374611DC87F6032A69C9382967577EEABF50365A3855807BB66725F60F68505A469670E6210453A16ACD220F6D5AA4F9A9313D67D597D0023EDF0EEE54FF232CC5ED13EF7C6252FC5367AD9B669E928D45FC7DC3618B85A0AE8DE044917FF06F46DC2D2B49648824770FDBA5A0C7DA7
311
D302524427B58D161FF623B88830A4EDE4A25A0B824A5A165B86BA89B83B7AC0503E20350C68049ED258529E6E19E775BE4D194735DAE6A43A01C7FFD73FAAF36A4BF2B22ED409D923D5511DC6BA8FD82BBF11153FDAE1BA793B77C8BD094D4E9041D79223588D5C7BB95C5C5EDC4F2F9DE5BDEF39FE7C79E15CCF6E17CE9B
311
376FAF7D7FB1F09773986E346A9AA830E84ACD30A2E12594B6A016CCB8EFCB0AF16392801D3E102537EFDAF0ECDE5F5613F4C2818B3DA897FDC6DBE4197D1F4D7E2C60BFF2A8A0555E719AD342111D430FFA837F26E83346CAB4E3AB9C64F40C291FDFAD0F8CC1C819FB3EE978A7DF0EF69AD1850EC8A342D4639D470561FC
311
6063D62239A98ACCE0D7F9A47FB785A6FBD57FC631E84C65C959823C9858192D73AA900DCF284222A712D41BF6F489B97B9CB1FBB9ED10158938ED3479246892B9445880E475ACC6E3D62F68EA745F7563A3DC4E9EF03099C2B6C0991B1B4DBA6231959308055AB7428D707069D8C983B3A4C8387AED7653FFDFEFD2D88C4A
311
72BFE49CFEC9D8D5A6706300D24885BE010D11BCD32813068D6E663EFE4F8677EA5844E133AA556FCB7EA037A6390621DA1A656E0B68629ECCD13B04EAEB66799366CD0891B36E59AF92A095EA2822B2E6A6A0F5332ADD2E3FB9E850ACD547ABE275065F9E2FC9111464AE75808345608591591105AA2E7EDF7C12256EB2B9
311
75CF4001EBD7DDD5E56F9B4599E765D10E6D6ECD7DD85A3FE2769B6C901CA8BE96C8CD6CEACD36CD75C0DC50B61191744212F984017856B01EE891FBC1CBF6CE883AD44EF4EB5CED8A0386AE9696296C3E841ABA0C73AB06078D47412DC490BE52EA88192EA85EBD11B8CD52A820D0CB87FF02504B0304140006080000EC6C
311
0943000000000000000000000000350000006662782F31303731334246452D373232362D344230332D423941332D3042384138433632363834412F76657274696365732E62696E504B0304140006080800EC6C0943F270F1330600000004000000360000006662782F31303731334246452D373232362D344230332D423941
311
332D3042384138433632363834412F747269616E676C65732E62696E636660600000504B0304140006080000EC6C0943000000000000000000000000370000006662782F31303731334246452D373232362D344230332D423941332D3042384138433632363834412F617474726962757465732E62696E504B030414000608
311
0800EC6C0943D5987DFC8F00000041010000360000006662782F31303731334246452D373232362D344230332D423941332D3042384138433632363834412F6469726563746F72792E786D6C858F410EC2201045AF4266AF15DDB800BA74E7C21B903225242D6328188F2FA5C4183471359997F9FF81E89FF3C41E1816475E
311
02DF1F80A11FC8386F25A438EECEC07A250251FC3803E6F58C12560C4AD840E95E91C151A72936F496F35732D860FE635F62C8F2DA16B505C545B74125BAA2FA9E05D7CC053D063734D5C7665FD55B6B8D15D5E9BFEAFD8490FFA45E504B0304140006080800EC6C09439EE924B1FC000000A00100003B0000006662782F31
311
303731334246452D373232362D344230332D423941332D3042384138433632363834412F7265736F75726365732F636F72652E786D6C8D505B6E842014DD0AE11F45711235C8C4A9CE0ABA018277A66446303C9A2EBF30DAA4FDEB0F977B1EB927879FBFD627FA04E7B53503AE0A8A111865176DEE038EE1465A8CCE823B6B
311
C32F194646AE30E00C63C1EFCEC6ED809435014C48A8B10B1CA0F41E0246EA993E03F6EA035659C81892C23F8A4DAA87BC435115894E3AC17D702900DA8FE4170B07DE46A7C0F37267058F512F87462FE9A6BE69705854E369EE66561176ED1869E689924BDDBE91B1B99EE8656AC7799A7899CD8207BDFE64540E6480058B
311
9A568CD096D0EEBD623DEBFABA496B4F292FB3FC8F296ECB3F4D519BC0EA23EE6EF3296B0AF222042F735F69BCCA4C33772BBE01504B010214000A0000080000EC6C09433DEE336E79000000790000001B00000000000000000000000000000000006175746F6465736B2D64657369676E2D7061636B6167652E786D6C504B
311
01021400140006080800EC6C0943D486FD9CA0000000F40000001300000000000000000000000000B20000005B436F6E74656E745F54797065735D2E786D6C504B01021400140006080800EC6C0943F6037980E80000007C010000080000000000000000000000000083010000636F72652E786D6C504B0102140014000608
311
0800EC6C094355019EA25F0000007C000000070000000000000000000000000091020000636E782E786D6C504B01021400140006080800EC6C09436DB2A0DD65010000020300000C00000000000000000000000000150300006662782F636F72652E786D6C504B01021400140006080800EC6C0943B0973A357E0000009D00
311
00000B00000000000000000000000000A40400006662782F636E782E786D6C504B01021400140006080800EC6C0943CE0D6BD82B0100001502000031000000000000000000000000004B0500006662782F31303731334246452D373232362D344230332D423941332D3042384138433632363834412F636F72652E786D6C50
311
4B01021400140006080800EC6C0943010BA7654C010000330300003000000000000000000000000000C50600006662782F31303731334246452D373232362D344230332D423941332D3042384138433632363834412F636E782E786D6C504B01021400140006080800EC6C0943380B1BE3A605000081100000340000000000
311
00000000000000005F0800006662782F31303731334246452D373232362D344230332D423941332D3042384138433632363834412F6F626A656374732E786D6C504B01021400140006080000EC6C09430000000000000000000000003500000000000000000000000000570E00006662782F31303731334246452D37323236
311
2D344230332D423941332D3042384138433632363834412F76657274696365732E62696E504B01021400140006080800EC6C0943F270F13306000000040000003600000000000000000000000000AA0E00006662782F31303731334246452D373232362D344230332D423941332D3042384138433632363834412F74726961
311
6E676C65732E62696E504B01021400140006080000EC6C09430000000000000000000000003700000000000000000000000000040F00006662782F31303731334246452D373232362D344230332D423941332D3042384138433632363834412F617474726962757465732E62696E504B01021400140006080800EC6C0943D5
311
987DFC8F000000410100003600000000000000000000000000590F00006662782F31303731334246452D373232362D344230332D423941332D3042384138433632363834412F6469726563746F72792E786D6C504B01021400140006080800EC6C09439EE924B1FC000000A00100003B000000000000000000000000003C10
311
00006662782F31303731334246452D373232362D344230332D423941332D3042384138433632363834412F7265736F75726365732F636F72652E786D6C504B0506000000000E000E0080040000911100000000
310
504B03040A0000080000EC6C09433DEE336E79000000790000001B0000006175746F6465736B2D64657369676E2D7061636B6167652E786D6C3C3F786D6C2076657273696F6E3D22312E302220656E636F64696E673D227574662D3822203F3E3C666F726D6174733E3C666F726D61743E687474703A2F2F736368656D612E
310
6175746F6465736B2E636F6D2F64657369676E2D7061636B6167652F323030393C2F666F726D61743E3C2F666F726D6174733E504B0304140006080800EC6C0943D486FD9CA0000000F4000000130000005B436F6E74656E745F54797065735D2E786D6C7D8EC10E82300C865F65E91D8A1E8C310C0EEA1BF002731658846E
310
D98AC1B77784ABF1D8FE5FBFBF75BBCE937A534CCEB38643598122B6FEE978D0B0485F9C41B54DDD7D022595594E1A469170414C76A4D9A4D207E29CF43ECE46F218070CC6BECC4078ACAA135ACF422C856C0E68EA1BF5669944DDD7BCDE7B1F8E415D77AECB980613C2E4AC91FC167A2B244592486606FC29C8FD7F045B9A
310
EF7053A7E60B504B0304140006080800EC6C0943858B155FE90000007C01000008000000636F72652E786D6C8D90D16E842010457F85CC3B8AE21A31C8C65AFFA03F4080DD925DC10834FDFCE2AE9BB46F7D9AE172CFCCE4F2F3F772475F660BD6BB01AA8200324E796DDD7580142FB80374167CF33EFEB20172723103EC32
310
087EDD7C5A0F4979178D8B59755E9B439421980848DD733340509F6691854C313BC2AD58A5BAC9AB29AA5797E194AC46CF2556E779F662CD06E2BD99497D622DA66FB4C34D33B67864A711B7CD341346A789CD232F7758F06897D77EB519198D0651938A62D261C23E2ADA53D6D74D7EF684F072B7FF81D2AAFF0925EB22AD
310
8F739F580051E5431E1F82977B16B93C82CA75CF4DFC00504B0304140006080800EC6C094355019EA25F0000007C00000007000000636E782E786D6C4DCB3B0E80201045D1AD90E915ED2CF8AC45050C11660C8261F98AB1B07AC9C97D42D718D865D3E909258CFD00CCE24AC6E326A164D74DC0B4128928FF326038472BA1
310
3128B1252AC747C6BAB984FC68F0B87FE8960A5C09FE86CFB69FBA01504B0304140006080800EC6C0943D0AB054365010000020300000C0000006662782F636F72652E786D6C8D52ED8E8320107C15C27F043FDAD40669BC5EDFE05E8022F54C150C82E9E3DFFAD1F47A699A8B89E2CECECEEC283FDCBA168DDA0D8D35058E
310
23869136CA568DA90B1CFC85EC303A08EEACF5BFDA3032B2D3059ECA58F0DAD9D0AF25658DD7C643D5D84AAF45390CDA63A45A38147850DFBA93910C1E3A866BD44B7595B58EE20860E8137CF00E0CA04564BA637139DF385DEA8287D0542BDA54A0D65C1AEDB0F8CC4E2CD9E45B927EA43B9265E59694F9A624DBEC786279
310
7A3CE6A792D3892CB86FBABB3BE5B4F4BAC22261714AD88EB0FC2B4EF769BE4F3278DD33C6E9D4FE440A7DF54F52688C4F93D5EE421BB088C1C80CFCD91622F2689023F8A182D3294478CC093F070D8140C85E9EDBFB1E57288D5A79EB32402A1B1ED028DBA04195A1F9E2744161F23C00367B39277933E7FD0CF880D2D460
310
4D7A389E839FD4F9A2BA46D16B47467F43C6BA4EB60F738BC5C7FD21F492AE6C6BDD7FD8745D95AE61D2E9EF153F504B0304140006080800EC6C0943E5289F647D0000009D0000000B0000006662782F636E782E786D6C4DCCD10AC2201886E15B91FFDCE62AD4813A7E42EF633437A44DC334BAFCB6D841471F3C7CBCAAFF
310
AC0B79FBFC0A296A684F0C888FF73486386BA865A212486F544EA9FCDD80C461F51A7606A3E69CEAF3A0D14F435DCAA64B888F036F5C2097C252B40EE915BB0B452638759D74D6B5E8183B436354F32B6DBB87CD17504B0304140006080800EC6C09438AC2F31B2A01000015020000310000006662782F4336374136383745
310
2D414546412D344139332D413037362D4639384645463141463030322F636F72652E786D6C8D514B6EC32014BC0A62D52EB0C158FE4498C8AAE213F40204931425068B4F95E3176A476A77D9F0609899377A8F1D1FCB1D7C2BE7B53503240586401969676DAE038CE1823A088E9C396BC31F1A04462C6A8019869C5D9D8DEB
310
0E496B823221A1C6CE6A0785F72A4020EFE932402FBFD4220A114362F85BB10A7913575590227D271E673EB814006C4DF209F947D38E4DD79ED0789A46548F3D45236E1B34F5DD749AC838615CB172137216A39E77B99E531C7DD1CABD6A92C59C05BD3CE34BA7445033E4152614E10EE1FE93D003ED0F559D9E078C5999E9
310
FF44719D5F14456D02ADF6B89BCC434E58B97D7036DB78BE3FC3A8C76A5D00B9DF9B57F21D725C60DC76A4EA3065E5C64D1348A64DBD9BFA605D9AF0DBED9CE874776E6ACECABCA4547E37986A5E28FF01504B0304140006080800EC6C094367AC68725401000033030000300000006662782F43363741363837452D414546
310
412D344139332D413037362D4639384645463141463030322F636E782E786D6CBD93CD6EC32010845F0571F75F6C454E8489D4439FA0875E316C121A0C16E0AA79FB2E094973C9A152D50BB2678799D5279BEDBE26433EC107EDEC409BB2A604AC744ADBC34097B82F7A4A769C79E7E2838D122B26186892296707EF96394B
310
0AF662311155A3ED298B1E825BBC848072BA498C93C26000D8624111A611940245EE467CDA83C755501CCF241E81BCBEBC13377E808C81552985B32A757096CEDCF460A2441A11C240833CC2244AB144A7209C4A25A2289BF2D6F564A79F24922EDC2A17AF492A1F683A29CF1B95C8915538E42C448FF4B2299E67A05CCCB3
310
D15244845C5D8C570F678BB671DD65AF46F01EDDED6ADDF71876997116F504D9213D88088AF255DDB445DD17F5E6AD69B7ED66BBEAF0755BD7AC4A76CE46E74CBE8431E0DD4CA4B3116CA4BC61551A3FC3977D44698FAC9D3FFF022402C8AD573AF78CBFE4D3ACDBAEFB473ED5E5FB465C1EFF02FE0D504B03041400060808
310
00EC6C09431F2042B2640700009A1B0000340000006662782F43363741363837452D414546412D344139332D413037362D4639384645463141463030322F6F626A656374732E786D6CED59DD739B3810FF5718EEE5EEC1D8C44EDADC103A89DD743CBDB49DFADAB907CF3032C8441721184924F1FDF5B7FA00033109BEE6DE
310
FA6003425AEDFEF6534BF0EE31A3CE3DE682E4ECC2F5BD89EB6016E70961E9855BCAEDE8ADEBBC0B039EE7B231CD7518CAF085AB86DD3048795E167628C15B5452D919BDBEFACB113166D875628A84B870457C8B33E4A152E60916775E8224F2D2EDA3E77B66629B6CCA5171DB215A208E99044E619C0115C730E5B71F27EE
310
380CC6EA7D18A87F3B6B3A68D6AC7FD6584BDDE6923021118B9FB0D421331DC4D2D49F2DDE9F9C9E8F4E67B3E9687676E28FAEAEAF1623FFCD74323F9BCFCF2FDF9F037B9B3CA756A604179825A0BF9D1BFAC158BDA945B7081CE23ACE19C3B10612A0D2627509122C60AB067C93F6A3AF246ABCD612369E67EABD65A1313C
310
6D53E99B350C88165D10C46E57495C5D9BF2E59BBF417031C428B9C012B8159283762D3C1CBCC20D27C1D88C86C166AF0B229C0C49CC09A20E251B8E382805A6AA296160165832CA3938907294045A73E675DBB6C0335F769D435C6E4B4A9567B8A176AC08DC0F4BA13923FF60BEE7BE890CF004D29684C9B7964BB92BB01B
310
9E07633D1806EA323DB12F0D90CE96A2546844CCDB8EA073E5FACB851B7EBCDE3CAE543838BC79C1F30273A98C4EE951F305866CAF0A25BBAD3F48736A01086340B52BF7A07C05E43F41F4D8B3027AE3E471F638B37325474C6C739E816E9C89339AC0DFC4F1F5BFBA6FDC05E37A715B7B7D78829B2AA8DEFE389E6D193456
310
96FF069C61700F069FF3A97DB58A11057BBE210C005246E2D01C8620B46F378F6EB884C009811E56211AFA2032B07B0FB7C1D892D96BA5722FEB750C10B57B4C87280960D316096CF4E8E903640F4EE2BD9A9A22F6C17BFA2AE67AB9587D5C957C8B627C637D7A81B784110959F330432DCC5B12DDE1DD43CE1310F429DEAB
310
26DE99DD4A00DA0A73057C5A81A01EF63BB73688615D9AAB7013BCB00308A1727583FE0D1131A614319C97D5BE757453865A7BBCAD19DCF0C4403C3DE99830C7F7445515E034FB192D4621EFC79C140A4437FC6024AB83A6D723DDB7E527B0C87A7ECFAC2583D0CB10FD5307AD0338B42CBB42DA02510BBCD987F338A7398F
310
36BBC8443A176A0960A3ED2DDF5B4421D61B25292AE041DAEFAA90921A69A3846CB7A580B87A80C5EFCB79D31C26DED43F759AFF1D679C41B405DF45DCFA5D678F886428C5D116257DDB3577AB690B4DB28734C75B0A72917B22771192D124C1E931D01C45FCFC55A9A7341782302C205F1D04BF89C6C4834062B459B1ACB4
310
DA019A8828C312D1631050647AC0D56947D7B831940E2FF3585BEF731A6B12FD9F2C8223A82573161128452187BCC8B8EF9D420C69A36B50EEE00BD656D1D662D0124A8878173D6092DECA635037E47B708FE14852CA282F500C663D80EC135F514AEDF0BE41F19DCA1F515CD2D7321081E93622949659043FC2E0E431C4B5
310
EBC0F42C0A0DE226F6499C41518664C9876C72763A79B28FA919BA21B0B1D1965008DB51868A1ED45B0151D7234E0DBEA5DEA3D44D991511CAF2920D32146FDAF5264BBEAB56457620BFAA5484B2B1226C09860161B2CEAA55CC0653D78115DC4807AA5D24505650730A7B21F1F8B53769CABD1B70EBA7AFBB4106855F8FF6
310
9A117556C160796C1506E201C9F8D60D57FA3ABA82FA3BC1C93ED557B566B30204C454242F39B12AFAB684F2C6D6686E7883A4587F3059B7BA7E5B7AD0FD08C6B0066A977AE152019D612691AA4C6ED40DFD8A2004B76898F1A5CAA9C750B94C125D35227A4DFAD4D92A235A9B66C42B6E31CB33F8B13561312D13BC4689B8
310
8B6E248D5644B16EA5F4325261FCAC809F3FAC3AF0C0C80091BEA8020F3F74D6DAD1B92A970E1291B765B6618840106C89961ADD78054BAD462A2DD75775A680BA0B0CCCAA78F6F364D16C47FC3C59A4D6307EE86471B5FB03ED9A7D91463A8F955D1F750CA8F393A2F21AC700DD76A8A9D659C424732BBF75A608826215E5
310
07576355D03004FB38FECF59BB2F0B9AED3AFC1F97B5FD2715C75159A5355975A90E54AECB660E3B5BCCCF4EAF2767A3C5F5CC1FCDA68BD3D1F9C9E57CF4E6CDFBF3D96C3E9F2DA6F31A4DEDA8615007339DBBE0D904B56A583D590CA02B2B724A1238CD274E8A21E64B38D30F689FF30C0B489ECD6677629BF20356DF9B3E
310
A7441B8A2B4E6E113488A980B40E1895B16C8F3BBF406B52C241FBC285A69177077FD62A5D0732CF850BAD0249622CBC0DB49954434F138794AB73BF2506F82096AA946816D5CFF52A854D2BFCD75386A4012B57AB8701855B01DDAF568742F366798A8F12BC62C741126E37A5846ACDC8B21FA885D1DBECD56F64A384DDD9
310
AD1FC1759F17CBF7F49C1622833E193C6B0486EA48229EEA7EB762CCB274B9F832863E9BB3FCEC14B44C4197C3298D3806632E5541055604566169164882A9CE7F5F7FE1397CE2C91C5D1539BF3EBE3DFB6D3DCFB32C6766687D09A7B2043E1439AB5BF8EC93ACA178C0AAB92ED62713FF64AD9BDAB6CF1E6D90C09EAA8A60
310
A02A2694201D9303BB7CD2A0B2EDCBB1524567FA72E1D8200ACD0063474F7ABCE62397033EA43EA7288FD17E5E49FB6C5F7BACA7824D70E84887FF02504B0304140006080000EC6C0943000000000000000000000000350000006662782F43363741363837452D414546412D344139332D413037362D463938464546314146
310
3030322F76657274696365732E62696E504B0304140006080800EC6C0943F270F1330600000004000000360000006662782F43363741363837452D414546412D344139332D413037362D4639384645463141463030322F747269616E676C65732E62696E636660600000504B0304140006080000EC6C094300000000000000
310
0000000000370000006662782F43363741363837452D414546412D344139332D413037362D4639384645463141463030322F617474726962757465732E62696E504B0304140006080800EC6C0943D5987DFC8F00000041010000360000006662782F43363741363837452D414546412D344139332D413037362D4639384645
310
463141463030322F6469726563746F72792E786D6C858F410EC2201045AF4266AF15DDB800BA74E7C21B903225242D6328188F2FA5C4183471359997F9FF81E89FF3C41E1816475E02DF1F80A11FC8386F25A438EECEC07A250251FC3803E6F58C12560C4AD840E95E91C151A72936F496F35732D860FE635F62C8F2DA16B5
310
05C545B74125BAA2FA9E05D7CC053D063734D5C7665FD55B6B8D15D5E9BFEAFD8490FFA45E504B0304140006080800EC6C0943ED61486EFB000000A00100003B0000006662782F43363741363837452D414546412D344139332D413037362D4639384645463141463030322F7265736F75726365732F636F72652E786D6C8D
310
504B6E833010BD0A9ABDC1608800194734E506BD806526C44AB0237FAA1EBF2650A9DD75E3F1BC8FE6E9F1F3D7FAC83ED1796DCD00654E2143A3ECACCD32400C57D2427616DC591B7EC9203372C5013618045F9C8DCF0352D6043421A1C6CE7880D27B0C90A947FA0CE0D50D5799CB1892C2DFF3A75477B9605EE6894E3AC1
310
7D702940B61FD95E100EBD8D4EA1E7C5CE0A1EA39E0F8D9ED34D7DD5E840BCD713AD9AAE21EC8DB5A4AEC71319BB6624A7FA32D18E5D2EDD34F262330B1EF4FA93513994016710152D19A12DA1DD47C97AD6F5559DD69E525E6CF23FA6F89CFF698ADA04561D71779B0751A6202F42F062EB2B8D5799696EDD8A6F504B0102
310
14000A0000080000EC6C09433DEE336E79000000790000001B00000000000000000000000000000000006175746F6465736B2D64657369676E2D7061636B6167652E786D6C504B01021400140006080800EC6C0943D486FD9CA0000000F40000001300000000000000000000000000B20000005B436F6E74656E745F547970
310
65735D2E786D6C504B01021400140006080800EC6C0943858B155FE90000007C010000080000000000000000000000000083010000636F72652E786D6C504B01021400140006080800EC6C094355019EA25F0000007C000000070000000000000000000000000092020000636E782E786D6C504B01021400140006080800EC
310
6C0943D0AB054365010000020300000C00000000000000000000000000160300006662782F636F72652E786D6C504B01021400140006080800EC6C0943E5289F647D0000009D0000000B00000000000000000000000000A50400006662782F636E782E786D6C504B01021400140006080800EC6C09438AC2F31B2A01000015
310
02000031000000000000000000000000004B0500006662782F43363741363837452D414546412D344139332D413037362D4639384645463141463030322F636F72652E786D6C504B01021400140006080800EC6C094367AC687254010000330300003000000000000000000000000000C40600006662782F43363741363837
310
452D414546412D344139332D413037362D4639384645463141463030322F636E782E786D6C504B01021400140006080800EC6C09431F2042B2640700009A1B00003400000000000000000000000000660800006662782F43363741363837452D414546412D344139332D413037362D4639384645463141463030322F6F626A
310
656374732E786D6C504B01021400140006080000EC6C094300000000000000000000000035000000000000000000000000001C1000006662782F43363741363837452D414546412D344139332D413037362D4639384645463141463030322F76657274696365732E62696E504B01021400140006080800EC6C0943F270F133
310
060000000400000036000000000000000000000000006F1000006662782F43363741363837452D414546412D344139332D413037362D4639384645463141463030322F747269616E676C65732E62696E504B01021400140006080000EC6C09430000000000000000000000003700000000000000000000000000C910000066
310
62782F43363741363837452D414546412D344139332D413037362D4639384645463141463030322F617474726962757465732E62696E504B01021400140006080800EC6C0943D5987DFC8F0000004101000036000000000000000000000000001E1100006662782F43363741363837452D414546412D344139332D41303736
310
2D4639384645463141463030322F6469726563746F72792E786D6C504B01021400140006080800EC6C0943ED61486EFB000000A00100003B00000000000000000000000000011200006662782F43363741363837452D414546412D344139332D413037362D4639384645463141463030322F7265736F75726365732F636F72
310
652E786D6C504B0506000000000E000E0080040000551300000000
  0
XRECORD
  5
34
102
{ACAD_REACTORS
330
30
102
}
330
30
100
AcDbXrecord
280
     1
270
     1
271
     1
  0
XRECORD
  5
35
102
{ACAD_REACTORS
330
30
102
}
330
30
100
AcDbXrecord
280
     1
270
     1
271
     1
  0
XRECORD
  5
36
102
{ACAD_REACTORS
330
30
102
}
330
30
100
AcDbXrecord
280
     1
270
     1
271
     1
  0
XRECORD
  5
37
102
{ACAD_REACTORS
330
30
102
}
330
30
100
AcDbXrecord
280
     1
270
     1
271
     1
  0
XRECORD
  5
159
102
{ACAD_REACTORS
330
A
102
}
330
A
100
AcDbXrecord
280
     1
102
MATERIAL
148
0.0
149
0.0
149
0.0
 93
        0
 94
      127
282
     0
 72
     0
 77
     0
171
     0
175
     0
179
     0
273
     0
  0
XRECORD
  5
B
102
{ACAD_REACTORS
330
A
102
}
330
A
100
AcDbXrecord
280
     1
270
     1
271
     1
  0
XRECORD
  5
C
102
{ACAD_REACTORS
330
A
102
}
330
A
100
AcDbXrecord
280
     1
270
     1
271
     1
  0
XRECORD
  5
D
102
{ACAD_REACTORS
330
A
102
}
330
A
100
AcDbXrecord
280
     1
 70
     1
 90
1959938040
 71
     1
  1
392A05CC-0EC6-4F2A-94B2-E7F6BAFD164E
311
504B03040A0000080000EC6C09433DEE336E79000000790000001B0000006175746F6465736B2D64657369676E2D7061636B6167652E786D6C3C3F786D6C2076657273696F6E3D22312E302220656E636F64696E673D227574662D3822203F3E3C666F726D6174733E3C666F726D61743E687474703A2F2F736368656D612E
311
6175746F6465736B2E636F6D2F64657369676E2D7061636B6167652F323030393C2F666F726D61743E3C2F666F726D6174733E504B0304140006080800EC6C0943D486FD9CA0000000F4000000130000005B436F6E74656E745F54797065735D2E786D6C7D8EC10E82300C865F65E91D8A1E8C310C0EEA1BF002731658846E
311
D98AC1B77784ABF1D8FE5FBFBF75BBCE937A534CCEB38643598122B6FEE978D0B0485F9C41B54DDD7D022595594E1A469170414C76A4D9A4D207E29CF43ECE46F218070CC6BECC4078ACAA135ACF422C856C0E68EA1BF5669944DDD7BCDE7B1F8E415D77AECB980613C2E4AC91FC167A2B244592486606FC29C8FD7F045B9A
311
EF7053A7E60B504B0304140006080800EC6C0943742D6E0DE90000007C01000008000000636F72652E786D6C8D90416EC3201045AF82668F8DC16EB18589AAA439412F8080B828315806AA1EBF3871A476D7D50C9FFF66465F1CBEE71BFAB26B74C18FD0540490F53A18E7A71172BA600EE820C51A42FA6503E4D56C47D864
311
90625A435E7649079FAC4F45F5C1D85D5431DA0448DF4A3342D49F765695CAA938E2B55A94BEAAC956CDB32B70CECEA0C71267CA3C77717605D9F3D3F995742DA6E7E6885BFAFE8279C728EE4E6F2DEFD9B1ED7927EA0D9622B9F9B95FAF56256B4052D2304C3826FD47C306D60FB42DCF8110516FF63F505ECC3FA1EC7C62
311
743FF78145904D39E4FE2145BD6551CA3DA852B7DCE40F504B0304140006080800EC6C094355019EA25F0000007C00000007000000636E782E786D6C4DCB3B0E80201045D1AD90E915ED2CF8AC45050C11660C8261F98AB1B07AC9C97D42D718D865D3E909258CFD00CCE24AC6E326A164D74DC0B4128928FF326038472BA1
311
3128B1252AC747C6BAB984FC68F0B87FE8960A5C09FE86CFB69FBA01504B0304140006080800EC6C0943D302DCC965010000020300000C0000006662782F636F72652E786D6C8D525B6E833010BC8AE57F30CF1622E3A84A9A13F4028E71A815B091B1518EDFE511D15451542181D9D9D9991DA0FB5BD7A251DA41195DE138
311
8C30925A985AE9A6C2DE5D8202A33DA3D618F7AB0D23CD3B59E1A98C196DACF1FD5A12463BA91D54B5A9E55AE4C3201D46A285438507F12D3B1E72EFA063B8863D1757DEC8300E01863E460767C1005A44A63B6697F38D92A5CEA8F7AA5E5155839ABA2869312B8BE3E93DCAB32039C587204B3EDF82224F93203F7E644599
311
1EB2B2C82999C88C3AD5DDDD092BB99335664914A741540451F915A7BBB4DC2519BCEEA28892A9FD81E4FBFA9F24AFB44B93D5EE421B308BC1C80CFCD916227268E023F8218C92294478CC093F060D8140C88E9FDBFB1E57288D52386333406AE33768E4AD97A01AA1F9A2644161F23C00367B3A277931E7F50CF8805C3760
311
8D3B389EBD9BD4E9A2BA46D14B1B8CEE86B4B11D6F37738BC5EDBE093DA50BD31AFB1F365957256B9864FA7BD90F504B0304140006080800EC6C0943CD2703137D0000009D0000000B0000006662782F636E782E786D6C4DCCD10A83201886E15B91FFDC65115960466ADE472C0B99E9703A76F9ABD1C18E3E78F878D9F0D9
311
1D7A9BF8B2C1F750DE0820E3EF61B17EEB21A715B78006CE6208E9EF06C8CFBBE9E164E06C8B213F2F5ACC3A67970E75D63F2ED452CBB19C5A4C462A702D6987452315EE74256853134527050567C5AF74EC19E65F504B0304140006080800EC6C094364C234082D01000015020000310000006662782F4643464341314538
311
2D304137422D344337392D423643442D3946324237363430443745442F636F72652E786D6C8D51CB6EC32010FC15C4293DD806DBF523C24489937C417F80DA244589C1E251E5F3BBD48ED4DE72616198991DEDB2DD63BAA36F699D32BAC3342518493D9851E96B8783BF240D463BCEAC31FE0F0D232D26D9E10863CEAED684
311
798506A3BDD41E506D46B982C239E9311AEE70E9B01BBEE42452113C30DC2D9DC570135799D214BE81C799F31602A0A5493C313FF7E77E4F4F4D42F6F52129FBBA4D0E557F4CDA737EA8AB921CEBD391658B90B310D4B8CAD50871D44549FBAA491473E6D5F48C3F5829BC1C31CF092D120219DA0F5A6C8B769B97F0DC12C2
311
B248FF270AF3F8A22828ED8B7C8DBBC81CE69465CB0767A3099FF76718F9988DF528F6DB3839BC614E5242EABA690AD2B06CE1C204C0B42A5753E78D85096F6E9F40A7EF8B73557296C52541F9DD20D4B850FE03504B0304140006080800EC6C0943010BA7654C01000033030000300000006662782F46434643413145382D
311
304137422D344337392D423643442D3946324237363430443745442F636E782E786D6CD593CD6EC23010845FC5F23D7F2442801C23F5D027E8A157C75EA88B6347FEA9CADB770D8672E1D0632F5632FB7966354AD8FE7B36E40B7CD0CE8EB4AB5B4AC04AA7B43D8E34C543B5A164CF99772E3E60945831C348B34C393B7A97
311
96222938886422AA46DB53113D0497BC848072BE498C93C2A001D82AA108F3044A812277109F0EE0711514A733891F405E5FDE899B3E41C6C09AECC259933338CB67497A802891468430D2203F6016B548D12908A75A8928EAAEBE653DD9E9D789E40BB7C8E435C9E123CD27E565A31A7B640D0E390BD1637B058AE7052817
311
CB62B414114B6E2EE095E12C691BD743613516EF91EED6FD30A0D965C659D43314427A101114E5ABB6EBAB7653B5DBB7AEDFF5DBDD6AC0D75DDBB226E39C4DCE9972096DC0BB85486723D84879C79A3C7E565FE188D21EBB76FEFC8722B180927A6DE7EEF19FFB692EDF37D6E5F12FE03F504B0304140006080800EC6C0943
311
F88CC81EA505000080100000340000006662782F46434643413145382D304137422D344337392D423643442D3946324237363430443745442F6F626A656374732E786D6CAD57DB6EDB3810FD1541FBB2FBE08B6C274D168A0AC74E0AA3485BD468B10F060C4AA2146EA80B482A71F6EBF750A464C9B553EFA22F96450D8733
311
67CE5CE8BFDF65DC79A642B222BF71BDE1D875681E1531CBD31BB752C9E0CA75DE07BE280AD511739D9C64F4C6D5CB6EE0A7A2A84ABB14D384545C1DACDEDFFEE5C888E6D475224EA4BC7165F448333224952A622A9F863151649826BBA13734827DB5A920E5E381D292089A2B588AF51C5A1C6394D77F1DBBA3C01FE9EF81
311
AF7FADD4F4B4D4A8F6A77F3ECBA52279F4C361076AA6DE6C7937B9B81E5CCC66D3C1EC72E20D6EEF6F9703EFDD74BCB85C2CAEE777D738582A014DD612411337F8006C048BFC91F914F815CBD57462456C8046823E331D293798389E3F3232AD77D6C963E647459ED3A8C60A68D4FE59D5312D691E23E68C4A58D64168DC7F
311
F5348E9DCF53FD6E8FEC2E9F874077474751637BF3EC5A5A847FC305790E8384A49A81064BEBA8E1EA788F705814DC7E63D2C988A28211EE70160A225EDD00A25A24F07B6A349385CE06ED811B200AE6739F2E48A39FF3FC989549C5B9A6B11BD459B045AE50256BCBD83F54ECADEF22039B102BCD862BEB907A2DA91B5C1B
311
8A5C1DB0C900E9249CA40839DCD43BA7930347173A4F574B37F8781FEED63A778F1F5E8AA2A44269FA805A4DE09AA746C9DAE49D1539BDC13D30650FCA5720FF09A9BE370571136C37DBCDEC294A905C2685C8101B67EC0CC6F8193B5EFDABFF77FEF9A376733F7AA7F044B03554BF00CFBE0FDD5876E00CFC6710BE1053EB
311
DA3A221C65E381E5004893C4E1059650879370E7062B54395465EC223CF0E032CC7DC65F7F64D5A050D427759E39B03C288B671468C05633126618F25B03F771FAA19CD5075BB153F05EFC12BACE97EB8FEB4A2424A20F36A7973461395368717BDE740DEA61DEF3E889BEBE142286A33FE2BDEEE29DD9A324D0D6986BE0D3
311
A6A6EB97FDC9BD0322EC4B0B5D6EFC9F9C00277463EDE87F6032A29C939C165573EE9BFD036DC340AC935D33B96D30FBC602D2982F073988261D09566A10DB6ED516CDE109EFBEAD3E819190E74548F85E28DC97DEA8E085D886AF5B53958E22FDBD4F6D0BC1486B01DBEB1C69D2DF62BE8D5992541235F008ACDF578B6EE8
311
7455408568B49A6499C17DE4161196B38D5E346B41D0488B7CCBD0369176470FE8EA07A29600B5C253164BCA932DE3BCCAB609E36846DB8C9427E0F8FFF68755566E495654B93AA1BB673A9A43DFF61E79E50B51D1A31BACEBE7E016A537A6F13ECC3D61DD4A8E60D50BEDF47A321F5F2C1683F1DDE27230BB9FCC07D7B3DB
311
C9E0EEDDFDE5EDFC7EE95DCEEE9A3819E581DF749A6E42234AE86C7E25980DDFB715D2C7D6003778204A6E3E98EC6C9EDF56438CC2FE087BD02EDB8DF3F819631F8D7FAE602F7954D12A2B39CD68AE884EA107FD877F2518337AC698F55546527A8696CF1FD607CE60E58C7D5F74BAD39783BD7675A113F2A812F55865614E
311
183FD8981A2487659E5AFC9A98B44FD3679A57FD660383C154169CC52883B193D222A30AC5F08C1E24322A41BDEE481FDBABC719BB9FCD80A848C86963C923C18CCC25D202D4AA22D55F777EC34CA7C7AA1B17DD76F8841F5B295C079CB97131A32B1651390CD19FF524542B0797BA833CE67E92A71CA3B6D9D4BEB7BB3436
311
BD8EDC8A9C333E59BF4C05B70EA08C94181B300F213AB531815FDB66BF47FFC9F1C61C8728FC0D2BD5FAB25F689DA98F418A1AA7EC650133CC933D7A87447DDB2D6F58CBF41039EB92F526098CD6812222AD2F0ADA3E6BD27CF9658401C5597D764A5EA588E5F99A068282CC954E70B008ACB03A4BA240D5C59F9B2FA2C045
311
3673EE1928E0FCBEBBBAFC63B328B2ACC8CDD2666EAFC3CEFA1197DB7883E240F5AD446E26636FB2A96F03F682B20D89A44312CB272C20B282B540F7C20F5E9A2B23FA90F9D0CA8D74280E18BA5A3AB6B1CDA0D4D2A55B5B3538983B72EA2087F48D52674C57A07CF34230AA456182C0281FFC0B504B0304140006080000EC
311
6C0943000000000000000000000000350000006662782F46434643413145382D304137422D344337392D423643442D3946324237363430443745442F76657274696365732E62696E504B0304140006080800EC6C0943F270F1330600000004000000360000006662782F46434643413145382D304137422D344337392D4236
311
43442D3946324237363430443745442F747269616E676C65732E62696E636660600000504B0304140006080000EC6C0943000000000000000000000000370000006662782F46434643413145382D304137422D344337392D423643442D3946324237363430443745442F617474726962757465732E62696E504B0304140006
311
080800EC6C0943D5987DFC8F00000041010000360000006662782F46434643413145382D304137422D344337392D423643442D3946324237363430443745442F6469726563746F72792E786D6C858F410EC2201045AF4266AF15DDB800BA74E7C21B903225242D6328188F2FA5C4183471359997F9FF81E89FF3C41E181647
311
5E02DF1F80A11FC8386F25A438EECEC07A250251FC3803E6F58C12560C4AD840E95E91C151A72936F496F35732D860FE635F62C8F2DA16B505C545B74125BAA2FA9E05D7CC053D063734D5C7665FD55B6B8D15D5E9BFEAFD8490FFA45E504B0304140006080800EC6C0943AB43A4B5FC000000A00100003B0000006662782F
311
46434643413145382D304137422D344337392D423643442D3946324237363430443745442F7265736F75726365732F636F72652E786D6C8D504B6E833010BD0A9ABDC1D8D002328EAAA439412F609909B112ECC89FAAC7AF09546A77DD783CEFA3797AE2F0B5DC8B4FF4C1383B425D5228D06A37193B8F90E28574501CA4F0
311
CEC55F3228AC5A708415062966EFD26387B4B3116DCCA87513EEA00A012314FA9E3F23047DC545952AC5AC08B7F2A1F44DCD58D665A6B34E8A107D0E506C47D617A4C7E092D71844B5B152A464A65D63A67CD35C0C7A907D773ABFD2961376AE8FA461EF2FA46B3923EDE9ADE97A7E6CFAAE15D56A96229AE527A3F6A8224E
311
2019AD39A11DA1FD47CD07DE0FACC9EB40A9A856F91F537A4CFF34256323677BDCCD1640D639C89390A25AFBCAE359669E6BB7F21B504B010214000A0000080000EC6C09433DEE336E79000000790000001B00000000000000000000000000000000006175746F6465736B2D64657369676E2D7061636B6167652E786D6C50
311
4B01021400140006080800EC6C0943D486FD9CA0000000F40000001300000000000000000000000000B20000005B436F6E74656E745F54797065735D2E786D6C504B01021400140006080800EC6C0943742D6E0DE90000007C010000080000000000000000000000000083010000636F72652E786D6C504B01021400140006
311
080800EC6C094355019EA25F0000007C000000070000000000000000000000000092020000636E782E786D6C504B01021400140006080800EC6C0943D302DCC965010000020300000C00000000000000000000000000160300006662782F636F72652E786D6C504B01021400140006080800EC6C0943CD2703137D0000009D
311
0000000B00000000000000000000000000A50400006662782F636E782E786D6C504B01021400140006080800EC6C094364C234082D0100001502000031000000000000000000000000004B0500006662782F46434643413145382D304137422D344337392D423643442D3946324237363430443745442F636F72652E786D6C
311
504B01021400140006080800EC6C0943010BA7654C010000330300003000000000000000000000000000C70600006662782F46434643413145382D304137422D344337392D423643442D3946324237363430443745442F636E782E786D6C504B01021400140006080800EC6C0943F88CC81EA5050000801000003400000000
311
000000000000000000610800006662782F46434643413145382D304137422D344337392D423643442D3946324237363430443745442F6F626A656374732E786D6C504B01021400140006080000EC6C09430000000000000000000000003500000000000000000000000000580E00006662782F46434643413145382D304137
311
422D344337392D423643442D3946324237363430443745442F76657274696365732E62696E504B01021400140006080800EC6C0943F270F13306000000040000003600000000000000000000000000AB0E00006662782F46434643413145382D304137422D344337392D423643442D3946324237363430443745442F747269
311
616E676C65732E62696E504B01021400140006080000EC6C09430000000000000000000000003700000000000000000000000000050F00006662782F46434643413145382D304137422D344337392D423643442D3946324237363430443745442F617474726962757465732E62696E504B01021400140006080800EC6C0943
311
D5987DFC8F0000004101000036000000000000000000000000005A0F00006662782F46434643413145382D304137422D344337392D423643442D3946324237363430443745442F6469726563746F72792E786D6C504B01021400140006080800EC6C0943AB43A4B5FC000000A00100003B000000000000000000000000003D
311
1000006662782F46434643413145382D304137422D344337392D423643442D3946324237363430443745442F7265736F75726365732F636F72652E786D6C504B0506000000000E000E0080040000921100000000
310
504B03040A0000080000EC6C09433DEE336E79000000790000001B0000006175746F6465736B2D64657369676E2D7061636B6167652E786D6C3C3F786D6C2076657273696F6E3D22312E302220656E636F64696E673D227574662D3822203F3E3C666F726D6174733E3C666F726D61743E687474703A2F2F736368656D612E
310
6175746F6465736B2E636F6D2F64657369676E2D7061636B6167652F323030393C2F666F726D61743E3C2F666F726D6174733E504B0304140006080800EC6C0943D486FD9CA0000000F4000000130000005B436F6E74656E745F54797065735D2E786D6C7D8EC10E82300C865F65E91D8A1E8C310C0EEA1BF002731658846E
310
D98AC1B77784ABF1D8FE5FBFBF75BBCE937A534CCEB38643598122B6FEE978D0B0485F9C41B54DDD7D022595594E1A469170414C76A4D9A4D207E29CF43ECE46F218070CC6BECC4078ACAA135ACF422C856C0E68EA1BF5669944DDD7BCDE7B1F8E415D77AECB980613C2E4AC91FC167A2B244592486606FC29C8FD7F045B9A
310
EF7053A7E60B504B0304140006080800EC6C0943B810FACFE80000007C01000008000000636F72652E786D6C8D90416EC3201045AF82668F03B6633B1626722BE704BD0002E2A2C46019A87AFC42E248EDAEAB193EFFCD8C3E3B7F2F77F4A5376F9C1D80160490B6D22963E70162B8E20ED099B3CDB9F0CB06C88A450F9065
310
E06CDE5C5C77493A1BB40D49B54EE95D14DEEB0048DE533380979F7A1185882139FCAD5885BC895917F4D5253846A3D0738951699EB91ABD019F2EB469DBFA889BBA1A717DEA6AFCD64E236E9B637B99081DDF0961870C7316CCF2DA2F372D8256C04B422B4C3A4C4E1FB4EAAB535FD6E9D96728DBFF407155FF84A2B1A12A
310
F7739F98074ED3218F0FCE0E398B541E41A59A73E33F504B0304140006080800EC6C094355019EA25F0000007C00000007000000636E782E786D6C4DCB3B0E80201045D1AD90E915ED2CF8AC45050C11660C8261F98AB1B07AC9C97D42D718D865D3E909258CFD00CCE24AC6E326A164D74DC0B4128928FF326038472BA131
310
28B1252AC747C6BAB984FC68F0B87FE8960A5C09FE86CFB69FBA01504B0304140006080800EC6C0943258A495B64010000020300000C0000006662782F636F72652E786D6C8D52ED8E8230107C95A6FFCBB7A2A6D478177D827B810A9523424BCA96F8F8B7058CE7C5980B09949D9D9DD901BEBF752D19951D1AA30B1A0711
310
254A97A66A745D500717B6A1642FB835067EB551A265A70AEACB54F0DA1AD72FA5D268501AB0AA4DA596A21C060594942D1E0A3A94DFAA938174801DC335E8657995B50AE20061EC137C008B06C82CE2EF545CCE371ECE75C19D6BAA056D2A546B2E8DB2541C4FF13ACFB3155B67E98165DB4DC63EF2E381E5EB557E3A46F1
310
E1338A78E8C98243D3DDDD9556495015154914A72CDAB068FB15A7BB74BB4B327CDD79926F7F22B9BEFA27C9351AD264B13BD3062A623432017FB6C588800C72443FA1E0A10F111F53C2CF4163201832C8737BDFE38AA55195606C864865DC031A65EB14AA4664BA7838A338791A809BBD9C93BC99F37E067E40A96BB42601
310
8F67075E9DCFAA4B14BDB26C841BD1C676B27D989B2D3EEE0FA197F4D2B4C6FE871D2EAB864B98A1FF7BC50F504B0304140006080800EC6C0943F093720E7E0000009D0000000B0000006662782F636E782E786D6C4DCCD10A83201886E15B91FFDC35C5CAC00C75DB7DC4B290990EA76397BF1A1DECE883878F570C9FD5A3
310
B74D2F17430FE4740664C33D4E2E2C3D943C630E689022C598FF6E80C2B8DA1E7606299614CBF3A0C9CE63F17953EFC2E340432E8A9B8EE36BC334669A1AAC58D362526BAAEA9612D3DDA092A2FA95B6DDC3F20B504B0304140006080800EC6C0943C27D269B2C01000015020000310000006662782F43314441384339382D
310
453634422D344232432D413436372D3135423241353732314339462F636F72652E786D6C8D514B6EC32014BC8AC52A5D6003765C1C61A2C46D4FD00B1020294A0C169F2AC72FAE1DA9DD65C3836166DEE83DB6BF8FB7E25BFB609CED012E1128B4954E197BE9418A674841B1E7CC3B17FFD04061C5A87B30C380B38B77695A
310
21E96CD43666D43AA5575084A02328E42D5F7A10E4971E452952CC8C702D2721AFE2A24B5CE6EFCCE32C449F03144B93F9047CC06F073A7414BEB7CD11364732C043D3BE42BC3D92C3F695E0A1FB60D522E42C25A356B951398E391BED9F3599C59C45333EE24BAF45D40A7082700D1185A8FBC4F5AEEE76A4C9CF1D42AC9A
310
E9FF4469524F8A92B1B1266BDC451600C7AC5A3E38532E9D6E8F30FA3E391F8BB9DF2668F902382A11A235D9524C59B570F304B269DBACA6213A9F27BCB99E32BD5E9DDB86B36A5E522EBF1BCC755E28FF01504B0304140006080800EC6C094367AC68725401000033030000300000006662782F43314441384339382D4536
310
34422D344232432D413436372D3135423241353732314339462F636E782E786D6CBD93CD6EC32010845F0571F75F6C454E8489D4439FA0875E316C121A0C16E0AA79FB2E094973C9A152D50BB2678799D5279BEDBE26433EC107EDEC409BB2A604AC744ADBC34097B82F7A4A769C79E7E2838D122B26186892296707EF9639
310
4B0AF662311155A3ED298B1E825BBC848072BA498C93C26000D8624111A611940245EE467CDA83C755501CCF241E81BCBEBC13377E808C81552985B32A757096CEDCF460A2441A11C240833CC2244AB144A7209C4A25A2289BF2D6F564A79F24922EDC2A17AF492A1F683A29CF1B95C8915538E42C448FF4B2299E67A05CCC
310
B3D15244845C5D8C570F678BB671DD65AF46F01EDDED6ADDF71876997116F504D9213D88088AF255DDB445DD17F5E6AD69B7ED66BBEAF0755BD7AC4A76CE46E74CBE8431E0DD4CA4B3116CA4BC61551A3FC3977D44698FAC9D3FFF022402C8AD573AF78CBFE4D3ACDBAEFB473ED5E5FB465C1EFF02FE0D504B030414000608
310
0800EC6C09433840C75962070000991B0000340000006662782F43314441384339382D453634422D344232432D413436372D3135423241353732314339462F6F626A656374732E786D6CED595B73A33614FE2B0C7D691F8C8DED64930EA1933897F1EC647767DDDDE98367181964A246084612B9F4D7F7E802066212DC4DDF
310
F6C106847474CE77AE3A047F3C65D479C05C909C9DB9BE37711DCCE23C212C3D734BB91D9DB8CE1F61C0F35C36A6B90E43193E73D5B01B0629CFCBC20E25788B4A2A3BA3D7177F3922C60CBB4E4C911067AE88EF70863C54CA3CC1E2DE4B90445EBA7DF27CCF4C6C934D392AEE3A440BC43193C0298C33A0E218A6FCF6E3C4
310
1D87C158BD0F03F56F67CD06CD9AF7CF1A6BA9DB5C12262462F10B963A646683589AF9F3CBABE9D1E9E8683E9F8DE6C7537F74717D7139F23FCC268BE3C5E2F4FCEA14D8DBE439B53225B8C02C01FD3DBBA11F8CD59B5A748BC03EAEE39C311C6B20012A2D569720C102B66AC037693FFA4AA2C66B2D61E379AEDE5B161AC3
310
B33695BE59C38068D10541EC7695C4D5B5295FBEF91B0417438C920B2C815B213968D7C2C3C12BDC70128CCD68186C76BA20C2C990C49C20EA50B2E188835260AA9A1206668125A39C8303294749A035675EB76D0B3CF36DD7D9C7E5B6A45479861B6AC78AC0FDB0149A33F20FE63BEE9BC8004F206D49983CB15CCAE702BB
310
E16930D68361A02EB3A97D698074B614A5422362DE76045D28D75F5EBAE1C7EBCDD34A8583FD9B173C2F3097CAE8941E355F60C8F6AA50B2DBFA8334A71680300654BB7207CA5740FE13448F1D2BA0374E9EE64F733B5772C4C436E719E8C69938A309FC4D1C5FFFABFBC65D30AE17B7B5D78727B8A982EAE4C7F16CCBA0B1
310
B2FC37E00C830730F89CCFECAB558C28D8F32D610090321287E63004A17DBB7972C325044E08F4B00AD1D0079181DD07B80DC696CC4E2B957B59AF6380A8DD63364449009BB64860A3474F37903D3889776A6A8AD807EFD1BB98EBF9E5EAE3AAE45B14E35BEBD397784B18919035F733D4C2BC25D13D7E7ECC790282BEC47B
310
D5C43BB35B09405B61AE804F2B10D4C36EE7D60631AC4B73156E823776002154AE6ED0BF2522C6942286F3B2DAB78E6ECA506B8FB735831B4E0DC4B369C784397E20AAAA00A7D9CD68310A793FE6A45020BAE18D91AC0E9A5E8F74DF969FC022EBF93DB3960C422F43F44F1DB4F6E0D0B2EC0A690B442DF06617CEE39CE63C
310
DA3C4726D2B9504B001B6D6FF9DE220AB1DE284951010FD27E578594D4481B2564BB2D05C4D53D2C7E5F2E9AE630F166FE91D3FCEF38E31CA22DF82EE2D6EF3A7B442443298EB628E9DBAEB95B4D5B68923DA439DE52908B3C10F91C21194D129C1E02CD41C44FDF957A4A732108C302F2D55EF09B684C3C0824469B15CB4A
310
AB1DA08988322C113D040145A6075C9D76748D1B43E9F0368FB5F5BEA6B126D1FFC92238825A32671181521472C89B8CFBDE11C49036BA06E50EBE606D156D2D062DA184889FA3474CD23B7908EA867C0FEE311C494A19E5058AC1AC07907DE12B4AA91DDE3728BE57F9238A4BFA5E062230DD4684D2328BE047189C3C86B8
310
761D985E45A141DCC43E893328CA902CF9904D8E8F262FF631354337043636DA120A613BCA50D1837A2B20EA7AC4A9C1B7D47B94BA29B32242595EB24186E2CDBADE64C977D5AAC80EE457958A503656842DC130204CD659B58AD960EA3AB0821BE940F51C099415D49CC2DE483C7EED4D9A72EF06DCFAE9FB6E9041E1D7A3
310
BD66449D5730581E5B8581784432BE73C395BE8E2EA0FE4E70B24BF555ADD9AC00013115C94B4EAC8ABE2DA1BCB1359A1BDE2229D63726EB56D76F4B0FBA1FC118D640ED522F5C2AA033CC245295C9ADBAA15F1184E0160D33BE5439F5102AE749A2AB4644AF499F3A5B65446BD38C78C51D6679063FB6262CA66582D72811
310
F7D1ADA4D18A28D6AD945E462A8C5F15F0F3CDAA030F8C0C10E98B2AF0F06367AD1D5DA872692F117957661B860804C19668A9D18D57B0D46AA4D2727D55670AA8BBC0C0AC8AE73F4F16CD76C4CF93456A0DE3C74E1634DF20BA8B368D6C1E2BB33EE81450A72745E53D4E01BAEB5053AD9388C9E5567CEB4B11C4C42AC80F
310
2EC6AA986108F671FC9F93765F1234DB75F83F2C69FB2F0A8E83924A6BB26A52ED295C97CD14363B9D9E4F8E168BD1E46A713C9A5F4FCF47A7F38BE9E8EAC3F5F1C5F9F5A57F3CBFAAD1D47E1A06752CD3A90B9E4D4CAB86D593C5009AB222A72481C37CE2A41842BE8423FD80EE39CFB080DCD9EC7527B6273F60F5836973
310
4AB4A1B8E2E40E417F980AC8EA805119CBF6B8F30B7426259CB3CF5CE81979F7F067ADD27520F19CB9D0299024C6C2DB409749F5F33471C8B83AF55B62800F62A9CA886651FD5CAF52D8B4A27F3D654816B072B55A1850B715D0FC6A3528346F96A7F820C12B761C24E176534A28D68C2CBB815A18BDCD4EFD46364AD8BDDD
310
FA095CF775B17C4FCF692132E88BC1AB4660A88E24E2A96E772BC62C4BE7975FC6D06673969F9D829629E87238A511C760CCA5AAA7C08AC02A2CCD024930D5C5EFEB2F3C872F3C99A38B22E7D7A793E3DFD68B3CCB726686D6E770284BE03B91B3BA83AF3EC91A6A07AC7AEB623D9DF8D3B5EE69DB367BB441027BAA288281
310
AA965082744C0EECF2457FCA762FC74A159DE9CB4BC706D12320AA6DF7458BD77CE372C087D4D714E531DACF2B695F6D6B8FF554B0090E0DE9F05F504B0304140006080000EC6C0943000000000000000000000000350000006662782F43314441384339382D453634422D344232432D413436372D31354232413537323143
310
39462F76657274696365732E62696E504B0304140006080800EC6C0943F270F1330600000004000000360000006662782F43314441384339382D453634422D344232432D413436372D3135423241353732314339462F747269616E676C65732E62696E636660600000504B0304140006080000EC6C09430000000000000000
310
00000000370000006662782F43314441384339382D453634422D344232432D413436372D3135423241353732314339462F617474726962757465732E62696E504B0304140006080800EC6C0943D5987DFC8F00000041010000360000006662782F43314441384339382D453634422D344232432D413436372D313542324135
310
3732314339462F6469726563746F72792E786D6C858F410EC2201045AF4266AF15DDB800BA74E7C21B903225242D6328188F2FA5C4183471359997F9FF81E89FF3C41E1816475E02DF1F80A11FC8386F25A438EECEC07A250251FC3803E6F58C12560C4AD840E95E91C151A72936F496F35732D860FE635F62C8F2DA16B505
310
C545B74125BAA2FA9E05D7CC053D063734D5C7665FD55B6B8D15D5E9BFEAFD8490FFA45E504B0304140006080800EC6C0943ABBBD457FB000000A00100003B0000006662782F43314441384339382D453634422D344232432D413436372D3135423241353732314339462F7265736F75726365732F636F72652E786D6C8D50
310
596EC32010BD8A35FF3810BB5E224CE456C9097A0184272E4A0C164BD5E31762576AFFFAC3306FD13C3D7EFE5A1EC5273AAFAD198095140A34CA4EDACC03C470231D1467C19DB5E1970C0A23171C20C320F8EC6C5C77485913D084841A3BE10E4AEF3140A11EE93380571FB8C852C69014FE5EAE52DDE58C252B139D7482FB
310
E05280623B925F100EBD8D4EA1E7878D153C463DED1A3DA59BFAA6D181B85C59D3B6754D9ABA1A49DD7735796D2F23699B97F67AA16C7CA3941FB259F0A0979F8CCAA10C388138525611DA11DABFB3EA54F5A7639DD6533665F91F535CA77F9AA236A13AEE71379B07C152902721F821F795C6B3CC3473B7E21B504B010214
310
000A0000080000EC6C09433DEE336E79000000790000001B00000000000000000000000000000000006175746F6465736B2D64657369676E2D7061636B6167652E786D6C504B01021400140006080800EC6C0943D486FD9CA0000000F40000001300000000000000000000000000B20000005B436F6E74656E745F54797065
310
735D2E786D6C504B01021400140006080800EC6C0943B810FACFE80000007C010000080000000000000000000000000083010000636F72652E786D6C504B01021400140006080800EC6C094355019EA25F0000007C000000070000000000000000000000000091020000636E782E786D6C504B01021400140006080800EC6C
310
0943258A495B64010000020300000C00000000000000000000000000150300006662782F636F72652E786D6C504B01021400140006080800EC6C0943F093720E7E0000009D0000000B00000000000000000000000000A30400006662782F636E782E786D6C504B01021400140006080800EC6C0943C27D269B2C0100001502
310
000031000000000000000000000000004A0500006662782F43314441384339382D453634422D344232432D413436372D3135423241353732314339462F636F72652E786D6C504B01021400140006080800EC6C094367AC687254010000330300003000000000000000000000000000C50600006662782F4331444138433938
310
2D453634422D344232432D413436372D3135423241353732314339462F636E782E786D6C504B01021400140006080800EC6C09433840C75962070000991B00003400000000000000000000000000670800006662782F43314441384339382D453634422D344232432D413436372D3135423241353732314339462F6F626A65
310
6374732E786D6C504B01021400140006080000EC6C094300000000000000000000000035000000000000000000000000001B1000006662782F43314441384339382D453634422D344232432D413436372D3135423241353732314339462F76657274696365732E62696E504B01021400140006080800EC6C0943F270F13306
310
0000000400000036000000000000000000000000006E1000006662782F43314441384339382D453634422D344232432D413436372D3135423241353732314339462F747269616E676C65732E62696E504B01021400140006080000EC6C09430000000000000000000000003700000000000000000000000000C81000006662
310
782F43314441384339382D453634422D344232432D413436372D3135423241353732314339462F617474726962757465732E62696E504B01021400140006080800EC6C0943D5987DFC8F0000004101000036000000000000000000000000001D1100006662782F43314441384339382D453634422D344232432D413436372D
310
3135423241353732314339462F6469726563746F72792E786D6C504B01021400140006080800EC6C0943ABBBD457FB000000A00100003B00000000000000000000000000001200006662782F43314441384339382D453634422D344232432D413436372D3135423241353732314339462F7265736F75726365732F636F7265
310
2E786D6C504B0506000000000E000E0080040000541300000000
  0
XRECORD
  5
E
102
{ACAD_REACTORS
330
A
102
}
330
A
100
AcDbXrecord
280
     1
270
     1
271
     1
  0
XRECORD
  5
F
102
{ACAD_REACTORS
330
A
102
}
330
A
100
AcDbXrecord
280
     1
270
     1
271
     1
  0
XRECORD
  5
10
102
{ACAD_REACTORS
330
A
102
}
330
A
100
AcDbXrecord
280
     1
270
     1
271
     1
  0
XRECORD
  5
11
102
{ACAD_REACTORS
330
A
102
}
330
A
100
AcDbXrecord
280
     1
270
     1
271
     1
  0
XRECORD
  5
156
102
{ACAD_REACTORS
330
155
102
}
330
155
100
AcDbXrecord
280
     1
102
ACAD_ROUNDTRIP_2012_MLEADER_STYLE
298
     1
  0
CELLSTYLEMAP
  5
154
102
{ACAD_REACTORS
330
119
102
}
330
119
100
AcDbCellStyleMap
 90
        3
300
CELLSTYLE
  1
TABLEFORMAT_BEGIN
 90
        5
170
     1
 91
        0
 92
    32768
 62
   257
 93
        1
300
CONTENTFORMAT
  1
CONTENTFORMAT_BEGIN
 90
        0
 91
        0
 92
      512
 93
        0
300

 40
0.0
140
1.0
 94
        5
 62
     0
340
1C
144
0.25
309
CONTENTFORMAT_END
171
     0
 94
        0
309
TABLEFORMAT_END
  1
CELLSTYLE_BEGIN
 90
        1
 91
        1
300
_TITLE
309
CELLSTYLE_END
300
CELLSTYLE
  1
TABLEFORMAT_BEGIN
 90
        5
170
     1
 91
        0
 92
        0
 62
   257
 93
        1
300
CONTENTFORMAT
  1
CONTENTFORMAT_BEGIN
 90
        0
 91
        0
 92
      512
 93
        0
300

 40
0.0
140
1.0
 94
        5
 62
     0
340
1C
144
0.18
309
CONTENTFORMAT_END
171
     0
 94
        0
309
TABLEFORMAT_END
  1
CELLSTYLE_BEGIN
 90
        2
 91
        1
300
_HEADER
309
CELLSTYLE_END
300
CELLSTYLE
  1
TABLEFORMAT_BEGIN
 90
        5
170
     1
 91
        0
 92
        0
 62
   257
 93
        1
300
CONTENTFORMAT
  1
CONTENTFORMAT_BEGIN
 90
        0
 91
        0
 92
      512
 93
        0
300

 40
0.0
140
1.0
 94
        2
 62
     0
340
1C
144
0.18
309
CONTENTFORMAT_END
171
     0
 94
        0
309
TABLEFORMAT_END
  1
CELLSTYLE_BEGIN
 90
        3
 91
        2
300
_DATA
309
CELLSTYLE_END
  0
XRECORD
  5
162
102
{ACAD_REACTORS
330
119
102
}
330
119
100
AcDbXrecord
280
     1
102
ACAD_ROUNDTRIP_PRE2007_TABLESTYLE
 90
      512
 91
        0
  1

 92
      512
 93
        0
  2

 94
      512
 95
        0
  3

  0
XRECORD
  5
15F
102
{ACAD_REACTORS
330
15E
102
}
330
15E
100
AcDbXrecord
280
     1
102
RTVSPropertyOp0
 70
     1
102
RTVSPropertyOp1
 70
     1
102
RTVSPropertyOp2
 70
     1
102
RTVSPropertyOp3
 70
     1
102
RTVSPropertyOp4
 70
     1
102
RTVSPropertyOp5
 70
     1
102
RTVSPropertyOp6
 70
     1
102
RTVSPropertyOp7
 70
     1
102
RTVSPropertyOp8
 70
     1
102
RTVSPropertyOp9
 70
     1
102
RTVSPropertyOp10
 70
     1
102
RTVSPropertyOp11
 70
     1
102
RTVSPropertyOp12
 70
     1
102
RTVSPropertyOp13
 70
     1
102
RTVSPropertyOp14
 70
     1
102
RTVSPropertyOp15
 70
     1
102
RTVSPropertyOp16
 70
     1
102
RTVSPropertyOp17
 70
     1
102
RTVSPropertyOp18
 70
     1
102
RTVSPropertyOp19
 70
     1
102
RTVSPropertyOp20
 70
     1
102
RTVSPropertyOp21
 70
     1
102
RTVSPropertyOp22
 70
     1
102
RTVSPropertyOp23
 70
     1
102
RTVSPropertyOp24
 70
     1
102
RTVSPropertyOp25
 70
     1
102
RTVSPropertyOp26
 70
     1
102
RTVSPropertyOp27
 70
     1
102
RTVSPropertyOp28
 70
     1
102
RTVSPropertyOp29
 70
     1
102
RTVSPropertyOp30
 70
     1
102
RTVSPropertyOp31
 70
     1
102
RTVSPropertyOp32
 70
     1
  0
XRECORD
  5
170
102
{ACAD_REACTORS
330
16F
102
}
330
16F
100
AcDbXrecord
280
     1
102
RTVSPropertyOp0
 70
     1
102
RTVSPropertyOp1
 70
     1
102
RTVSPropertyOp2
 70
     1
102
RTVSPropertyOp3
 70
     1
102
RTVSPropertyOp4
 70
     1
102
RTVSPropertyOp5
 70
     1
102
RTVSPropertyOp6
 70
     1
102
RTVSPropertyOp7
 70
     1
102
RTVSPropertyOp8
 70
     1
102
RTVSPropertyOp9
 70
     1
102
RTVSPropertyOp10
 70
     1
102
RTVSPropertyOp11
 70
     1
102
RTVSPropertyOp12
 70
     1
102
RTVSPropertyOp13
 70
     1
102
RTVSPropertyOp14
 70
     1
102
RTVSPropertyOp15
 70
     1
102
RTVSPropertyOp16
 70
     1
102
RTVSPropertyOp17
 70
     1
102
RTVSPropertyOp18
 70
     1
102
RTVSPropertyOp19
 70
     1
102
RTVSPropertyOp20
 70
     1
102
RTVSPropertyOp21
 70
     1
102
RTVSPropertyOp22
 70
     1
102
RTVSPropertyOp23
 70
     1
102
RTVSPropertyOp24
 70
     1
102
RTVSPropertyOp25
 70
     1
102
RTVSPropertyOp26
 70
     1
102
RTVSPropertyOp27
 70
     1
102
RTVSPropertyOp28
 70
     1
102
RTVSPropertyOp29
 70
     1
102
RTVSPropertyOp30
 70
     1
102
RTVSPropertyOp31
 70
     1
102
RTVSPropertyOp32
 70
     1
  0
XRECORD
  5
178
102
{ACAD_REACTORS
330
177
102
}
330
177
100
AcDbXrecord
280
     1
102
RTVSPropertyOp0
 70
     1
102
RTVSPropertyOp1
 70
     1
102
RTVSPropertyOp2
 70
     1
102
RTVSPropertyOp3
 70
     1
102
RTVSPropertyOp4
 70
     1
102
RTVSPropertyOp5
 70
     1
102
RTVSPropertyOp6
 70
     1
102
RTVSPropertyOp7
 70
     1
102
RTVSPropertyOp8
 70
     1
102
RTVSPropertyOp9
 70
     1
102
RTVSPropertyOp10
 70
     1
102
RTVSPropertyOp11
 70
     1
102
RTVSPropertyOp12
 70
     1
102
RTVSPropertyOp13
 70
     1
102
RTVSPropertyOp14
 70
     1
102
RTVSPropertyOp15
 70
     1
102
RTVSPropertyOp16
 70
     1
102
RTVSPropertyOp17
 70
     1
102
RTVSPropertyOp18
 70
     1
102
RTVSPropertyOp19
 70
     1
102
RTVSPropertyOp20
 70
     1
102
RTVSPropertyOp21
 70
     1
102
RTVSPropertyOp22
 70
     1
102
RTVSPropertyOp23
 70
     1
102
RTVSPropertyOp24
 70
     1
102
RTVSPropertyOp25
 70
     1
102
RTVSPropertyOp26
 70
     1
102
RTVSPropertyOp27
 70
     1
102
RTVSPropertyOp28
 70
     1
102
RTVSPropertyOp29
 70
     1
102
RTVSPropertyOp30
 70
     1
102
RTVSPropertyOp31
 70
     1
102
RTVSPropertyOp32
 70
     1
  0
XRECORD
  5
180
102
{ACAD_REACTORS
330
17F
102
}
330
17F
100
AcDbXrecord
280
     1
102
RTVSPropertyOp0
 70
     1
102
RTVSPropertyOp1
 70
     1
102
RTVSPropertyOp2
 70
     1
102
RTVSPropertyOp3
 70
     1
102
RTVSPropertyOp4
 70
     1
102
RTVSPropertyOp5
 70
     1
102
RTVSPropertyOp6
 70
     1
102
RTVSPropertyOp7
 70
     1
102
RTVSPropertyOp8
 70
     1
102
RTVSPropertyOp9
 70
     1
102
RTVSPropertyOp10
 70
     1
102
RTVSPropertyOp11
 70
     1
102
RTVSPropertyOp12
 70
     1
102
RTVSPropertyOp13
 70
     1
102
RTVSPropertyOp14
 70
     1
102
RTVSPropertyOp15
 70
     1
102
RTVSPropertyOp16
 70
     1
102
RTVSPropertyOp17
 70
     1
102
RTVSPropertyOp18
 70
     1
102
RTVSPropertyOp19
 70
     1
102
RTVSPropertyOp20
 70
     1
102
RTVSPropertyOp21
 70
     1
102
RTVSPropertyOp22
 70
     1
102
RTVSPropertyOp23
 70
     1
102
RTVSPropertyOp24
 70
     1
102
RTVSPropertyOp25
 70
     1
102
RTVSPropertyOp26
 70
     1
102
RTVSPropertyOp27
 70
     1
102
RTVSPropertyOp28
 70
     1
102
RTVSPropertyOp29
 70
     1
102
RTVSPropertyOp30
 70
     1
102
RTVSPropertyOp31
 70
     1
102
RTVSPropertyOp32
 70
     1
  0
XRECORD
  5
174
102
{ACAD_REACTORS
330
173
102
}
330
173
100
AcDbXrecord
280
     1
102
RTVSPropertyOp0
 70
     1
102
RTVSPropertyOp1
 70
     1
102
RTVSPropertyOp2
 70
     1
102
RTVSPropertyOp3
 70
     1
102
RTVSPropertyOp4
 70
     1
102
RTVSPropertyOp5
 70
     1
102
RTVSPropertyOp6
 70
     1
102
RTVSPropertyOp7
 70
     1
102
RTVSPropertyOp8
 70
     1
102
RTVSPropertyOp9
 70
     1
102
RTVSPropertyOp10
 70
     1
102
RTVSPropertyOp11
 70
     1
102
RTVSPropertyOp12
 70
     1
102
RTVSPropertyOp13
 70
     1
102
RTVSPropertyOp14
 70
     1
102
RTVSPropertyOp15
 70
     1
102
RTVSPropertyOp16
 70
     1
102
RTVSPropertyOp17
 70
     1
102
RTVSPropertyOp18
 70
     1
102
RTVSPropertyOp19
 70
     1
102
RTVSPropertyOp20
 70
     1
102
RTVSPropertyOp21
 70
     1
102
RTVSPropertyOp22
 70
     1
102
RTVSPropertyOp23
 70
     1
102
RTVSPropertyOp24
 70
     1
102
RTVSPropertyOp25
 70
     1
102
RTVSPropertyOp26
 70
     1
102
RTVSPropertyOp27
 70
     1
102
RTVSPropertyOp28
 70
     1
102
RTVSPropertyOp29
 70
     1
102
RTVSPropertyOp30
 70
     1
102
RTVSPropertyOp31
 70
     1
102
RTVSPropertyOp32
 70
     1
  0
XRECORD
  5
176
102
{ACAD_REACTORS
330
175
102
}
330
175
100
AcDbXrecord
280
     1
102
RTVSPropertyOp0
 70
     1
102
RTVSPropertyOp1
 70
     1
102
RTVSPropertyOp2
 70
     1
102
RTVSPropertyOp3
 70
     1
102
RTVSPropertyOp4
 70
     1
102
RTVSPropertyOp5
 70
     1
102
RTVSPropertyOp6
 70
     1
102
RTVSPropertyOp7
 70
     1
102
RTVSPropertyOp8
 70
     1
102
RTVSPropertyOp9
 70
     1
102
RTVSPropertyOp10
 70
     1
102
RTVSPropertyOp11
 70
     1
102
RTVSPropertyOp12
 70
     1
102
RTVSPropertyOp13
 70
     1
102
RTVSPropertyOp14
 70
     1
102
RTVSPropertyOp15
 70
     1
102
RTVSPropertyOp16
 70
     1
102
RTVSPropertyOp17
 70
     1
102
RTVSPropertyOp18
 70
     1
102
RTVSPropertyOp19
 70
     1
102
RTVSPropertyOp20
 70
     1
102
RTVSPropertyOp21
 70
     1
102
RTVSPropertyOp22
 70
     1
102
RTVSPropertyOp23
 70
     1
102
RTVSPropertyOp24
 70
     1
102
RTVSPropertyOp25
 70
     1
102
RTVSPropertyOp26
 70
     1
102
RTVSPropertyOp27
 70
     1
102
RTVSPropertyOp28
 70
     1
102
RTVSPropertyOp29
 70
     1
102
RTVSPropertyOp30
 70
     1
102
RTVSPropertyOp31
 70
     1
102
RTVSPropertyOp32
 70
     1
  0
XRECORD
  5
190
102
{ACAD_REACTORS
330
18F
102
}
330
18F
100
AcDbXrecord
280
     1
102
RTVSPropertyOp0
 70
     0
102
RTVSPropertyOp1
 70
     0
102
RTVSPropertyOp2
 70
     0
102
RTVSPropertyOp3
 70
     0
102
RTVSPropertyOp4
 70
     0
102
RTVSPropertyOp5
 70
     0
102
RTVSPropertyOp6
 70
     0
102
RTVSPropertyOp7
 70
     0
102
RTVSPropertyOp8
 70
     0
102
RTVSPropertyOp9
 70
     0
102
RTVSPropertyOp10
 70
     0
102
RTVSPropertyOp11
 70
     0
102
RTVSPropertyOp12
 70
     0
102
RTVSPropertyOp13
 70
     0
102
RTVSPropertyOp14
 70
     2
102
RTVSPropertyOp15
 70
     0
102
RTVSPropertyOp16
 70
     0
102
RTVSPropertyOp17
 70
     0
102
RTVSPropertyOp18
 70
     0
102
RTVSPropertyOp19
 70
     0
102
RTVSPropertyOp20
 70
     0
102
RTVSPropertyOp21
 70
     0
102
RTVSPropertyOp22
 70
     0
102
RTVSPropertyOp23
 70
     0
102
RTVSPropertyOp24
 70
     0
102
RTVSPropertyOp25
 70
     0
102
RTVSPropertyOp26
 70
     0
102
RTVSPropertyOp27
 70
     0
102
RTVSPropertyOp28
 70
     0
102
RTVSPropertyOp29
 70
     0
102
RTVSPropertyOp30
 70
     0
102
RTVSPropertyOp31
 70
     0
102
RTVSPropertyOp32
 70
     0
  0
XRECORD
  5
17E
102
{ACAD_REACTORS
330
17D
102
}
330
17D
100
AcDbXrecord
280
     1
102
RTVSPropertyOp0
 70
     1
102
RTVSPropertyOp1
 70
     1
102
RTVSPropertyOp2
 70
     1
102
RTVSPropertyOp3
 70
     1
102
RTVSPropertyOp4
 70
     1
102
RTVSPropertyOp5
 70
     1
102
RTVSPropertyOp6
 70
     1
102
RTVSPropertyOp7
 70
     1
102
RTVSPropertyOp8
 70
     1
102
RTVSPropertyOp9
 70
     1
102
RTVSPropertyOp10
 70
     1
102
RTVSPropertyOp11
 70
     1
102
RTVSPropertyOp12
 70
     1
102
RTVSPropertyOp13
 70
     1
102
RTVSPropertyOp14
 70
     1
102
RTVSPropertyOp15
 70
     1
102
RTVSPropertyOp16
 70
     1
102
RTVSPropertyOp17
 70
     1
102
RTVSPropertyOp18
 70
     1
102
RTVSPropertyOp19
 70
     1
102
RTVSPropertyOp20
 70
     1
102
RTVSPropertyOp21
 70
     1
102
RTVSPropertyOp22
 70
     1
102
RTVSPropertyOp23
 70
     1
102
RTVSPropertyOp24
 70
     1
102
RTVSPropertyOp25
 70
     1
102
RTVSPropertyOp26
 70
     1
102
RTVSPropertyOp27
 70
     1
102
RTVSPropertyOp28
 70
     1
102
RTVSPropertyOp29
 70
     1
102
RTVSPropertyOp30
 70
     1
102
RTVSPropertyOp31
 70
     1
102
RTVSPropertyOp32
 70
     1
  0
XRECORD
  5
168
102
{ACAD_REACTORS
330
167
102
}
330
167
100
AcDbXrecord
280
     1
102
RTVSPropertyOp0
 70
     1
102
RTVSPropertyOp1
 70
     1
102
RTVSPropertyOp2
 70
     1
102
RTVSPropertyOp3
 70
     1
102
RTVSPropertyOp4
 70
     1
102
RTVSPropertyOp5
 70
     1
102
RTVSPropertyOp6
 70
     1
102
RTVSPropertyOp7
 70
     1
102
RTVSPropertyOp8
 70
     1
102
RTVSPropertyOp9
 70
     1
102
RTVSPropertyOp10
 70
     1
102
RTVSPropertyOp11
 70
     1
102
RTVSPropertyOp12
 70
     1
102
RTVSPropertyOp13
 70
     1
102
RTVSPropertyOp14
 70
     1
102
RTVSPropertyOp15
 70
     1
102
RTVSPropertyOp16
 70
     1
102
RTVSPropertyOp17
 70
     1
102
RTVSPropertyOp18
 70
     1
102
RTVSPropertyOp19
 70
     1
102
RTVSPropertyOp20
 70
     1
102
RTVSPropertyOp21
 70
     1
102
RTVSPropertyOp22
 70
     1
102
RTVSPropertyOp23
 70
     1
102
RTVSPropertyOp24
 70
     1
102
RTVSPropertyOp25
 70
     1
102
RTVSPropertyOp26
 70
     1
102
RTVSPropertyOp27
 70
     1
102
RTVSPropertyOp28
 70
     1
102
RTVSPropertyOp29
 70
     1
102
RTVSPropertyOp30
 70
     1
102
RTVSPropertyOp31
 70
     1
102
RTVSPropertyOp32
 70
     1
  0
XRECORD
  5
16A
102
{ACAD_REACTORS
330
169
102
}
330
169
100
AcDbXrecord
280
     1
102
RTVSPropertyOp0
 70
     1
102
RTVSPropertyOp1
 70
     1
102
RTVSPropertyOp2
 70
     1
102
RTVSPropertyOp3
 70
     1
102
RTVSPropertyOp4
 70
     1
102
RTVSPropertyOp5
 70
     1
102
RTVSPropertyOp6
 70
     1
102
RTVSPropertyOp7
 70
     1
102
RTVSPropertyOp8
 70
     1
102
RTVSPropertyOp9
 70
     1
102
RTVSPropertyOp10
 70
     1
102
RTVSPropertyOp11
 70
     1
102
RTVSPropertyOp12
 70
     1
102
RTVSPropertyOp13
 70
     1
102
RTVSPropertyOp14
 70
     1
102
RTVSPropertyOp15
 70
     1
102
RTVSPropertyOp16
 70
     1
102
RTVSPropertyOp17
 70
     1
102
RTVSPropertyOp18
 70
     1
102
RTVSPropertyOp19
 70
     1
102
RTVSPropertyOp20
 70
     1
102
RTVSPropertyOp21
 70
     1
102
RTVSPropertyOp22
 70
     1
102
RTVSPropertyOp23
 70
     1
102
RTVSPropertyOp24
 70
     1
102
RTVSPropertyOp25
 70
     1
102
RTVSPropertyOp26
 70
     1
102
RTVSPropertyOp27
 70
     1
102
RTVSPropertyOp28
 70
     1
102
RTVSPropertyOp29
 70
     1
102
RTVSPropertyOp30
 70
     1
102
RTVSPropertyOp31
 70
     1
102
RTVSPropertyOp32
 70
     1
  0
XRECORD
  5
16C
102
{ACAD_REACTORS
330
16B
102
}
330
16B
100
AcDbXrecord
280
     1
102
RTVSPropertyOp0
 70
     1
102
RTVSPropertyOp1
 70
     1
102
RTVSPropertyOp2
 70
     1
102
RTVSPropertyOp3
 70
     1
102
RTVSPropertyOp4
 70
     1
102
RTVSPropertyOp5
 70
     1
102
RTVSPropertyOp6
 70
     1
102
RTVSPropertyOp7
 70
     1
102
RTVSPropertyOp8
 70
     1
102
RTVSPropertyOp9
 70
     1
102
RTVSPropertyOp10
 70
     1
102
RTVSPropertyOp11
 70
     1
102
RTVSPropertyOp12
 70
     1
102
RTVSPropertyOp13
 70
     1
102
RTVSPropertyOp14
 70
     1
102
RTVSPropertyOp15
 70
     1
102
RTVSPropertyOp16
 70
     1
102
RTVSPropertyOp17
 70
     1
102
RTVSPropertyOp18
 70
     1
102
RTVSPropertyOp19
 70
     1
102
RTVSPropertyOp20
 70
     1
102
RTVSPropertyOp21
 70
     1
102
RTVSPropertyOp22
 70
     1
102
RTVSPropertyOp23
 70
     1
102
RTVSPropertyOp24
 70
     1
102
RTVSPropertyOp25
 70
     1
102
RTVSPropertyOp26
 70
     1
102
RTVSPropertyOp27
 70
     1
102
RTVSPropertyOp28
 70
     1
102
RTVSPropertyOp29
 70
     1
102
RTVSPropertyOp30
 70
     1
102
RTVSPropertyOp31
 70
     1
102
RTVSPropertyOp32
 70
     1
  0
XRECORD
  5
16E
102
{ACAD_REACTORS
330
16D
102
}
330
16D
100
AcDbXrecord
280
     1
102
RTVSPropertyOp0
 70
     1
102
RTVSPropertyOp1
 70
     1
102
RTVSPropertyOp2
 70
     1
102
RTVSPropertyOp3
 70
     1
102
RTVSPropertyOp4
 70
     1
102
RTVSPropertyOp5
 70
     1
102
RTVSPropertyOp6
 70
     1
102
RTVSPropertyOp7
 70
     1
102
RTVSPropertyOp8
 70
     1
102
RTVSPropertyOp9
 70
     1
102
RTVSPropertyOp10
 70
     1
102
RTVSPropertyOp11
 70
     1
102
RTVSPropertyOp12
 70
     1
102
RTVSPropertyOp13
 70
     1
102
RTVSPropertyOp14
 70
     1
102
RTVSPropertyOp15
 70
     1
102
RTVSPropertyOp16
 70
     1
102
RTVSPropertyOp17
 70
     1
102
RTVSPropertyOp18
 70
     1
102
RTVSPropertyOp19
 70
     1
102
RTVSPropertyOp20
 70
     1
102
RTVSPropertyOp21
 70
     1
102
RTVSPropertyOp22
 70
     1
102
RTVSPropertyOp23
 70
     1
102
RTVSPropertyOp24
 70
     1
102
RTVSPropertyOp25
 70
     1
102
RTVSPropertyOp26
 70
     1
102
RTVSPropertyOp27
 70
     1
102
RTVSPropertyOp28
 70
     1
102
RTVSPropertyOp29
 70
     1
102
RTVSPropertyOp30
 70
     1
102
RTVSPropertyOp31
 70
     1
102
RTVSPropertyOp32
 70
     1
  0
XRECORD
  5
172
102
{ACAD_REACTORS
330
171
102
}
330
171
100
AcDbXrecord
280
     1
102
RTVSPropertyOp0
 70
     1
102
RTVSPropertyOp1
 70
     1
102
RTVSPropertyOp2
 70
     1
102
RTVSPropertyOp3
 70
     1
102
RTVSPropertyOp4
 70
     1
102
RTVSPropertyOp5
 70
     1
102
RTVSPropertyOp6
 70
     1
102
RTVSPropertyOp7
 70
     1
102
RTVSPropertyOp8
 70
     1
102
RTVSPropertyOp9
 70
     1
102
RTVSPropertyOp10
 70
     1
102
RTVSPropertyOp11
 70
     1
102
RTVSPropertyOp12
 70
     1
102
RTVSPropertyOp13
 70
     1
102
RTVSPropertyOp14
 70
     1
102
RTVSPropertyOp15
 70
     1
102
RTVSPropertyOp16
 70
     1
102
RTVSPropertyOp17
 70
     1
102
RTVSPropertyOp18
 70
     1
102
RTVSPropertyOp19
 70
     1
102
RTVSPropertyOp20
 70
     1
102
RTVSPropertyOp21
 70
     1
102
RTVSPropertyOp22
 70
     1
102
RTVSPropertyOp23
 70
     1
102
RTVSPropertyOp24
 70
     1
102
RTVSPropertyOp25
 70
     1
102
RTVSPropertyOp26
 70
     1
102
RTVSPropertyOp27
 70
     1
102
RTVSPropertyOp28
 70
     1
102
RTVSPropertyOp29
 70
     1
102
RTVSPropertyOp30
 70
     1
102
RTVSPropertyOp31
 70
     1
102
RTVSPropertyOp32
 70
     1
  0
XRECORD
  5
18C
102
{ACAD_REACTORS
330
18B
102
}
330
18B
100
AcDbXrecord
280
     1
102
RTVSPropertyOp0
 70
     0
102
RTVSPropertyOp1
 70
     0
102
RTVSPropertyOp2
 70
     0
102
RTVSPropertyOp3
 70
     0
102
RTVSPropertyOp4
 70
     0
102
RTVSPropertyOp5
 70
     0
102
RTVSPropertyOp6
 70
     0
102
RTVSPropertyOp7
 70
     0
102
RTVSPropertyOp8
 70
     0
102
RTVSPropertyOp9
 70
     0
102
RTVSPropertyOp10
 70
     0
102
RTVSPropertyOp11
 70
     0
102
RTVSPropertyOp12
 70
     0
102
RTVSPropertyOp13
 70
     0
102
RTVSPropertyOp14
 70
     2
102
RTVSPropertyOp15
 70
     0
102
RTVSPropertyOp16
 70
     0
102
RTVSPropertyOp17
 70
     0
102
RTVSPropertyOp18
 70
     0
102
RTVSPropertyOp19
 70
     0
102
RTVSPropertyOp20
 70
     0
102
RTVSPropertyOp21
 70
     0
102
RTVSPropertyOp22
 70
     0
102
RTVSPropertyOp23
 70
     0
102
RTVSPropertyOp24
 70
     0
102
RTVSPropertyOp25
 70
     0
102
RTVSPropertyOp26
 70
     0
102
RTVSPropertyOp27
 70
     0
102
RTVSPropertyOp28
 70
     0
102
RTVSPropertyOp29
 70
     0
102
RTVSPropertyOp30
 70
     0
102
RTVSPropertyOp31
 70
     0
102
RTVSPropertyOp32
 70
     0
  0
XRECORD
  5
17C
102
{ACAD_REACTORS
330
17B
102
}
330
17B
100
AcDbXrecord
280
     1
102
RTVSPropertyOp0
 70
     1
102
RTVSPropertyOp1
 70
     1
102
RTVSPropertyOp2
 70
     1
102
RTVSPropertyOp3
 70
     1
102
RTVSPropertyOp4
 70
     1
102
RTVSPropertyOp5
 70
     1
102
RTVSPropertyOp6
 70
     1
102
RTVSPropertyOp7
 70
     1
102
RTVSPropertyOp8
 70
     1
102
RTVSPropertyOp9
 70
     1
102
RTVSPropertyOp10
 70
     1
102
RTVSPropertyOp11
 70
     1
102
RTVSPropertyOp12
 70
     1
102
RTVSPropertyOp13
 70
     1
102
RTVSPropertyOp14
 70
     1
102
RTVSPropertyOp15
 70
     1
102
RTVSPropertyOp16
 70
     1
102
RTVSPropertyOp17
 70
     1
102
RTVSPropertyOp18
 70
     1
102
RTVSPropertyOp19
 70
     1
102
RTVSPropertyOp20
 70
     1
102
RTVSPropertyOp21
 70
     1
102
RTVSPropertyOp22
 70
     1
102
RTVSPropertyOp23
 70
     1
102
RTVSPropertyOp24
 70
     1
102
RTVSPropertyOp25
 70
     1
102
RTVSPropertyOp26
 70
     1
102
RTVSPropertyOp27
 70
     1
102
RTVSPropertyOp28
 70
     1
102
RTVSPropertyOp29
 70
     1
102
RTVSPropertyOp30
 70
     1
102
RTVSPropertyOp31
 70
     1
102
RTVSPropertyOp32
 70
     1
  0
XRECORD
  5
18E
102
{ACAD_REACTORS
330
18D
102
}
330
18D
100
AcDbXrecord
280
     1
102
RTVSPropertyOp0
 70
     0
102
RTVSPropertyOp1
 70
     0
102
RTVSPropertyOp2
 70
     0
102
RTVSPropertyOp3
 70
     0
102
RTVSPropertyOp4
 70
     0
102
RTVSPropertyOp5
 70
     0
102
RTVSPropertyOp6
 70
     0
102
RTVSPropertyOp7
 70
     0
102
RTVSPropertyOp8
 70
     0
102
RTVSPropertyOp9
 70
     0
102
RTVSPropertyOp10
 70
     0
102
RTVSPropertyOp11
 70
     0
102
RTVSPropertyOp12
 70
     0
102
RTVSPropertyOp13
 70
     0
102
RTVSPropertyOp14
 70
     2
102
RTVSPropertyOp15
 70
     0
102
RTVSPropertyOp16
 70
     0
102
RTVSPropertyOp17
 70
     0
102
RTVSPropertyOp18
 70
     0
102
RTVSPropertyOp19
 70
     0
102
RTVSPropertyOp20
 70
     0
102
RTVSPropertyOp21
 70
     0
102
RTVSPropertyOp22
 70
     0
102
RTVSPropertyOp23
 70
     0
102
RTVSPropertyOp24
 70
     0
102
RTVSPropertyOp25
 70
     0
102
RTVSPropertyOp26
 70
     0
102
RTVSPropertyOp27
 70
     0
102
RTVSPropertyOp28
 70
     0
102
RTVSPropertyOp29
 70
     0
102
RTVSPropertyOp30
 70
     0
102
RTVSPropertyOp31
 70
     0
102
RTVSPropertyOp32
 70
     0
  0
XRECORD
  5
164
102
{ACAD_REACTORS
330
163
102
}
330
163
100
AcDbXrecord
280
     1
102
RTVSPropertyOp0
 70
     1
102
RTVSPropertyOp1
 70
     1
102
RTVSPropertyOp2
 70
     1
102
RTVSPropertyOp3
 70
     1
102
RTVSPropertyOp4
 70
     1
102
RTVSPropertyOp5
 70
     1
102
RTVSPropertyOp6
 70
     1
102
RTVSPropertyOp7
 70
     1
102
RTVSPropertyOp8
 70
     1
102
RTVSPropertyOp9
 70
     1
102
RTVSPropertyOp10
 70
     1
102
RTVSPropertyOp11
 70
     1
102
RTVSPropertyOp12
 70
     1
102
RTVSPropertyOp13
 70
     1
102
RTVSPropertyOp14
 70
     1
102
RTVSPropertyOp15
 70
     1
102
RTVSPropertyOp16
 70
     1
102
RTVSPropertyOp17
 70
     1
102
RTVSPropertyOp18
 70
     1
102
RTVSPropertyOp19
 70
     1
102
RTVSPropertyOp20
 70
     1
102
RTVSPropertyOp21
 70
     1
102
RTVSPropertyOp22
 70
     1
102
RTVSPropertyOp23
 70
     1
102
RTVSPropertyOp24
 70
     1
102
RTVSPropertyOp25
 70
     1
102
RTVSPropertyOp26
 70
     1
102
RTVSPropertyOp27
 70
     1
102
RTVSPropertyOp28
 70
     1
102
RTVSPropertyOp29
 70
     1
102
RTVSPropertyOp30
 70
     1
102
RTVSPropertyOp31
 70
     1
102
RTVSPropertyOp32
 70
     1
  0
XRECORD
  5
18A
102
{ACAD_REACTORS
330
189
102
}
330
189
100
AcDbXrecord
280
     1
102
RTVSPropertyOp0
 70
     1
102
RTVSPropertyOp1
 70
     1
102
RTVSPropertyOp2
 70
     1
102
RTVSPropertyOp3
 70
     1
102
RTVSPropertyOp4
 70
     1
102
RTVSPropertyOp5
 70
     1
102
RTVSPropertyOp6
 70
     1
102
RTVSPropertyOp7
 70
     1
102
RTVSPropertyOp8
 70
     1
102
RTVSPropertyOp9
 70
     1
102
RTVSPropertyOp10
 70
     1
102
RTVSPropertyOp11
 70
     1
102
RTVSPropertyOp12
 70
     1
102
RTVSPropertyOp13
 70
     1
102
RTVSPropertyOp14
 70
     1
102
RTVSPropertyOp15
 70
     1
102
RTVSPropertyOp16
 70
     1
102
RTVSPropertyOp17
 70
     1
102
RTVSPropertyOp18
 70
     1
102
RTVSPropertyOp19
 70
     1
102
RTVSPropertyOp20
 70
     1
102
RTVSPropertyOp21
 70
     1
102
RTVSPropertyOp22
 70
     1
102
RTVSPropertyOp23
 70
     1
102
RTVSPropertyOp24
 70
     1
102
RTVSPropertyOp25
 70
     1
102
RTVSPropertyOp26
 70
     1
102
RTVSPropertyOp27
 70
     1
102
RTVSPropertyOp28
 70
     1
102
RTVSPropertyOp29
 70
     1
102
RTVSPropertyOp30
 70
     1
102
RTVSPropertyOp31
 70
     1
102
RTVSPropertyOp32
 70
     1
  0
XRECORD
  5
188
102
{ACAD_REACTORS
330
187
102
}
330
187
100
AcDbXrecord
280
     1
102
RTVSPropertyOp0
 70
     1
102
RTVSPropertyOp1
 70
     1
102
RTVSPropertyOp2
 70
     1
102
RTVSPropertyOp3
 70
     1
102
RTVSPropertyOp4
 70
     1
102
RTVSPropertyOp5
 70
     1
102
RTVSPropertyOp6
 70
     1
102
RTVSPropertyOp7
 70
     1
102
RTVSPropertyOp8
 70
     1
102
RTVSPropertyOp9
 70
     1
102
RTVSPropertyOp10
 70
     1
102
RTVSPropertyOp11
 70
     1
102
RTVSPropertyOp12
 70
     1
102
RTVSPropertyOp13
 70
     1
102
RTVSPropertyOp14
 70
     1
102
RTVSPropertyOp15
 70
     1
102
RTVSPropertyOp16
 70
     1
102
RTVSPropertyOp17
 70
     1
102
RTVSPropertyOp18
 70
     1
102
RTVSPropertyOp19
 70
     1
102
RTVSPropertyOp20
 70
     1
102
RTVSPropertyOp21
 70
     1
102
RTVSPropertyOp22
 70
     1
102
RTVSPropertyOp23
 70
     1
102
RTVSPropertyOp24
 70
     1
102
RTVSPropertyOp25
 70
     1
102
RTVSPropertyOp26
 70
     1
102
RTVSPropertyOp27
 70
     1
102
RTVSPropertyOp28
 70
     1
102
RTVSPropertyOp29
 70
     1
102
RTVSPropertyOp30
 70
     1
102
RTVSPropertyOp31
 70
     1
102
RTVSPropertyOp32
 70
     1
  0
XRECORD
  5
182
102
{ACAD_REACTORS
330
181
102
}
330
181
100
AcDbXrecord
280
     1
102
RTVSPropertyOp0
 70
     1
102
RTVSPropertyOp1
 70
     1
102
RTVSPropertyOp2
 70
     1
102
RTVSPropertyOp3
 70
     1
102
RTVSPropertyOp4
 70
     1
102
RTVSPropertyOp5
 70
     1
102
RTVSPropertyOp6
 70
     1
102
RTVSPropertyOp7
 70
     1
102
RTVSPropertyOp8
 70
     1
102
RTVSPropertyOp9
 70
     1
102
RTVSPropertyOp10
 70
     1
102
RTVSPropertyOp11
 70
     1
102
RTVSPropertyOp12
 70
     1
102
RTVSPropertyOp13
 70
     1
102
RTVSPropertyOp14
 70
     1
102
RTVSPropertyOp15
 70
     1
102
RTVSPropertyOp16
 70
     1
102
RTVSPropertyOp17
 70
     1
102
RTVSPropertyOp18
 70
     1
102
RTVSPropertyOp19
 70
     1
102
RTVSPropertyOp20
 70
     1
102
RTVSPropertyOp21
 70
     1
102
RTVSPropertyOp22
 70
     1
102
RTVSPropertyOp23
 70
     1
102
RTVSPropertyOp24
 70
     1
102
RTVSPropertyOp25
 70
     1
102
RTVSPropertyOp26
 70
     1
102
RTVSPropertyOp27
 70
     1
102
RTVSPropertyOp28
 70
     1
102
RTVSPropertyOp29
 70
     1
102
RTVSPropertyOp30
 70
     1
102
RTVSPropertyOp31
 70
     1
102
RTVSPropertyOp32
 70
     1
  0
XRECORD
  5
184
102
{ACAD_REACTORS
330
183
102
}
330
183
100
AcDbXrecord
280
     1
102
RTVSPropertyOp0
 70
     1
102
RTVSPropertyOp1
 70
     1
102
RTVSPropertyOp2
 70
     1
102
RTVSPropertyOp3
 70
     1
102
RTVSPropertyOp4
 70
     1
102
RTVSPropertyOp5
 70
     1
102
RTVSPropertyOp6
 70
     1
102
RTVSPropertyOp7
 70
     1
102
RTVSPropertyOp8
 70
     1
102
RTVSPropertyOp9
 70
     1
102
RTVSPropertyOp10
 70
     1
102
RTVSPropertyOp11
 70
     1
102
RTVSPropertyOp12
 70
     1
102
RTVSPropertyOp13
 70
     1
102
RTVSPropertyOp14
 70
     1
102
RTVSPropertyOp15
 70
     1
102
RTVSPropertyOp16
 70
     1
102
RTVSPropertyOp17
 70
     1
102
RTVSPropertyOp18
 70
     1
102
RTVSPropertyOp19
 70
     1
102
RTVSPropertyOp20
 70
     1
102
RTVSPropertyOp21
 70
     1
102
RTVSPropertyOp22
 70
     1
102
RTVSPropertyOp23
 70
     1
102
RTVSPropertyOp24
 70
     1
102
RTVSPropertyOp25
 70
     1
102
RTVSPropertyOp26
 70
     1
102
RTVSPropertyOp27
 70
     1
102
RTVSPropertyOp28
 70
     1
102
RTVSPropertyOp29
 70
     1
102
RTVSPropertyOp30
 70
     1
102
RTVSPropertyOp31
 70
     1
102
RTVSPropertyOp32
 70
     1
  0
XRECORD
  5
17A
102
{ACAD_REACTORS
330
179
102
}
330
179
100
AcDbXrecord
280
     1
102
RTVSPropertyOp0
 70
     1
102
RTVSPropertyOp1
 70
     1
102
RTVSPropertyOp2
 70
     1
102
RTVSPropertyOp3
 70
     1
102
RTVSPropertyOp4
 70
     1
102
RTVSPropertyOp5
 70
     1
102
RTVSPropertyOp6
 70
     1
102
RTVSPropertyOp7
 70
     1
102
RTVSPropertyOp8
 70
     1
102
RTVSPropertyOp9
 70
     1
102
RTVSPropertyOp10
 70
     1
102
RTVSPropertyOp11
 70
     1
102
RTVSPropertyOp12
 70
     1
102
RTVSPropertyOp13
 70
     1
102
RTVSPropertyOp14
 70
     1
102
RTVSPropertyOp15
 70
     1
102
RTVSPropertyOp16
 70
     1
102
RTVSPropertyOp17
 70
     1
102
RTVSPropertyOp18
 70
     1
102
RTVSPropertyOp19
 70
     1
102
RTVSPropertyOp20
 70
     1
102
RTVSPropertyOp21
 70
     1
102
RTVSPropertyOp22
 70
     1
102
RTVSPropertyOp23
 70
     1
102
RTVSPropertyOp24
 70
     1
102
RTVSPropertyOp25
 70
     1
102
RTVSPropertyOp26
 70
     1
102
RTVSPropertyOp27
 70
     1
102
RTVSPropertyOp28
 70
     1
102
RTVSPropertyOp29
 70
     1
102
RTVSPropertyOp30
 70
     1
102
RTVSPropertyOp31
 70
     1
102
RTVSPropertyOp32
 70
     1
  0
XRECORD
  5
166
102
{ACAD_REACTORS
330
165
102
}
330
165
100
AcDbXrecord
280
     1
102
RTVSPropertyOp0
 70
     1
102
RTVSPropertyOp1
 70
     1
102
RTVSPropertyOp2
 70
     1
102
RTVSPropertyOp3
 70
     1
102
RTVSPropertyOp4
 70
     1
102
RTVSPropertyOp5
 70
     1
102
RTVSPropertyOp6
 70
     1
102
RTVSPropertyOp7
 70
     1
102
RTVSPropertyOp8
 70
     1
102
RTVSPropertyOp9
 70
     1
102
RTVSPropertyOp10
 70
     1
102
RTVSPropertyOp11
 70
     1
102
RTVSPropertyOp12
 70
     1
102
RTVSPropertyOp13
 70
     1
102
RTVSPropertyOp14
 70
     1
102
RTVSPropertyOp15
 70
     1
102
RTVSPropertyOp16
 70
     1
102
RTVSPropertyOp17
 70
     1
102
RTVSPropertyOp18
 70
     1
102
RTVSPropertyOp19
 70
     1
102
RTVSPropertyOp20
 70
     1
102
RTVSPropertyOp21
 70
     1
102
RTVSPropertyOp22
 70
     1
102
RTVSPropertyOp23
 70
     1
102
RTVSPropertyOp24
 70
     1
102
RTVSPropertyOp25
 70
     1
102
RTVSPropertyOp26
 70
     1
102
RTVSPropertyOp27
 70
     1
102
RTVSPropertyOp28
 70
     1
102
RTVSPropertyOp29
 70
     1
102
RTVSPropertyOp30
 70
     1
102
RTVSPropertyOp31
 70
     1
102
RTVSPropertyOp32
 70
     1
  0
XRECORD
  5
186
102
{ACAD_REACTORS
330
185
102
}
330
185
100
AcDbXrecord
280
     1
102
RTVSPropertyOp0
 70
     1
102
RTVSPropertyOp1
 70
     1
102
RTVSPropertyOp2
 70
     1
102
RTVSPropertyOp3
 70
     1
102
RTVSPropertyOp4
 70
     1
102
RTVSPropertyOp5
 70
     1
102
RTVSPropertyOp6
 70
     1
102
RTVSPropertyOp7
 70
     1
102
RTVSPropertyOp8
 70
     1
102
RTVSPropertyOp9
 70
     1
102
RTVSPropertyOp10
 70
     1
102
RTVSPropertyOp11
 70
     1
102
RTVSPropertyOp12
 70
     1
102
RTVSPropertyOp13
 70
     1
102
RTVSPropertyOp14
 70
     1
102
RTVSPropertyOp15
 70
     1
102
RTVSPropertyOp16
 70
     1
102
RTVSPropertyOp17
 70
     1
102
RTVSPropertyOp18
 70
     1
102
RTVSPropertyOp19
 70
     1
102
RTVSPropertyOp20
 70
     1
102
RTVSPropertyOp21
 70
     1
102
RTVSPropertyOp22
 70
     1
102
RTVSPropertyOp23
 70
     1
102
RTVSPropertyOp24
 70
     1
102
RTVSPropertyOp25
 70
     1
102
RTVSPropertyOp26
 70
     1
102
RTVSPropertyOp27
 70
     1
102
RTVSPropertyOp28
 70
     1
102
RTVSPropertyOp29
 70
     1
102
RTVSPropertyOp30
 70
     1
102
RTVSPropertyOp31
 70
     1
102
RTVSPropertyOp32
 70
     1
  0
ENDSEC
  0
EOF
