  0
SECTION
  2
HEADER
  9
$ACADVER
  1
AC1015
  9
$ACADMAINTVER
 70
     6
  9
$DWGCODEPAGE
  3
ASCII
  9
$INSBASE
 10
0.0
 20
0.0
 30
0.0
  9
$EXTMIN
 10
0.734907
 20
2.096412
 30
0.0
  9
$EXTMAX
 10
7.351217999999999
 20
7.230513932489995
 30
0.0
  9
$LIMMIN
 10
0.0
 20
0.0
  9
$LIMMAX
 10
8.5
 20
11.0
  9
$ORTHOMODE
 70
     0
  9
$REGENMODE
 70
     1
  9
$FILLMODE
 70
     1
  9
$QTEXTMODE
 70
     0
  9
$MIRRTEXT
 70
     1
  9
$LTSCALE
 40
0.2
  9
$ATTMODE
 70
     1
  9
$TEXTSIZE
 40
0.15
  9
$TRACEWID
 40
0.05
  9
$TEXTSTYLE
  7
STANDARD
  9
$CLAYER
  8
0
  9
$CELTYPE
  6
ByLayer
  9
$CECOLOR
 62
   256
  9
$CELTSCALE
 40
1.0
  9
$DISPSILH
 70
     0
  9
$DIMSCALE
 40
1.0
  9
$DIMASZ
 40
0.1
  9
$DIMEXO
 40
0.0625
  9
$DIMDLI
 40
0.38
  9
$DIMRND
 40
0.0
  9
$DIMDLE
 40
0.0
  9
$DIMEXE
 40
0.075
  9
$DIMTP
 40
0.0
  9
$DIMTM
 40
0.0
  9
$DIMTXT
 40
0.1
  9
$DIMCEN
 40
0.09
  9
$DIMTSZ
 40
0.0
  9
$DIMTOL
 70
     0
  9
$DIMLIM
 70
     0
  9
$DIMTIH
 70
     0
  9
$DIMTOH
 70
     0
  9
$DIMSE1
 70
     0
  9
$DIMSE2
 70
     0
  9
$DIMTAD
 70
     1
  9
$DIMZIN
 70
     0
  9
$DIMBLK
  1

  9
$DIMASO
 70
     0
  9
$DIMSHO
 70
     1
  9
$DIMPOST
  1

  9
$DIMAPOST
  1

  9
$DIMALT
 70
     0
  9
$DIMALTD
 70
     2
  9
$DIMALTF
 40
25.4
  9
$DIMLFAC
 40
1.0
  9
$DIMTOFL
 70
     0
  9
$DIMTVP
 40
0.0
  9
$DIMTIX
 70
     0
  9
$DIMSOXD
 70
     0
  9
$DIMSAH
 70
     0
  9
$DIMBLK1
  1

  9
$DIMBLK2
  1

  9
$DIMSTYLE
  2
Standard
  9
$DIMCLRD
 70
     0
  9
$DIMCLRE
 70
     0
  9
$DIMCLRT
 70
     0
  9
$DIMTFAC
 40
1.0
  9
$DIMGAP
 40
0.09
  9
$DIMJUST
 70
     0
  9
$DIMSD1
 70
     0
  9
$DIMSD2
 70
     0
  9
$DIMTOLJ
 70
     1
  9
$DIMTZIN
 70
     0
  9
$DIMALTZ
 70
     0
  9
$DIMALTTZ
 70
     0
  9
$DIMUPT
 70
     0
  9
$DIMDEC
 70
     4
  9
$DIMTDEC
 70
     4
  9
$DIMALTU
 70
     2
  9
$DIMALTTD
 70
     2
  9
$DIMTXSTY
  7
STANDARD
  9
$DIMAUNIT
 70
     0
  9
$DIMADEC
 70
     0
  9
$DIMALTRND
 40
0.0
  9
$DIMAZIN
 70
     0
  9
$DIMDSEP
 70
    46
  9
$DIMATFIT
 70
     3
  9
$DIMFRAC
 70
     0
  9
$DIMLDRBLK
  1

  9
$DIMLUNIT
 70
     2
  9
$DIMLWD
 70
    -2
  9
$DIMLWE
 70
    -2
  9
$DIMTMOVE
 70
     0
  9
$LUNITS
 70
     2
  9
$LUPREC
 70
     4
  9
$SKETCHINC
 40
0.1
  9
$FILLETRAD
 40
0.035
  9
$AUNITS
 70
     0
  9
$AUPREC
 70
     0
  9
$MENU
  1
acad
  9
$ELEVATION
 40
0.0
  9
$PELEVATION
 40
0.0
  9
$THICKNESS
 40
0.0
  9
$LIMCHECK
 70
     0
  9
$CHAMFERA
 40
0.0
  9
$CHAMFERB
 40
0.0
  9
$CHAMFERC
 40
1.0
  9
$CHAMFERD
 40
0.0
  9
$SKPOLY
 70
     0
  9
$TDCREATE
 40
2453955.562587292
  9
$TDUCREATE
 40
2453955.895920625
  9
$TDUPDATE
 40
2453955.60425397
  9
$TDUUPDATE
 40
2453955.895920637
  9
$TDINDWG
 40
0.0000000116
  9
$TDUSRTIMER
 40
0.0000000116
  9
$USRTIMER
 70
     1
  9
$ANGBASE
 50
0.0
  9
$ANGDIR
 70
     0
  9
$PDMODE
 70
     0
  9
$PDSIZE
 40
0.0
  9
$PLINEWID
 40
0.0
  9
$SPLFRAME
 70
     0
  9
$SPLINETYPE
 70
     6
  9
$SPLINESEGS
 70
     8
  9
$HANDSEED
  5
463
  9
$SURFTAB1
 70
     6
  9
$SURFTAB2
 70
     6
  9
$SURFTYPE
 70
     6
  9
$SURFU
 70
     6
  9
$SURFV
 70
     6
  9
$UCSBASE
  2

  9
$UCSNAME
  2

  9
$UCSORG
 10
0.0
 20
0.0
 30
0.0
  9
$UCSXDIR
 10
1.0
 20
0.0
 30
0.0
  9
$UCSYDIR
 10
0.0
 20
1.0
 30
0.0
  9
$UCSORTHOREF
  2

  9
$UCSORTHOVIEW
 70
     0
  9
$UCSORGTOP
 10
0.0
 20
0.0
 30
0.0
  9
$UCSORGBOTTOM
 10
0.0
 20
0.0
 30
0.0
  9
$UCSORGLEFT
 10
0.0
 20
0.0
 30
0.0
  9
$UCSORGRIGHT
 10
0.0
 20
0.0
 30
0.0
  9
$UCSORGFRONT
 10
0.0
 20
0.0
 30
0.0
  9
$UCSORGBACK
 10
0.0
 20
0.0
 30
0.0
  9
$PUCSBASE
  2

  9
$PUCSNAME
  2

  9
$PUCSORG
 10
0.0
 20
0.0
 30
0.0
  9
$PUCSXDIR
 10
1.0
 20
0.0
 30
0.0
  9
$PUCSYDIR
 10
0.0
 20
1.0
 30
0.0
  9
$PUCSORTHOREF
  2

  9
$PUCSORTHOVIEW
 70
     0
  9
$PUCSORGTOP
 10
0.0
 20
0.0
 30
0.0
  9
$PUCSORGBOTTOM
 10
0.0
 20
0.0
 30
0.0
  9
$PUCSORGLEFT
 10
0.0
 20
0.0
 30
0.0
  9
$PUCSORGRIGHT
 10
0.0
 20
0.0
 30
0.0
  9
$PUCSORGFRONT
 10
0.0
 20
0.0
 30
0.0
  9
$PUCSORGBACK
 10
0.0
 20
0.0
 30
0.0
  9
$USERI1
 70
     0
  9
$USERI2
 70
     0
  9
$USERI3
 70
     0
  9
$USERI4
 70
     0
  9
$USERI5
 70
     0
  9
$USERR1
 40
0.0
  9
$USERR2
 40
0.0
  9
$USERR3
 40
0.0
  9
$USERR4
 40
0.0
  9
$USERR5
 40
0.0
  9
$WORLDVIEW
 70
     1
  9
$SHADEDGE
 70
     3
  9
$SHADEDIF
 70
    70
  9
$TILEMODE
 70
     1
  9
$MAXACTVP
 70
    16
  9
$PINSBASE
 10
0.0
 20
0.0
 30
0.0
  9
$PLIMCHECK
 70
     0
  9
$PEXTMIN
 10
1.000000000000000E+20
 20
1.000000000000000E+20
 30
1.000000000000000E+20
  9
$PEXTMAX
 10
-1.000000000000000E+20
 20
-1.000000000000000E+20
 30
-1.000000000000000E+20
  9
$PLIMMIN
 10
0.0
 20
0.0
  9
$PLIMMAX
 10
12.0
 20
9.0
  9
$UNITMODE
 70
     0
  9
$VISRETAIN
 70
     0
  9
$PLINEGEN
 70
     0
  9
$PSLTSCALE
 70
     1
  9
$TREEDEPTH
 70
  3020
  9
$CMLSTYLE
  2
Standard
  9
$CMLJUST
 70
     0
  9
$CMLSCALE
 40
1.0
  9
$PROXYGRAPHICS
 70
     1
  9
$MEASUREMENT
 70
     0
  9
$CELWEIGHT
370
    -1
  9
$ENDCAPS
280
     0
  9
$JOINSTYLE
280
     0
  9
$LWDISPLAY
290
     0
  9
$INSUNITS
 70
     1
  9
$HYPERLINKBASE
  1

  9
$STYLESHEET
  1

  9
$XEDIT
290
     1
  9
$CEPSNTYPE
380
     0
  9
$PSTYLEMODE
290
     0
  9
$FINGERPRINTGUID
  2
{FAEB1C30-E019-11D5-929B-00C0DF256EC4}
  9
$VERSIONGUID
  2
{FAEB1C32-E019-11D5-929B-00C0DF256EC4}
  9
$EXTNAMES
290
     1
  9
$PSVPSCALE
 40
0.0
  9
$OLESTARTUP
290
     0
  0
ENDSEC
  0
SECTION
  2
CLASSES
  0
CLASS
  1
ACDBDICTIONARYWDFLT
  2
AcDbDictionaryWithDefault
  3
AutoCAD 2000
 90
        0
280
     0
281
     0
  0
CLASS
  1
ACDBPLACEHOLDER
  2
AcDbPlaceHolder
  3
ObjectDBX Classes
 90
        0
280
     0
281
     0
  0
CLASS
  1
LAYOUT
  2
AcDbLayout
  3
ObjectDBX Classes
 90
        0
280
     0
281
     0
  0
ENDSEC
  0
SECTION
  2
TABLES
  0
TABLE
  2
VPORT
  5
8
330
0
100
AcDbSymbolTable
 70
     2
  0
VPORT
  5
1F
330
8
100
AcDbSymbolTableRecord
100
AcDbViewportTableRecord
  2
*ACTIVE
 70
     0
 10
0.0
 20
0.0
 11
1.0
 21
1.0
 12
5.015422554999053
 22
4.284210526315768
 13
0.0
 23
0.0
 14
1.0
 24
1.0
 15
0.0
 25
0.0
 16
0.0
 26
0.0
 36
1.0
 17
0.0
 27
0.0
 37
0.0
 40
6.235146275884067
 41
0.688367129135539
 42
50.0
 43
0.0
 44
0.0
 50
0.0
 51
0.0
 71
     0
 72
  2000
 73
     1
 74
     0
 75
     0
 76
     0
 77
     0
 78
     0
281
     0
 65
     1
110
0.0
120
0.0
130
0.0
111
1.0
121
0.0
131
0.0
112
0.0
122
1.0
132
0.0
 79
     0
146
0.0
  0
ENDTAB
  0
TABLE
  2
LTYPE
  5
5
330
0
100
AcDbSymbolTable
 70
     2
  0
LTYPE
  5
10
330
5
100
AcDbSymbolTableRecord
100
AcDbLinetypeTableRecord
  2
ByBlock
 70
     0
  3

 72
    65
 73
     0
 40
0.0
  0
LTYPE
  5
11
330
5
100
AcDbSymbolTableRecord
100
AcDbLinetypeTableRecord
  2
ByLayer
 70
     0
  3

 72
    65
 73
     0
 40
0.0
  0
LTYPE
  5
1B
330
5
100
AcDbSymbolTableRecord
100
AcDbLinetypeTableRecord
  2
CONTINUOUS
 70
     0
  3
Solid line
 72
    65
 73
     0
 40
0.0
  0
LTYPE
  5
1C
330
5
100
AcDbSymbolTableRecord
100
AcDbLinetypeTableRecord
  2
DASHED
 70
     0
  3
__ __ __ __ __ __ __ __ __ __ __ __ __ __ __ __
 72
    65
 73
     2
 40
0.75
 49
0.5
 74
     0
 49
-0.25
 74
     0
  0
ENDTAB
  0
TABLE
  2
LAYER
  5
2
330
0
100
AcDbSymbolTable
 70
     1
  0
LAYER
  5
1D
330
2
100
AcDbSymbolTableRecord
100
AcDbLayerTableRecord
  2
0
 70
     0
 62
     7
  6
CONTINUOUS
370
    -3
390
F
  0
ENDTAB
  0
TABLE
  2
STYLE
  5
3
330
0
100
AcDbSymbolTable
 70
     1
  0
STYLE
  5
22
330
3
100
AcDbSymbolTableRecord
100
AcDbTextStyleTableRecord
  2
STANDARD
 70
     0
 40
0.0
 41
1.0
 50
0.0
 71
     0
 42
0.15
  3
ROMANS.SHX
  4

  0
ENDTAB
  0
TABLE
  2
VIEW
  5
6
330
0
100
AcDbSymbolTable
 70
     1
  0
VIEW
  5
21
330
6
100
AcDbSymbolTableRecord
100
AcDbViewTableRecord
  2
1
 70
     0
 40
11.0
 10
7.225941000000001
 20
5.5
 41
14.451883
 11
0.0
 21
0.0
 31
1.0
 12
0.0
 22
0.0
 32
0.0
 42
50.0
 43
0.0
 44
0.0
 50
0.0
 71
     0
281
     0
 72
     0
  0
ENDTAB
  0
TABLE
  2
UCS
  5
7
330
0
100
AcDbSymbolTable
 70
     0
  0
ENDTAB
  0
TABLE
  2
APPID
  5
9
330
0
100
AcDbSymbolTable
 70
     1
  0
APPID
  5
20
330
9
100
AcDbSymbolTableRecord
100
AcDbRegAppTableRecord
  2
ACAD
 70
     0
  0
ENDTAB
  0
TABLE
  2
DIMSTYLE
  5
A
330
0
100
AcDbSymbolTable
 70
     1
100
AcDbDimStyleTable
  0
DIMSTYLE
105
23
330
A
100
AcDbSymbolTableRecord
100
AcDbDimStyleTableRecord
  2
Standard
 70
     0
  3

  4

340
22
  0
ENDTAB
  0
TABLE
  2
BLOCK_RECORD
  5
1
330
0
100
AcDbSymbolTable
 70
     0
  0
BLOCK_RECORD
  5
18
330
1
100
AcDbSymbolTableRecord
100
AcDbBlockTableRecord
  2
*Model_Space
340
19
  0
BLOCK_RECORD
  5
16
330
1
100
AcDbSymbolTableRecord
100
AcDbBlockTableRecord
  2
*Paper_Space
340
17
  0
ENDTAB
  0
ENDSEC
  0
SECTION
  2
BLOCKS
  0
BLOCK
  5
458
330
18
100
AcDbEntity
  8
0
100
AcDbBlockBegin
  2
*Model_Space
 70
     0
 10
0.0
 20
0.0
 30
0.0
  3
*Model_Space
  1

  4

  0
ENDBLK
  5
459
330
18
100
AcDbEntity
  8
0
100
AcDbBlockEnd
  0
BLOCK
  5
456
330
16
100
AcDbEntity
 67
     1
  8
0
100
AcDbBlockBegin
  2
*Paper_Space
 70
     0
 10
0.0
 20
0.0
 30
0.0
  3
*Paper_Space
  1

  4

  0
ENDBLK
  5
457
330
16
100
AcDbEntity
 67
     1
  8
0
100
AcDbBlockEnd
  0
ENDSEC
  0
SECTION
  2
ENTITIES
  0
LINE
  5
24
330
18
100
AcDbEntity
  8
0
100
AcDbLine
 10
6.480212
 20
4.5014
 30
0.0
 11
6.480212
 21
3.992473
 31
0.0
  0
LINE
  5
25
330
18
100
AcDbEntity
  8
0
100
AcDbLine
 10
6.480212
 20
3.094962
 30
0.0
 11
3.923114751933649
 21
3.603084366886104
 31
0.0
  0
LINE
  5
26
330
18
100
AcDbEntity
  8
0
100
AcDbLine
 10
1.465823
 20
4.091375
 30
0.0
 11
1.465823
 21
4.312601
 31
0.0
  0
LINE
  5
27
330
18
100
AcDbEntity
  8
0
100
AcDbLine
 10
0.8217120000000001
 20
4.234998
 30
0.0
 11
1.11182
 21
4.167273000000001
 31
0.0
  0
LINE
  5
28
330
18
100
AcDbEntity
  8
0
100
AcDbLine
 10
1.11182
 20
4.167273000000001
 30
0.0
 11
3.292869
 21
5.062656
 31
0.0
  0
LINE
  5
29
330
18
100
AcDbEntity
  8
0
100
AcDbLine
 10
4.124666
 20
5.404132
 30
0.0
 11
4.124666
 21
5.777646
 31
0.0
  0
LINE
  5
2A
330
18
100
AcDbEntity
  8
0
100
AcDbLine
 10
4.124666
 20
6.369369
 30
0.0
 11
1.11182
 21
5.299107
 31
0.0
  0
LINE
  5
2B
330
18
100
AcDbEntity
  8
0
100
AcDbLine
 10
1.11182
 20
4.167273000000001
 30
0.0
 11
1.11182
 21
4.608480999999999
 31
0.0
  0
LINE
  5
2C
330
18
100
AcDbEntity
  8
0
100
AcDbLine
 10
1.11182
 20
4.608480999999999
 30
0.0
 11
1.202716
 21
4.710997
 31
0.0
  0
LINE
  5
2D
330
18
100
AcDbEntity
  8
0
100
AcDbLine
 10
1.202716
 20
4.710997
 30
0.0
 11
1.025015
 21
4.784198
 31
0.0
  0
LINE
  5
2E
330
18
100
AcDbEntity
  8
0
100
AcDbLine
 10
1.025015
 20
4.784198
 30
0.0
 11
1.11182
 21
4.878989
 31
0.0
  0
LINE
  5
2F
330
18
100
AcDbEntity
  8
0
100
AcDbLine
 10
1.11182
 20
4.878989
 30
0.0
 11
1.11182
 21
5.299107
 31
0.0
  0
LINE
  5
30
330
18
100
AcDbEntity
  8
0
100
AcDbLine
 10
0.8217120000000001
 20
4.946715
 30
0.0
 11
0.8217120000000001
 21
5.366832
 31
0.0
  0
LINE
  5
31
330
18
100
AcDbEntity
  8
0
100
AcDbLine
 10
0.8217120000000001
 20
4.234998
 30
0.0
 11
0.8217120000000001
 21
4.676206
 31
0.0
  0
LINE
  5
32
330
18
100
AcDbEntity
  8
0
100
AcDbLine
 10
0.734907
 20
4.851924
 30
0.0
 11
0.8217120000000001
 21
4.946715
 31
0.0
  0
LINE
  5
33
330
18
100
AcDbEntity
  8
0
100
AcDbLine
 10
0.912608
 20
4.778723
 30
0.0
 11
0.734907
 21
4.851924
 31
0.0
  0
LINE
  5
34
330
18
100
AcDbEntity
  8
0
100
AcDbLine
 10
0.8217120000000001
 20
4.676206
 30
0.0
 11
0.912608
 21
4.778723
 31
0.0
  0
LINE
  5
35
330
18
100
AcDbEntity
  8
0
100
AcDbLine
 10
0.8217120000000001
 20
5.366832
 30
0.0
 11
1.11182
 21
5.299107
 31
0.0
  0
LINE
  5
36
330
18
100
AcDbEntity
  8
0
100
AcDbLine
 10
1.11182
 20
4.878989
 30
0.0
 11
0.8217120000000001
 21
4.946715
 31
0.0
  0
LINE
  5
37
330
18
100
AcDbEntity
  8
0
100
AcDbLine
 10
0.734907
 20
4.851924
 30
0.0
 11
1.025015
 21
4.784198
 31
0.0
  0
LINE
  5
38
330
18
100
AcDbEntity
  8
0
100
AcDbLine
 10
0.912608
 20
4.778723
 30
0.0
 11
1.202716
 21
4.710997
 31
0.0
  0
LINE
  5
39
330
18
100
AcDbEntity
  8
0
100
AcDbLine
 10
1.11182
 20
4.608480999999999
 30
0.0
 11
0.8217120000000001
 21
4.676206
 31
0.0
  0
LINE
  5
3A
330
18
100
AcDbEntity
  8
0
100
AcDbLine
 10
0.8217120000000001
 20
5.366832
 30
0.0
 11
3.855275
 21
6.414401
 31
0.0
  0
LINE
  5
3B
330
18
100
AcDbEntity
  8
0
100
AcDbLine
 10
3.855275
 20
6.414401
 30
0.0
 11
4.124666
 21
6.369369
 31
0.0
  0
LINE
  5
3C
330
18
100
AcDbEntity
  8
0
100
AcDbLine
 10
4.124666
 20
5.777646
 30
0.0
 11
4.020956
 21
5.831325
 31
0.0
  0
LINE
  5
3D
330
18
100
AcDbEntity
  8
0
100
AcDbLine
 10
4.020956
 20
5.831325
 30
0.0
 11
4.195365
 21
5.977269000000001
 31
0.0
  0
LINE
  5
3E
330
18
100
AcDbEntity
  8
0
100
AcDbLine
 10
4.195365
 20
5.977269000000001
 30
0.0
 11
4.124666
 21
6.025298
 31
0.0
  0
LINE
  5
3F
330
18
100
AcDbEntity
  8
0
100
AcDbLine
 10
4.124666
 20
6.025298
 30
0.0
 11
4.124666
 21
6.369369
 31
0.0
  0
LINE
  5
40
330
18
100
AcDbEntity
  8
0
100
AcDbLine
 10
4.766148
 20
5.224283
 30
0.0
 11
4.766148
 21
4.749731
 31
0.0
  0
LINE
  5
41
330
18
100
AcDbEntity
  8
0
100
AcDbLine
 10
4.766148
 20
4.0599
 30
0.0
 11
5.892048
 21
4.618123000000001
 31
0.0
  0
LINE
  5
42
330
18
100
AcDbEntity
  8
0
100
AcDbLine
 10
6.611574000000001
 20
4.974866000000001
 30
0.0
 11
6.611574000000001
 21
5.410357
 31
0.0
  0
LINE
  5
43
330
18
100
AcDbEntity
  8
0
100
AcDbLine
 10
6.611574000000001
 20
6.040098
 30
0.0
 11
4.766148
 21
5.224283
 31
0.0
  0
LINE
  5
44
330
18
100
AcDbEntity
  8
0
100
AcDbLine
 10
4.766148
 20
4.458181
 30
0.0
 11
4.848406
 21
4.573024
 31
0.0
  0
LINE
  5
45
330
18
100
AcDbEntity
  8
0
100
AcDbLine
 10
4.848406
 20
4.573024
 30
0.0
 11
4.681113
 21
4.657726
 31
0.0
  0
LINE
  5
46
330
18
100
AcDbEntity
  8
0
100
AcDbLine
 10
4.681113
 20
4.657726
 30
0.0
 11
4.766148
 21
4.749731
 31
0.0
  0
LINE
  5
47
330
18
100
AcDbEntity
  8
0
100
AcDbLine
 10
4.766148
 20
4.458181
 30
0.0
 11
4.766148
 21
4.0599
 31
0.0
  0
LINE
  5
48
330
18
100
AcDbEntity
  8
0
100
AcDbLine
 10
4.766148
 20
4.0599
 30
0.0
 11
4.489287
 21
4.101929
 31
0.0
  0
LINE
  5
49
330
18
100
AcDbEntity
  8
0
100
AcDbLine
 10
4.404252
 20
4.699755000000001
 30
0.0
 11
4.489287
 21
4.791759
 31
0.0
  0
LINE
  5
4A
330
18
100
AcDbEntity
  8
0
100
AcDbLine
 10
4.571545
 20
4.615053
 30
0.0
 11
4.404252
 21
4.699755000000001
 31
0.0
  0
LINE
  5
4B
330
18
100
AcDbEntity
  8
0
100
AcDbLine
 10
4.489287
 20
4.50021
 30
0.0
 11
4.489287
 21
4.101929
 31
0.0
  0
LINE
  5
4C
330
18
100
AcDbEntity
  8
0
100
AcDbLine
 10
4.489287
 20
5.266311
 30
0.0
 11
4.489287
 21
4.791759
 31
0.0
  0
LINE
  5
4D
330
18
100
AcDbEntity
  8
0
100
AcDbLine
 10
4.489287
 20
4.50021
 30
0.0
 11
4.571545
 21
4.615053
 31
0.0
  0
LINE
  5
4E
330
18
100
AcDbEntity
  8
0
100
AcDbLine
 10
4.489287
 20
5.266311
 30
0.0
 11
4.766148
 21
5.224283
 31
0.0
  0
LINE
  5
4F
330
18
100
AcDbEntity
  8
0
100
AcDbLine
 10
6.334713
 20
6.082126000000001
 30
0.0
 11
4.489287
 21
5.266311
 31
0.0
  0
LINE
  5
50
330
18
100
AcDbEntity
  8
0
100
AcDbLine
 10
4.489287
 20
4.791759
 30
0.0
 11
4.766148
 21
4.749731
 31
0.0
  0
LINE
  5
51
330
18
100
AcDbEntity
  8
0
100
AcDbLine
 10
4.681113
 20
4.657726
 30
0.0
 11
4.404252
 21
4.699755000000001
 31
0.0
  0
LINE
  5
52
330
18
100
AcDbEntity
  8
0
100
AcDbLine
 10
4.571545
 20
4.615053
 30
0.0
 11
4.848406
 21
4.573024
 31
0.0
  0
LINE
  5
53
330
18
100
AcDbEntity
  8
0
100
AcDbLine
 10
4.766148
 20
4.458181
 30
0.0
 11
4.489287
 21
4.50021
 31
0.0
  0
LINE
  5
54
330
18
100
AcDbEntity
  8
0
100
AcDbLine
 10
6.480212
 20
3.094962
 30
0.0
 11
6.889582000000001
 21
3.355753
 31
0.0
  0
LINE
  5
55
330
18
100
AcDbEntity
  8
0
100
AcDbLine
 10
6.480212
 20
3.661946
 30
0.0
 11
6.627028999999999
 21
3.737155
 31
0.0
  0
LINE
  5
56
330
18
100
AcDbEntity
  8
0
100
AcDbLine
 10
6.627028999999999
 20
3.737155
 30
0.0
 11
6.365621
 21
3.937515
 31
0.0
  0
LINE
  5
57
330
18
100
AcDbEntity
  8
0
100
AcDbLine
 10
6.365621
 20
3.937515
 30
0.0
 11
6.480212
 21
3.992473
 31
0.0
  0
LINE
  5
58
330
18
100
AcDbEntity
  8
0
100
AcDbLine
 10
6.480212
 20
3.661946
 30
0.0
 11
6.480212
 21
3.094962
 31
0.0
  0
LINE
  5
59
330
18
100
AcDbEntity
  8
0
100
AcDbLine
 10
6.889582000000001
 20
3.904417
 30
0.0
 11
6.889582000000001
 21
3.355753
 31
0.0
  0
LINE
  5
5A
330
18
100
AcDbEntity
  8
0
100
AcDbLine
 10
6.889582000000001
 20
4.762192
 30
0.0
 11
6.889582000000001
 21
4.253265
 31
0.0
  0
LINE
  5
5B
330
18
100
AcDbEntity
  8
0
100
AcDbLine
 10
7.036397999999999
 20
3.997947
 30
0.0
 11
6.787846000000001
 21
4.188453
 31
0.0
  0
LINE
  5
5C
330
18
100
AcDbEntity
  8
0
100
AcDbLine
 10
6.480212
 20
4.5014
 30
0.0
 11
6.889582000000001
 21
4.762192
 31
0.0
  0
LINE
  5
5D
330
18
100
AcDbEntity
  8
0
100
AcDbLine
 10
6.889582000000001
 20
4.253265
 30
0.0
 11
6.480212
 21
3.992473
 31
0.0
  0
LINE
  5
5E
330
18
100
AcDbEntity
  8
0
100
AcDbLine
 10
7.036397999999999
 20
3.997947
 30
0.0
 11
6.627028999999999
 21
3.737155
 31
0.0
  0
LINE
  5
5F
330
18
100
AcDbEntity
  8
0
100
AcDbLine
 10
6.480212
 20
4.5014
 30
0.0
 11
6.253297
 21
4.540848
 31
0.0
  0
LINE
  5
60
330
18
100
AcDbEntity
  8
0
100
AcDbLine
 10
3.75775
 20
5.253503
 30
0.0
 11
4.489287
 21
5.138742
 31
0.0
  0
LINE
  5
61
330
18
100
AcDbEntity
  8
0
100
AcDbLine
 10
4.489287
 20
4.847516000000001
 30
0.0
 11
3.625759
 21
4.997637
 31
0.0
  0
LINE
  5
62
330
18
100
AcDbEntity
  8
0
100
AcDbLine
 10
6.352547
 20
4.84644
 30
0.0
 11
6.889582000000001
 21
4.762192
 31
0.0
  0
LINE
  5
63
330
18
100
AcDbEntity
  8
0
100
AcDbLine
 10
6.334713
 20
6.082126000000001
 30
0.0
 11
6.611574000000001
 21
6.040098
 31
0.0
  0
LINE
  5
64
330
18
100
AcDbEntity
  8
0
100
AcDbLine
 10
6.611574000000001
 20
5.410357
 30
0.0
 11
6.507865
 21
5.464037
 31
0.0
  0
LINE
  5
65
330
18
100
AcDbEntity
  8
0
100
AcDbLine
 10
6.682274000000001
 20
5.60998
 30
0.0
 11
6.611574000000001
 21
5.658009
 31
0.0
  0
LINE
  5
66
330
18
100
AcDbEntity
  8
0
100
AcDbLine
 10
6.507865
 20
5.464037
 30
0.0
 11
6.682274000000001
 21
5.60998
 31
0.0
  0
LINE
  5
67
330
18
100
AcDbEntity
  8
0
100
AcDbLine
 10
6.611574000000001
 20
5.658009
 30
0.0
 11
6.611574000000001
 21
6.040098
 31
0.0
  0
LINE
  5
68
330
18
100
AcDbEntity
  8
0
100
AcDbLine
 10
2.953921
 20
2.636193
 30
0.0
 11
3.506431
 21
2.512001
 31
0.0
  0
LINE
  5
69
330
18
100
AcDbEntity
  8
0
100
AcDbLine
 10
3.506431
 20
2.512001
 30
0.0
 11
3.506431
 21
3.284767
 31
0.0
  0
LINE
  5
6A
330
18
100
AcDbEntity
  8
0
100
AcDbLine
 10
3.506431
 20
3.284767
 30
0.0
 11
2.965621432103387
 21
3.39575657628388
 31
0.0
  0
LINE
  5
6B
330
18
100
AcDbEntity
  8
0
100
AcDbLine
 10
2.92524
 20
3.457741023086066
 30
0.0
 11
2.92524
 21
3.769042
 31
0.0
  0
LINE
  5
6C
330
18
100
AcDbEntity
  8
0
100
AcDbLine
 10
2.962203895533829
 20
3.761696900373563
 30
0.0
 11
2.663989062347597
 21
3.820955201702475
 31
0.0
  0
LINE
  5
6D
330
18
100
AcDbEntity
  8
0
100
AcDbLine
 10
2.628074482946776
 20
3.88042892503629
 30
0.0
 11
2.628074482946777
 21
4.241758670279221
 31
0.0
  0
LINE
  5
6E
330
18
100
AcDbEntity
  8
0
100
AcDbLine
 10
3.930466459510895
 20
3.992541604382389
 30
0.0
 11
3.899863646673039
 21
3.980156990385439
 31
0.0
  0
LINE
  5
6F
330
18
100
AcDbEntity
  8
0
100
AcDbLine
 10
3.900209459510894
 20
3.980700831146023
 30
0.0
 11
3.900209459510894
 21
3.606146160659539
 31
0.0
  0
LINE
  5
70
330
18
100
AcDbEntity
  8
0
100
AcDbLine
 10
3.859179559574137
 20
3.561898123080543
 30
0.0
 11
3.478266968726107
 21
3.637590448899347
 31
0.0
  0
LINE
  5
71
330
18
100
AcDbEntity
  8
0
100
AcDbLine
 10
3.930466459510895
 20
3.992541604382389
 30
0.0
 11
3.930466459510895
 21
3.609925670861106
 31
0.0
  0
LINE
  5
72
330
18
100
AcDbEntity
  8
0
100
AcDbLine
 10
3.876397715727189
 20
4.058389426953903
 30
0.0
 11
2.718448613247413
 21
4.288486958533415
 31
0.0
  0
LINE
  5
73
330
18
100
AcDbEntity
  8
0
100
AcDbLine
 10
3.876397715727189
 20
4.058389426953903
 30
0.0
 11
3.846140715727188
 21
4.044280426953902
 31
0.0
  0
LINE
  5
74
330
18
100
AcDbEntity
  8
0
100
AcDbLine
 10
3.506431
 20
2.512001
 30
0.0
 11
3.654254
 21
2.597265
 31
0.0
  0
LINE
  5
75
330
18
100
AcDbEntity
  8
0
100
AcDbLine
 10
3.908989
 20
2.744196
 30
0.0
 11
3.908989
 21
3.491276
 31
0.0
  0
LINE
  5
76
330
18
100
AcDbEntity
  8
0
100
AcDbLine
 10
3.506431
 20
3.284767
 30
0.0
 11
3.626067556627349
 21
3.34613951463947
 31
0.0
  0
LINE
  5
77
330
18
100
AcDbEntity
  8
0
100
AcDbLine
 10
3.917494
 20
3.495639
 30
0.0
 11
3.917494
 21
3.597853844297694
 31
0.0
  0
LINE
  5
78
330
18
100
AcDbEntity
  8
0
100
AcDbLine
 10
2.641802959985249
 20
3.857694880567371
 30
0.0
 11
1.465823
 21
4.091375
 31
0.0
  0
LINE
  5
79
330
18
100
AcDbEntity
  8
0
100
AcDbLine
 10
2.688191613247414
 20
4.274377958533415
 30
0.0
 11
2.718448613247414
 21
4.288486958533415
 31
0.0
  0
LINE
  5
7A
330
18
100
AcDbEntity
  8
0
100
AcDbLine
 10
3.651297
 20
3.418502107234091
 30
0.0
 11
3.651297
 21
3.603207
 31
0.0
  0
ARC
  5
7B
330
18
100
AcDbEntity
  8
0
100
AcDbCircle
 10
3.476407968726107
 20
3.628234448899347
 30
0.0
 40
0.009538
100
AcDbArc
 50
78.76110600000001
 51
180.0
  0
LINE
  5
7C
330
18
100
AcDbEntity
  8
0
100
AcDbLine
 10
3.507866
 20
3.322899
 30
0.0
 11
3.507866
 21
3.589687
 31
0.0
  0
LINE
  5
7D
330
18
100
AcDbEntity
  8
0
100
AcDbLine
 10
3.73461
 20
3.455409782006878
 30
0.0
 11
3.73461
 21
3.586651727757665
 31
0.0
  0
LINE
  5
7E
330
18
100
AcDbEntity
  8
0
100
AcDbLine
 10
3.704352999999999
 20
3.459100936523714
 30
0.0
 11
3.704353
 21
3.592664190347051
 31
0.0
  0
LINE
  5
7F
330
18
100
AcDbEntity
  8
0
100
AcDbLine
 10
3.737761677702057
 20
3.427917539978894
 30
0.0
 11
3.770214999133473
 21
3.420086074083595
 31
0.0
  0
LINE
  5
80
330
18
100
AcDbEntity
  8
0
100
AcDbLine
 10
3.770214999133473
 20
3.420086074083595
 30
0.0
 11
3.917494
 21
3.495639
 31
0.0
  0
LINE
  5
81
330
18
100
AcDbEntity
  8
0
100
AcDbLine
 10
3.654254
 20
2.597265
 30
0.0
 11
3.689314
 21
2.674197
 31
0.0
  0
LINE
  5
82
330
18
100
AcDbEntity
  8
0
100
AcDbLine
 10
3.689314
 20
2.674197
 30
0.0
 11
3.749265
 21
2.536407
 31
0.0
  0
LINE
  5
83
330
18
100
AcDbEntity
  8
0
100
AcDbLine
 10
3.749265
 20
2.536407
 30
0.0
 11
3.803232
 21
2.683195
 31
0.0
  0
LINE
  5
84
330
18
100
AcDbEntity
  8
0
100
AcDbLine
 10
3.803232
 20
2.683195
 30
0.0
 11
3.908989
 21
2.744196
 31
0.0
  0
LINE
  5
85
330
18
100
AcDbEntity
  8
0
100
AcDbLine
 10
3.604974
 20
2.568841
 30
0.0
 11
3.749265
 21
2.536407
 31
0.0
  0
ARC
  5
86
330
18
100
AcDbEntity
  8
0
100
AcDbCircle
 10
4.372580999999999
 20
2.717135
 30
0.0
 40
0.6957720000000001
100
AcDbArc
 50
185.271163
 51
194.068754
  0
ARC
  5
87
330
18
100
AcDbEntity
  8
0
100
AcDbCircle
 10
4.336722
 20
2.66164
 30
0.0
 40
0.6957720000000001
100
AcDbArc
 50
185.775154
 51
188.479554
  0
LINE
  5
88
330
18
100
AcDbEntity
  8
0
100
AcDbLine
 10
2.953921
 20
2.636193
 30
0.0
 11
2.953921
 21
3.413716434899546
 31
0.0
  0
LINE
  5
89
330
18
100
AcDbEntity
  8
0
100
AcDbLine
 10
5.462352
 20
4.405079
 30
0.0
 11
5.661890000000001
 21
4.166521
 31
0.0
  0
LINE
  5
8A
330
18
100
AcDbEntity
  8
0
100
AcDbLine
 10
5.661890000000001
 20
4.166521
 30
0.0
 11
5.753575
 21
4.13375
 31
0.0
  0
LINE
  5
8B
330
18
100
AcDbEntity
  8
0
100
AcDbLine
 10
5.753575
 20
4.13375
 30
0.0
 11
6.234201000000001
 21
4.527476999999999
 31
0.0
  0
LINE
  5
8C
330
18
100
AcDbEntity
  8
0
100
AcDbLine
 10
5.870915
 20
5.011797000000001
 30
0.0
 11
5.870915
 21
4.636803
 31
0.0
  0
LINE
  5
8D
330
18
100
AcDbEntity
  8
0
100
AcDbLine
 10
6.234201000000001
 20
4.527476999999999
 30
0.0
 11
6.256396
 21
4.543019
 31
0.0
  0
LINE
  5
8E
330
18
100
AcDbEntity
  8
0
100
AcDbLine
 10
6.148157
 20
4.745103
 30
0.0
 11
6.611574000000001
 21
4.974866000000001
 31
0.0
  0
LINE
  5
8F
330
18
100
AcDbEntity
  8
0
100
AcDbLine
 10
5.984162
 20
5.190062
 30
0.0
 11
6.006841000000001
 21
5.193935
 31
0.0
  0
LINE
  5
90
330
18
100
AcDbEntity
  8
0
100
AcDbLine
 10
6.006841000000001
 20
5.193935
 30
0.0
 11
6.006841000000001
 21
4.887674
 31
0.0
  0
LINE
  5
91
330
18
100
AcDbEntity
  8
0
100
AcDbLine
 10
5.954212999999999
 20
4.802998000000001
 30
0.0
 11
6.154661
 21
4.598441
 31
0.0
  0
ARC
  5
92
330
18
100
AcDbEntity
  8
0
100
AcDbCircle
 10
6.166556
 20
4.610097000000001
 30
0.0
 40
0.016654
100
AcDbArc
 50
224.418896
 51
34.653432
  0
LINE
  5
93
330
18
100
AcDbEntity
  8
0
  6
DASHED
100
AcDbLine
 10
6.165752
 20
4.652826
 30
0.0
 11
6.015153
 21
4.810053
 31
0.0
  0
ARC
  5
94
330
18
100
AcDbEntity
  8
0
100
AcDbCircle
 10
5.964683
 20
4.815985
 30
0.0
 40
0.016683
100
AcDbArc
 50
57.18434200000001
 51
231.124069
  0
ARC
  5
95
330
18
100
AcDbEntity
  8
0
100
AcDbCircle
 10
6.033199
 20
4.602583
 30
0.0
 40
0.016654
100
AcDbArc
 50
224.418896
 51
34.653432
  0
LINE
  5
96
330
18
100
AcDbEntity
  8
0
100
AcDbLine
 10
5.935009
 20
4.678991000000001
 30
0.0
 11
6.021304
 21
4.590927
 31
0.0
  0
ARC
  5
97
330
18
100
AcDbEntity
  8
0
100
AcDbCircle
 10
5.945479
 20
4.691978
 30
0.0
 40
0.016683
100
AcDbArc
 50
57.18434200000001
 51
231.124069
  0
LINE
  5
98
330
18
100
AcDbEntity
  8
0
100
AcDbLine
 10
6.040011
 20
4.646313
 30
0.0
 11
5.984384
 21
4.703135
 31
0.0
  0
LINE
  5
99
330
18
100
AcDbEntity
  8
0
100
AcDbLine
 10
2.852147
 20
4.881727
 30
0.0
 11
3.071856
 21
4.629439
 31
0.0
  0
LINE
  5
9A
330
18
100
AcDbEntity
  8
0
100
AcDbLine
 10
3.071856
 20
4.629439
 30
0.0
 11
3.182519
 21
4.609176000000001
 31
0.0
  0
LINE
  5
9B
330
18
100
AcDbEntity
  8
0
100
AcDbLine
 10
3.182519
 20
4.609176000000001
 30
0.0
 11
3.616528
 21
4.991173000000001
 31
0.0
  0
LINE
  5
9C
330
18
100
AcDbEntity
  8
0
100
AcDbLine
 10
3.568601
 20
5.175852
 30
0.0
 11
4.124666
 21
5.404132
 31
0.0
  0
LINE
  5
9D
330
18
100
AcDbEntity
  8
0
100
AcDbLine
 10
3.638724
 20
5.006715
 30
0.0
 11
3.640937
 21
5.108689
 31
0.0
  0
LINE
  5
9E
330
18
100
AcDbEntity
  8
0
100
AcDbLine
 10
3.640937
 20
5.108689
 30
0.0
 11
3.304714
 21
5.420868000000001
 31
0.0
  0
ARC
  5
9F
330
18
100
AcDbEntity
  8
0
100
AcDbCircle
 10
3.32743
 20
5.445333
 30
0.0
 40
0.033385
100
AcDbArc
 50
152.183916
 51
227.1236080000001
  0
LINE
  5
A0
330
18
100
AcDbEntity
  8
0
100
AcDbLine
 10
3.297903
 20
5.460912
 30
0.0
 11
3.349552
 21
5.558807
 31
0.0
  0
LINE
  5
A1
330
18
100
AcDbEntity
  8
0
100
AcDbLine
 10
3.367945
 20
5.574701999999999
 30
0.0
 11
3.439626
 21
5.600061
 31
0.0
  0
LINE
  5
A2
330
18
100
AcDbEntity
  8
0
100
AcDbLine
 10
3.616528
 20
4.991173000000001
 30
0.0
 11
3.618741
 21
5.093147
 31
0.0
  0
LINE
  5
A3
330
18
100
AcDbEntity
  8
0
100
AcDbLine
 10
3.618741
 20
5.093147
 30
0.0
 11
3.282518
 21
5.405326000000001
 31
0.0
  0
ARC
  5
A4
330
18
100
AcDbEntity
  8
0
100
AcDbCircle
 10
3.305234
 20
5.429791000000001
 30
0.0
 40
0.033385
100
AcDbArc
 50
152.183916
 51
227.1236080000001
  0
LINE
  5
A5
330
18
100
AcDbEntity
  8
0
100
AcDbLine
 10
3.275707
 20
5.44537
 30
0.0
 11
3.337408
 21
5.562318
 31
0.0
  0
ARC
  5
A6
330
18
100
AcDbEntity
  8
0
100
AcDbCircle
 10
3.366936
 20
5.54674
 30
0.0
 40
0.033385
100
AcDbArc
 50
109.482232
 51
152.183916
  0
LINE
  5
A7
330
18
100
AcDbEntity
  8
0
100
AcDbLine
 10
3.355801
 20
5.578213
 30
0.0
 11
3.424939
 21
5.602672
 31
0.0
  0
ARC
  5
A8
330
18
100
AcDbEntity
  8
0
100
AcDbCircle
 10
3.379079
 20
5.543229
 30
0.0
 40
0.033385
100
AcDbArc
 50
109.482232
 51
152.183916
  0
LINE
  5
A9
330
18
100
AcDbEntity
  8
0
100
AcDbLine
 10
3.424939
 20
5.602672
 30
0.0
 11
3.439626
 21
5.600061
 31
0.0
  0
LINE
  5
AA
330
18
100
AcDbEntity
  8
0
100
AcDbLine
 10
3.616528
 20
4.991173000000001
 30
0.0
 11
3.638724
 21
5.006715
 31
0.0
  0
LINE
  5
AB
330
18
100
AcDbEntity
  8
0
100
AcDbLine
 10
3.344524
 20
5.209571
 30
0.0
 11
3.523781
 21
5.041090000000001
 31
0.0
  0
ARC
  5
AC
330
18
100
AcDbEntity
  8
0
100
AcDbCircle
 10
3.538105
 20
5.05633
 30
0.0
 40
0.020915
100
AcDbArc
 50
226.774992
 51
355.401137
  0
LINE
  5
AD
330
18
100
AcDbEntity
  8
0
  6
DASHED
100
AcDbLine
 10
3.521417
 20
5.113495
 30
0.0
 11
3.373755000000001
 21
5.258353
 31
0.0
  0
ARC
  5
AE
330
18
100
AcDbEntity
  8
0
100
AcDbCircle
 10
3.371280000000001
 20
5.225939
 30
0.0
 40
0.031366
100
AcDbArc
 50
128.189783
 51
211.456862
  0
LINE
  5
AF
330
18
100
AcDbEntity
  8
0
100
AcDbLine
 10
3.335568
 20
5.118989
 30
0.0
 11
3.407473
 21
5.049883
 31
0.0
  0
ARC
  5
B0
330
18
100
AcDbEntity
  8
0
100
AcDbCircle
 10
3.423884
 20
5.066958000000001
 30
0.0
 40
0.023683
100
AcDbArc
 50
226.136726
 51
326.606298
  0
ARC
  5
B1
330
18
100
AcDbEntity
  8
0
100
AcDbCircle
 10
3.352825
 20
5.134451
 30
0.0
 40
0.023171
100
AcDbArc
 50
110.101966
 51
221.860257
  0
LINE
  5
B2
330
18
100
AcDbEntity
  8
0
100
AcDbLine
 10
3.430094
 20
5.089095
 30
0.0
 11
3.377349
 21
5.142123000000001
 31
0.0
  0
LINE
  5
B3
330
18
100
AcDbEntity
  8
0
100
AcDbLine
 10
3.439626
 20
5.600061
 30
0.0
 11
3.439626
 21
5.295604
 31
0.0
  0
LINE
  5
B4
330
18
100
AcDbEntity
  8
0
100
AcDbLine
 10
3.271849
 20
5.429791000000001
 30
0.0
 11
3.271849
 21
5.085229
 31
0.0
  0
ARC
  5
B5
330
18
100
AcDbEntity
  8
0
100
AcDbCircle
 10
3.272951
 20
5.065182
 30
0.0
 40
0.020077
100
AcDbArc
 50
231.868655
 51
93.14629099999999
  0
ARC
  5
B6
330
18
100
AcDbEntity
  8
0
100
AcDbCircle
 10
5.872017
 20
4.616756
 30
0.0
 40
0.020077
100
AcDbArc
 50
231.868655
 51
93.14629099999999
  0
LINE
  5
B7
330
18
100
AcDbEntity
  8
0
100
AcDbLine
 10
6.531579
 20
4.025196
 30
0.0
 11
6.480212
 21
4.161699
 31
0.0
  0
LINE
  5
B8
330
18
100
AcDbEntity
  8
0
100
AcDbLine
 10
4.75734
 20
4.452974
 30
0.0
 11
4.824706
 21
4.576622
 31
0.0
  0
LINE
  5
B9
330
18
100
AcDbEntity
  8
0
100
AcDbLine
 10
4.824706
 20
4.576622
 30
0.0
 11
4.651443
 21
4.66223
 31
0.0
  0
LINE
  5
BA
330
18
100
AcDbEntity
  8
0
100
AcDbLine
 10
4.651443
 20
4.66223
 30
0.0
 11
4.743891000000001
 21
4.753108999999999
 31
0.0
  0
LINE
  5
BB
330
18
100
AcDbEntity
  8
0
100
AcDbLine
 10
4.683975
 20
4.464117
 30
0.0
 11
4.756642
 21
4.586954
 31
0.0
  0
LINE
  5
BC
330
18
100
AcDbEntity
  8
0
100
AcDbLine
 10
4.756642
 20
4.586954
 30
0.0
 11
4.612777
 21
4.6681
 31
0.0
  0
LINE
  5
BD
330
18
100
AcDbEntity
  8
0
100
AcDbLine
 10
4.612777
 20
4.6681
 30
0.0
 11
4.689001999999999
 21
4.761442
 31
0.0
  0
LINE
  5
BE
330
18
100
AcDbEntity
  8
0
100
AcDbLine
 10
4.640348
 20
4.477278
 30
0.0
 11
4.702524
 21
4.59517
 31
0.0
  0
LINE
  5
BF
330
18
100
AcDbEntity
  8
0
100
AcDbLine
 10
4.702524
 20
4.59517
 30
0.0
 11
4.575438
 21
4.673768
 31
0.0
  0
LINE
  5
C0
330
18
100
AcDbEntity
  8
0
100
AcDbLine
 10
4.575438
 20
4.673768
 30
0.0
 11
4.643811
 21
4.768301999999999
 31
0.0
  0
LINE
  5
C1
330
18
100
AcDbEntity
  8
0
100
AcDbLine
 10
4.599263
 20
4.483515000000001
 30
0.0
 11
4.650897000000001
 21
4.603007
 31
0.0
  0
LINE
  5
C2
330
18
100
AcDbEntity
  8
0
100
AcDbLine
 10
4.650897000000001
 20
4.603007
 30
0.0
 11
4.525227
 21
4.68139
 31
0.0
  0
LINE
  5
C3
330
18
100
AcDbEntity
  8
0
100
AcDbLine
 10
4.525227
 20
4.68139
 30
0.0
 11
4.585875
 21
4.777097
 31
0.0
  0
LINE
  5
C4
330
18
100
AcDbEntity
  8
0
100
AcDbLine
 10
4.559345
 20
4.489575
 30
0.0
 11
4.602874
 21
4.610297
 31
0.0
  0
LINE
  5
C5
330
18
100
AcDbEntity
  8
0
100
AcDbLine
 10
4.602874
 20
4.610297
 30
0.0
 11
4.478836
 21
4.688433
 31
0.0
  0
LINE
  5
C6
330
18
100
AcDbEntity
  8
0
100
AcDbLine
 10
4.478836
 20
4.688433
 30
0.0
 11
4.531631
 21
4.785330999999999
 31
0.0
  0
LINE
  5
C7
330
18
100
AcDbEntity
  8
0
100
AcDbLine
 10
1.004567
 20
4.633519000000001
 30
0.0
 11
1.075551
 21
4.740683
 31
0.0
  0
LINE
  5
C8
330
18
100
AcDbEntity
  8
0
100
AcDbLine
 10
1.075551
 20
4.740683
 30
0.0
 11
0.9621780000000001
 21
4.798867
 31
0.0
  0
LINE
  5
C9
330
18
100
AcDbEntity
  8
0
100
AcDbLine
 10
0.9621780000000001
 20
4.798867
 30
0.0
 11
1.026301
 21
4.898953
 31
0.0
  0
LINE
  5
CA
330
18
100
AcDbEntity
  8
0
100
AcDbLine
 10
0.963427
 20
4.643123
 30
0.0
 11
1.017336
 21
4.754274
 31
0.0
  0
LINE
  5
CB
330
18
100
AcDbEntity
  8
0
100
AcDbLine
 10
1.017336
 20
4.754274
 30
0.0
 11
0.9149649999999999
 21
4.809889
 31
0.0
  0
LINE
  5
CC
330
18
100
AcDbEntity
  8
0
100
AcDbLine
 10
0.9149649999999999
 20
4.809889
 30
0.0
 11
0.9775290000000001
 21
4.910339
 31
0.0
  0
LINE
  5
CD
330
18
100
AcDbEntity
  8
0
100
AcDbLine
 10
0.8923399999999999
 20
4.659718
 30
0.0
 11
0.956591
 21
4.768455
 31
0.0
  0
LINE
  5
CE
330
18
100
AcDbEntity
  8
0
100
AcDbLine
 10
0.956591
 20
4.768455
 30
0.0
 11
0.887523
 21
4.816296
 31
0.0
  0
LINE
  5
CF
330
18
100
AcDbEntity
  8
0
100
AcDbLine
 10
0.887523
 20
4.816296
 30
0.0
 11
0.923233
 21
4.923014
 31
0.0
  0
LINE
  5
D0
330
18
100
AcDbEntity
  8
0
100
AcDbLine
 10
0.853959
 20
4.668678
 30
0.0
 11
0.918442
 21
4.777361
 31
0.0
  0
LINE
  5
D1
330
18
100
AcDbEntity
  8
0
100
AcDbLine
 10
0.918442
 20
4.777361
 30
0.0
 11
0.83778
 21
4.827908
 31
0.0
  0
LINE
  5
D2
330
18
100
AcDbEntity
  8
0
100
AcDbLine
 10
0.83778
 20
4.827908
 30
0.0
 11
0.8665780000000001
 21
4.936241000000001
 31
0.0
  0
LINE
  5
D3
330
18
100
AcDbEntity
  8
0
100
AcDbLine
 10
0.833109
 20
4.811471
 30
0.0
 11
0.793391
 21
4.838271
 31
0.0
  0
LINE
  5
D4
330
18
100
AcDbEntity
  8
0
100
AcDbLine
 10
0.793391
 20
4.838271
 30
0.0
 11
0.817434
 21
4.942044
 31
0.0
  0
ARC
  5
D5
330
18
100
AcDbEntity
  8
0
100
AcDbCircle
 10
0.514911
 20
4.980519999999999
 30
0.0
 40
0.354444
100
AcDbArc
 50
352.823461
 51
358.776899
  0
ARC
  5
D6
330
18
100
AcDbEntity
  8
0
100
AcDbCircle
 10
0.777991
 20
4.974903
 30
0.0
 40
0.091304
100
AcDbArc
 50
358.776899
 51
10.522146
  0
ARC
  5
D7
330
18
100
AcDbEntity
  8
0
100
AcDbCircle
 10
-2.307036
 20
4.401894
 30
0.0
 40
3.229095
100
AcDbArc
 50
10.522146
 51
11.31346
  0
ARC
  5
D8
330
18
100
AcDbEntity
  8
0
100
AcDbCircle
 10
0.421375
 20
4.947751
 30
0.0
 40
0.446616
100
AcDbArc
 50
11.31346
 51
13.441322
  0
ARC
  5
D9
330
18
100
AcDbEntity
  8
0
100
AcDbCircle
 10
0.393481
 20
4.941084
 30
0.0
 40
0.475296
100
AcDbArc
 50
13.441322
 51
16.620507
  0
ARC
  5
DA
330
18
100
AcDbEntity
  8
0
100
AcDbCircle
 10
1.124687
 20
5.159351
 30
0.0
 40
0.287792
100
AcDbArc
 50
192.534543
 51
196.620507
  0
ARC
  5
DB
330
18
100
AcDbEntity
  8
0
100
AcDbCircle
 10
1.019741
 20
5.136019
 30
0.0
 40
0.180284
100
AcDbArc
 50
184.160305
 51
192.534543
  0
ARC
  5
DC
330
18
100
AcDbEntity
  8
0
100
AcDbCircle
 10
1.420279
 20
5.165154
 30
0.0
 40
0.5818800000000001
100
AcDbArc
 50
179.50187
 51
184.160305
  0
ARC
  5
DD
330
18
100
AcDbEntity
  8
0
100
AcDbCircle
 10
1.550381
 20
5.164023
 30
0.0
 40
0.711986
100
AcDbArc
 50
175.985212
 51
179.50187
  0
ARC
  5
DE
330
18
100
AcDbEntity
  8
0
100
AcDbCircle
 10
1.233806
 20
5.186242
 30
0.0
 40
0.394633
100
AcDbArc
 50
171.261056
 51
175.985212
  0
ARC
  5
DF
330
18
100
AcDbEntity
  8
0
100
AcDbCircle
 10
1.343973
 20
5.169307
 30
0.0
 40
0.5060939999999999
100
AcDbArc
 50
168.227616
 51
171.261056
  0
ARC
  5
E0
330
18
100
AcDbEntity
  8
0
100
AcDbCircle
 10
1.876357
 20
5.058354000000001
 30
0.0
 40
1.049916
100
AcDbArc
 50
166.12167
 51
168.227616
  0
ARC
  5
E1
330
18
100
AcDbEntity
  8
0
100
AcDbCircle
 10
1.025885
 20
5.268483
 30
0.0
 40
0.173871
100
AcDbArc
 50
162.115207
 51
166.12167
  0
ARC
  5
E2
330
18
100
AcDbEntity
  8
0
100
AcDbCircle
 10
1.956054
 20
4.968319999999999
 30
0.0
 40
1.151271
100
AcDbArc
 50
160.558488
 51
162.115207
  0
ARC
  5
E3
330
18
100
AcDbEntity
  8
0
100
AcDbCircle
 10
0.932211
 20
5.329705000000001
 30
0.0
 40
0.065521
100
AcDbArc
 50
157.164631
 51
160.558488
  0
ARC
  5
E4
330
18
100
AcDbEntity
  8
0
100
AcDbCircle
 10
0.325691
 20
4.98374
 30
0.0
 40
0.6006199999999999
100
AcDbArc
 50
354.19722
 51
358.46867
  0
ARC
  5
E5
330
18
100
AcDbEntity
  8
0
100
AcDbCircle
 10
0.735225
 20
4.972792
 30
0.0
 40
0.190939
100
AcDbArc
 50
358.46867
 51
6.048227
  0
ARC
  5
E6
330
18
100
AcDbEntity
  8
0
100
AcDbCircle
 10
-1.749922
 20
4.709477
 30
0.0
 40
2.689997
100
AcDbArc
 50
6.048227
 51
7.255892
  0
ARC
  5
E7
330
18
100
AcDbEntity
  8
0
100
AcDbCircle
 10
0.6721729999999999
 20
5.01786
 30
0.0
 40
0.248349
100
AcDbArc
 50
7.255892
 51
11.231193
  0
ARC
  5
E8
330
18
100
AcDbEntity
  8
0
100
AcDbCircle
 10
0.7133310000000001
 20
5.026032
 30
0.0
 40
0.206388
100
AcDbArc
 50
11.231193
 51
20.851266
  0
ARC
  5
E9
330
18
100
AcDbEntity
  8
0
100
AcDbCircle
 10
1.084997
 20
5.167596
 30
0.0
 40
0.191325
100
AcDbArc
 50
190.858752
 51
200.851266
  0
ARC
  5
EA
330
18
100
AcDbEntity
  8
0
100
AcDbCircle
 10
1.241388
 20
5.197595
 30
0.0
 40
0.350567
100
AcDbArc
 50
184.575746
 51
190.858752
  0
ARC
  5
EB
330
18
100
AcDbEntity
  8
0
100
AcDbCircle
 10
1.085278
 20
5.185101
 30
0.0
 40
0.193958
100
AcDbArc
 50
176.125394
 51
184.575746
  0
ARC
  5
EC
330
18
100
AcDbEntity
  8
0
100
AcDbCircle
 10
1.410828
 20
5.163053
 30
0.0
 40
0.520254
100
AcDbArc
 50
173.658217
 51
176.125394
  0
ARC
  5
ED
330
18
100
AcDbEntity
  8
0
100
AcDbCircle
 10
2.379134
 20
5.055436
 30
0.0
 40
1.494521
100
AcDbArc
 50
172.202641
 51
173.658217
  0
ARC
  5
EE
330
18
100
AcDbEntity
  8
0
100
AcDbCircle
 10
1.189911
 20
5.218283
 30
0.0
 40
0.2942010000000001
100
AcDbArc
 50
169.988729
 51
172.202641
  0
ARC
  5
EF
330
18
100
AcDbEntity
  8
0
100
AcDbCircle
 10
3.593938
 20
4.793901
 30
0.0
 40
2.735398
100
AcDbArc
 50
169.262709
 51
169.988729
  0
ARC
  5
F0
330
18
100
AcDbEntity
  8
0
100
AcDbCircle
 10
0.997927
 20
5.286172000000001
 30
0.0
 40
0.093126
100
AcDbArc
 50
147.795815
 51
169.262709
  0
ARC
  5
F1
330
18
100
AcDbEntity
  8
0
100
AcDbCircle
 10
1.092169
 20
5.226816
 30
0.0
 40
0.204503
100
AcDbArc
 50
145.385243
 51
147.795815
  0
ARC
  5
F2
330
18
100
AcDbEntity
  8
0
100
AcDbCircle
 10
0.625822
 20
5.005159
 30
0.0
 40
0.364265
100
AcDbArc
 50
344.911812
 51
350.939199
  0
ARC
  5
F3
330
18
100
AcDbEntity
  8
0
100
AcDbCircle
 10
0.9018360000000001
 20
4.961143
 30
0.0
 40
0.084763
100
AcDbArc
 50
350.939199
 51
3.453279
  0
ARC
  5
F4
330
18
100
AcDbEntity
  8
0
100
AcDbCircle
 10
-12.259426
 20
4.166937
 30
0.0
 40
13.269965
100
AcDbArc
 50
3.453279
 51
3.653419
  0
ARC
  5
F5
330
18
100
AcDbEntity
  8
0
100
AcDbCircle
 10
-0.680195
 20
4.906280000000001
 30
0.0
 40
1.667155
100
AcDbArc
 50
3.653419
 51
4.218073
  0
ARC
  5
F6
330
18
100
AcDbEntity
  8
0
100
AcDbCircle
 10
-9.002171000000001
 20
4.292513
 30
0.0
 40
10.011733
100
AcDbArc
 50
4.218073
 51
4.486380000000001
  0
ARC
  5
F7
330
18
100
AcDbEntity
  8
0
100
AcDbCircle
 10
-1.084179
 20
4.913778
 30
0.0
 40
2.069406
100
AcDbArc
 50
4.486380000000001
 51
5.076531
  0
ARC
  5
F8
330
18
100
AcDbEntity
  8
0
100
AcDbCircle
 10
0.7820060000000001
 20
5.07956
 30
0.0
 40
0.195872
100
AcDbArc
 50
5.076531
 51
13.627663
  0
ARC
  5
F9
330
18
100
AcDbEntity
  8
0
100
AcDbCircle
 10
1.326517
 20
5.21157
 30
0.0
 40
0.364413
100
AcDbArc
 50
187.361153
 51
193.627663
  0
ARC
  5
FA
330
18
100
AcDbEntity
  8
0
100
AcDbCircle
 10
1.286574
 20
5.20641
 30
0.0
 40
0.324138
100
AcDbArc
 50
183.123152
 51
187.361153
  0
ARC
  5
FB
330
18
100
AcDbEntity
  8
0
100
AcDbCircle
 10
2.34224
 20
5.26401
 30
0.0
 40
1.381374
100
AcDbArc
 50
181.070599
 51
183.123152
  0
ARC
  5
FC
330
18
100
AcDbEntity
  8
0
100
AcDbCircle
 10
1.359308
 20
5.245642
 30
0.0
 40
0.398271
100
AcDbArc
 50
174.804296
 51
181.070599
  0
ARC
  5
FD
330
18
100
AcDbEntity
  8
0
100
AcDbCircle
 10
1.154114
 20
5.2643
 30
0.0
 40
0.19223
100
AcDbArc
 50
165.779811
 51
174.804296
  0
ARC
  5
FE
330
18
100
AcDbEntity
  8
0
100
AcDbCircle
 10
1.039397
 20
5.293371
 30
0.0
 40
0.073886
100
AcDbArc
 50
153.426232
 51
165.779811
  0
ARC
  5
FF
330
18
100
AcDbEntity
  8
0
100
AcDbCircle
 10
1.348609
 20
5.138707
 30
0.0
 40
0.4196220000000001
100
AcDbArc
 50
152.739511
 51
153.426232
  0
ARC
  5
100
330
18
100
AcDbEntity
  8
0
100
AcDbCircle
 10
0.7971010000000001
 20
5.00131
 30
0.0
 40
0.251018
100
AcDbArc
 50
335.935292
 51
343.188416
  0
ARC
  5
101
330
18
100
AcDbEntity
  8
0
100
AcDbCircle
 10
0.9832920000000001
 20
4.945055
 30
0.0
 40
0.056513
100
AcDbArc
 50
343.188416
 51
358.5101
  0
ARC
  5
102
330
18
100
AcDbEntity
  8
0
100
AcDbCircle
 10
-0.567832
 20
4.985399
 30
0.0
 40
1.608162
100
AcDbArc
 50
358.5101
 51
0.0
  0
ARC
  5
103
330
18
100
AcDbEntity
  8
0
100
AcDbCircle
 10
0.690013
 20
4.985399
 30
0.0
 40
0.350317
100
AcDbArc
 50
0.0
 51
3.192534
  0
ARC
  5
104
330
18
100
AcDbEntity
  8
0
100
AcDbCircle
 10
-0.8243219999999999
 20
4.900932
 30
0.0
 40
1.867006
100
AcDbArc
 50
3.192534
 51
4.29054
  0
ARC
  5
105
330
18
100
AcDbEntity
  8
0
100
AcDbCircle
 10
0.581784
 20
5.006424
 30
0.0
 40
0.456948
100
AcDbArc
 50
4.29054
 51
6.510089
  0
ARC
  5
106
330
18
100
AcDbEntity
  8
0
100
AcDbCircle
 10
0.8281069999999999
 20
5.034533000000001
 30
0.0
 40
0.209027
100
AcDbArc
 50
6.510089
 51
14.403686
  0
ARC
  5
107
330
18
100
AcDbEntity
  8
0
100
AcDbCircle
 10
1.330457
 20
5.163549
 30
0.0
 40
0.309626
100
AcDbArc
 50
187.919653
 51
194.403686
  0
ARC
  5
108
330
18
100
AcDbEntity
  8
0
100
AcDbCircle
 10
1.615532
 20
5.203206
 30
0.0
 40
0.5974470000000001
100
AcDbArc
 50
183.815628
 51
187.919653
  0
ARC
  5
109
330
18
100
AcDbEntity
  8
0
100
AcDbCircle
 10
1.475818
 20
5.193887999999999
 30
0.0
 40
0.4574220000000001
100
AcDbArc
 50
179.125017
 51
183.815628
  0
ARC
  5
10A
330
18
100
AcDbEntity
  8
0
100
AcDbCircle
 10
1.72826
 20
5.190033000000001
 30
0.0
 40
0.7098939999999999
100
AcDbArc
 50
176.495348
 51
179.125017
  0
ARC
  5
10B
330
18
100
AcDbEntity
  8
0
100
AcDbCircle
 10
1.741552
 20
5.189219000000001
 30
0.0
 40
0.72321
100
AcDbArc
 50
173.890007
 51
176.495348
  0
ARC
  5
10C
330
18
100
AcDbEntity
  8
0
100
AcDbCircle
 10
1.362519
 20
5.229793
 30
0.0
 40
0.342012
100
AcDbArc
 50
171.671725
 51
173.890007
  0
ARC
  5
10D
330
18
100
AcDbEntity
  8
0
100
AcDbCircle
 10
4.429533999999999
 20
4.780818
 30
0.0
 40
3.441715
100
AcDbArc
 50
171.017197
 51
171.671725
  0
ARC
  5
10E
330
18
100
AcDbEntity
  8
0
100
AcDbCircle
 10
-10.225547
 20
6.681557000000001
 30
0.0
 40
11.44153
100
AcDbArc
 50
350.979709
 51
351.164027
  0
ARC
  5
10F
330
18
100
AcDbEntity
  8
0
100
AcDbCircle
 10
-3.643599
 20
5.658385
 30
0.0
 40
4.780531
100
AcDbArc
 50
351.164027
 51
351.449177
  0
ARC
  5
110
330
18
100
AcDbEntity
  8
0
100
AcDbCircle
 10
-26.029201
 20
9.024239
 30
0.0
 40
27.417759
100
AcDbArc
 50
351.449177
 51
351.569698
  0
ARC
  5
111
330
18
100
AcDbEntity
  8
0
100
AcDbCircle
 10
-0.767267
 20
5.280228
 30
0.0
 40
1.879887
100
AcDbArc
 50
351.569698
 51
352.029968
  0
ARC
  5
112
330
18
100
AcDbEntity
  8
0
100
AcDbCircle
 10
1.044989
 20
5.026498999999999
 30
0.0
 40
0.049955
100
AcDbArc
 50
352.029968
 51
28.632521
  0
ARC
  5
113
330
18
100
AcDbEntity
  8
0
100
AcDbCircle
 10
1.153869
 20
5.085942
 30
0.0
 40
0.074095
100
AcDbArc
 50
178.748973
 51
208.632521
  0
ARC
  5
114
330
18
100
AcDbEntity
  8
0
100
AcDbCircle
 10
1.248711
 20
5.083871
 30
0.0
 40
0.168959
100
AcDbArc
 50
167.695061
 51
178.748973
  0
ARC
  5
115
330
18
100
AcDbEntity
  8
0
100
AcDbCircle
 10
0.9630620000000001
 20
5.146178
 30
0.0
 40
0.123406
100
AcDbArc
 50
347.695061
 51
0.6366729999999999
  0
ARC
  5
116
330
18
100
AcDbEntity
  8
0
100
AcDbCircle
 10
0.216165
 20
5.137878
 30
0.0
 40
0.87035
100
AcDbArc
 50
0.6366729999999999
 51
4.179374
  0
ARC
  5
117
330
18
100
AcDbEntity
  8
0
100
AcDbCircle
 10
2.349374
 20
5.293759
 30
0.0
 40
1.268547
100
AcDbArc
 50
181.245061
 51
184.179374
  0
ARC
  5
118
330
18
100
AcDbEntity
  8
0
100
AcDbCircle
 10
2.570222
 20
5.298559
 30
0.0
 40
1.489448
100
AcDbArc
 50
180.0
 51
181.245061
  0
ARC
  5
119
330
18
100
AcDbEntity
  8
0
100
AcDbCircle
 10
2.166097
 20
5.298559
 30
0.0
 40
1.085322
100
AcDbArc
 50
179.588843
 51
180.0
  0
LINE
  5
11A
330
18
100
AcDbEntity
  8
0
100
AcDbLine
 10
1.058264
 20
4.620983
 30
0.0
 11
1.144263
 21
4.724643
 31
0.0
  0
LINE
  5
11B
330
18
100
AcDbEntity
  8
0
100
AcDbLine
 10
1.144263
 20
4.724643
 30
0.0
 11
0.998389
 21
4.790414
 31
0.0
  0
LINE
  5
11C
330
18
100
AcDbEntity
  8
0
100
AcDbLine
 10
0.998389
 20
4.790414
 30
0.0
 11
1.074484
 21
4.887705
 31
0.0
  0
ARC
  5
11D
330
18
100
AcDbEntity
  8
0
100
AcDbCircle
 10
0.85059
 20
4.271095
 30
0.0
 40
0.303448
100
AcDbArc
 50
30.58549099999999
 51
34.679875
  0
ARC
  5
11E
330
18
100
AcDbEntity
  8
0
100
AcDbCircle
 10
1.132772
 20
4.46634
 30
0.0
 40
0.039695
100
AcDbArc
 50
201.044503
 51
214.679875
  0
ARC
  5
11F
330
18
100
AcDbEntity
  8
0
100
AcDbCircle
 10
1.196674
 20
4.490927
 30
0.0
 40
0.108165
100
AcDbArc
 50
187.488046
 51
201.044503
  0
ARC
  5
120
330
18
100
AcDbEntity
  8
0
100
AcDbCircle
 10
0.802442
 20
4.439108999999999
 30
0.0
 40
0.289459
100
AcDbArc
 50
7.488046000000002
 51
15.762875
  0
ARC
  5
121
330
18
100
AcDbEntity
  8
0
100
AcDbCircle
 10
0.696778
 20
4.409283
 30
0.0
 40
0.399252
100
AcDbArc
 50
15.762875
 51
18.305514
  0
ARC
  5
122
330
18
100
AcDbEntity
  8
0
100
AcDbCircle
 10
2.24493
 20
4.921451
 30
0.0
 40
1.23142
100
AcDbArc
 50
196.857806
 51
198.305514
  0
ARC
  5
123
330
18
100
AcDbEntity
  8
0
100
AcDbCircle
 10
1.238809
 20
4.616577
 30
0.0
 40
0.180122
100
AcDbArc
 50
184.366679
 51
196.857806
  0
ARC
  5
124
330
18
100
AcDbEntity
  8
0
100
AcDbCircle
 10
1.435435
 20
4.631591
 30
0.0
 40
0.37732
100
AcDbArc
 50
181.611029
 51
184.366679
  0
ARC
  5
125
330
18
100
AcDbEntity
  8
0
100
AcDbCircle
 10
0.864302
 20
4.122107
 30
0.0
 40
0.234276
100
AcDbArc
 50
12.195744
 51
16.601768
  0
ARC
  5
126
330
18
100
AcDbEntity
  8
0
100
AcDbCircle
 10
0.455994
 20
4.000371
 30
0.0
 40
0.660346
100
AcDbArc
 50
16.601768
 51
19.805105
  0
ARC
  5
127
330
18
100
AcDbEntity
  8
0
100
AcDbCircle
 10
1.14218
 20
4.247482
 30
0.0
 40
0.068979
100
AcDbArc
 50
189.882729
 51
199.805105
  0
ARC
  5
128
330
18
100
AcDbEntity
  8
0
100
AcDbCircle
 10
2.037672
 20
4.403492
 30
0.0
 40
0.9779600000000001
100
AcDbArc
 50
188.162694
 51
189.882729
  0
ARC
  5
129
330
18
100
AcDbEntity
  8
0
100
AcDbCircle
 10
2.944638
 20
4.533585
 30
0.0
 40
1.894208
100
AcDbArc
 50
186.926814
 51
188.162694
  0
ARC
  5
12A
330
18
100
AcDbEntity
  8
0
100
AcDbCircle
 10
4.896464
 20
4.770709
 30
0.0
 40
3.860385
100
AcDbArc
 50
186.478581
 51
186.926814
  0
ARC
  5
12B
330
18
100
AcDbEntity
  8
0
100
AcDbCircle
 10
-0.5786479999999999
 20
4.157678
 30
0.0
 40
1.648956
100
AcDbArc
 50
6.178011000000001
 51
7.227385000000001
  0
ARC
  5
12C
330
18
100
AcDbEntity
  8
0
100
AcDbCircle
 10
0.052626
 20
4.237733
 30
0.0
 40
1.012625
100
AcDbArc
 50
7.227385000000001
 51
8.638399
  0
ARC
  5
12D
330
18
100
AcDbEntity
  8
0
100
AcDbCircle
 10
-0.210751
 20
4.19772
 30
0.0
 40
1.279024
100
AcDbArc
 50
8.638399
 51
9.893891
  0
ARC
  5
12E
330
18
100
AcDbEntity
  8
0
100
AcDbCircle
 10
0.8226469999999999
 20
4.377964
 30
0.0
 40
0.230025
100
AcDbArc
 50
9.893891
 51
16.346185
  0
ARC
  5
12F
330
18
100
AcDbEntity
  8
0
100
AcDbCircle
 10
1.352475
 20
4.528038
 30
0.0
 40
0.320664
100
AcDbArc
 50
190.806384
 51
195.433692
  0
ARC
  5
130
330
18
100
AcDbEntity
  8
0
100
AcDbCircle
 10
1.286033
 20
4.515356
 30
0.0
 40
0.253023
100
AcDbArc
 50
184.359092
 51
190.806384
  0
ARC
  5
131
330
18
100
AcDbEntity
  8
0
100
AcDbCircle
 10
0.8891690000000001
 20
4.485104
 30
0.0
 40
0.144993
100
AcDbArc
 50
4.359092
 51
12.879391
  0
ARC
  5
132
330
18
100
AcDbEntity
  8
0
100
AcDbCircle
 10
-0.144498
 20
4.248754
 30
0.0
 40
1.205337
100
AcDbArc
 50
12.879391
 51
13.603026
  0
ARC
  5
133
330
18
100
AcDbEntity
  8
0
100
AcDbCircle
 10
-0.6218199999999999
 20
4.133251000000001
 30
0.0
 40
1.696434
100
AcDbArc
 50
13.603026
 51
14.21299
  0
ARC
  5
134
330
18
100
AcDbEntity
  8
0
100
AcDbCircle
 10
0.019289
 20
4.295631
 30
0.0
 40
1.035081
100
AcDbArc
 50
14.21299
 51
15.274811
  0
ARC
  5
135
330
18
100
AcDbEntity
  8
0
100
AcDbCircle
 10
2.16259
 20
4.879507
 30
0.0
 40
1.186326
100
AcDbArc
 50
194.280677
 51
195.207124
  0
ARC
  5
136
330
18
100
AcDbEntity
  8
0
100
AcDbCircle
 10
1.061318
 20
4.599191
 30
0.0
 40
0.049939
100
AcDbArc
 50
190.538017
 51
194.280677
  0
ARC
  5
137
330
18
100
AcDbEntity
  8
0
100
AcDbCircle
 10
6.50461
 20
5.611782
 30
0.0
 40
5.586613
100
AcDbArc
 50
190.184225
 51
190.538017
  0
ARC
  5
138
330
18
100
AcDbEntity
  8
0
100
AcDbCircle
 10
1.184094
 20
4.655982
 30
0.0
 40
0.180927
100
AcDbArc
 50
187.132118
 51
190.184225
  0
ARC
  5
139
330
18
100
AcDbEntity
  8
0
100
AcDbCircle
 10
1.853005
 20
4.396244
 30
0.0
 40
0.8346020000000001
100
AcDbArc
 50
193.687037
 51
194.832702
  0
ARC
  5
13A
330
18
100
AcDbEntity
  8
0
100
AcDbCircle
 10
1.435953
 20
4.294678
 30
0.0
 40
0.405361
100
AcDbArc
 50
185.021184
 51
193.687037
  0
ARC
  5
13B
330
18
100
AcDbEntity
  8
0
100
AcDbCircle
 10
1.981803
 20
4.342637
 30
0.0
 40
0.953314
100
AcDbArc
 50
180.978957
 51
185.021184
  0
ARC
  5
13C
330
18
100
AcDbEntity
  8
0
100
AcDbCircle
 10
0.9122239999999999
 20
4.32436
 30
0.0
 40
0.116421
100
AcDbArc
 50
0.9789570000000001
 51
12.563318
  0
ARC
  5
13D
330
18
100
AcDbEntity
  8
0
100
AcDbCircle
 10
0.7778000000000001
 20
4.294403
 30
0.0
 40
0.254143
100
AcDbArc
 50
12.563318
 51
18.894748
  0
ARC
  5
13E
330
18
100
AcDbEntity
  8
0
100
AcDbCircle
 10
1.183145
 20
4.433143
 30
0.0
 40
0.174288
100
AcDbArc
 50
191.247444
 51
198.894748
  0
ARC
  5
13F
330
18
100
AcDbEntity
  8
0
100
AcDbCircle
 10
1.649788
 20
4.525942
 30
0.0
 40
0.650069
100
AcDbArc
 50
187.992267
 51
191.247444
  0
ARC
  5
140
330
18
100
AcDbEntity
  8
0
100
AcDbCircle
 10
0.474163
 20
4.36088
 30
0.0
 40
0.537087
100
AcDbArc
 50
7.992267
 51
11.573595
  0
ARC
  5
141
330
18
100
AcDbEntity
  8
0
100
AcDbCircle
 10
0.4411100000000001
 20
4.354111
 30
0.0
 40
0.5708260000000001
100
AcDbArc
 50
11.573595
 51
14.391548
  0
ARC
  5
142
330
18
100
AcDbEntity
  8
0
100
AcDbCircle
 10
1.295009
 20
4.573221
 30
0.0
 40
0.310736
100
AcDbArc
 50
190.57187
 51
194.391548
  0
ARC
  5
143
330
18
100
AcDbEntity
  8
0
100
AcDbCircle
 10
1.200079
 20
4.555504
 30
0.0
 40
0.214167
100
AcDbArc
 50
184.403174
 51
190.57187
  0
ARC
  5
144
330
18
100
AcDbEntity
  8
0
100
AcDbCircle
 10
0.729787
 20
4.516938
 30
0.0
 40
0.257708
100
AcDbArc
 50
4.924677
 51
10.050368
  0
ARC
  5
145
330
18
100
AcDbEntity
  8
0
100
AcDbCircle
 10
0.6275649999999999
 20
4.498821
 30
0.0
 40
0.361523
100
AcDbArc
 50
10.050368
 51
12.051875
  0
ARC
  5
146
330
18
100
AcDbEntity
  8
0
100
AcDbCircle
 10
0.442036
 20
4.45921
 30
0.0
 40
0.551234
100
AcDbArc
 50
12.051875
 51
13.672751
  0
ARC
  5
147
330
18
100
AcDbEntity
  8
0
100
AcDbCircle
 10
0.879474
 20
4.565625
 30
0.0
 40
0.101038
100
AcDbArc
 50
13.672751
 51
24.351265
  0
ARC
  5
148
330
18
100
AcDbEntity
  8
0
100
AcDbCircle
 10
1.049939
 20
4.642777
 30
0.0
 40
0.086074
100
AcDbArc
 50
192.778729
 51
204.351265
  0
ARC
  5
149
330
18
100
AcDbEntity
  8
0
100
AcDbCircle
 10
0.983316
 20
4.627667
 30
0.0
 40
0.017758
100
AcDbArc
 50
187.487522
 51
192.778729
  0
ARC
  5
14A
330
18
100
AcDbEntity
  8
0
100
AcDbCircle
 10
3.96857
 20
5.020021
 30
0.0
 40
3.028685
100
AcDbArc
 50
187.148586
 51
187.487522
  0
ARC
  5
14B
330
18
100
AcDbEntity
  8
0
100
AcDbCircle
 10
2.643662
 20
4.339482
 30
0.0
 40
1.656617
100
AcDbArc
 50
184.635987
 51
185.005989
  0
ARC
  5
14C
330
18
100
AcDbEntity
  8
0
100
AcDbCircle
 10
303.270014
 20
28.717356
 30
0.0
 40
303.269753
100
AcDbArc
 50
184.621352
 51
184.635987
  0
ARC
  5
14D
330
18
100
AcDbEntity
  8
0
100
AcDbCircle
 10
8.676648
 20
4.904438
 30
0.0
 40
7.715517
100
AcDbArc
 50
184.529599
 51
184.621352
  0
ARC
  5
14E
330
18
100
AcDbEntity
  8
0
100
AcDbCircle
 10
2.806546
 20
4.4394
 30
0.0
 40
1.827023
100
AcDbArc
 50
183.19298
 51
184.529599
  0
ARC
  5
14F
330
18
100
AcDbEntity
  8
0
100
AcDbCircle
 10
-0.162069
 20
4.273793
 30
0.0
 40
1.146207
100
AcDbArc
 50
3.19298
 51
4.880521
  0
ARC
  5
150
330
18
100
AcDbEntity
  8
0
100
AcDbCircle
 10
0.921442
 20
4.366312000000001
 30
0.0
 40
0.058753
100
AcDbArc
 50
4.880521
 51
30.982575
  0
ARC
  5
151
330
18
100
AcDbEntity
  8
0
100
AcDbCircle
 10
1.130936
 20
4.492102
 30
0.0
 40
0.185605
100
AcDbArc
 50
196.384077
 51
210.982575
  0
ARC
  5
152
330
18
100
AcDbEntity
  8
0
100
AcDbCircle
 10
1.063753
 20
4.472349
 30
0.0
 40
0.115578
100
AcDbArc
 50
176.847127
 51
196.384077
  0
ARC
  5
153
330
18
100
AcDbEntity
  8
0
100
AcDbCircle
 10
0.906758
 20
4.480997
 30
0.0
 40
0.041655
100
AcDbArc
 50
356.847127
 51
29.680434
  0
ARC
  5
154
330
18
100
AcDbEntity
  8
0
100
AcDbCircle
 10
0.887149
 20
4.469821
 30
0.0
 40
0.064225
100
AcDbArc
 50
29.680434
 51
46.02148500000001
  0
ARC
  5
155
330
18
100
AcDbEntity
  8
0
100
AcDbCircle
 10
1.003278
 20
4.590166
 30
0.0
 40
0.103014
100
AcDbArc
 50
213.135238
 51
226.021485
  0
ARC
  5
156
330
18
100
AcDbEntity
  8
0
100
AcDbCircle
 10
1.368976
 20
4.828882
 30
0.0
 40
0.539729
100
AcDbArc
 50
210.294018
 51
213.135238
  0
ARC
  5
157
330
18
100
AcDbEntity
  8
0
100
AcDbCircle
 10
0.9623430000000001
 20
4.591322
 30
0.0
 40
0.068788
100
AcDbArc
 50
202.329844
 51
210.294018
  0
ARC
  5
158
330
18
100
AcDbEntity
  8
0
100
AcDbCircle
 10
0.9891469999999999
 20
4.602331
 30
0.0
 40
0.097766
100
AcDbArc
 50
193.858239
 51
202.329844
  0
ARC
  5
159
330
18
100
AcDbEntity
  8
0
100
AcDbCircle
 10
0.9411270000000001
 20
4.590485
 30
0.0
 40
0.048306
100
AcDbArc
 50
181.794971
 51
193.858239
  0
ARC
  5
15A
330
18
100
AcDbEntity
  8
0
100
AcDbCircle
 10
1.229394
 20
4.599519
 30
0.0
 40
0.336714
100
AcDbArc
 50
180.022667
 51
181.794971
  0
ARC
  5
15B
330
18
100
AcDbEntity
  8
0
100
AcDbCircle
 10
-5.089496
 20
4.597019
 30
0.0
 40
5.982176
100
AcDbArc
 50
0.022667
 51
0.443126
  0
ARC
  5
15C
330
18
100
AcDbEntity
  8
0
100
AcDbCircle
 10
-3.019275
 20
4.61303
 30
0.0
 40
3.911893
100
AcDbArc
 50
0.443126
 51
0.683836
  0
ARC
  5
15D
330
18
100
AcDbEntity
  8
0
100
AcDbCircle
 10
8.800703
 20
4.929108
 30
0.0
 40
7.900786
100
AcDbArc
 50
185.086958
 51
185.228939
  0
ARC
  5
15E
330
18
100
AcDbEntity
  8
0
100
AcDbCircle
 10
4.441054
 20
4.54102
 30
0.0
 40
3.523898
100
AcDbArc
 50
184.333727
 51
185.086958
  0
ARC
  5
15F
330
18
100
AcDbEntity
  8
0
100
AcDbCircle
 10
8.025705
 20
4.812674
 30
0.0
 40
7.118827000000001
100
AcDbArc
 50
183.831787
 51
184.333727
  0
ARC
  5
160
330
18
100
AcDbEntity
  8
0
100
AcDbCircle
 10
0.8238059999999999
 20
4.330311
 30
0.0
 40
0.099207
100
AcDbArc
 50
3.831787000000001
 51
8.084664
  0
ARC
  5
161
330
18
100
AcDbEntity
  8
0
100
AcDbCircle
 10
0.8080310000000001
 20
4.328069999999999
 30
0.0
 40
0.11514
100
AcDbArc
 50
8.084664
 51
10.982161
  0
ARC
  5
162
330
18
100
AcDbEntity
  8
0
100
AcDbCircle
 10
-9.620892999999999
 20
2.304262
 30
0.0
 40
10.738617
100
AcDbArc
 50
10.982161
 51
11.282158
  0
ARC
  5
163
330
18
100
AcDbEntity
  8
0
100
AcDbCircle
 10
-2.768926
 20
3.671201
 30
0.0
 40
3.751630000000001
100
AcDbArc
 50
11.282158
 51
11.672438
  0
ARC
  5
164
330
18
100
AcDbEntity
  8
0
100
AcDbCircle
 10
-0.9531120000000001
 20
4.046327
 30
0.0
 40
1.897473
100
AcDbArc
 50
11.672438
 51
12.22122
  0
ARC
  5
165
330
18
100
AcDbEntity
  8
0
100
AcDbCircle
 10
0.840398
 20
4.434793
 30
0.0
 40
0.062375
100
AcDbArc
 50
12.22122
 51
33.636333
  0
ARC
  5
166
330
18
100
AcDbEntity
  8
0
100
AcDbCircle
 10
0.9729690000000001
 20
4.522994000000001
 30
0.0
 40
0.096856
100
AcDbArc
 50
196.486686
 51
213.636333
  0
ARC
  5
167
330
18
100
AcDbEntity
  8
0
100
AcDbCircle
 10
1.332352
 20
4.629358
 30
0.0
 40
0.471648
100
AcDbArc
 50
191.536344
 51
196.486686
  0
ARC
  5
168
330
18
100
AcDbEntity
  8
0
100
AcDbCircle
 10
1.272654
 20
4.617173
 30
0.0
 40
0.410719
100
AcDbArc
 50
186.231266
 51
191.536344
  0
ARC
  5
169
330
18
100
AcDbEntity
  8
0
100
AcDbCircle
 10
93.12651
 20
14.646414
 30
0.0
 40
92.81048299999999
100
AcDbArc
 50
186.21852
 51
186.231266
  0
ARC
  5
16A
330
18
100
AcDbEntity
  8
0
100
AcDbCircle
 10
61.279667
 20
11.176324
 30
0.0
 40
60.775145
100
AcDbArc
 50
186.202767
 51
186.21852
  0
ARC
  5
16B
330
18
100
AcDbEntity
  8
0
100
AcDbCircle
 10
20.686951
 20
6.76456
 30
0.0
 40
19.943389
100
AcDbArc
 50
186.107838
 51
186.202767
  0
ARC
  5
16C
330
18
100
AcDbEntity
  8
0
100
AcDbCircle
 10
-89.292194
 20
-5.062961000000001
 30
0.0
 40
90.669916
100
AcDbArc
 50
6.144861999999999
 51
6.161448000000001
  0
ARC
  5
16D
330
18
100
AcDbEntity
  8
0
100
AcDbCircle
 10
-0.993257
 20
3.90703
 30
0.0
 40
1.9011
100
AcDbArc
 50
9.505575
 51
10.560972
  0
ARC
  5
16E
330
18
100
AcDbEntity
  8
0
100
AcDbCircle
 10
1.195235
 20
4.315053
 30
0.0
 40
0.325103
100
AcDbArc
 50
187.523654
 51
190.560972
  0
ARC
  5
16F
330
18
100
AcDbEntity
  8
0
100
AcDbCircle
 10
0.995459
 20
4.288668
 30
0.0
 40
0.123593
100
AcDbArc
 50
178.12835
 51
187.523654
  0
ARC
  5
170
330
18
100
AcDbEntity
  8
0
100
AcDbCircle
 10
0.7946
 20
4.295232
 30
0.0
 40
0.077374
100
AcDbArc
 50
358.12835
 51
10.010706
  0
ARC
  5
171
330
18
100
AcDbEntity
  8
0
100
AcDbCircle
 10
0.8363389999999999
 20
4.302599
 30
0.0
 40
0.03499
100
AcDbArc
 50
10.010706
 51
39.041214
  0
ARC
  5
172
330
18
100
AcDbEntity
  8
0
100
AcDbCircle
 10
0.9002870000000001
 20
4.35446
 30
0.0
 40
0.047344
100
AcDbArc
 50
194.155051
 51
219.0412140000001
  0
ARC
  5
173
330
18
100
AcDbEntity
  8
0
100
AcDbCircle
 10
1.410447
 20
4.483124
 30
0.0
 40
0.573479
100
AcDbArc
 50
191.491695
 51
194.155051
  0
ARC
  5
174
330
18
100
AcDbEntity
  8
0
100
AcDbCircle
 10
1.688909
 20
4.539736
 30
0.0
 40
0.8576379999999999
100
AcDbArc
 50
189.313869
 51
191.491695
  0
ARC
  5
175
330
18
100
AcDbEntity
  8
0
100
AcDbCircle
 10
1.545719
 20
4.516252
 30
0.0
 40
0.712535
100
AcDbArc
 50
187.774163
 51
189.313869
  0
ARC
  5
176
330
18
100
AcDbEntity
  8
0
100
AcDbCircle
 10
-2.784147
 20
3.925123
 30
0.0
 40
3.657497
100
AcDbArc
 50
7.774163000000002
 51
8.45374
  0
ARC
  5
177
330
18
100
AcDbEntity
  8
0
100
AcDbCircle
 10
0.452958
 20
4.40624
 30
0.0
 40
0.384834
100
AcDbArc
 50
8.45374
 51
14.769191
  0
ARC
  5
178
330
18
100
AcDbEntity
  8
0
100
AcDbCircle
 10
-0.048094
 20
4.274145
 30
0.0
 40
0.903006
100
AcDbArc
 50
14.769191
 51
15.584901
  0
ARC
  5
179
330
18
100
AcDbEntity
  8
0
100
AcDbCircle
 10
3.794146199823402
 20
3.707057213138733
 30
0.0
 40
0.023492
100
AcDbArc
 50
219.790308
 51
244.054095
  0
ARC
  5
17A
330
18
100
AcDbEntity
  8
0
100
AcDbCircle
 10
3.795138199823402
 20
3.709096213138733
 30
0.0
 40
0.02576
100
AcDbArc
 50
244.054095
 51
267.20949
  0
ARC
  5
17B
330
18
100
AcDbEntity
  8
0
100
AcDbCircle
 10
3.795234199823402
 20
3.711064213138732
 30
0.0
 40
0.02773
100
AcDbArc
 50
267.20949
 51
288.95183
  0
ARC
  5
17C
330
18
100
AcDbEntity
  8
0
100
AcDbCircle
 10
3.794446199823402
 20
3.713361213138733
 30
0.0
 40
0.030158
100
AcDbArc
 50
288.95183
 51
309.790308
  0
ARC
  5
17D
330
18
100
AcDbEntity
  8
0
100
AcDbCircle
 10
3.794446199823402
 20
3.713361213138733
 30
0.0
 40
0.030158
100
AcDbArc
 50
309.790308
 51
330.628787
  0
ARC
  5
17E
330
18
100
AcDbEntity
  8
0
100
AcDbCircle
 10
3.796562199823402
 20
3.712170213138733
 30
0.0
 40
0.02773
100
AcDbArc
 50
330.628787
 51
352.371126
  0
ARC
  5
17F
330
18
100
AcDbEntity
  8
0
100
AcDbCircle
 10
3.798514199823402
 20
3.711908213138733
 30
0.0
 40
0.02576
100
AcDbArc
 50
352.371126
 51
15.526521
  0
ARC
  5
180
330
18
100
AcDbEntity
  8
0
100
AcDbCircle
 10
3.800700199823402
 20
3.712515213138733
 30
0.0
 40
0.023492
100
AcDbArc
 50
15.526521
 51
39.790308
  0
ARC
  5
181
330
18
100
AcDbEntity
  8
0
100
AcDbCircle
 10
3.800700199823402
 20
3.712515213138733
 30
0.0
 40
0.023492
100
AcDbArc
 50
39.790308
 51
64.05409499999999
  0
ARC
  5
182
330
18
100
AcDbEntity
  8
0
100
AcDbCircle
 10
3.799707199823402
 20
3.710476213138733
 30
0.0
 40
0.02576
100
AcDbArc
 50
64.05409499999999
 51
87.20949
  0
ARC
  5
183
330
18
100
AcDbEntity
  8
0
100
AcDbCircle
 10
3.799611199823402
 20
3.708508213138733
 30
0.0
 40
0.02773
100
AcDbArc
 50
87.20949
 51
108.95183
  0
ARC
  5
184
330
18
100
AcDbEntity
  8
0
100
AcDbCircle
 10
3.800400199823402
 20
3.706211213138733
 30
0.0
 40
0.030158
100
AcDbArc
 50
108.95183
 51
129.790308
  0
ARC
  5
185
330
18
100
AcDbEntity
  8
0
100
AcDbCircle
 10
3.800400199823402
 20
3.706211213138733
 30
0.0
 40
0.030158
100
AcDbArc
 50
129.790308
 51
150.628787
  0
ARC
  5
186
330
18
100
AcDbEntity
  8
0
100
AcDbCircle
 10
3.798284199823402
 20
3.707402213138733
 30
0.0
 40
0.02773
100
AcDbArc
 50
150.628787
 51
172.371126
  0
ARC
  5
187
330
18
100
AcDbEntity
  8
0
100
AcDbCircle
 10
3.796331199823402
 20
3.707664213138733
 30
0.0
 40
0.02576
100
AcDbArc
 50
172.371126
 51
195.526521
  0
ARC
  5
188
330
18
100
AcDbEntity
  8
0
100
AcDbCircle
 10
3.794146199823402
 20
3.707057213138733
 30
0.0
 40
0.023492
100
AcDbArc
 50
195.526521
 51
219.790308
  0
ARC
  5
189
330
18
100
AcDbEntity
  8
0
100
AcDbCircle
 10
3.760625266582538
 20
3.953794129690496
 30
0.0
 40
0.023492
100
AcDbArc
 50
219.790308
 51
244.054095
  0
ARC
  5
18A
330
18
100
AcDbEntity
  8
0
100
AcDbCircle
 10
3.761618266582537
 20
3.955833129690496
 30
0.0
 40
0.02576
100
AcDbArc
 50
244.054095
 51
267.20949
  0
ARC
  5
18B
330
18
100
AcDbEntity
  8
0
100
AcDbCircle
 10
3.761714266582537
 20
3.957801129690497
 30
0.0
 40
0.02773
100
AcDbArc
 50
267.20949
 51
288.95183
  0
ARC
  5
18C
330
18
100
AcDbEntity
  8
0
100
AcDbCircle
 10
3.760925266582538
 20
3.960097129690496
 30
0.0
 40
0.030158
100
AcDbArc
 50
288.95183
 51
309.790308
  0
ARC
  5
18D
330
18
100
AcDbEntity
  8
0
100
AcDbCircle
 10
3.760925266582538
 20
3.960097129690496
 30
0.0
 40
0.030158
100
AcDbArc
 50
309.790308
 51
330.628787
  0
ARC
  5
18E
330
18
100
AcDbEntity
  8
0
100
AcDbCircle
 10
3.763041266582537
 20
3.958907129690496
 30
0.0
 40
0.02773
100
AcDbArc
 50
330.628787
 51
352.371126
  0
ARC
  5
18F
330
18
100
AcDbEntity
  8
0
100
AcDbCircle
 10
3.764994266582537
 20
3.958645129690497
 30
0.0
 40
0.02576
100
AcDbArc
 50
352.371126
 51
15.526521
  0
ARC
  5
190
330
18
100
AcDbEntity
  8
0
100
AcDbCircle
 10
3.767179266582537
 20
3.959252129690497
 30
0.0
 40
0.023492
100
AcDbArc
 50
15.526521
 51
39.790308
  0
ARC
  5
191
330
18
100
AcDbEntity
  8
0
100
AcDbCircle
 10
3.767179266582537
 20
3.959252129690497
 30
0.0
 40
0.023492
100
AcDbArc
 50
39.790308
 51
64.05409499999999
  0
ARC
  5
192
330
18
100
AcDbEntity
  8
0
100
AcDbCircle
 10
3.766187266582537
 20
3.957213129690497
 30
0.0
 40
0.02576
100
AcDbArc
 50
64.05409499999999
 51
87.20949
  0
ARC
  5
193
330
18
100
AcDbEntity
  8
0
100
AcDbCircle
 10
3.766091266582537
 20
3.955245129690497
 30
0.0
 40
0.02773
100
AcDbArc
 50
87.20949
 51
108.95183
  0
ARC
  5
194
330
18
100
AcDbEntity
  8
0
100
AcDbCircle
 10
3.766879266582537
 20
3.952948129690497
 30
0.0
 40
0.030158
100
AcDbArc
 50
108.95183
 51
129.790308
  0
ARC
  5
195
330
18
100
AcDbEntity
  8
0
100
AcDbCircle
 10
3.766879266582537
 20
3.952948129690497
 30
0.0
 40
0.030158
100
AcDbArc
 50
129.790308
 51
150.628787
  0
ARC
  5
196
330
18
100
AcDbEntity
  8
0
100
AcDbCircle
 10
3.764763266582537
 20
3.954139129690497
 30
0.0
 40
0.02773
100
AcDbArc
 50
150.628787
 51
172.371126
  0
ARC
  5
197
330
18
100
AcDbEntity
  8
0
100
AcDbCircle
 10
3.762811266582537
 20
3.954401129690496
 30
0.0
 40
0.02576
100
AcDbArc
 50
172.371126
 51
195.526521
  0
ARC
  5
198
330
18
100
AcDbEntity
  8
0
100
AcDbCircle
 10
3.760625266582538
 20
3.953794129690496
 30
0.0
 40
0.023492
100
AcDbArc
 50
195.526521
 51
219.790308
  0
ARC
  5
199
330
18
100
AcDbEntity
  8
0
100
AcDbCircle
 10
3.488506918464285
 20
3.88466371382815
 30
0.0
 40
0.023492
100
AcDbArc
 50
219.790308
 51
244.054095
  0
ARC
  5
19A
330
18
100
AcDbEntity
  8
0
100
AcDbCircle
 10
3.489498918464285
 20
3.88670371382815
 30
0.0
 40
0.02576
100
AcDbArc
 50
244.054095
 51
267.20949
  0
ARC
  5
19B
330
18
100
AcDbEntity
  8
0
100
AcDbCircle
 10
3.489594918464285
 20
3.88867071382815
 30
0.0
 40
0.02773
100
AcDbArc
 50
267.20949
 51
288.95183
  0
ARC
  5
19C
330
18
100
AcDbEntity
  8
0
100
AcDbCircle
 10
3.488805918464285
 20
3.89096771382815
 30
0.0
 40
0.030158
100
AcDbArc
 50
288.95183
 51
309.790308
  0
ARC
  5
19D
330
18
100
AcDbEntity
  8
0
100
AcDbCircle
 10
3.488805918464285
 20
3.89096771382815
 30
0.0
 40
0.030158
100
AcDbArc
 50
309.790308
 51
330.628787
  0
ARC
  5
19E
330
18
100
AcDbEntity
  8
0
100
AcDbCircle
 10
3.490921918464285
 20
3.88977671382815
 30
0.0
 40
0.02773
100
AcDbArc
 50
330.628787
 51
352.371126
  0
ARC
  5
19F
330
18
100
AcDbEntity
  8
0
100
AcDbCircle
 10
3.492874918464285
 20
3.88951571382815
 30
0.0
 40
0.02576
100
AcDbArc
 50
352.371126
 51
15.526521
  0
ARC
  5
1A0
330
18
100
AcDbEntity
  8
0
100
AcDbCircle
 10
3.495059918464285
 20
3.89012271382815
 30
0.0
 40
0.023492
100
AcDbArc
 50
15.526521
 51
39.790308
  0
ARC
  5
1A1
330
18
100
AcDbEntity
  8
0
100
AcDbCircle
 10
3.495059918464285
 20
3.89012271382815
 30
0.0
 40
0.023492
100
AcDbArc
 50
39.790308
 51
64.05409499999999
  0
ARC
  5
1A2
330
18
100
AcDbEntity
  8
0
100
AcDbCircle
 10
3.494067918464285
 20
3.88808271382815
 30
0.0
 40
0.02576
100
AcDbArc
 50
64.05409499999999
 51
87.20949
  0
ARC
  5
1A3
330
18
100
AcDbEntity
  8
0
100
AcDbCircle
 10
3.493971918464285
 20
3.88611471382815
 30
0.0
 40
0.02773
100
AcDbArc
 50
87.20949
 51
108.95183
  0
ARC
  5
1A4
330
18
100
AcDbEntity
  8
0
100
AcDbCircle
 10
3.494760918464285
 20
3.88381871382815
 30
0.0
 40
0.030158
100
AcDbArc
 50
108.95183
 51
129.790308
  0
ARC
  5
1A5
330
18
100
AcDbEntity
  8
0
100
AcDbCircle
 10
3.494760918464285
 20
3.88381871382815
 30
0.0
 40
0.030158
100
AcDbArc
 50
129.790308
 51
150.628787
  0
ARC
  5
1A6
330
18
100
AcDbEntity
  8
0
100
AcDbCircle
 10
3.492644918464285
 20
3.88500971382815
 30
0.0
 40
0.02773
100
AcDbArc
 50
150.628787
 51
172.371126
  0
ARC
  5
1A7
330
18
100
AcDbEntity
  8
0
100
AcDbCircle
 10
3.490691918464285
 20
3.88527071382815
 30
0.0
 40
0.02576
100
AcDbArc
 50
172.371126
 51
195.526521
  0
ARC
  5
1A8
330
18
100
AcDbEntity
  8
0
100
AcDbCircle
 10
3.488506918464285
 20
3.88466371382815
 30
0.0
 40
0.023492
100
AcDbArc
 50
195.526521
 51
219.790308
  0
ARC
  5
1A9
330
18
100
AcDbEntity
  8
0
100
AcDbCircle
 10
2.744848955645244
 20
4.143093874827646
 30
0.0
 40
0.023492
100
AcDbArc
 50
219.790308
 51
244.054095
  0
ARC
  5
1AA
330
18
100
AcDbEntity
  8
0
100
AcDbCircle
 10
2.745841955645245
 20
4.145133874827645
 30
0.0
 40
0.02576
100
AcDbArc
 50
244.054095
 51
267.20949
  0
ARC
  5
1AB
330
18
100
AcDbEntity
  8
0
100
AcDbCircle
 10
2.745937955645244
 20
4.147100874827646
 30
0.0
 40
0.02773
100
AcDbArc
 50
267.20949
 51
288.95183
  0
ARC
  5
1AC
330
18
100
AcDbEntity
  8
0
100
AcDbCircle
 10
2.745148955645245
 20
4.149397874827645
 30
0.0
 40
0.030158
100
AcDbArc
 50
288.95183
 51
309.790308
  0
ARC
  5
1AD
330
18
100
AcDbEntity
  8
0
100
AcDbCircle
 10
2.745148955645245
 20
4.149397874827645
 30
0.0
 40
0.030158
100
AcDbArc
 50
309.790308
 51
330.628787
  0
ARC
  5
1AE
330
18
100
AcDbEntity
  8
0
100
AcDbCircle
 10
2.747264955645245
 20
4.148206874827646
 30
0.0
 40
0.02773
100
AcDbArc
 50
330.628787
 51
352.371126
  0
ARC
  5
1AF
330
18
100
AcDbEntity
  8
0
100
AcDbCircle
 10
2.749217955645245
 20
4.147944874827646
 30
0.0
 40
0.02576
100
AcDbArc
 50
352.371126
 51
15.526521
  0
ARC
  5
1B0
330
18
100
AcDbEntity
  8
0
100
AcDbCircle
 10
2.751402955645245
 20
4.148552874827646
 30
0.0
 40
0.023492
100
AcDbArc
 50
15.526521
 51
39.790308
  0
ARC
  5
1B1
330
18
100
AcDbEntity
  8
0
100
AcDbCircle
 10
2.751402955645245
 20
4.148552874827646
 30
0.0
 40
0.023492
100
AcDbArc
 50
39.790308
 51
64.05409499999999
  0
ARC
  5
1B2
330
18
100
AcDbEntity
  8
0
100
AcDbCircle
 10
2.750410955645244
 20
4.146512874827645
 30
0.0
 40
0.02576
100
AcDbArc
 50
64.05409499999999
 51
87.20949
  0
ARC
  5
1B3
330
18
100
AcDbEntity
  8
0
100
AcDbCircle
 10
2.750314955645245
 20
4.144544874827646
 30
0.0
 40
0.02773
100
AcDbArc
 50
87.20949
 51
108.95183
  0
ARC
  5
1B4
330
18
100
AcDbEntity
  8
0
100
AcDbCircle
 10
2.751102955645245
 20
4.142248874827645
 30
0.0
 40
0.030158
100
AcDbArc
 50
108.95183
 51
129.790308
  0
ARC
  5
1B5
330
18
100
AcDbEntity
  8
0
100
AcDbCircle
 10
2.751102955645245
 20
4.142248874827645
 30
0.0
 40
0.030158
100
AcDbArc
 50
129.790308
 51
150.628787
  0
ARC
  5
1B6
330
18
100
AcDbEntity
  8
0
100
AcDbCircle
 10
2.748986955645245
 20
4.143439874827646
 30
0.0
 40
0.02773
100
AcDbArc
 50
150.628787
 51
172.371126
  0
ARC
  5
1B7
330
18
100
AcDbEntity
  8
0
100
AcDbCircle
 10
2.747034955645245
 20
4.143700874827646
 30
0.0
 40
0.02576
100
AcDbArc
 50
172.371126
 51
195.526521
  0
ARC
  5
1B8
330
18
100
AcDbEntity
  8
0
100
AcDbCircle
 10
2.744848955645244
 20
4.143093874827646
 30
0.0
 40
0.023492
100
AcDbArc
 50
195.526521
 51
219.790308
  0
ARC
  5
1B9
330
18
100
AcDbEntity
  8
0
100
AcDbCircle
 10
2.864109585122613
 20
4.015246198205471
 30
0.0
 40
0.023492
100
AcDbArc
 50
219.790308
 51
244.054095
  0
ARC
  5
1BA
330
18
100
AcDbEntity
  8
0
100
AcDbCircle
 10
2.865102585122613
 20
4.017286198205472
 30
0.0
 40
0.02576
100
AcDbArc
 50
244.054095
 51
267.20949
  0
ARC
  5
1BB
330
18
100
AcDbEntity
  8
0
100
AcDbCircle
 10
2.865198585122613
 20
4.019253198205471
 30
0.0
 40
0.02773
100
AcDbArc
 50
267.20949
 51
288.95183
  0
ARC
  5
1BC
330
18
100
AcDbEntity
  8
0
100
AcDbCircle
 10
2.864409585122613
 20
4.021550198205471
 30
0.0
 40
0.030158
100
AcDbArc
 50
288.95183
 51
309.790308
  0
ARC
  5
1BD
330
18
100
AcDbEntity
  8
0
100
AcDbCircle
 10
2.864409585122613
 20
4.021550198205471
 30
0.0
 40
0.030158
100
AcDbArc
 50
309.790308
 51
330.628787
  0
ARC
  5
1BE
330
18
100
AcDbEntity
  8
0
100
AcDbCircle
 10
2.866525585122613
 20
4.020359198205472
 30
0.0
 40
0.02773
100
AcDbArc
 50
330.628787
 51
352.371126
  0
ARC
  5
1BF
330
18
100
AcDbEntity
  8
0
100
AcDbCircle
 10
2.868478585122613
 20
4.020097198205471
 30
0.0
 40
0.02576
100
AcDbArc
 50
352.371126
 51
15.526521
  0
ARC
  5
1C0
330
18
100
AcDbEntity
  8
0
100
AcDbCircle
 10
2.870663585122613
 20
4.020705198205471
 30
0.0
 40
0.023492
100
AcDbArc
 50
15.526521
 51
39.790308
  0
ARC
  5
1C1
330
18
100
AcDbEntity
  8
0
100
AcDbCircle
 10
2.870663585122613
 20
4.020705198205471
 30
0.0
 40
0.023492
100
AcDbArc
 50
39.790308
 51
64.05409499999999
  0
ARC
  5
1C2
330
18
100
AcDbEntity
  8
0
100
AcDbCircle
 10
2.869671585122613
 20
4.018665198205472
 30
0.0
 40
0.02576
100
AcDbArc
 50
64.05409499999999
 51
87.20949
  0
ARC
  5
1C3
330
18
100
AcDbEntity
  8
0
100
AcDbCircle
 10
2.869575585122613
 20
4.016697198205471
 30
0.0
 40
0.02773
100
AcDbArc
 50
87.20949
 51
108.95183
  0
ARC
  5
1C4
330
18
100
AcDbEntity
  8
0
100
AcDbCircle
 10
2.870364585122613
 20
4.014401198205471
 30
0.0
 40
0.030158
100
AcDbArc
 50
108.95183
 51
129.790308
  0
ARC
  5
1C5
330
18
100
AcDbEntity
  8
0
100
AcDbCircle
 10
2.870364585122613
 20
4.014401198205471
 30
0.0
 40
0.030158
100
AcDbArc
 50
129.790308
 51
150.628787
  0
ARC
  5
1C6
330
18
100
AcDbEntity
  8
0
100
AcDbCircle
 10
2.868247585122613
 20
4.015592198205471
 30
0.0
 40
0.02773
100
AcDbArc
 50
150.628787
 51
172.371126
  0
ARC
  5
1C7
330
18
100
AcDbEntity
  8
0
100
AcDbCircle
 10
2.866295585122613
 20
4.015853198205472
 30
0.0
 40
0.02576
100
AcDbArc
 50
172.371126
 51
195.526521
  0
ARC
  5
1C8
330
18
100
AcDbEntity
  8
0
100
AcDbCircle
 10
2.864109585122613
 20
4.015246198205471
 30
0.0
 40
0.023492
100
AcDbArc
 50
195.526521
 51
219.790308
  0
ARC
  5
1C9
330
18
100
AcDbEntity
  8
0
100
AcDbCircle
 10
3.082228696236504
 20
4.021216160999495
 30
0.0
 40
0.023492
100
AcDbArc
 50
219.790308
 51
244.054095
  0
ARC
  5
1CA
330
18
100
AcDbEntity
  8
0
100
AcDbCircle
 10
3.083221696236504
 20
4.023256160999496
 30
0.0
 40
0.02576
100
AcDbArc
 50
244.054095
 51
267.20949
  0
ARC
  5
1CB
330
18
100
AcDbEntity
  8
0
100
AcDbCircle
 10
3.083317696236504
 20
4.025223160999496
 30
0.0
 40
0.02773
100
AcDbArc
 50
267.20949
 51
288.95183
  0
ARC
  5
1CC
330
18
100
AcDbEntity
  8
0
100
AcDbCircle
 10
3.082528696236504
 20
4.027520160999496
 30
0.0
 40
0.030158
100
AcDbArc
 50
288.95183
 51
309.790308
  0
ARC
  5
1CD
330
18
100
AcDbEntity
  8
0
100
AcDbCircle
 10
3.082528696236504
 20
4.027520160999496
 30
0.0
 40
0.030158
100
AcDbArc
 50
309.790308
 51
330.628787
  0
ARC
  5
1CE
330
18
100
AcDbEntity
  8
0
100
AcDbCircle
 10
3.084644696236504
 20
4.026329160999495
 30
0.0
 40
0.02773
100
AcDbArc
 50
330.628787
 51
352.371126
  0
ARC
  5
1CF
330
18
100
AcDbEntity
  8
0
100
AcDbCircle
 10
3.086597696236504
 20
4.026067160999496
 30
0.0
 40
0.02576
100
AcDbArc
 50
352.371126
 51
15.526521
  0
ARC
  5
1D0
330
18
100
AcDbEntity
  8
0
100
AcDbCircle
 10
3.088782696236504
 20
4.026675160999496
 30
0.0
 40
0.023492
100
AcDbArc
 50
15.526521
 51
39.790308
  0
ARC
  5
1D1
330
18
100
AcDbEntity
  8
0
100
AcDbCircle
 10
3.088782696236504
 20
4.026675160999496
 30
0.0
 40
0.023492
100
AcDbArc
 50
39.790308
 51
64.05409499999999
  0
ARC
  5
1D2
330
18
100
AcDbEntity
  8
0
100
AcDbCircle
 10
3.087790696236504
 20
4.024635160999496
 30
0.0
 40
0.02576
100
AcDbArc
 50
64.05409499999999
 51
87.20949
  0
ARC
  5
1D3
330
18
100
AcDbEntity
  8
0
100
AcDbCircle
 10
3.087694696236504
 20
4.022667160999495
 30
0.0
 40
0.02773
100
AcDbArc
 50
87.20949
 51
108.95183
  0
ARC
  5
1D4
330
18
100
AcDbEntity
  8
0
100
AcDbCircle
 10
3.088482696236504
 20
4.020371160999495
 30
0.0
 40
0.030158
100
AcDbArc
 50
108.95183
 51
129.790308
  0
ARC
  5
1D5
330
18
100
AcDbEntity
  8
0
100
AcDbCircle
 10
3.088482696236504
 20
4.020371160999495
 30
0.0
 40
0.030158
100
AcDbArc
 50
129.790308
 51
150.628787
  0
ARC
  5
1D6
330
18
100
AcDbEntity
  8
0
100
AcDbCircle
 10
3.086366696236504
 20
4.021562160999496
 30
0.0
 40
0.02773
100
AcDbArc
 50
150.628787
 51
172.371126
  0
ARC
  5
1D7
330
18
100
AcDbEntity
  8
0
100
AcDbCircle
 10
3.084414696236504
 20
4.021823160999496
 30
0.0
 40
0.02576
100
AcDbArc
 50
172.371126
 51
195.526521
  0
ARC
  5
1D8
330
18
100
AcDbEntity
  8
0
100
AcDbCircle
 10
3.082228696236504
 20
4.021216160999495
 30
0.0
 40
0.023492
100
AcDbArc
 50
195.526521
 51
219.790308
  0
ARC
  5
1D9
330
18
100
AcDbEntity
  8
0
100
AcDbCircle
 10
3.055627474008722
 20
3.454912131069331
 30
0.0
 40
0.023492
100
AcDbArc
 50
219.790308
 51
244.054095
  0
ARC
  5
1DA
330
18
100
AcDbEntity
  8
0
100
AcDbCircle
 10
3.056620474008722
 20
3.456952131069331
 30
0.0
 40
0.02576
100
AcDbArc
 50
244.054095
 51
267.20949
  0
ARC
  5
1DB
330
18
100
AcDbEntity
  8
0
100
AcDbCircle
 10
3.056716474008722
 20
3.458919131069331
 30
0.0
 40
0.02773
100
AcDbArc
 50
267.20949
 51
288.95183
  0
ARC
  5
1DC
330
18
100
AcDbEntity
  8
0
100
AcDbCircle
 10
3.055927474008722
 20
3.461216131069331
 30
0.0
 40
0.030158
100
AcDbArc
 50
288.95183
 51
309.790308
  0
ARC
  5
1DD
330
18
100
AcDbEntity
  8
0
100
AcDbCircle
 10
3.055927474008722
 20
3.461216131069331
 30
0.0
 40
0.030158
100
AcDbArc
 50
309.790308
 51
330.628787
  0
ARC
  5
1DE
330
18
100
AcDbEntity
  8
0
100
AcDbCircle
 10
3.058043474008722
 20
3.460025131069331
 30
0.0
 40
0.02773
100
AcDbArc
 50
330.628787
 51
352.371126
  0
ARC
  5
1DF
330
18
100
AcDbEntity
  8
0
100
AcDbCircle
 10
3.059995474008722
 20
3.459763131069331
 30
0.0
 40
0.02576
100
AcDbArc
 50
352.371126
 51
15.526521
  0
ARC
  5
1E0
330
18
100
AcDbEntity
  8
0
100
AcDbCircle
 10
3.062181474008722
 20
3.46037113106933
 30
0.0
 40
0.023492
100
AcDbArc
 50
15.526521
 51
39.790308
  0
ARC
  5
1E1
330
18
100
AcDbEntity
  8
0
100
AcDbCircle
 10
3.062181474008722
 20
3.46037113106933
 30
0.0
 40
0.023492
100
AcDbArc
 50
39.790308
 51
64.05409499999999
  0
ARC
  5
1E2
330
18
100
AcDbEntity
  8
0
100
AcDbCircle
 10
3.061189474008722
 20
3.458331131069331
 30
0.0
 40
0.02576
100
AcDbArc
 50
64.05409499999999
 51
87.20949
  0
ARC
  5
1E3
330
18
100
AcDbEntity
  8
0
100
AcDbCircle
 10
3.061093474008722
 20
3.456363131069331
 30
0.0
 40
0.02773
100
AcDbArc
 50
87.20949
 51
108.95183
  0
ARC
  5
1E4
330
18
100
AcDbEntity
  8
0
100
AcDbCircle
 10
3.061881474008722
 20
3.454067131069331
 30
0.0
 40
0.030158
100
AcDbArc
 50
108.95183
 51
129.790308
  0
ARC
  5
1E5
330
18
100
AcDbEntity
  8
0
100
AcDbCircle
 10
3.061881474008722
 20
3.454067131069331
 30
0.0
 40
0.030158
100
AcDbArc
 50
129.790308
 51
150.628787
  0
ARC
  5
1E6
330
18
100
AcDbEntity
  8
0
100
AcDbCircle
 10
3.059765474008722
 20
3.455258131069331
 30
0.0
 40
0.02773
100
AcDbArc
 50
150.628787
 51
172.371126
  0
ARC
  5
1E7
330
18
100
AcDbEntity
  8
0
100
AcDbCircle
 10
3.057813474008722
 20
3.455519131069331
 30
0.0
 40
0.02576
100
AcDbArc
 50
172.371126
 51
195.526521
  0
ARC
  5
1E8
330
18
100
AcDbEntity
  8
0
100
AcDbCircle
 10
3.055627474008722
 20
3.454912131069331
 30
0.0
 40
0.023492
100
AcDbArc
 50
195.526521
 51
219.790308
  0
ARC
  5
1E9
330
18
100
AcDbEntity
  8
0
100
AcDbCircle
 10
3.367378
 20
3.389227129690497
 30
0.0
 40
0.023492
100
AcDbArc
 50
219.790308
 51
244.054095
  0
ARC
  5
1EA
330
18
100
AcDbEntity
  8
0
100
AcDbCircle
 10
3.36837
 20
3.391267129690497
 30
0.0
 40
0.02576
100
AcDbArc
 50
244.054095
 51
267.20949
  0
ARC
  5
1EB
330
18
100
AcDbEntity
  8
0
100
AcDbCircle
 10
3.368466
 20
3.393235129690497
 30
0.0
 40
0.02773
100
AcDbArc
 50
267.20949
 51
288.95183
  0
ARC
  5
1EC
330
18
100
AcDbEntity
  8
0
100
AcDbCircle
 10
3.367677
 20
3.395531129690497
 30
0.0
 40
0.030158
100
AcDbArc
 50
288.95183
 51
309.790308
  0
ARC
  5
1ED
330
18
100
AcDbEntity
  8
0
100
AcDbCircle
 10
3.367677
 20
3.395531129690497
 30
0.0
 40
0.030158
100
AcDbArc
 50
309.790308
 51
330.628787
  0
ARC
  5
1EE
330
18
100
AcDbEntity
  8
0
100
AcDbCircle
 10
3.369793
 20
3.394340129690496
 30
0.0
 40
0.02773
100
AcDbArc
 50
330.628787
 51
352.371126
  0
ARC
  5
1EF
330
18
100
AcDbEntity
  8
0
100
AcDbCircle
 10
3.371746
 20
3.394079129690496
 30
0.0
 40
0.02576
100
AcDbArc
 50
352.371126
 51
15.526521
  0
ARC
  5
1F0
330
18
100
AcDbEntity
  8
0
100
AcDbCircle
 10
3.373931
 20
3.394686129690496
 30
0.0
 40
0.023492
100
AcDbArc
 50
15.526521
 51
39.790308
  0
ARC
  5
1F1
330
18
100
AcDbEntity
  8
0
100
AcDbCircle
 10
3.373931
 20
3.394686129690496
 30
0.0
 40
0.023492
100
AcDbArc
 50
39.790308
 51
64.05409499999999
  0
ARC
  5
1F2
330
18
100
AcDbEntity
  8
0
100
AcDbCircle
 10
3.372939
 20
3.392646129690497
 30
0.0
 40
0.02576
100
AcDbArc
 50
64.05409499999999
 51
87.20949
  0
ARC
  5
1F3
330
18
100
AcDbEntity
  8
0
100
AcDbCircle
 10
3.372843
 20
3.390679129690497
 30
0.0
 40
0.02773
100
AcDbArc
 50
87.20949
 51
108.95183
  0
ARC
  5
1F4
330
18
100
AcDbEntity
  8
0
100
AcDbCircle
 10
3.373632
 20
3.388382129690496
 30
0.0
 40
0.030158
100
AcDbArc
 50
108.95183
 51
129.790308
  0
ARC
  5
1F5
330
18
100
AcDbEntity
  8
0
100
AcDbCircle
 10
3.373632
 20
3.388382129690496
 30
0.0
 40
0.030158
100
AcDbArc
 50
129.790308
 51
150.628787
  0
ARC
  5
1F6
330
18
100
AcDbEntity
  8
0
100
AcDbCircle
 10
3.371516
 20
3.389573129690497
 30
0.0
 40
0.02773
100
AcDbArc
 50
150.628787
 51
172.371126
  0
ARC
  5
1F7
330
18
100
AcDbEntity
  8
0
100
AcDbCircle
 10
3.369563
 20
3.389835129690497
 30
0.0
 40
0.02576
100
AcDbArc
 50
172.371126
 51
195.526521
  0
ARC
  5
1F8
330
18
100
AcDbEntity
  8
0
100
AcDbCircle
 10
3.367378
 20
3.389227129690497
 30
0.0
 40
0.023492
100
AcDbArc
 50
195.526521
 51
219.790308
  0
ARC
  5
1F9
330
18
100
AcDbEntity
  8
0
100
AcDbCircle
 10
3.602105221814138
 20
3.4260055854115
 30
0.0
 40
0.014825
100
AcDbArc
 50
254.324794
 51
283.351751
  0
ARC
  5
1FA
330
18
100
AcDbEntity
  8
0
100
AcDbCircle
 10
3.600649221814138
 20
3.4321405854115
 30
0.0
 40
0.021131
100
AcDbArc
 50
283.351751
 51
307.585934
  0
ARC
  5
1FB
330
18
100
AcDbEntity
  8
0
100
AcDbCircle
 10
3.596980221814138
 20
3.436906585411499
 30
0.0
 40
0.027145
100
AcDbArc
 50
307.585934
 51
327.1441
  0
ARC
  5
1FC
330
18
100
AcDbEntity
  8
0
100
AcDbCircle
 10
3.590298221814138
 20
3.4412225854115
 30
0.0
 40
0.0351
100
AcDbArc
 50
327.1441
 51
344.324794
  0
ARC
  5
1FD
330
18
100
AcDbEntity
  8
0
100
AcDbCircle
 10
3.590298221814138
 20
3.4412225854115
 30
0.0
 40
0.0351
100
AcDbArc
 50
344.324794
 51
1.505488
  0
ARC
  5
1FE
330
18
100
AcDbEntity
  8
0
100
AcDbCircle
 10
3.598250221814139
 20
3.441431585411499
 30
0.0
 40
0.027145
100
AcDbArc
 50
1.505488
 51
21.063653
  0
ARC
  5
1FF
330
18
100
AcDbEntity
  8
0
100
AcDbCircle
 10
3.603862221814138
 20
3.4435925854115
 30
0.0
 40
0.021131
100
AcDbArc
 50
21.063653
 51
45.297837
  0
ARC
  5
200
330
18
100
AcDbEntity
  8
0
100
AcDbCircle
 10
3.608298221814138
 20
3.448074585411499
 30
0.0
 40
0.014825
100
AcDbArc
 50
45.297837
 51
74.324794
  0
ARC
  5
201
330
18
100
AcDbEntity
  8
0
100
AcDbCircle
 10
3.608298221814138
 20
3.448074585411499
 30
0.0
 40
0.014825
100
AcDbArc
 50
74.324794
 51
103.351751
  0
ARC
  5
202
330
18
100
AcDbEntity
  8
0
100
AcDbCircle
 10
3.609754221814139
 20
3.441939585411499
 30
0.0
 40
0.021131
100
AcDbArc
 50
103.351751
 51
127.585934
  0
ARC
  5
203
330
18
100
AcDbEntity
  8
0
100
AcDbCircle
 10
3.613423221814138
 20
3.4371735854115
 30
0.0
 40
0.027145
100
AcDbArc
 50
127.585934
 51
147.1441
  0
ARC
  5
204
330
18
100
AcDbEntity
  8
0
100
AcDbCircle
 10
3.620105221814138
 20
3.4328575854115
 30
0.0
 40
0.0351
100
AcDbArc
 50
147.1441
 51
164.324794
  0
ARC
  5
205
330
18
100
AcDbEntity
  8
0
100
AcDbCircle
 10
3.620105221814138
 20
3.4328575854115
 30
0.0
 40
0.0351
100
AcDbArc
 50
164.324794
 51
181.505488
  0
ARC
  5
206
330
18
100
AcDbEntity
  8
0
100
AcDbCircle
 10
3.612153221814138
 20
3.4326485854115
 30
0.0
 40
0.027145
100
AcDbArc
 50
181.505488
 51
201.063653
  0
ARC
  5
207
330
18
100
AcDbEntity
  8
0
100
AcDbCircle
 10
3.606541221814138
 20
3.4304875854115
 30
0.0
 40
0.021131
100
AcDbArc
 50
201.063653
 51
225.297837
  0
ARC
  5
208
330
18
100
AcDbEntity
  8
0
100
AcDbCircle
 10
3.602105221814138
 20
3.4260055854115
 30
0.0
 40
0.014825
100
AcDbArc
 50
225.297837
 51
254.324794
  0
ARC
  5
209
330
18
100
AcDbEntity
  8
0
100
AcDbCircle
 10
3.772985392237449
 20
3.527275585158791
 30
0.0
 40
0.014825
100
AcDbArc
 50
254.324794
 51
283.351751
  0
ARC
  5
20A
330
18
100
AcDbEntity
  8
0
100
AcDbCircle
 10
3.771529392237449
 20
3.533410585158791
 30
0.0
 40
0.021131
100
AcDbArc
 50
283.351751
 51
307.585934
  0
ARC
  5
20B
330
18
100
AcDbEntity
  8
0
100
AcDbCircle
 10
3.767860392237449
 20
3.538176585158791
 30
0.0
 40
0.027145
100
AcDbArc
 50
307.585934
 51
327.1441
  0
ARC
  5
20C
330
18
100
AcDbEntity
  8
0
100
AcDbCircle
 10
3.761178392237449
 20
3.542492585158791
 30
0.0
 40
0.0351
100
AcDbArc
 50
327.1441
 51
344.324794
  0
ARC
  5
20D
330
18
100
AcDbEntity
  8
0
100
AcDbCircle
 10
3.761178392237449
 20
3.542492585158791
 30
0.0
 40
0.0351
100
AcDbArc
 50
344.324794
 51
1.505488
  0
ARC
  5
20E
330
18
100
AcDbEntity
  8
0
100
AcDbCircle
 10
3.769130392237449
 20
3.542701585158791
 30
0.0
 40
0.027145
100
AcDbArc
 50
1.505488
 51
21.063653
  0
ARC
  5
20F
330
18
100
AcDbEntity
  8
0
100
AcDbCircle
 10
3.774742392237449
 20
3.544862585158791
 30
0.0
 40
0.021131
100
AcDbArc
 50
21.063653
 51
45.297837
  0
ARC
  5
210
330
18
100
AcDbEntity
  8
0
100
AcDbCircle
 10
3.779178392237449
 20
3.549344585158791
 30
0.0
 40
0.014825
100
AcDbArc
 50
45.297837
 51
74.324794
  0
ARC
  5
211
330
18
100
AcDbEntity
  8
0
100
AcDbCircle
 10
3.779178392237449
 20
3.549344585158791
 30
0.0
 40
0.014825
100
AcDbArc
 50
74.324794
 51
103.351751
  0
ARC
  5
212
330
18
100
AcDbEntity
  8
0
100
AcDbCircle
 10
3.780634392237448
 20
3.543209585158791
 30
0.0
 40
0.021131
100
AcDbArc
 50
103.351751
 51
127.585934
  0
ARC
  5
213
330
18
100
AcDbEntity
  8
0
100
AcDbCircle
 10
3.784303392237449
 20
3.538443585158791
 30
0.0
 40
0.027145
100
AcDbArc
 50
127.585934
 51
147.1441
  0
ARC
  5
214
330
18
100
AcDbEntity
  8
0
100
AcDbCircle
 10
3.790985392237449
 20
3.534127585158791
 30
0.0
 40
0.0351
100
AcDbArc
 50
147.1441
 51
164.324794
  0
ARC
  5
215
330
18
100
AcDbEntity
  8
0
100
AcDbCircle
 10
3.790985392237449
 20
3.534127585158791
 30
0.0
 40
0.0351
100
AcDbArc
 50
164.324794
 51
181.505488
  0
ARC
  5
216
330
18
100
AcDbEntity
  8
0
100
AcDbCircle
 10
3.783033392237449
 20
3.533918585158791
 30
0.0
 40
0.027145
100
AcDbArc
 50
181.505488
 51
201.063653
  0
ARC
  5
217
330
18
100
AcDbEntity
  8
0
100
AcDbCircle
 10
3.777420392237449
 20
3.531757585158792
 30
0.0
 40
0.021131
100
AcDbArc
 50
201.063653
 51
225.297837
  0
ARC
  5
218
330
18
100
AcDbEntity
  8
0
100
AcDbCircle
 10
3.772985392237449
 20
3.527275585158791
 30
0.0
 40
0.014825
100
AcDbArc
 50
225.297837
 51
254.324794
  0
ARC
  5
219
330
18
100
AcDbEntity
  8
0
100
AcDbCircle
 10
3.106735
 20
4.980709
 30
0.0
 40
0.015559
100
AcDbArc
 50
183.111392
 51
200.434032
  0
ARC
  5
21A
330
18
100
AcDbEntity
  8
0
100
AcDbCircle
 10
3.106735
 20
4.980709
 30
0.0
 40
0.015559
100
AcDbArc
 50
200.434032
 51
226.240298
  0
ARC
  5
21B
330
18
100
AcDbEntity
  8
0
100
AcDbCircle
 10
3.108795
 20
4.98286
 30
0.0
 40
0.018536
100
AcDbArc
 50
226.240298
 51
249.85058
  0
ARC
  5
21C
330
18
100
AcDbEntity
  8
0
100
AcDbCircle
 10
3.109713
 20
4.985363
 30
0.0
 40
0.021203
100
AcDbArc
 50
249.85058
 51
270.898507
  0
ARC
  5
21D
330
18
100
AcDbEntity
  8
0
100
AcDbCircle
 10
3.10966
 20
4.988734
 30
0.0
 40
0.024574
100
AcDbArc
 50
270.898507
 51
290.434032
  0
ARC
  5
21E
330
18
100
AcDbEntity
  8
0
100
AcDbCircle
 10
3.10966
 20
4.988734
 30
0.0
 40
0.024574
100
AcDbArc
 50
290.434032
 51
309.969556
  0
ARC
  5
21F
330
18
100
AcDbEntity
  8
0
100
AcDbCircle
 10
3.111826
 20
4.98615
 30
0.0
 40
0.021203
100
AcDbArc
 50
309.969556
 51
331.017484
  0
ARC
  5
220
330
18
100
AcDbEntity
  8
0
100
AcDbCircle
 10
3.114159
 20
4.984858
 30
0.0
 40
0.018536
100
AcDbArc
 50
331.017484
 51
354.627765
  0
ARC
  5
221
330
18
100
AcDbEntity
  8
0
100
AcDbCircle
 10
3.117123
 20
4.98458
 30
0.0
 40
0.015559
100
AcDbArc
 50
354.627765
 51
20.434032
  0
ARC
  5
222
330
18
100
AcDbEntity
  8
0
100
AcDbCircle
 10
3.117123
 20
4.98458
 30
0.0
 40
0.015559
100
AcDbArc
 50
20.434032
 51
42.95643
  0
ARC
  5
223
330
18
100
AcDbEntity
  8
0
100
AcDbCircle
 10
3.440512000000001
 20
4.938988
 30
0.0
 40
0.015559
100
AcDbArc
 50
200.434032
 51
226.240298
  0
ARC
  5
224
330
18
100
AcDbEntity
  8
0
100
AcDbCircle
 10
3.442571
 20
4.941139
 30
0.0
 40
0.018536
100
AcDbArc
 50
226.240298
 51
249.85058
  0
ARC
  5
225
330
18
100
AcDbEntity
  8
0
100
AcDbCircle
 10
3.44349
 20
4.943642
 30
0.0
 40
0.021203
100
AcDbArc
 50
249.85058
 51
270.898507
  0
ARC
  5
226
330
18
100
AcDbEntity
  8
0
100
AcDbCircle
 10
3.443437
 20
4.947013
 30
0.0
 40
0.024574
100
AcDbArc
 50
270.898507
 51
290.434032
  0
ARC
  5
227
330
18
100
AcDbEntity
  8
0
100
AcDbCircle
 10
3.443437
 20
4.947013
 30
0.0
 40
0.024574
100
AcDbArc
 50
290.434032
 51
309.969556
  0
ARC
  5
228
330
18
100
AcDbEntity
  8
0
100
AcDbCircle
 10
3.445603
 20
4.944429
 30
0.0
 40
0.021203
100
AcDbArc
 50
309.969556
 51
331.017484
  0
ARC
  5
229
330
18
100
AcDbEntity
  8
0
100
AcDbCircle
 10
3.447935
 20
4.943137
 30
0.0
 40
0.018536
100
AcDbArc
 50
331.017484
 51
354.627765
  0
ARC
  5
22A
330
18
100
AcDbEntity
  8
0
100
AcDbCircle
 10
3.4509
 20
4.942858
 30
0.0
 40
0.015559
100
AcDbArc
 50
354.627765
 51
20.434032
  0
ARC
  5
22B
330
18
100
AcDbEntity
  8
0
100
AcDbCircle
 10
3.4509
 20
4.942858
 30
0.0
 40
0.015559
100
AcDbArc
 50
20.434032
 51
46.240298
  0
ARC
  5
22C
330
18
100
AcDbEntity
  8
0
100
AcDbCircle
 10
3.448841
 20
4.940708
 30
0.0
 40
0.018536
100
AcDbArc
 50
46.240298
 51
69.85058000000001
  0
ARC
  5
22D
330
18
100
AcDbEntity
  8
0
100
AcDbCircle
 10
3.447922
 20
4.938205
 30
0.0
 40
0.021203
100
AcDbArc
 50
69.85058000000001
 51
90.898507
  0
ARC
  5
22E
330
18
100
AcDbEntity
  8
0
100
AcDbCircle
 10
3.447975
 20
4.934833
 30
0.0
 40
0.024574
100
AcDbArc
 50
90.898507
 51
110.434032
  0
ARC
  5
22F
330
18
100
AcDbEntity
  8
0
100
AcDbCircle
 10
3.447975
 20
4.934833
 30
0.0
 40
0.024574
100
AcDbArc
 50
110.434032
 51
129.969556
  0
ARC
  5
230
330
18
100
AcDbEntity
  8
0
100
AcDbCircle
 10
3.445809
 20
4.937417
 30
0.0
 40
0.021203
100
AcDbArc
 50
129.969556
 51
151.017484
  0
ARC
  5
231
330
18
100
AcDbEntity
  8
0
100
AcDbCircle
 10
3.443477
 20
4.938708999999999
 30
0.0
 40
0.018536
100
AcDbArc
 50
151.017484
 51
174.627765
  0
ARC
  5
232
330
18
100
AcDbEntity
  8
0
100
AcDbCircle
 10
3.440512000000001
 20
4.938988
 30
0.0
 40
0.015559
100
AcDbArc
 50
174.627765
 51
200.434032
  0
ARC
  5
233
330
18
100
AcDbEntity
  8
0
100
AcDbCircle
 10
3.112169
 20
4.724416000000001
 30
0.0
 40
0.015559
100
AcDbArc
 50
200.434032
 51
226.240298
  0
ARC
  5
234
330
18
100
AcDbEntity
  8
0
100
AcDbCircle
 10
3.114228
 20
4.726566
 30
0.0
 40
0.018536
100
AcDbArc
 50
226.240298
 51
249.85058
  0
ARC
  5
235
330
18
100
AcDbEntity
  8
0
100
AcDbCircle
 10
3.115146
 20
4.729069
 30
0.0
 40
0.021203
100
AcDbArc
 50
249.85058
 51
270.898507
  0
ARC
  5
236
330
18
100
AcDbEntity
  8
0
100
AcDbCircle
 10
3.115094
 20
4.73244
 30
0.0
 40
0.024574
100
AcDbArc
 50
270.898507
 51
290.434032
  0
ARC
  5
237
330
18
100
AcDbEntity
  8
0
100
AcDbCircle
 10
3.115094
 20
4.73244
 30
0.0
 40
0.024574
100
AcDbArc
 50
290.434032
 51
309.969556
  0
ARC
  5
238
330
18
100
AcDbEntity
  8
0
100
AcDbCircle
 10
3.117259
 20
4.729857
 30
0.0
 40
0.021203
100
AcDbArc
 50
309.969556
 51
331.017484
  0
ARC
  5
239
330
18
100
AcDbEntity
  8
0
100
AcDbCircle
 10
3.119592
 20
4.728565000000001
 30
0.0
 40
0.018536
100
AcDbArc
 50
331.017484
 51
354.627765
  0
ARC
  5
23A
330
18
100
AcDbEntity
  8
0
100
AcDbCircle
 10
3.122556
 20
4.728286
 30
0.0
 40
0.015559
100
AcDbArc
 50
354.627765
 51
20.434032
  0
ARC
  5
23B
330
18
100
AcDbEntity
  8
0
100
AcDbCircle
 10
3.122556
 20
4.728286
 30
0.0
 40
0.015559
100
AcDbArc
 50
20.434032
 51
46.240298
  0
ARC
  5
23C
330
18
100
AcDbEntity
  8
0
100
AcDbCircle
 10
3.120497
 20
4.726135
 30
0.0
 40
0.018536
100
AcDbArc
 50
46.240298
 51
69.85058000000001
  0
ARC
  5
23D
330
18
100
AcDbEntity
  8
0
100
AcDbCircle
 10
3.119579
 20
4.723632
 30
0.0
 40
0.021203
100
AcDbArc
 50
69.85058000000001
 51
90.898507
  0
ARC
  5
23E
330
18
100
AcDbEntity
  8
0
100
AcDbCircle
 10
3.119631
 20
4.720261
 30
0.0
 40
0.024574
100
AcDbArc
 50
90.898507
 51
110.434032
  0
ARC
  5
23F
330
18
100
AcDbEntity
  8
0
100
AcDbCircle
 10
3.119631
 20
4.720261
 30
0.0
 40
0.024574
100
AcDbArc
 50
110.434032
 51
129.969556
  0
ARC
  5
240
330
18
100
AcDbEntity
  8
0
100
AcDbCircle
 10
3.117466
 20
4.722845
 30
0.0
 40
0.021203
100
AcDbArc
 50
129.969556
 51
151.017484
  0
ARC
  5
241
330
18
100
AcDbEntity
  8
0
100
AcDbCircle
 10
3.115133
 20
4.724137000000001
 30
0.0
 40
0.018536
100
AcDbArc
 50
151.017484
 51
174.627765
  0
ARC
  5
242
330
18
100
AcDbEntity
  8
0
100
AcDbCircle
 10
3.112169
 20
4.724416000000001
 30
0.0
 40
0.015559
100
AcDbArc
 50
174.627765
 51
200.434032
  0
ARC
  5
243
330
18
100
AcDbEntity
  8
0
100
AcDbCircle
 10
0.5601619999999999
 20
5.255758999999999
 30
0.0
 40
3.999233
100
AcDbArc
 50
353.244687
 51
354.135626
  0
ARC
  5
244
330
18
100
AcDbEntity
  8
0
100
AcDbCircle
 10
2.96075
 20
5.009191
 30
0.0
 40
1.586016
100
AcDbArc
 50
354.135626
 51
355.550408
  0
ARC
  5
245
330
18
100
AcDbEntity
  8
0
100
AcDbCircle
 10
-13.782371
 20
6.312083
 30
0.0
 40
18.379753
100
AcDbArc
 50
355.550408
 51
355.81361
  0
ARC
  5
246
330
18
100
AcDbEntity
  8
0
100
AcDbCircle
 10
4.481494000000001
 20
4.975230000000001
 30
0.0
 40
0.067027
100
AcDbArc
 50
355.81361
 51
0.173116
  0
ARC
  5
247
330
18
100
AcDbEntity
  8
0
100
AcDbCircle
 10
4.437854
 20
4.975098
 30
0.0
 40
0.110667
100
AcDbArc
 50
0.173116
 51
7.971947999999999
  0
ARC
  5
248
330
18
100
AcDbEntity
  8
0
100
AcDbCircle
 10
0.187306
 20
4.379845
 30
0.0
 40
4.402693
100
AcDbArc
 50
7.971947999999999
 51
9.207478
  0
ARC
  5
249
330
18
100
AcDbEntity
  8
0
100
AcDbCircle
 10
3.386905000000001
 20
4.898495
 30
0.0
 40
1.16133
100
AcDbArc
 50
9.207478
 51
12.732089
  0
ARC
  5
24A
330
18
100
AcDbEntity
  8
0
100
AcDbCircle
 10
4.824879
 20
5.223403
 30
0.0
 40
0.312892
100
AcDbArc
 50
185.938839
 51
192.732089
  0
ARC
  5
24B
330
18
100
AcDbEntity
  8
0
100
AcDbCircle
 10
4.625887000000001
 20
5.202703
 30
0.0
 40
0.112827
100
AcDbArc
 50
175.86637
 51
185.938839
  0
ARC
  5
24C
330
18
100
AcDbEntity
  8
0
100
AcDbCircle
 10
3.527045
 20
5.282117
 30
0.0
 40
0.9888809999999999
100
AcDbArc
 50
355.86637
 51
358.851595
  0
ARC
  5
24D
330
18
100
AcDbEntity
  8
0
100
AcDbCircle
 10
3.775906
 20
4.864139
 30
0.0
 40
0.814632
100
AcDbArc
 50
353.866334
 51
359.095395
  0
ARC
  5
24E
330
18
100
AcDbEntity
  8
0
100
AcDbCircle
 10
4.309312
 20
4.855716999999999
 30
0.0
 40
0.28116
100
AcDbArc
 50
359.095395
 51
8.002049000000001
  0
ARC
  5
24F
330
18
100
AcDbEntity
  8
0
100
AcDbCircle
 10
1.571744
 20
4.470877
 30
0.0
 40
3.045646
100
AcDbArc
 50
8.002049000000001
 51
9.258303
  0
ARC
  5
250
330
18
100
AcDbEntity
  8
0
100
AcDbCircle
 10
4.948889
 20
5.021382
 30
0.0
 40
0.376074
100
AcDbArc
 50
185.682755
 51
189.258303
  0
ARC
  5
251
330
18
100
AcDbEntity
  8
0
100
AcDbCircle
 10
24.87015
 20
7.003733
 30
0.0
 40
20.395723
100
AcDbArc
 50
185.57444
 51
185.682755
  0
ARC
  5
252
330
18
100
AcDbEntity
  8
0
100
AcDbCircle
 10
40.301914
 20
8.509881
 30
0.0
 40
35.900814
100
AcDbArc
 50
185.4928
 51
185.57444
  0
ARC
  5
253
330
18
100
AcDbEntity
  8
0
100
AcDbCircle
 10
13.369078
 20
5.919959
 30
0.0
 40
8.843736999999999
100
AcDbArc
 50
185.195747
 51
185.4928
  0
ARC
  5
254
330
18
100
AcDbEntity
  8
0
100
AcDbCircle
 10
15.18891
 20
6.085441
 30
0.0
 40
10.671078
100
AcDbArc
 50
184.925322
 51
185.195747
  0
ARC
  5
255
330
18
100
AcDbEntity
  8
0
100
AcDbCircle
 10
4.659052
 20
5.178025
 30
0.0
 40
0.102194
100
AcDbArc
 50
175.81361
 51
184.925322
  0
ARC
  5
256
330
18
100
AcDbEntity
  8
0
100
AcDbCircle
 10
6.637914
 20
5.033180000000001
 30
0.0
 40
2.086349
100
AcDbArc
 50
173.89509
 51
175.81361
  0
ARC
  5
257
330
18
100
AcDbEntity
  8
0
100
AcDbCircle
 10
3.648427
 20
4.793195
 30
0.0
 40
0.9956959999999999
100
AcDbArc
 50
358.567421
 51
2.26145
  0
ARC
  5
258
330
18
100
AcDbEntity
  8
0
100
AcDbCircle
 10
4.395176
 20
4.822684
 30
0.0
 40
0.248365
100
AcDbArc
 50
2.26145
 51
9.661682000000001
  0
ARC
  5
259
330
18
100
AcDbEntity
  8
0
100
AcDbCircle
 10
2.292074
 20
4.464642
 30
0.0
 40
2.381726
100
AcDbArc
 50
9.661682000000001
 51
11.556527
  0
ARC
  5
25A
330
18
100
AcDbEntity
  8
0
100
AcDbCircle
 10
5.007847
 20
5.019963
 30
0.0
 40
0.390242
100
AcDbArc
 50
186.874286
 51
191.556527
  0
ARC
  5
25B
330
18
100
AcDbEntity
  8
0
100
AcDbCircle
 10
10.901787
 20
5.730524
 30
0.0
 40
6.326859
100
AcDbArc
 50
186.522434
 51
186.874286
  0
ARC
  5
25C
330
18
100
AcDbEntity
  8
0
100
AcDbCircle
 10
10.586141
 20
5.694436000000001
 30
0.0
 40
6.009157
100
AcDbArc
 50
186.161401
 51
186.522434
  0
ARC
  5
25D
330
18
100
AcDbEntity
  8
0
100
AcDbCircle
 10
7.757153
 20
5.389037999999999
 30
0.0
 40
3.163732
100
AcDbArc
 50
185.315906
 51
186.161401
  0
ARC
  5
25E
330
18
100
AcDbEntity
  8
0
100
AcDbCircle
 10
7.84932
 20
5.397614
 30
0.0
 40
3.256298
100
AcDbArc
 50
184.482515
 51
185.315906
  0
ARC
  5
25F
330
18
100
AcDbEntity
  8
0
100
AcDbCircle
 10
4.956557
 20
5.170836
 30
0.0
 40
0.354659
100
AcDbArc
 50
178.263336
 51
184.482515
  0
ARC
  5
260
330
18
100
AcDbEntity
  8
0
100
AcDbCircle
 10
4.871466000000001
 20
5.173416000000001
 30
0.0
 40
0.2695280000000001
100
AcDbArc
 50
171.128179
 51
178.263336
  0
ARC
  5
261
330
18
100
AcDbEntity
  8
0
100
AcDbCircle
 10
4.772375
 20
5.188884
 30
0.0
 40
0.169238
100
AcDbArc
 50
164.320869
 51
171.128179
  0
ARC
  5
262
330
18
100
AcDbEntity
  8
0
100
AcDbCircle
 10
3.796658
 20
5.462762000000001
 30
0.0
 40
0.844189
100
AcDbArc
 50
344.320869
 51
345.229576
  0
ARC
  5
263
330
18
100
AcDbEntity
  8
0
100
AcDbCircle
 10
4.093493
 20
4.911189
 30
0.0
 40
0.6140479999999999
100
AcDbArc
 50
345.885035
 51
350.29855
  0
ARC
  5
264
330
18
100
AcDbEntity
  8
0
100
AcDbCircle
 10
4.541631
 20
4.834575
 30
0.0
 40
0.159409
100
AcDbArc
 50
350.29855
 51
358.966898
  0
ARC
  5
265
330
18
100
AcDbEntity
  8
0
100
AcDbCircle
 10
2.643616
 20
4.868802
 30
0.0
 40
2.057732
100
AcDbArc
 50
358.966898
 51
1.193416
  0
ARC
  5
266
330
18
100
AcDbEntity
  8
0
100
AcDbCircle
 10
4.505213
 20
4.907583
 30
0.0
 40
0.195731
100
AcDbArc
 50
1.193416
 51
8.416967
  0
ARC
  5
267
330
18
100
AcDbEntity
  8
0
100
AcDbCircle
 10
4.220785
 20
4.865496
 30
0.0
 40
0.483257
100
AcDbArc
 50
8.416967
 51
11.31476
  0
ARC
  5
268
330
18
100
AcDbEntity
  8
0
100
AcDbCircle
 10
3.927343
 20
4.806782
 30
0.0
 40
0.782514
100
AcDbArc
 50
11.31476
 51
13.591913
  0
ARC
  5
269
330
18
100
AcDbEntity
  8
0
100
AcDbCircle
 10
4.523609
 20
4.950945
 30
0.0
 40
0.169069
100
AcDbArc
 50
13.591913
 51
27.524763
  0
ARC
  5
26A
330
18
100
AcDbEntity
  8
0
100
AcDbCircle
 10
4.757219999999999
 20
5.072684
 30
0.0
 40
0.09436
100
AcDbArc
 50
188.838029
 51
207.524763
  0
ARC
  5
26B
330
18
100
AcDbEntity
  8
0
100
AcDbCircle
 10
4.797801
 20
5.078994000000001
 30
0.0
 40
0.135428
100
AcDbArc
 50
171.584116
 51
188.838029
  0
ARC
  5
26C
330
18
100
AcDbEntity
  8
0
100
AcDbCircle
 10
4.396266000000001
 20
5.138401
 30
0.0
 40
0.270478
100
AcDbArc
 50
351.584116
 51
3.769877
  0
ARC
  5
26D
330
18
100
AcDbEntity
  8
0
100
AcDbCircle
 10
3.521716000000001
 20
5.080775
 30
0.0
 40
1.146924
100
AcDbArc
 50
3.769877
 51
5.662744
  0
ARC
  5
26E
330
18
100
AcDbEntity
  8
0
100
AcDbCircle
 10
4.947087000000001
 20
5.22211
 30
0.0
 40
0.285437
100
AcDbArc
 50
181.867917
 51
185.662744
  0
ARC
  5
26F
330
18
100
AcDbEntity
  8
0
100
AcDbCircle
 10
4.821826000000001
 20
5.218025
 30
0.0
 40
0.160109
100
AcDbArc
 50
180.0
 51
181.867917
  0
ARC
  5
270
330
18
100
AcDbEntity
  8
0
100
AcDbCircle
 10
14.308068
 20
5.218025
 30
0.0
 40
9.646352
100
AcDbArc
 50
179.868693
 51
180.0
  0
ARC
  5
271
330
18
100
AcDbEntity
  8
0
100
AcDbCircle
 10
15.876806
 20
4.340204
 30
0.0
 40
11.140569
100
AcDbArc
 50
177.648062
 51
177.875949
  0
ARC
  5
272
330
18
100
AcDbEntity
  8
0
100
AcDbCircle
 10
8.469867000000001
 20
4.644423000000001
 30
0.0
 40
3.727386
100
AcDbArc
 50
177.254086
 51
177.648062
  0
ARC
  5
273
330
18
100
AcDbEntity
  8
0
100
AcDbCircle
 10
13.210735
 20
4.417042
 30
0.0
 40
8.473703
100
AcDbArc
 50
176.82768
 51
177.254086
  0
ARC
  5
274
330
18
100
AcDbEntity
  8
0
100
AcDbCircle
 10
3.508597
 20
4.954774
 30
0.0
 40
1.243325
100
AcDbArc
 50
356.82768
 51
357.94088
  0
ARC
  5
275
330
18
100
AcDbEntity
  8
0
100
AcDbCircle
 10
4.652725
 20
4.913638
 30
0.0
 40
0.098458
100
AcDbArc
 50
357.94088
 51
21.026187
  0
ARC
  5
276
330
18
100
AcDbEntity
  8
0
100
AcDbCircle
 10
4.902211
 20
5.009538
 30
0.0
 40
0.168825
100
AcDbArc
 50
183.446719
 51
201.026187
  0
ARC
  5
277
330
18
100
AcDbEntity
  8
0
100
AcDbCircle
 10
7.954727
 20
5.193388
 30
0.0
 40
3.226873
100
AcDbArc
 50
182.628098
 51
183.446719
  0
ARC
  5
278
330
18
100
AcDbEntity
  8
0
100
AcDbCircle
 10
2.916811
 20
4.962142
 30
0.0
 40
1.816348
100
AcDbArc
 50
2.628098
 51
3.719230000000001
  0
ARC
  5
279
330
18
100
AcDbEntity
  8
0
100
AcDbCircle
 10
-4.720667
 20
4.465675
 30
0.0
 40
9.469944999999999
100
AcDbArc
 50
3.719230000000001
 51
3.815037
  0
ARC
  5
27A
330
18
100
AcDbEntity
  8
0
100
AcDbCircle
 10
-88.134671
 20
-1.096666
 30
0.0
 40
93.069202
100
AcDbArc
 50
3.815037
 51
3.845598
  0
ARC
  5
27B
330
18
100
AcDbEntity
  8
0
100
AcDbCircle
 10
3.831259
 20
5.085221
 30
0.0
 40
0.8957350000000001
100
AcDbArc
 50
3.845598
 51
6.402480000000001
  0
ARC
  5
27C
330
18
100
AcDbEntity
  8
0
100
AcDbCircle
 10
6.350895
 20
5.367954
 30
0.0
 40
1.639715
100
AcDbArc
 50
184.7642
 51
186.40248
  0
ARC
  5
27D
330
18
100
AcDbEntity
  8
0
100
AcDbCircle
 10
4.308974
 20
4.097967
 30
0.0
 40
0.351194
100
AcDbArc
 50
356.428875
 51
356.67112
  0
ARC
  5
27E
330
18
100
AcDbEntity
  8
0
100
AcDbCircle
 10
4.583752
 20
4.081983999999999
 30
0.0
 40
0.075952
100
AcDbArc
 50
356.67112
 51
10.935208
  0
ARC
  5
27F
330
18
100
AcDbEntity
  8
0
100
AcDbCircle
 10
1.339314
 20
3.455136
 30
0.0
 40
3.380391
100
AcDbArc
 50
10.935208
 51
11.675814
  0
ARC
  5
280
330
18
100
AcDbEntity
  8
0
100
AcDbCircle
 10
5.926256
 20
4.403027
 30
0.0
 40
1.303468
100
AcDbArc
 50
190.483129
 51
191.675814
  0
ARC
  5
281
330
18
100
AcDbEntity
  8
0
100
AcDbCircle
 10
21.302328
 20
7.248131
 30
0.0
 40
16.940546
100
AcDbArc
 50
190.256427
 51
190.483129
  0
ARC
  5
282
330
18
100
AcDbEntity
  8
0
100
AcDbCircle
 10
5.600951
 20
4.40704
 30
0.0
 40
0.9841979999999999
100
AcDbArc
 50
189.315872
 51
190.256427
  0
ARC
  5
283
330
18
100
AcDbEntity
  8
0
100
AcDbCircle
 10
4.897148000000001
 20
4.291588
 30
0.0
 40
0.270989
100
AcDbArc
 50
183.640147
 51
189.315872
  0
ARC
  5
284
330
18
100
AcDbEntity
  8
0
100
AcDbCircle
 10
4.315172000000001
 20
4.252512
 30
0.0
 40
0.312301
100
AcDbArc
 50
4.015799
 51
8.94022
  0
ARC
  5
285
330
18
100
AcDbEntity
  8
0
100
AcDbCircle
 10
4.414962
 20
4.268211
 30
0.0
 40
0.211284
100
AcDbArc
 50
8.94022
 51
12.426931
  0
ARC
  5
286
330
18
100
AcDbEntity
  8
0
100
AcDbCircle
 10
5.033394
 20
4.404487000000001
 30
0.0
 40
0.421986
100
AcDbArc
 50
189.959946
 51
192.426931
  0
ARC
  5
287
330
18
100
AcDbEntity
  8
0
100
AcDbCircle
 10
4.863217
 20
4.374601999999999
 30
0.0
 40
0.249204
100
AcDbArc
 50
185.556935
 51
189.959946
  0
ARC
  5
288
330
18
100
AcDbEntity
  8
0
100
AcDbCircle
 10
4.720308999999999
 20
4.360698
 30
0.0
 40
0.105622
100
AcDbArc
 50
178.791496
 51
185.556935
  0
ARC
  5
289
330
18
100
AcDbEntity
  8
0
100
AcDbCircle
 10
4.68813
 20
4.361377
 30
0.0
 40
0.073436
100
AcDbArc
 50
161.493288
 51
178.791496
  0
ARC
  5
28A
330
18
100
AcDbEntity
  8
0
100
AcDbCircle
 10
4.111985
 20
4.554228
 30
0.0
 40
0.5341279999999999
100
AcDbArc
 50
341.493288
 51
347.886311
  0
ARC
  5
28B
330
18
100
AcDbEntity
  8
0
100
AcDbCircle
 10
4.329367
 20
4.507571
 30
0.0
 40
0.311796
100
AcDbArc
 50
347.886311
 51
350.057659
  0
ARC
  5
28C
330
18
100
AcDbEntity
  8
0
100
AcDbCircle
 10
3.5391
 20
4.646096
 30
0.0
 40
1.114112
100
AcDbArc
 50
350.057659
 51
351.284568
  0
ARC
  5
28D
330
18
100
AcDbEntity
  8
0
100
AcDbCircle
 10
4.305854
 20
4.095351
 30
0.0
 40
0.400246
100
AcDbArc
 50
356.245912
 51
1.44343
  0
ARC
  5
28E
330
18
100
AcDbEntity
  8
0
100
AcDbCircle
 10
4.516828
 20
4.100668
 30
0.0
 40
0.189205
100
AcDbArc
 50
1.44343
 51
13.983811
  0
ARC
  5
28F
330
18
100
AcDbEntity
  8
0
100
AcDbCircle
 10
-0.671193
 20
2.808706
 30
0.0
 40
5.535674
100
AcDbArc
 50
13.983811
 51
14.398749
  0
ARC
  5
290
330
18
100
AcDbEntity
  8
0
100
AcDbCircle
 10
4.287937
 20
4.081878
 30
0.0
 40
0.415719
100
AcDbArc
 50
14.398749
 51
15.912941
  0
ARC
  5
291
330
18
100
AcDbEntity
  8
0
100
AcDbCircle
 10
4.373397
 20
4.106243
 30
0.0
 40
0.326854
100
AcDbArc
 50
15.912941
 51
22.186795
  0
ARC
  5
292
330
18
100
AcDbEntity
  8
0
100
AcDbCircle
 10
4.773404
 20
4.269375
 30
0.0
 40
0.105139
100
AcDbArc
 50
191.113212
 51
202.186795
  0
ARC
  5
293
330
18
100
AcDbEntity
  8
0
100
AcDbCircle
 10
4.760842
 20
4.266908
 30
0.0
 40
0.092337
100
AcDbArc
 50
180.362506
 51
191.113212
  0
ARC
  5
294
330
18
100
AcDbEntity
  8
0
100
AcDbCircle
 10
5.260073
 20
4.270067
 30
0.0
 40
0.5915779999999999
100
AcDbArc
 50
176.120399
 51
180.362506
  0
ARC
  5
295
330
18
100
AcDbEntity
  8
0
100
AcDbCircle
 10
6.802585000000001
 20
4.16546
 30
0.0
 40
2.137633
100
AcDbArc
 50
175.08861
 51
176.120399
  0
ARC
  5
296
330
18
100
AcDbEntity
  8
0
100
AcDbCircle
 10
5.480794
 20
4.279043
 30
0.0
 40
0.810971
100
AcDbArc
 50
173.413419
 51
175.08861
  0
ARC
  5
297
330
18
100
AcDbEntity
  8
0
100
AcDbCircle
 10
4.966993
 20
4.338369
 30
0.0
 40
0.293756
100
AcDbArc
 50
167.761145
 51
173.413419
  0
ARC
  5
298
330
18
100
AcDbEntity
  8
0
100
AcDbCircle
 10
4.495794999999999
 20
4.440581
 30
0.0
 40
0.1884
100
AcDbArc
 50
347.761145
 51
354.820656
  0
ARC
  5
299
330
18
100
AcDbEntity
  8
0
100
AcDbCircle
 10
4.606555999999999
 20
4.430541000000001
 30
0.0
 40
0.077186
100
AcDbArc
 50
354.820656
 51
3.46604
  0
ARC
  5
29A
330
18
100
AcDbEntity
  8
0
100
AcDbCircle
 10
4.929007
 20
4.450071
 30
0.0
 40
0.245857
100
AcDbArc
 50
178.625111
 51
183.46604
  0
ARC
  5
29B
330
18
100
AcDbEntity
  8
0
100
AcDbCircle
 10
4.743164
 20
4.454530999999999
 30
0.0
 40
0.05996
100
AcDbArc
 50
170.80105
 51
178.625111
  0
ARC
  5
29C
330
18
100
AcDbEntity
  8
0
100
AcDbCircle
 10
4.903657
 20
4.42854
 30
0.0
 40
0.222544
100
AcDbArc
 50
169.136164
 51
170.80105
  0
ARC
  5
29D
330
18
100
AcDbEntity
  8
0
100
AcDbCircle
 10
3.34235
 20
3.983517
 30
0.0
 40
1.283458
100
AcDbArc
 50
4.390747
 51
5.751818
  0
ARC
  5
29E
330
18
100
AcDbEntity
  8
0
100
AcDbCircle
 10
4.298021
 20
4.079779
 30
0.0
 40
0.322951
100
AcDbArc
 50
5.751818
 51
11.771432
  0
ARC
  5
29F
330
18
100
AcDbEntity
  8
0
100
AcDbCircle
 10
-703.9592259999999
 20
-143.514359
 30
0.0
 40
723.7953809999999
100
AcDbArc
 50
11.771432
 51
11.778345
  0
ARC
  5
2A0
330
18
100
AcDbEntity
  8
0
100
AcDbCircle
 10
-13.01759
 20
0.558357
 30
0.0
 40
17.992794
100
AcDbArc
 50
11.778345
 51
11.822191
  0
ARC
  5
2A1
330
18
100
AcDbEntity
  8
0
100
AcDbCircle
 10
-73.741945
 20
-12.15217
 30
0.0
 40
80.033142
100
AcDbArc
 50
11.822191
 51
11.844497
  0
ARC
  5
2A2
330
18
100
AcDbEntity
  8
0
100
AcDbCircle
 10
-73.307652
 20
-12.061089
 30
0.0
 40
79.589401
100
AcDbArc
 50
11.844497
 51
11.866865
  0
ARC
  5
2A3
330
18
100
AcDbEntity
  8
0
100
AcDbCircle
 10
4.457582
 20
4.279652
 30
0.0
 40
0.125878
100
AcDbArc
 50
11.866865
 51
22.537961
  0
ARC
  5
2A4
330
18
100
AcDbEntity
  8
0
100
AcDbCircle
 10
4.661344000000001
 20
4.364212
 30
0.0
 40
0.094733
100
AcDbArc
 50
190.231255
 51
202.537961
  0
ARC
  5
2A5
330
18
100
AcDbEntity
  8
0
100
AcDbCircle
 10
4.634712
 20
4.359405000000001
 30
0.0
 40
0.06767
100
AcDbArc
 50
175.497991
 51
190.231255
  0
ARC
  5
2A6
330
18
100
AcDbEntity
  8
0
100
AcDbCircle
 10
4.740715
 20
4.351058
 30
0.0
 40
0.174001
100
AcDbArc
 50
166.325488
 51
175.497991
  0
ARC
  5
2A7
330
18
100
AcDbEntity
  8
0
100
AcDbCircle
 10
5.695585
 20
4.118736
 30
0.0
 40
1.156728
100
AcDbArc
 50
164.720259
 51
166.325488
  0
ARC
  5
2A8
330
18
100
AcDbEntity
  8
0
100
AcDbCircle
 10
4.889673
 20
4.338902
 30
0.0
 40
0.321283
100
AcDbArc
 50
161.674153
 51
164.720259
  0
ARC
  5
2A9
330
18
100
AcDbEntity
  8
0
100
AcDbCircle
 10
5.818278
 20
4.031331
 30
0.0
 40
1.2995
100
AcDbArc
 50
161.286263
 51
161.674153
  0
ARC
  5
2AA
330
18
100
AcDbEntity
  8
0
100
AcDbCircle
 10
-4.154106
 20
7.409462
 30
0.0
 40
9.229517999999999
100
AcDbArc
 50
341.286263
 51
341.431811
  0
ARC
  5
2AB
330
18
100
AcDbEntity
  8
0
100
AcDbCircle
 10
3.538436
 20
4.825389
 30
0.0
 40
1.114554
100
AcDbArc
 50
341.431811
 51
342.137358
  0
ARC
  5
2AC
330
18
100
AcDbEntity
  8
0
100
AcDbCircle
 10
3.168369
 20
4.054537
 30
0.0
 40
1.384226
100
AcDbArc
 50
1.567301
 51
2.671569
  0
ARC
  5
2AD
330
18
100
AcDbEntity
  8
0
100
AcDbCircle
 10
4.116429
 20
4.098774
 30
0.0
 40
0.435134
100
AcDbArc
 50
2.671569
 51
8.271332000000001
  0
ARC
  5
2AE
330
18
100
AcDbEntity
  8
0
100
AcDbCircle
 10
-18.421272
 20
0.8223950000000001
 30
0.0
 40
23.20974
100
AcDbArc
 50
8.271332000000001
 51
8.492608000000001
  0
ARC
  5
2AF
330
18
100
AcDbEntity
  8
0
100
AcDbCircle
 10
4.160525
 20
4.194289
 30
0.0
 40
0.377586
100
AcDbArc
 50
8.492608000000001
 51
10.227527
  0
ARC
  5
2B0
330
18
100
AcDbEntity
  8
0
100
AcDbCircle
 10
3.909899
 20
4.14907
 30
0.0
 40
0.632259
100
AcDbArc
 50
10.227527
 51
11.956047
  0
ARC
  5
2B1
330
18
100
AcDbEntity
  8
0
100
AcDbCircle
 10
5.326617
 20
4.449066999999999
 30
0.0
 40
0.815874
100
AcDbArc
 50
190.434425
 51
191.956047
  0
ARC
  5
2B2
330
18
100
AcDbEntity
  8
0
100
AcDbCircle
 10
4.829558000000001
 20
4.357531
 30
0.0
 40
0.310457
100
AcDbArc
 50
183.484636
 51
190.434425
  0
ARC
  5
2B3
330
18
100
AcDbEntity
  8
0
100
AcDbCircle
 10
4.569523
 20
4.341697
 30
0.0
 40
0.049941
100
AcDbArc
 50
166.100778
 51
183.484636
  0
ARC
  5
2B4
330
18
100
AcDbEntity
  8
0
100
AcDbCircle
 10
4.723165
 20
4.303677
 30
0.0
 40
0.208217
100
AcDbArc
 50
161.152093
 51
166.100778
  0
ARC
  5
2B5
330
18
100
AcDbEntity
  8
0
100
AcDbCircle
 10
3.979519
 20
4.557529
 30
0.0
 40
0.5775640000000001
100
AcDbArc
 50
341.152093
 51
344.12281
  0
ARC
  5
2B6
330
18
100
AcDbEntity
  8
0
100
AcDbCircle
 10
2.294828
 20
5.0367
 30
0.0
 40
2.329074
100
AcDbArc
 50
344.12281
 51
344.519424
  0
ARC
  5
2B7
330
18
100
AcDbEntity
  8
0
100
AcDbCircle
 10
-23.689231
 20
12.233232
 30
0.0
 40
29.291296
100
AcDbArc
 50
344.519424
 51
344.631262
  0
ARC
  5
2B8
330
18
100
AcDbEntity
  8
0
100
AcDbCircle
 10
4.223806
 20
4.561083999999999
 30
0.0
 40
0.343075
100
AcDbArc
 50
344.631262
 51
347.9692950000001
  0
ARC
  5
2B9
330
18
100
AcDbEntity
  8
0
100
AcDbCircle
 10
4.811571
 20
4.082692
 30
0.0
 40
0.077612
100
AcDbArc
 50
185.767442
 51
193.588775
  0
ARC
  5
2BA
330
18
100
AcDbEntity
  8
0
100
AcDbCircle
 10
5.57873
 20
4.160176
 30
0.0
 40
0.848675
100
AcDbArc
 50
183.249355
 51
185.767442
  0
ARC
  5
2BB
330
18
100
AcDbEntity
  8
0
100
AcDbCircle
 10
4.355992
 20
4.090758
 30
0.0
 40
0.376032
100
AcDbArc
 50
3.249355
 51
7.032674
  0
ARC
  5
2BC
330
18
100
AcDbEntity
  8
0
100
AcDbCircle
 10
4.171479
 20
4.067996
 30
0.0
 40
0.561944
100
AcDbArc
 50
7.032674
 51
10.853315
  0
ARC
  5
2BD
330
18
100
AcDbEntity
  8
0
100
AcDbCircle
 10
4.934609
 20
4.214307
 30
0.0
 40
0.215086
100
AcDbArc
 50
184.675895
 51
190.853315
  0
ARC
  5
2BE
330
18
100
AcDbEntity
  8
0
100
AcDbCircle
 10
4.991447
 20
4.218956
 30
0.0
 40
0.272113
100
AcDbArc
 50
178.514896
 51
184.675895
  0
ARC
  5
2BF
330
18
100
AcDbEntity
  8
0
100
AcDbCircle
 10
5.004628
 20
4.218614
 30
0.0
 40
0.285299
100
AcDbArc
 50
172.498088
 51
178.514896
  0
ARC
  5
2C0
330
18
100
AcDbEntity
  8
0
100
AcDbCircle
 10
11.268562
 20
3.393739
 30
0.0
 40
6.603311
100
AcDbArc
 50
172.172448
 51
172.498088
  0
ARC
  5
2C1
330
18
100
AcDbEntity
  8
0
100
AcDbCircle
 10
-2.631885
 20
5.302308999999999
 30
0.0
 40
7.42755
100
AcDbArc
 50
352.190517
 51
352.48002
  0
ARC
  5
2C2
330
18
100
AcDbEntity
  8
0
100
AcDbCircle
 10
-5.635173
 20
5.698765
 30
0.0
 40
10.456893
100
AcDbArc
 50
352.48002
 51
352.614405
  0
ARC
  5
2C3
330
18
100
AcDbEntity
  8
0
100
AcDbCircle
 10
7.596711999999999
 20
3.99258
 30
0.0
 40
2.884552
100
AcDbArc
 50
172.303631
 51
172.790794
  0
ARC
  5
2C4
330
18
100
AcDbEntity
  8
0
100
AcDbCircle
 10
4.891085
 20
4.358221
 30
0.0
 40
0.15433
100
AcDbArc
 50
168.162037
 51
172.303631
  0
ARC
  5
2C5
330
18
100
AcDbEntity
  8
0
100
AcDbCircle
 10
5.494609
 20
4.231721
 30
0.0
 40
0.770968
100
AcDbArc
 50
166.309365
 51
168.162037
  0
ARC
  5
2C6
330
18
100
AcDbEntity
  8
0
100
AcDbCircle
 10
5.01845
 20
4.347713
 30
0.0
 40
0.280885
100
AcDbArc
 50
163.259777
 51
166.309365
  0
ARC
  5
2C7
330
18
100
AcDbEntity
  8
0
100
AcDbCircle
 10
5.43945
 20
4.221085
 30
0.0
 40
0.720517
100
AcDbArc
 50
161.355842
 51
163.259777
  0
ARC
  5
2C8
330
18
100
AcDbEntity
  8
0
100
AcDbCircle
 10
4.775508
 20
4.445096
 30
0.0
 40
0.019803
100
AcDbArc
 50
156.556562
 51
161.355842
  0
ARC
  5
2C9
330
18
100
AcDbEntity
  8
0
100
AcDbCircle
 10
5.054874
 20
4.323951999999999
 30
0.0
 40
0.324305
100
AcDbArc
 50
155.370935
 51
156.556562
  0
ARC
  5
2CA
330
18
100
AcDbEntity
  8
0
100
AcDbCircle
 10
7.110802000000001
 20
4.207538
 30
0.0
 40
0.566267
100
AcDbArc
 50
195.695791
 51
196.358283
  0
ARC
  5
2CB
330
18
100
AcDbEntity
  8
0
100
AcDbCircle
 10
6.677357000000001
 20
4.085737
 30
0.0
 40
0.116034
100
AcDbArc
 50
186.244708
 51
195.695791
  0
ARC
  5
2CC
330
18
100
AcDbEntity
  8
0
100
AcDbCircle
 10
12.607182
 20
4.734604
 30
0.0
 40
6.081254
100
AcDbArc
 50
185.803926
 51
186.244708
  0
ARC
  5
2CD
330
18
100
AcDbEntity
  8
0
100
AcDbCircle
 10
4.097969
 20
3.869681
 30
0.0
 40
2.471803
100
AcDbArc
 50
5.803926000000001
 51
6.495303
  0
ARC
  5
2CE
330
18
100
AcDbEntity
  8
0
100
AcDbCircle
 10
0.277154
 20
3.434671
 30
0.0
 40
6.317302
100
AcDbArc
 50
6.495303
 51
6.908797
  0
ARC
  5
2CF
330
18
100
AcDbEntity
  8
0
100
AcDbCircle
 10
6.045129
 20
4.133571
 30
0.0
 40
0.507139
100
AcDbArc
 50
6.908797
 51
8.368221
  0
ARC
  5
2D0
330
18
100
AcDbEntity
  8
0
100
AcDbCircle
 10
6.458226
 20
4.194338
 30
0.0
 40
0.089597
100
AcDbArc
 50
8.368221
 51
26.685063
  0
ARC
  5
2D1
330
18
100
AcDbEntity
  8
0
100
AcDbCircle
 10
6.711992
 20
4.321886
 30
0.0
 40
0.19442
100
AcDbArc
 50
194.279286
 51
206.685063
  0
ARC
  5
2D2
330
18
100
AcDbEntity
  8
0
100
AcDbCircle
 10
10.801192
 20
5.362636
 30
0.0
 40
4.413983
100
AcDbArc
 50
193.967296
 51
194.279286
  0
ARC
  5
2D3
330
18
100
AcDbEntity
  8
0
100
AcDbCircle
 10
4.250885
 20
3.739266
 30
0.0
 40
2.334491
100
AcDbArc
 50
13.828339
 51
14.418243
  0
ARC
  5
2D4
330
18
100
AcDbEntity
  8
0
100
AcDbCircle
 10
4.110091000000001
 20
3.703069
 30
0.0
 40
2.479863
100
AcDbArc
 50
14.418243
 51
14.952209
  0
ARC
  5
2D5
330
18
100
AcDbEntity
  8
0
100
AcDbCircle
 10
8.215218999999999
 20
4.802789
 30
0.0
 40
1.770016
100
AcDbArc
 50
194.311171
 51
195.059281
  0
ARC
  5
2D6
330
18
100
AcDbEntity
  8
0
100
AcDbCircle
 10
6.643730000000001
 20
4.401895
 30
0.0
 40
0.148197
100
AcDbArc
 50
185.338485
 51
194.311171
  0
ARC
  5
2D7
330
18
100
AcDbEntity
  8
0
100
AcDbCircle
 10
6.324378
 20
4.37012
 30
0.0
 40
0.172736
100
AcDbArc
 50
5.976856
 51
13.6728
  0
ARC
  5
2D8
330
18
100
AcDbEntity
  8
0
100
AcDbCircle
 10
6.336005
 20
4.372949
 30
0.0
 40
0.16077
100
AcDbArc
 50
13.6728
 51
16.551712
  0
ARC
  5
2D9
330
18
100
AcDbEntity
  8
0
100
AcDbCircle
 10
5.274559
 20
4.057492
 30
0.0
 40
1.268101
100
AcDbArc
 50
16.551712
 51
17.576688
  0
ARC
  5
2DA
330
18
100
AcDbEntity
  8
0
100
AcDbCircle
 10
6.313315
 20
4.386539
 30
0.0
 40
0.178474
100
AcDbArc
 50
17.576688
 51
20.750035
  0
ARC
  5
2DB
330
18
100
AcDbEntity
  8
0
100
AcDbCircle
 10
4.001501
 20
3.766855000000001
 30
0.0
 40
2.641921
100
AcDbArc
 50
16.215772
 51
16.858622
  0
ARC
  5
2DC
330
18
100
AcDbEntity
  8
0
100
AcDbCircle
 10
-46.243366
 20
-10.845628
 30
0.0
 40
54.96850500000001
100
AcDbArc
 50
16.16502
 51
16.215772
  0
ARC
  5
2DD
330
18
100
AcDbEntity
  8
0
100
AcDbCircle
 10
6.231153
 20
4.364894000000001
 30
0.0
 40
0.333945
100
AcDbArc
 50
15.513874
 51
16.16502
  0
ARC
  5
2DE
330
18
100
AcDbEntity
  8
0
100
AcDbCircle
 10
6.397179
 20
4.410981
 30
0.0
 40
0.161641
100
AcDbArc
 50
5.168729
 51
15.513874
  0
ARC
  5
2DF
330
18
100
AcDbEntity
  8
0
100
AcDbCircle
 10
6.773041
 20
4.44498
 30
0.0
 40
0.215755
100
AcDbArc
 50
185.168729
 51
194.119965
  0
ARC
  5
2E0
330
18
100
AcDbEntity
  8
0
100
AcDbCircle
 10
6.703231
 20
4.427419
 30
0.0
 40
0.143771
100
AcDbArc
 50
194.119965
 51
199.443284
  0
ARC
  5
2E1
330
18
100
AcDbEntity
  8
0
100
AcDbCircle
 10
6.360844
 20
4.306555
 30
0.0
 40
0.219322
100
AcDbArc
 50
15.133821
 51
19.443284
  0
ARC
  5
2E2
330
18
100
AcDbEntity
  8
0
100
AcDbCircle
 10
6.448787
 20
4.330340000000001
 30
0.0
 40
0.12822
100
AcDbArc
 50
1.889217
 51
15.133821
  0
ARC
  5
2E3
330
18
100
AcDbEntity
  8
0
100
AcDbCircle
 10
6.774675
 20
4.341089
 30
0.0
 40
0.197845
100
AcDbArc
 50
181.889217
 51
192.543225
  0
ARC
  5
2E4
330
18
100
AcDbEntity
  8
0
100
AcDbCircle
 10
6.773594
 20
4.340848
 30
0.0
 40
0.196737
100
AcDbArc
 50
192.543225
 51
206.643688
  0
ARC
  5
2E5
330
18
100
AcDbEntity
  8
0
100
AcDbCircle
 10
6.378892
 20
4.14282
 30
0.0
 40
0.244856
100
AcDbArc
 50
14.010744
 51
26.643688
  0
ARC
  5
2E6
330
18
100
AcDbEntity
  8
0
100
AcDbCircle
 10
6.304309
 20
4.124209
 30
0.0
 40
0.321726
100
AcDbArc
 50
10.576479
 51
14.010744
  0
ARC
  5
2E7
330
18
100
AcDbEntity
  8
0
100
AcDbCircle
 10
0.00248
 20
2.947532
 30
0.0
 40
6.732467999999999
100
AcDbArc
 50
9.825844999999999
 51
10.576479
  0
ARC
  5
2E8
330
18
100
AcDbEntity
  8
0
100
AcDbCircle
 10
6.124446
 20
4.007823
 30
0.0
 40
0.519362
100
AcDbArc
 50
9.359736
 51
9.825844999999999
  0
ARC
  5
2E9
330
18
100
AcDbEntity
  8
0
100
AcDbCircle
 10
2.602698
 20
3.326377
 30
0.0
 40
4.189346
100
AcDbArc
 50
11.202574
 51
11.273634
  0
ARC
  5
2EA
330
18
100
AcDbEntity
  8
0
100
AcDbCircle
 10
4.480376000000001
 20
3.700675
 30
0.0
 40
2.274724
100
AcDbArc
 50
11.273634
 51
12.134365
  0
ARC
  5
2EB
330
18
100
AcDbEntity
  8
0
100
AcDbCircle
 10
-7.848385
 20
1.049882
 30
0.0
 40
14.885238
100
AcDbArc
 50
12.134365
 51
12.306683
  0
ARC
  5
2EC
330
18
100
AcDbEntity
  8
0
100
AcDbCircle
 10
6.444004000000001
 20
4.167873999999999
 30
0.0
 40
0.256696
100
AcDbArc
 50
12.306683
 51
13.618907
  0
ARC
  5
2ED
330
18
100
AcDbEntity
  8
0
100
AcDbCircle
 10
6.643526
 20
4.216213
 30
0.0
 40
0.051401
100
AcDbArc
 50
13.618907
 51
44.358157
  0
ARC
  5
2EE
330
18
100
AcDbEntity
  8
0
100
AcDbCircle
 10
6.739936
 20
4.310487
 30
0.0
 40
0.083441
100
AcDbArc
 50
200.344841
 51
224.358157
  0
ARC
  5
2EF
330
18
100
AcDbEntity
  8
0
100
AcDbCircle
 10
9.864115
 20
5.468936
 30
0.0
 40
3.415482
100
AcDbArc
 50
199.864954
 51
200.344841
  0
ARC
  5
2F0
330
18
100
AcDbEntity
  8
0
100
AcDbCircle
 10
8.208807999999999
 20
4.870868
 30
0.0
 40
1.655446
100
AcDbArc
 50
199.175655
 51
199.864954
  0
ARC
  5
2F1
330
18
100
AcDbEntity
  8
0
100
AcDbCircle
 10
11.797326
 20
6.118812999999999
 30
0.0
 40
5.454766
100
AcDbArc
 50
198.797455
 51
199.175655
  0
ARC
  5
2F2
330
18
100
AcDbEntity
  8
0
100
AcDbCircle
 10
6.785667
 20
4.412954
 30
0.0
 40
0.160743
100
AcDbArc
 50
196.594173
 51
198.797455
  0
ARC
  5
2F3
330
18
100
AcDbEntity
  8
0
100
AcDbCircle
 10
6.757467999999999
 20
4.40455
 30
0.0
 40
0.131318
100
AcDbArc
 50
189.953288
 51
196.594173
  0
ARC
  5
2F4
330
18
100
AcDbEntity
  8
0
100
AcDbCircle
 10
5.850205
 20
4.245337999999999
 30
0.0
 40
0.789809
100
AcDbArc
 50
9.953288000000001
 51
12.659888
  0
ARC
  5
2F5
330
18
100
AcDbEntity
  8
0
100
AcDbCircle
 10
6.008261
 20
4.280841000000001
 30
0.0
 40
0.627815
100
AcDbArc
 50
12.659888
 51
16.482827
  0
ARC
  5
2F6
330
18
100
AcDbEntity
  8
0
100
AcDbCircle
 10
6.697216
 20
4.484694
 30
0.0
 40
0.090666
100
AcDbArc
 50
186.411899
 51
196.482827
  0
ARC
  5
2F7
330
18
100
AcDbEntity
  8
0
100
AcDbCircle
 10
6.957131
 20
4.513903
 30
0.0
 40
0.352217
100
AcDbArc
 50
185.261598
 51
186.411899
  0
ARC
  5
2F8
330
18
100
AcDbEntity
  8
0
100
AcDbCircle
 10
11.49598
 20
4.931891
 30
0.0
 40
4.910273
100
AcDbArc
 50
184.953523
 51
185.261598
  0
ARC
  5
2F9
330
18
100
AcDbEntity
  8
0
100
AcDbCircle
 10
8.447884
 20
4.667708
 30
0.0
 40
1.850749
100
AcDbArc
 50
184.5689
 51
184.953523
  0
ARC
  5
2FA
330
18
100
AcDbEntity
  8
0
100
AcDbCircle
 10
5.525374
 20
4.436758
 30
0.0
 40
1.080874
100
AcDbArc
 50
4.43192
 51
5.090502
  0
ARC
  5
2FB
330
18
100
AcDbEntity
  8
0
100
AcDbCircle
 10
6.559723
 20
4.528898000000001
 30
0.0
 40
0.042429
100
AcDbArc
 50
5.090502
 51
11.859069
  0
ARC
  5
2FC
330
18
100
AcDbEntity
  8
0
100
AcDbCircle
 10
2.062785
 20
3.584599
 30
0.0
 40
4.637442
100
AcDbArc
 50
11.859069
 51
12.313681
  0
ARC
  5
2FD
330
18
100
AcDbEntity
  8
0
100
AcDbCircle
 10
6.335639
 20
4.521793
 30
0.0
 40
0.380614
100
AcDbArc
 50
14.524674
 51
18.064901
  0
ARC
  5
2FE
330
18
100
AcDbEntity
  8
0
100
AcDbCircle
 10
6.511464
 20
4.567345
 30
0.0
 40
0.198984
100
AcDbArc
 50
1.735087
 51
14.524674
  0
ARC
  5
2FF
330
18
100
AcDbEntity
  8
0
100
AcDbCircle
 10
6.219594
 20
4.558504
 30
0.0
 40
0.490988
100
AcDbArc
 50
357.129875
 51
1.735087
  0
ARC
  5
300
330
18
100
AcDbEntity
  8
0
100
AcDbCircle
 10
6.798713
 20
4.52947
 30
0.0
 40
0.088858
100
AcDbArc
 50
177.129875
 51
187.968321
  0
ARC
  5
301
330
18
100
AcDbEntity
  8
0
100
AcDbCircle
 10
7.5182
 20
4.630180999999999
 30
0.0
 40
0.8153600000000001
100
AcDbArc
 50
187.968321
 51
192.039244
  0
ARC
  5
302
330
18
100
AcDbEntity
  8
0
100
AcDbCircle
 10
8.565402000000001
 20
4.853521
 30
0.0
 40
1.886113
100
AcDbArc
 50
192.039244
 51
194.715525
  0
ARC
  5
303
330
18
100
AcDbEntity
  8
0
100
AcDbCircle
 10
15.935227
 20
6.789092999999999
 30
0.0
 40
9.505875
100
AcDbArc
 50
194.715525
 51
194.936722
  0
ARC
  5
304
330
18
100
AcDbEntity
  8
0
100
AcDbCircle
 10
7.821174000000001
 20
4.624540000000001
 30
0.0
 40
1.108068
100
AcDbArc
 50
194.936722
 51
195.584601
  0
ARC
  5
305
330
18
100
AcDbEntity
  8
0
100
AcDbCircle
 10
7.073942999999999
 20
4.416126
 30
0.0
 40
0.332316
100
AcDbArc
 50
195.584601
 51
199.976353
  0
ARC
  5
306
330
18
100
AcDbEntity
  8
0
100
AcDbCircle
 10
6.404191
 20
4.174601
 30
0.0
 40
0.379656
100
AcDbArc
 50
15.858518
 51
19.702436
  0
ARC
  5
307
330
18
100
AcDbEntity
  8
0
100
AcDbCircle
 10
6.542249
 20
4.21382
 30
0.0
 40
0.236135
100
AcDbArc
 50
5.474467
 51
15.858518
  0
ARC
  5
308
330
18
100
AcDbEntity
  8
0
100
AcDbCircle
 10
8.539054
 20
4.405192
 30
0.0
 40
1.769819
100
AcDbArc
 50
185.474467
 51
187.136182
  0
ARC
  5
309
330
18
100
AcDbEntity
  8
0
100
AcDbCircle
 10
6.391157
 20
4.13911
 30
0.0
 40
0.458738
100
AcDbArc
 50
10.543227
 51
13.086862
  0
ARC
  5
30A
330
18
100
AcDbEntity
  8
0
100
AcDbCircle
 10
6.636421
 20
4.196125
 30
0.0
 40
0.206934
100
AcDbArc
 50
13.086862
 51
23.23324
  0
ARC
  5
30B
330
18
100
AcDbEntity
  8
0
100
AcDbCircle
 10
6.350994
 20
4.073595
 30
0.0
 40
0.51755
100
AcDbArc
 50
23.23324
 51
28.32322700000001
  0
ARC
  5
30C
330
18
100
AcDbEntity
  8
0
100
AcDbCircle
 10
6.867228999999999
 20
4.351829
 30
0.0
 40
0.068891
100
AcDbArc
 50
194.341906
 51
208.323227
  0
ARC
  5
30D
330
18
100
AcDbEntity
  8
0
100
AcDbCircle
 10
8.197819000000001
 20
4.692029
 30
0.0
 40
1.442282
100
AcDbArc
 50
193.357123
 51
194.341906
  0
ARC
  5
30E
330
18
100
AcDbEntity
  8
0
100
AcDbCircle
 10
8.345886
 20
4.727186
 30
0.0
 40
1.594466
100
AcDbArc
 50
192.420515
 51
193.357123
  0
ARC
  5
30F
330
18
100
AcDbEntity
  8
0
100
AcDbCircle
 10
8.96941
 20
4.864511
 30
0.0
 40
2.232933
100
AcDbArc
 50
191.571765
 51
192.420515
  0
ARC
  5
310
330
18
100
AcDbEntity
  8
0
100
AcDbCircle
 10
4.629267
 20
3.976106
 30
0.0
 40
2.197203
100
AcDbArc
 50
11.564864
 51
12.427416
  0
ARC
  5
311
330
18
100
AcDbEntity
  8
0
100
AcDbCircle
 10
6.642848
 20
4.419830999999999
 30
0.0
 40
0.135311
100
AcDbArc
 50
12.427416
 51
22.134617
  0
ARC
  5
312
330
18
100
AcDbEntity
  8
0
100
AcDbCircle
 10
6.806891
 20
4.486557
 30
0.0
 40
0.041784
100
AcDbArc
 50
184.61898
 51
202.134617
  0
ARC
  5
313
330
18
100
AcDbEntity
  8
0
100
AcDbCircle
 10
6.800610000000001
 20
4.48605
 30
0.0
 40
0.035483
100
AcDbArc
 50
175.168077
 51
184.61898
  0
ARC
  5
314
330
18
100
AcDbEntity
  8
0
100
AcDbCircle
 10
7.451306
 20
4.431044
 30
0.0
 40
0.688499
100
AcDbArc
 50
173.024863
 51
175.168077
  0
ARC
  5
315
330
18
100
AcDbEntity
  8
0
100
AcDbCircle
 10
7.051742999999999
 20
4.479928
 30
0.0
 40
0.285958
100
AcDbArc
 50
170.070682
 51
173.024863
  0
ARC
  5
316
330
18
100
AcDbEntity
  8
0
100
AcDbCircle
 10
6.433311
 20
4.588188
 30
0.0
 40
0.341879
100
AcDbArc
 50
350.070682
 51
352.772424
  0
ARC
  5
317
330
18
100
AcDbEntity
  8
0
100
AcDbCircle
 10
6.640167
 20
4.561955
 30
0.0
 40
0.133366
100
AcDbArc
 50
352.772424
 51
6.588335
  0
ARC
  5
318
330
18
100
AcDbEntity
  8
0
100
AcDbCircle
 10
6.714664
 20
4.570558999999999
 30
0.0
 40
0.058374
100
AcDbArc
 50
6.588335
 51
27.537224
  0
ARC
  5
319
330
18
100
AcDbEntity
  8
0
100
AcDbCircle
 10
6.729750999999999
 20
4.578426
 30
0.0
 40
0.041359
100
AcDbArc
 50
27.537224
 51
33.845864
  0
ARC
  5
31A
330
18
100
AcDbEntity
  8
0
100
AcDbCircle
 10
6.780359
 20
4.612364
 30
0.0
 40
0.019575
100
AcDbArc
 50
204.670653
 51
213.845864
  0
ARC
  5
31B
330
18
100
AcDbEntity
  8
0
100
AcDbCircle
 10
6.808680000000001
 20
4.625372000000001
 30
0.0
 40
0.05074
100
AcDbArc
 50
197.14515
 51
204.670653
  0
ARC
  5
31C
330
18
100
AcDbEntity
  8
0
100
AcDbCircle
 10
10.195639
 20
5.670259
 30
0.0
 40
3.595212
100
AcDbArc
 50
196.25176
 51
197.14515
  0
ARC
  5
31D
330
18
100
AcDbEntity
  8
0
100
AcDbCircle
 10
7.053586
 20
4.754329
 30
0.0
 40
0.322381
100
AcDbArc
 50
195.407594
 51
196.25176
  0
ARC
  5
31E
330
18
100
AcDbEntity
  8
0
100
AcDbCircle
 10
6.642312
 20
4.573986
 30
0.0
 40
0.215203
100
AcDbArc
 50
31.08141
 51
39.405512
  0
ARC
  5
31F
330
18
100
AcDbEntity
  8
0
100
AcDbCircle
 10
6.761448
 20
4.6458
 30
0.0
 40
0.076096
100
AcDbArc
 50
9.242992999999999
 51
31.08141
  0
ARC
  5
320
330
18
100
AcDbEntity
  8
0
100
AcDbCircle
 10
6.450512000000001
 20
4.5952
 30
0.0
 40
0.391122
100
AcDbArc
 50
3.158239
 51
9.242992999999999
  0
ARC
  5
321
330
18
100
AcDbEntity
  8
0
100
AcDbCircle
 10
6.979061
 20
4.624364
 30
0.0
 40
0.138231
100
AcDbArc
 50
183.158239
 51
193.402287
  0
ARC
  5
322
330
18
100
AcDbEntity
  8
0
100
AcDbCircle
 10
9.02159
 20
5.11105
 30
0.0
 40
2.237942
100
AcDbArc
 50
193.402287
 51
194.033813
  0
ARC
  5
323
330
18
100
AcDbEntity
  8
0
100
AcDbCircle
 10
7.332133
 20
4.688761
 30
0.0
 40
0.496508
100
AcDbArc
 50
194.033813
 51
195.374602
  0
ARC
  5
324
330
18
100
AcDbEntity
  8
0
100
AcDbCircle
 10
7.002413000000001
 20
4.598099
 30
0.0
 40
0.15455
100
AcDbArc
 50
195.374602
 51
201.489829
  0
ARC
  5
325
330
18
100
AcDbEntity
  8
0
100
AcDbCircle
 10
6.746600999999999
 20
4.497383999999999
 30
0.0
 40
0.120373
100
AcDbArc
 50
14.5597
 51
21.489829
  0
ARC
  5
326
330
18
100
AcDbEntity
  8
0
100
AcDbCircle
 10
6.821623
 20
4.51687
 30
0.0
 40
0.042862
100
AcDbArc
 50
0.3625059999999999
 51
14.5597
  0
ARC
  5
327
330
18
100
AcDbEntity
  8
0
100
AcDbCircle
 10
6.592582000000001
 20
4.515421
 30
0.0
 40
0.271908
100
AcDbArc
 50
354.737916
 51
0.3625059999999999
  0
ARC
  5
328
330
18
100
AcDbEntity
  8
0
100
AcDbCircle
 10
6.767619
 20
4.4993
 30
0.0
 40
0.09613
100
AcDbArc
 50
338.915384
 51
354.737916
  0
ARC
  5
329
330
18
100
AcDbEntity
  8
0
100
AcDbCircle
 10
6.946395
 20
4.430278
 30
0.0
 40
0.095507
100
AcDbArc
 50
158.863375
 51
174.789924
  0
ARC
  5
32A
330
18
100
AcDbEntity
  8
0
100
AcDbCircle
 10
7.064572
 20
4.419502
 30
0.0
 40
0.214174
100
AcDbArc
 50
174.789924
 51
184.448123
  0
ARC
  5
32B
330
18
100
AcDbEntity
  8
0
100
AcDbCircle
 10
7.009744
 20
4.415237
 30
0.0
 40
0.159181
100
AcDbArc
 50
184.448123
 51
195.655715
  0
ARC
  5
32C
330
18
100
AcDbEntity
  8
0
100
AcDbCircle
 10
7.126972
 20
4.448091000000001
 30
0.0
 40
0.280926
100
AcDbArc
 50
195.655715
 51
197.411537
  0
ARC
  5
32D
330
18
100
AcDbEntity
  8
0
100
AcDbCircle
 10
22.683273
 20
9.32658
 30
0.0
 40
16.584243
100
AcDbArc
 50
197.411537
 51
197.64005
  0
ARC
  5
32E
330
18
100
AcDbEntity
  8
0
100
AcDbCircle
 10
8.603626
 20
4.849418
 30
0.0
 40
1.809892
100
AcDbArc
 50
197.64005
 51
198.72998
  0
ARC
  5
32F
330
18
100
AcDbEntity
  8
0
100
AcDbCircle
 10
7.06335
 20
4.308330000000001
 30
0.0
 40
0.315868
100
AcDbArc
 50
263.286128
 51
264.02678
  0
ARC
  5
330
330
18
100
AcDbEntity
  8
0
100
AcDbCircle
 10
7.046396000000001
 20
4.164306
 30
0.0
 40
0.170849
100
AcDbArc
 50
243.170324
 51
263.286128
  0
ARC
  5
331
330
18
100
AcDbEntity
  8
0
100
AcDbCircle
 10
8.001591000000001
 20
6.05284
 30
0.0
 40
2.287204
100
AcDbArc
 50
242.228052
 51
243.170324
  0
ARC
  5
332
330
18
100
AcDbEntity
  8
0
100
AcDbCircle
 10
6.740937
 20
3.658956
 30
0.0
 40
0.418333
100
AcDbArc
 50
62.22805200000001
 51
64.431433
  0
ARC
  5
333
330
18
100
AcDbEntity
  8
0
100
AcDbCircle
 10
6.288736
 20
2.71381
 30
0.0
 40
1.466085
100
AcDbArc
 50
64.431433
 51
65.679208
  0
ARC
  5
334
330
18
100
AcDbEntity
  8
0
100
AcDbCircle
 10
7.362635000000001
 20
5.089934
 30
0.0
 40
1.141446
100
AcDbArc
 50
244.265074
 51
245.679208
  0
ARC
  5
335
330
18
100
AcDbEntity
  8
0
100
AcDbCircle
 10
7.013439999999999
 20
4.365489
 30
0.0
 40
0.337234
100
AcDbArc
 50
238.237507
 51
244.265074
  0
ARC
  5
336
330
18
100
AcDbEntity
  8
0
100
AcDbCircle
 10
6.860156
 20
4.117907
 30
0.0
 40
0.046042
100
AcDbArc
 50
221.876555
 51
238.237507
  0
ARC
  5
337
330
18
100
AcDbEntity
  8
0
100
AcDbCircle
 10
6.847474000000001
 20
4.106537
 30
0.0
 40
0.029009
100
AcDbArc
 50
216.555713
 51
221.876555
  0
ARC
  5
338
330
18
100
AcDbEntity
  8
0
100
AcDbCircle
 10
13.540419
 20
9.069134
 30
0.0
 40
8.361048
100
AcDbArc
 50
216.242411
 51
216.555713
  0
ARC
  5
339
330
18
100
AcDbEntity
  8
0
100
AcDbCircle
 10
7.974525
 20
4.989186
 30
0.0
 40
1.459951
100
AcDbArc
 50
214.330033
 51
216.242411
  0
ARC
  5
33A
330
18
100
AcDbEntity
  8
0
100
AcDbCircle
 10
8.623452
 20
5.432352
 30
0.0
 40
2.245764
100
AcDbArc
 50
214.103
 51
214.330033
  0
ARC
  5
33B
330
18
100
AcDbEntity
  8
0
100
AcDbCircle
 10
6.525386
 20
3.447634
 30
0.0
 40
0.5768270000000001
100
AcDbArc
 50
51.68588800000001
 51
52.01693100000001
  0
ARC
  5
33C
330
18
100
AcDbEntity
  8
0
100
AcDbCircle
 10
6.745247999999999
 20
3.729215
 30
0.0
 40
0.219578
100
AcDbArc
 50
52.01693100000001
 51
60.141029
  0
ARC
  5
33D
330
18
100
AcDbEntity
  8
0
100
AcDbCircle
 10
5.557648
 20
1.660488
 30
0.0
 40
2.604955
100
AcDbArc
 50
60.141029
 51
61.38279800000001
  0
ARC
  5
33E
330
18
100
AcDbEntity
  8
0
100
AcDbCircle
 10
6.72456
 20
3.799229
 30
0.0
 40
0.168586
100
AcDbArc
 50
61.38279800000001
 51
66.265422
  0
ARC
  5
33F
330
18
100
AcDbEntity
  8
0
100
AcDbCircle
 10
6.744202000000001
 20
3.843901
 30
0.0
 40
0.119786
100
AcDbArc
 50
66.265422
 51
77.695971
  0
ARC
  5
340
330
18
100
AcDbEntity
  8
0
100
AcDbCircle
 10
6.788464
 20
4.046836
 30
0.0
 40
0.087919
100
AcDbArc
 50
244.345672
 51
257.695971
  0
ARC
  5
341
330
18
100
AcDbEntity
  8
0
100
AcDbCircle
 10
6.788494999999999
 20
4.046901999999999
 30
0.0
 40
0.087992
100
AcDbArc
 50
230.7001240000001
 51
244.345672
  0
ARC
  5
342
330
18
100
AcDbEntity
  8
0
100
AcDbCircle
 10
6.507444000000001
 20
3.703523
 30
0.0
 40
0.35574
100
AcDbArc
 50
50.700124
 51
57.47456700000001
  0
ARC
  5
343
330
18
100
AcDbEntity
  8
0
100
AcDbCircle
 10
6.580825
 20
3.818595
 30
0.0
 40
0.219262
100
AcDbArc
 50
57.47456700000001
 51
70.42688199999999
  0
ARC
  5
344
330
18
100
AcDbEntity
  8
0
100
AcDbCircle
 10
6.743535000000001
 20
4.276217
 30
0.0
 40
0.266426
100
AcDbArc
 50
238.681266
 51
250.426882
  0
ARC
  5
345
330
18
100
AcDbEntity
  8
0
100
AcDbCircle
 10
6.633706
 20
4.095713
 30
0.0
 40
0.055135
100
AcDbArc
 50
217.287136
 51
238.681266
  0
ARC
  5
346
330
18
100
AcDbEntity
  8
0
100
AcDbCircle
 10
7.022438
 20
4.389508999999999
 30
0.0
 40
0.439329
100
AcDbArc
 50
218.185287
 51
218.652669
  0
ARC
  5
347
330
18
100
AcDbEntity
  8
0
100
AcDbCircle
 10
6.851151
 20
4.252515
 30
0.0
 40
0.219997
100
AcDbArc
 50
218.652669
 51
228.650096
  0
ARC
  5
348
330
18
100
AcDbEntity
  8
0
100
AcDbCircle
 10
8.879645
 20
6.557449
 30
0.0
 40
3.290422
100
AcDbArc
 50
228.650096
 51
229.39077
  0
ARC
  5
349
330
18
100
AcDbEntity
  8
0
100
AcDbCircle
 10
6.772815
 20
4.100169999999999
 30
0.0
 40
0.05361
100
AcDbArc
 50
229.39077
 51
235.195934
  0
ARC
  5
34A
330
18
100
AcDbEntity
  8
0
100
AcDbCircle
 10
7.137678
 20
4.625058999999999
 30
0.0
 40
0.692854
100
AcDbArc
 50
235.195934
 51
237.62728
  0
ARC
  5
34B
330
18
100
AcDbEntity
  8
0
100
AcDbCircle
 10
6.908805
 20
4.264033
 30
0.0
 40
0.265394
100
AcDbArc
 50
237.62728
 51
241.556214
  0
ARC
  5
34C
330
18
100
AcDbEntity
  8
0
100
AcDbCircle
 10
7.296021000000001
 20
4.978869
 30
0.0
 40
1.078368
100
AcDbArc
 50
241.556214
 51
242.734086
  0
ARC
  5
34D
330
18
100
AcDbEntity
  8
0
100
AcDbCircle
 10
6.357555000000001
 20
3.155586
 30
0.0
 40
0.9722620000000001
100
AcDbArc
 50
61.491939
 51
62.79836099999999
  0
ARC
  5
34E
330
18
100
AcDbEntity
  8
0
100
AcDbCircle
 10
5.741319
 20
2.021001
 30
0.0
 40
2.263397
100
AcDbArc
 50
60.823724
 51
61.491939
  0
ARC
  5
34F
330
18
100
AcDbEntity
  8
0
100
AcDbCircle
 10
6.778589999999999
 20
3.878784
 30
0.0
 40
0.135654
100
AcDbArc
 50
58.093996
 51
60.823724
  0
ARC
  5
350
330
18
100
AcDbEntity
  8
0
100
AcDbCircle
 10
6.826592
 20
3.955885
 30
0.0
 40
0.044832
100
AcDbArc
 50
54.58143199999999
 51
58.093996
  0
ARC
  5
351
330
18
100
AcDbEntity
  8
0
100
AcDbCircle
 10
-49.192994
 20
-74.81725400000001
 30
0.0
 40
96.706103
100
AcDbArc
 50
54.521276
 51
54.58143199999999
  0
ARC
  5
352
330
18
100
AcDbEntity
  8
0
100
AcDbCircle
 10
7.506117
 20
5.108976
 30
0.0
 40
1.450317
100
AcDbArc
 50
228.116934
 51
229.655936
  0
ARC
  5
353
330
18
100
AcDbEntity
  8
0
100
AcDbCircle
 10
17.098067
 20
16.401798
 30
0.0
 40
16.266975
100
AcDbArc
 50
229.655936
 51
229.859658
  0
ARC
  5
354
330
18
100
AcDbEntity
  8
0
100
AcDbCircle
 10
6.628168
 20
3.986147
 30
0.0
 40
0.026064
100
AcDbArc
 50
229.859658
 51
234.950806
  0
ARC
  5
355
330
18
100
AcDbEntity
  8
0
100
AcDbCircle
 10
6.661028
 20
4.032989
 30
0.0
 40
0.083282
100
AcDbArc
 50
234.950806
 51
244.552594
  0
ARC
  5
356
330
18
100
AcDbEntity
  8
0
100
AcDbCircle
 10
6.414502
 20
3.514913
 30
0.0
 40
0.490458
100
AcDbArc
 50
60.599799
 51
64.552594
  0
ARC
  5
357
330
18
100
AcDbEntity
  8
0
100
AcDbCircle
 10
6.489343
 20
3.647733
 30
0.0
 40
0.338004
100
AcDbArc
 50
58.482909
 51
60.599799
  0
ARC
  5
358
330
18
100
AcDbEntity
  8
0
100
AcDbCircle
 10
-0.500996
 20
-7.751828
 30
0.0
 40
13.71017
100
AcDbArc
 50
58.15054599999999
 51
58.482909
  0
ARC
  5
359
330
18
100
AcDbEntity
  8
0
100
AcDbCircle
 10
6.541988
 20
3.585481
 30
0.0
 40
0.363328
100
AcDbArc
 50
47.152417
 51
58.15054599999999
  0
ARC
  5
35A
330
18
100
AcDbEntity
  8
0
100
AcDbCircle
 10
6.243508
 20
3.263688
 30
0.0
 40
0.802237
100
AcDbArc
 50
46.439117
 51
47.152417
  0
ARC
  5
35B
330
18
100
AcDbEntity
  8
0
100
AcDbCircle
 10
7.345833
 20
5.059997
 30
0.0
 40
1.437729
100
AcDbArc
 50
229.772677
 51
230.070358
  0
ARC
  5
35C
330
18
100
AcDbEntity
  8
0
100
AcDbCircle
 10
6.821812
 20
4.433933000000001
 30
0.0
 40
0.621301
100
AcDbArc
 50
230.070358
 51
234.277039
  0
ARC
  5
35D
330
18
100
AcDbEntity
  8
0
100
AcDbCircle
 10
14.545311
 20
15.173236
 30
0.0
 40
13.849493
100
AcDbArc
 50
234.277039
 51
234.559162
  0
ARC
  5
35E
330
18
100
AcDbEntity
  8
0
100
AcDbCircle
 10
6.535411
 20
3.919207
 30
0.0
 40
0.036034
100
AcDbArc
 50
234.559162
 51
240.09225
  0
ARC
  5
35F
330
18
100
AcDbEntity
  8
0
100
AcDbCircle
 10
7.114217
 20
4.925466
 30
0.0
 40
1.196884
100
AcDbArc
 50
240.09225
 51
240.738757
  0
ARC
  5
360
330
18
100
AcDbEntity
  8
0
100
AcDbCircle
 10
12.295301
 20
14.172701
 30
0.0
 40
11.796648
100
AcDbArc
 50
240.738757
 51
240.944687
  0
ARC
  5
361
330
18
100
AcDbEntity
  8
0
100
AcDbCircle
 10
7.161272
 20
4.931719
 30
0.0
 40
1.225271
100
AcDbArc
 50
240.944687
 51
242.702331
  0
ARC
  5
362
330
18
100
AcDbEntity
  8
0
100
AcDbCircle
 10
6.525788
 20
3.700367
 30
0.0
 40
0.160394
100
AcDbArc
 50
57.84311999999999
 51
62.70233100000001
  0
ARC
  5
363
330
18
100
AcDbEntity
  8
0
100
AcDbCircle
 10
6.607585
 20
3.830476
 30
0.0
 40
0.006709
100
AcDbArc
 50
45.953163
 51
57.84311999999999
  0
ARC
  5
364
330
18
100
AcDbEntity
  8
0
100
AcDbCircle
 10
-3.272419
 20
-6.383844
 30
0.0
 40
14.217508
100
AcDbArc
 50
45.695334
 51
45.953163
  0
ARC
  5
365
330
18
100
AcDbEntity
  8
0
100
AcDbCircle
 10
5.534664
 20
2.639638
 30
0.0
 40
1.608466
100
AcDbArc
 50
44.656281
 51
45.695334
  0
ARC
  5
366
330
18
100
AcDbEntity
  8
0
100
AcDbCircle
 10
6.170799
 20
3.611394
 30
0.0
 40
0.4821180000000001
100
AcDbArc
 50
50.694665
 51
51.418442
  0
ARC
  5
367
330
18
100
AcDbEntity
  8
0
100
AcDbCircle
 10
6.29031
 20
3.75738
 30
0.0
 40
0.293452
100
AcDbArc
 50
41.980839
 51
50.694665
  0
ARC
  5
368
330
18
100
AcDbEntity
  8
0
100
AcDbCircle
 10
6.089719000000001
 20
3.576889
 30
0.0
 40
0.563292
100
AcDbArc
 50
39.078463
 51
41.980839
  0
ARC
  5
369
330
18
100
AcDbEntity
  8
0
100
AcDbCircle
 10
6.654334
 20
4.035386
 30
0.0
 40
0.164038
100
AcDbArc
 50
219.078463
 51
224.458205
  0
ARC
  5
36A
330
18
100
AcDbEntity
  8
0
100
AcDbCircle
 10
6.645994
 20
4.027203
 30
0.0
 40
0.152355
100
AcDbArc
 50
224.458205
 51
236.672438
  0
ARC
  5
36B
330
18
100
AcDbEntity
  8
0
100
AcDbCircle
 10
6.650208
 20
4.033612000000001
 30
0.0
 40
0.160024
100
AcDbArc
 50
236.672438
 51
248.589296
  0
ARC
  5
36C
330
18
100
AcDbEntity
  8
0
100
AcDbCircle
 10
6.608497
 20
3.927236
 30
0.0
 40
0.045763
100
AcDbArc
 50
248.589296
 51
275.247574
  0
ARC
  5
36D
330
18
100
AcDbEntity
  8
0
100
AcDbCircle
 10
6.615014
 20
3.856283
 30
0.0
 40
0.025488
100
AcDbArc
 50
59.25951
 51
95.24757400000001
  0
ARC
  5
36E
330
18
100
AcDbEntity
  8
0
100
AcDbCircle
 10
6.525738
 20
3.706168
 30
0.0
 40
0.200144
100
AcDbArc
 50
52.73627200000001
 51
59.25951
  0
ARC
  5
36F
330
18
100
AcDbEntity
  8
0
100
AcDbCircle
 10
6.360130000000001
 20
3.48849
 30
0.0
 40
0.473657
100
AcDbArc
 50
48.49724000000001
 51
52.73627200000001
  0
ARC
  5
370
330
18
100
AcDbEntity
  8
0
100
AcDbCircle
 10
5.772376
 20
2.824219
 30
0.0
 40
1.360625
100
AcDbArc
 50
47.86652099999999
 51
48.49724000000001
  0
ARC
  5
371
330
18
100
AcDbEntity
  8
0
100
AcDbCircle
 10
9.766413999999999
 20
7.239319999999999
 30
0.0
 40
4.592984
100
AcDbArc
 50
227.866521
 51
228.209807
  0
ARC
  5
372
330
18
100
AcDbEntity
  8
0
100
AcDbCircle
 10
7.158372999999999
 20
4.32138
 30
0.0
 40
0.679385
100
AcDbArc
 50
228.209807
 51
230.260593
  0
ARC
  5
373
330
18
100
AcDbEntity
  8
0
100
AcDbCircle
 10
6.573828999999999
 20
3.145382
 30
0.0
 40
0.027096
100
AcDbArc
 50
187.07672
 51
195.82321
  0
ARC
  5
374
330
18
100
AcDbEntity
  8
0
100
AcDbCircle
 10
7.697394999999999
 20
3.284865
 30
0.0
 40
1.159287
100
AcDbArc
 50
186.509132
 51
187.07672
  0
ARC
  5
375
330
18
100
AcDbEntity
  8
0
100
AcDbCircle
 10
29.093008
 20
5.726042
 30
0.0
 40
22.693715
100
AcDbArc
 50
186.380847
 51
186.509132
  0
ARC
  5
376
330
18
100
AcDbEntity
  8
0
100
AcDbCircle
 10
251.863069
 20
30.638306
 30
0.0
 40
246.852412
100
AcDbArc
 50
186.371512
 51
186.380847
  0
ARC
  5
377
330
18
100
AcDbEntity
  8
0
100
AcDbCircle
 10
37.959593
 20
6.752874
 30
0.0
 40
31.619488
100
AcDbArc
 50
186.345429
 51
186.371512
  0
ARC
  5
378
330
18
100
AcDbEntity
  8
0
100
AcDbCircle
 10
6.907564
 20
3.299775
 30
0.0
 40
0.376051
100
AcDbArc
 50
183.65051
 51
186.345429
  0
ARC
  5
379
330
18
100
AcDbEntity
  8
0
100
AcDbCircle
 10
6.439232
 20
3.276572
 30
0.0
 40
0.093047
100
AcDbArc
 50
359.544461
 51
10.451478
  0
ARC
  5
37A
330
18
100
AcDbEntity
  8
0
100
AcDbCircle
 10
6.433274
 20
3.275473
 30
0.0
 40
0.099105
100
AcDbArc
 50
10.451478
 51
17.612526
  0
ARC
  5
37B
330
18
100
AcDbEntity
  8
0
100
AcDbCircle
 10
7.723619
 20
3.685105
 30
0.0
 40
1.2547
100
AcDbArc
 50
195.601144
 51
197.612526
  0
ARC
  5
37C
330
18
100
AcDbEntity
  8
0
100
AcDbCircle
 10
8.146025
 20
3.803052
 30
0.0
 40
1.693264
100
AcDbArc
 50
194.717393
 51
195.601144
  0
ARC
  5
37D
330
18
100
AcDbEntity
  8
0
100
AcDbCircle
 10
4.733582
 20
2.905575
 30
0.0
 40
1.835225
100
AcDbArc
 50
14.751574
 51
15.566963
  0
ARC
  5
37E
330
18
100
AcDbEntity
  8
0
100
AcDbCircle
 10
6.30224
 20
3.342577
 30
0.0
 40
0.206833
100
AcDbArc
 50
15.566963
 51
27.1265
  0
ARC
  5
37F
330
18
100
AcDbEntity
  8
0
100
AcDbCircle
 10
5.78365
 20
3.076899
 30
0.0
 40
0.789517
100
AcDbArc
 50
27.1265
 51
28.083422
  0
ARC
  5
380
330
18
100
AcDbEntity
  8
0
100
AcDbCircle
 10
7.385192
 20
3.775531
 30
0.0
 40
0.66883
100
AcDbArc
 50
178.397722
 51
180.055457
  0
ARC
  5
381
330
18
100
AcDbEntity
  8
0
100
AcDbCircle
 10
13.048818
 20
3.781013
 30
0.0
 40
6.332459
100
AcDbArc
 50
180.055457
 51
180.362506
  0
ARC
  5
382
330
18
100
AcDbEntity
  8
0
100
AcDbCircle
 10
6.812575
 20
3.741556
 30
0.0
 40
0.096091
100
AcDbArc
 50
180.362506
 51
182.855295
  0
ARC
  5
383
330
18
100
AcDbEntity
  8
0
100
AcDbCircle
 10
6.820268
 20
3.74194
 30
0.0
 40
0.103794
100
AcDbArc
 50
182.855295
 51
193.015062
  0
ARC
  5
384
330
18
100
AcDbEntity
  8
0
100
AcDbCircle
 10
6.981203999999999
 20
3.779139
 30
0.0
 40
0.268973
100
AcDbArc
 50
193.015062
 51
199.321224
  0
ARC
  5
385
330
18
100
AcDbEntity
  8
0
100
AcDbCircle
 10
6.890156
 20
3.747217
 30
0.0
 40
0.172492
100
AcDbArc
 50
199.321224
 51
209.651814
  0
ARC
  5
386
330
18
100
AcDbEntity
  8
0
100
AcDbCircle
 10
6.650751
 20
3.610929
 30
0.0
 40
0.102988
100
AcDbArc
 50
16.270006
 51
29.65181400000001
  0
ARC
  5
387
330
18
100
AcDbEntity
  8
0
100
AcDbCircle
 10
5.467234
 20
3.265517
 30
0.0
 40
1.335881
100
AcDbArc
 50
15.739498
 51
16.270006
  0
ARC
  5
388
330
18
100
AcDbEntity
  8
0
100
AcDbCircle
 10
7.239553999999999
 20
3.761013
 30
0.0
 40
0.504412
100
AcDbArc
 50
195.30224
 51
196.707264
  0
ARC
  5
389
330
18
100
AcDbEntity
  8
0
100
AcDbCircle
 10
16.320471
 20
6.486674
 30
0.0
 40
9.985566
100
AcDbArc
 50
196.707264
 51
196.986654
  0
ARC
  5
38A
330
18
100
AcDbEntity
  8
0
100
AcDbCircle
 10
-13.753725
 20
-2.671039
 30
0.0
 40
21.452013
100
AcDbArc
 50
16.781933
 51
16.911985
  0
ARC
  5
38B
330
18
100
AcDbEntity
  8
0
100
AcDbCircle
 10
4.475137
 20
2.826308
 30
0.0
 40
2.412259
100
AcDbArc
 50
16.453322
 51
16.781933
  0
ARC
  5
38C
330
18
100
AcDbEntity
  8
0
100
AcDbCircle
 10
-10.421422
 20
-1.573057
 30
0.0
 40
17.944865
100
AcDbArc
 50
16.33284
 51
16.453322
  0
ARC
  5
38D
330
18
100
AcDbEntity
  8
0
100
AcDbCircle
 10
6.651844000000001
 20
3.43014
 30
0.0
 40
0.153621
100
AcDbArc
 50
8.389742999999999
 51
16.33284
  0
ARC
  5
38E
330
18
100
AcDbEntity
  8
0
100
AcDbCircle
 10
1.227655
 20
2.630158
 30
0.0
 40
5.636485
100
AcDbArc
 50
7.079437
 51
8.389742999999999
  0
ARC
  5
38F
330
18
100
AcDbEntity
  8
0
100
AcDbCircle
 10
6.506652
 20
3.285768
 30
0.0
 40
0.316933
100
AcDbArc
 50
4.92289
 51
7.079437
  0
ARC
  5
390
330
18
100
AcDbEntity
  8
0
100
AcDbCircle
 10
7.727811
 20
3.376649
 30
0.0
 40
0.990108
100
AcDbArc
 50
184.908855
 51
186.582144
  0
ARC
  5
391
330
18
100
AcDbEntity
  8
0
100
AcDbCircle
 10
8.510401
 20
3.443863
 30
0.0
 40
1.775579
100
AcDbArc
 50
183.655732
 51
184.908855
  0
ARC
  5
392
330
18
100
AcDbEntity
  8
0
100
AcDbCircle
 10
6.546955000000001
 20
3.318415
 30
0.0
 40
0.19187
100
AcDbArc
 50
3.655732
 51
7.468422
  0
ARC
  5
393
330
18
100
AcDbEntity
  8
0
100
AcDbCircle
 10
6.611358999999999
 20
3.326858
 30
0.0
 40
0.126915
100
AcDbArc
 50
7.468422
 51
19.039208
  0
ARC
  5
394
330
18
100
AcDbEntity
  8
0
100
AcDbCircle
 10
6.343051
 20
3.234267
 30
0.0
 40
0.41075
100
AcDbArc
 50
19.039208
 51
25.463422
  0
ARC
  5
395
330
18
100
AcDbEntity
  8
0
100
AcDbCircle
 10
1.876599
 20
1.107378
 30
0.0
 40
5.357754
100
AcDbArc
 50
25.463422
 51
25.770224
  0
ARC
  5
396
330
18
100
AcDbEntity
  8
0
100
AcDbCircle
 10
5.63195
 20
2.920378
 30
0.0
 40
1.187667
100
AcDbArc
 50
25.770224
 51
26.42185900000001
  0
ARC
  5
397
330
18
100
AcDbEntity
  8
0
100
AcDbCircle
 10
5.775551999999999
 20
2.991731
 30
0.0
 40
1.027314
100
AcDbArc
 50
26.42185900000001
 51
26.927557
  0
ARC
  5
398
330
18
100
AcDbEntity
  8
0
100
AcDbCircle
 10
-4.304307
 20
-2.12817
 30
0.0
 40
12.33293
100
AcDbArc
 50
26.927557
 51
27.073509
  0
ARC
  5
399
330
18
100
AcDbEntity
  8
0
100
AcDbCircle
 10
6.540933
 20
3.415293
 30
0.0
 40
0.153061
100
AcDbArc
 50
27.073509
 51
42.618727
  0
ARC
  5
39A
330
18
100
AcDbEntity
  8
0
100
AcDbCircle
 10
6.684335000000001
 20
3.547245
 30
0.0
 40
0.041812
100
AcDbArc
 50
192.625988
 51
222.618727
  0
ARC
  5
39B
330
18
100
AcDbEntity
  8
0
100
AcDbCircle
 10
6.721037
 20
3.555466000000001
 30
0.0
 40
0.079423
100
AcDbArc
 50
184.288414
 51
192.625988
  0
ARC
  5
39C
330
18
100
AcDbEntity
  8
0
100
AcDbCircle
 10
11.025603
 20
3.878252
 30
0.0
 40
4.396075
100
AcDbArc
 50
183.168708
 51
184.288414
  0
ARC
  5
39D
330
18
100
AcDbEntity
  8
0
100
AcDbCircle
 10
8.228352000000001
 20
3.723394
 30
0.0
 40
1.59454
100
AcDbArc
 50
181.217923
 51
183.168708
  0
ARC
  5
39E
330
18
100
AcDbEntity
  8
0
100
AcDbCircle
 10
6.536445
 20
3.687424
 30
0.0
 40
0.097748
100
AcDbArc
 50
1.217923
 51
9.102785000000001
  0
ARC
  5
39F
330
18
100
AcDbEntity
  8
0
100
AcDbCircle
 10
6.611069000000001
 20
3.699381
 30
0.0
 40
0.022173
100
AcDbArc
 50
9.102785000000001
 51
17.670531
  0
ARC
  5
3A0
330
18
100
AcDbEntity
  8
0
100
AcDbCircle
 10
7.222065
 20
3.894029
 30
0.0
 40
0.6190790000000001
100
AcDbArc
 50
196.050518
 51
197.670531
  0
ARC
  5
3A1
330
18
100
AcDbEntity
  8
0
100
AcDbCircle
 10
7.111203
 20
3.862134
 30
0.0
 40
0.50372
100
AcDbArc
 50
194.567424
 51
196.050518
  0
ARC
  5
3A2
330
18
100
AcDbEntity
  8
0
100
AcDbCircle
 10
6.231652
 20
3.599993
 30
0.0
 40
0.362883
100
AcDbArc
 50
15.344138
 51
17.897827
  0
ARC
  5
3A3
330
18
100
AcDbEntity
  8
0
100
AcDbCircle
 10
6.472494
 20
3.666079
 30
0.0
 40
0.113139
100
AcDbArc
 50
2.565512
 51
15.344138
  0
ARC
  5
3A4
330
18
100
AcDbEntity
  8
0
100
AcDbCircle
 10
4.402416000000001
 20
3.573326
 30
0.0
 40
2.185293
100
AcDbArc
 50
1.567767
 51
2.565512
  0
ARC
  5
3A5
330
18
100
AcDbEntity
  8
0
100
AcDbCircle
 10
7.255639
 20
3.651417
 30
0.0
 40
0.668999
100
AcDbArc
 50
181.567767
 51
183.371093
  0
ARC
  5
3A6
330
18
100
AcDbEntity
  8
0
100
AcDbCircle
 10
9.036641
 20
3.756326
 30
0.0
 40
2.453088
100
AcDbArc
 50
183.371093
 51
184.114235
  0
ARC
  5
3A7
330
18
100
AcDbEntity
  8
0
100
AcDbCircle
 10
8.278843
 20
3.701818
 30
0.0
 40
1.693332
100
AcDbArc
 50
184.114235
 51
185.00869
  0
ARC
  5
3A8
330
18
100
AcDbEntity
  8
0
100
AcDbCircle
 10
7.061056
 20
3.595089
 30
0.0
 40
0.4708770000000001
100
AcDbArc
 50
185.00869
 51
192.602106
  0
ARC
  5
3A9
330
18
100
AcDbEntity
  8
0
100
AcDbCircle
 10
8.364094
 20
3.886403
 30
0.0
 40
1.806081
100
AcDbArc
 50
192.602106
 51
196.477243
  0
ARC
  5
3AA
330
18
100
AcDbEntity
  8
0
100
AcDbCircle
 10
9.194186
 20
4.131928
 30
0.0
 40
2.671723
100
AcDbArc
 50
196.477243
 51
198.547291
  0
ARC
  5
3AB
330
18
100
AcDbEntity
  8
0
100
AcDbCircle
 10
1.327623
 20
1.492591
 30
0.0
 40
5.625801
100
AcDbArc
 50
17.910852
 51
18.547291
  0
ARC
  5
3AC
330
18
100
AcDbEntity
  8
0
100
AcDbCircle
 10
5.467827
 20
3.386383
 30
0.0
 40
1.07812
100
AcDbArc
 50
15.472081
 51
15.550014
  0
ARC
  5
3AD
330
18
100
AcDbEntity
  8
0
100
AcDbCircle
 10
6.114814
 20
3.565469
 30
0.0
 40
0.406805
100
AcDbArc
 50
10.176983
 51
15.472081
  0
ARC
  5
3AE
330
18
100
AcDbEntity
  8
0
100
AcDbCircle
 10
4.835708
 20
3.335852
 30
0.0
 40
1.706357
100
AcDbArc
 50
8.235128
 51
10.176983
  0
ARC
  5
3AF
330
18
100
AcDbEntity
  8
0
100
AcDbCircle
 10
6.696741
 20
3.605196
 30
0.0
 40
0.174066
100
AcDbArc
 50
188.235128
 51
194.317575
  0
ARC
  5
3B0
330
18
100
AcDbEntity
  8
0
100
AcDbCircle
 10
7.293381
 20
3.757472
 30
0.0
 40
0.789832
100
AcDbArc
 50
194.317575
 51
196.307902
  0
ARC
  5
3B1
330
18
100
AcDbEntity
  8
0
100
AcDbCircle
 10
6.985106
 20
3.66728
 30
0.0
 40
0.468633
100
AcDbArc
 50
196.307902
 51
198.891888
  0
ARC
  5
3B2
330
18
100
AcDbEntity
  8
0
100
AcDbCircle
 10
6.898515
 20
3.637647
 30
0.0
 40
0.377112
100
AcDbArc
 50
198.891888
 51
202.237346
  0
ARC
  5
3B3
330
18
100
AcDbEntity
  8
0
100
AcDbCircle
 10
6.398948000000001
 20
3.433398
 30
0.0
 40
0.162596
100
AcDbArc
 50
17.141488
 51
22.237346
  0
ARC
  5
3B4
330
18
100
AcDbEntity
  8
0
100
AcDbCircle
 10
6.007464
 20
3.312651
 30
0.0
 40
0.572278
100
AcDbArc
 50
15.712642
 51
17.141488
  0
ARC
  5
3B5
330
18
100
AcDbEntity
  8
0
100
AcDbCircle
 10
3.028473
 20
2.474585
 30
0.0
 40
3.66691
100
AcDbArc
 50
15.148188
 51
15.712642
  0
ARC
  5
3B6
330
18
100
AcDbEntity
  8
0
100
AcDbCircle
 10
3.308261
 20
2.55033
 30
0.0
 40
3.37705
100
AcDbArc
 50
14.398749
 51
15.148188
  0
ARC
  5
3B7
330
18
100
AcDbEntity
  8
0
100
AcDbCircle
 10
6.499202
 20
3.369551
 30
0.0
 40
0.082626
100
AcDbArc
 50
9.606163000000001
 51
14.398749
  0
ARC
  5
3B8
330
18
100
AcDbEntity
  8
0
100
AcDbCircle
 10
6.2667
 20
3.3302
 30
0.0
 40
0.318434
100
AcDbArc
 50
8.492608000000001
 51
9.606163000000001
  0
ARC
  5
3B9
330
18
100
AcDbEntity
  8
0
100
AcDbCircle
 10
0.362673
 20
2.448616
 30
0.0
 40
6.287918
100
AcDbArc
 50
8.242019000000001
 51
8.492608000000001
  0
ARC
  5
3BA
330
18
100
AcDbEntity
  8
0
100
AcDbCircle
 10
3.253631
 20
2.867374
 30
0.0
 40
3.366789
100
AcDbArc
 50
7.816601
 51
8.242019000000001
  0
ARC
  5
3BB
330
18
100
AcDbEntity
  8
0
100
AcDbCircle
 10
7.035121000000001
 20
3.375555
 30
0.0
 40
0.448811
100
AcDbArc
 50
186.433453
 51
189.625168
  0
ARC
  5
3BC
330
18
100
AcDbEntity
  8
0
100
AcDbCircle
 10
6.925546000000001
 20
3.356972
 30
0.0
 40
0.337671
100
AcDbArc
 50
189.625168
 51
191.403446
  0
ARC
  5
3BD
330
18
100
AcDbEntity
  8
0
100
AcDbCircle
 10
9.186617
 20
3.813025
 30
0.0
 40
2.644276
100
AcDbArc
 50
191.403446
 51
192.038891
  0
ARC
  5
3BE
330
18
100
AcDbEntity
  8
0
100
AcDbCircle
 10
37.047294
 20
9.754764
 30
0.0
 40
31.131494
100
AcDbArc
 50
192.038891
 51
192.064859
  0
ARC
  5
3BF
330
18
100
AcDbEntity
  8
0
100
AcDbCircle
 10
-181.19012
 20
-36.854015
 30
0.0
 40
192.027524
100
AcDbArc
 50
12.04977
 51
12.05398
  0
ARC
  5
3C0
330
18
100
AcDbEntity
  8
0
100
AcDbCircle
 10
1.649942
 20
2.175871
 30
0.0
 40
5.068116000000001
100
AcDbArc
 50
11.907458
 51
12.04977
  0
ARC
  5
3C1
330
18
100
AcDbEntity
  8
0
100
AcDbCircle
 10
26.715621
 20
7.461444999999999
 30
0.0
 40
20.548784
100
AcDbArc
 50
191.907458
 51
191.978134
  0
ARC
  5
3C2
330
18
100
AcDbEntity
  8
0
100
AcDbCircle
 10
6.672439999999999
 20
3.20913
 30
0.0
 40
0.059487
100
AcDbArc
 50
191.978134
 51
205.748048
  0
ARC
  5
3C3
330
18
100
AcDbEntity
  8
0
100
AcDbCircle
 10
222.413736
 20
104.760251
 30
0.0
 40
238.022668
100
AcDbArc
 50
205.079652
 51
205.079947
  0
ARC
  5
3C4
330
18
100
AcDbEntity
  8
0
100
AcDbCircle
 10
222.413737
 20
104.760252
 30
0.0
 40
238.022669
100
AcDbArc
 50
205.079947
 51
205.087901
  0
ARC
  5
3C5
330
18
100
AcDbEntity
  8
0
100
AcDbCircle
 10
222.413737
 20
104.760252
 30
0.0
 40
238.022669
100
AcDbArc
 50
205.087901
 51
205.112338
  0
ARC
  5
3C6
330
18
100
AcDbEntity
  8
0
100
AcDbCircle
 10
6.999013000000001
 20
3.568698
 30
0.0
 40
0.14318
100
AcDbArc
 50
216.562548
 51
220.156114
  0
ARC
  5
3C7
330
18
100
AcDbEntity
  8
0
100
AcDbCircle
 10
7.381878
 20
3.852651
 30
0.0
 40
0.61985
100
AcDbArc
 50
212.189952
 51
216.562548
  0
ARC
  5
3C8
330
18
100
AcDbEntity
  8
0
100
AcDbCircle
 10
6.932283999999999
 20
3.569637
 30
0.0
 40
0.088596
100
AcDbArc
 50
200.607221
 51
212.189952
  0
ARC
  5
3C9
330
18
100
AcDbEntity
  8
0
100
AcDbCircle
 10
6.940921
 20
3.572884
 30
0.0
 40
0.097823
100
AcDbArc
 50
176.361124
 51
200.607221
  0
ARC
  5
3CA
330
18
100
AcDbEntity
  8
0
100
AcDbCircle
 10
6.733657000000001
 20
3.586065
 30
0.0
 40
0.10986
100
AcDbArc
 50
356.361124
 51
19.221413
  0
ARC
  5
3CB
330
18
100
AcDbEntity
  8
0
100
AcDbCircle
 10
6.094065000000001
 20
3.363068
 30
0.0
 40
0.787212
100
AcDbArc
 50
19.221413
 51
22.392044
  0
ARC
  5
3CC
330
18
100
AcDbEntity
  8
0
100
AcDbCircle
 10
7.133366000000001
 20
3.791268
 30
0.0
 40
0.336845
100
AcDbArc
 50
197.544178
 51
202.392044
  0
ARC
  5
3CD
330
18
100
AcDbEntity
  8
0
100
AcDbCircle
 10
23.143742
 20
8.852896000000001
 30
0.0
 40
17.128277
100
AcDbArc
 50
197.353329
 51
197.544178
  0
ARC
  5
3CE
330
18
100
AcDbEntity
  8
0
100
AcDbCircle
 10
7.87825
 20
4.082633
 30
0.0
 40
1.13482
100
AcDbArc
 50
196.611874
 51
197.353329
  0
ARC
  5
3CF
330
18
100
AcDbEntity
  8
0
100
AcDbCircle
 10
20.826263
 20
7.945525
 30
0.0
 40
14.646778
100
AcDbArc
 50
196.49155
 51
196.611874
  0
ARC
  5
3D0
330
18
100
AcDbEntity
  8
0
100
AcDbCircle
 10
-319.795699
 20
-93.2537
 30
0.0
 40
340.69054
100
AcDbArc
 50
16.549126
 51
16.554299
  0
ARC
  5
3D1
330
18
100
AcDbEntity
  8
0
100
AcDbCircle
 10
-0.20896
 20
1.741741
 30
0.0
 40
7.284155
100
AcDbArc
 50
16.554299
 51
16.644989
  0
ARC
  5
3D2
330
18
100
AcDbEntity
  8
0
100
AcDbCircle
 10
3.379353
 20
5.457404
 30
0.0
 40
0.014825
100
AcDbArc
 50
254.324794
 51
283.351751
  0
ARC
  5
3D3
330
18
100
AcDbEntity
  8
0
100
AcDbCircle
 10
3.377897
 20
5.463539
 30
0.0
 40
0.021131
100
AcDbArc
 50
283.351751
 51
307.585934
  0
ARC
  5
3D4
330
18
100
AcDbEntity
  8
0
100
AcDbCircle
 10
3.374229
 20
5.468305
 30
0.0
 40
0.027145
100
AcDbArc
 50
307.585934
 51
327.1441
  0
ARC
  5
3D5
330
18
100
AcDbEntity
  8
0
100
AcDbCircle
 10
3.367547
 20
5.472621
 30
0.0
 40
0.0351
100
AcDbArc
 50
327.1441
 51
344.324794
  0
ARC
  5
3D6
330
18
100
AcDbEntity
  8
0
100
AcDbCircle
 10
3.367547
 20
5.472621
 30
0.0
 40
0.0351
100
AcDbArc
 50
344.324794
 51
1.505488
  0
ARC
  5
3D7
330
18
100
AcDbEntity
  8
0
100
AcDbCircle
 10
3.375498
 20
5.47283
 30
0.0
 40
0.027145
100
AcDbArc
 50
1.505488
 51
21.063653
  0
ARC
  5
3D8
330
18
100
AcDbEntity
  8
0
100
AcDbCircle
 10
3.381111
 20
5.474991
 30
0.0
 40
0.021131
100
AcDbArc
 50
21.063653
 51
45.297837
  0
ARC
  5
3D9
330
18
100
AcDbEntity
  8
0
100
AcDbCircle
 10
3.385547
 20
5.479473000000001
 30
0.0
 40
0.014825
100
AcDbArc
 50
45.297837
 51
74.324794
  0
ARC
  5
3DA
330
18
100
AcDbEntity
  8
0
100
AcDbCircle
 10
3.385547
 20
5.479473000000001
 30
0.0
 40
0.014825
100
AcDbArc
 50
74.324794
 51
103.351751
  0
ARC
  5
3DB
330
18
100
AcDbEntity
  8
0
100
AcDbCircle
 10
3.387003
 20
5.473338
 30
0.0
 40
0.021131
100
AcDbArc
 50
103.351751
 51
127.585934
  0
ARC
  5
3DC
330
18
100
AcDbEntity
  8
0
100
AcDbCircle
 10
3.390671
 20
5.468572
 30
0.0
 40
0.027145
100
AcDbArc
 50
127.585934
 51
147.1441
  0
ARC
  5
3DD
330
18
100
AcDbEntity
  8
0
100
AcDbCircle
 10
3.397353
 20
5.464256
 30
0.0
 40
0.0351
100
AcDbArc
 50
147.1441
 51
164.324794
  0
ARC
  5
3DE
330
18
100
AcDbEntity
  8
0
100
AcDbCircle
 10
3.397353
 20
5.464256
 30
0.0
 40
0.0351
100
AcDbArc
 50
164.324794
 51
181.505488
  0
ARC
  5
3DF
330
18
100
AcDbEntity
  8
0
100
AcDbCircle
 10
3.389401
 20
5.464047
 30
0.0
 40
0.027145
100
AcDbArc
 50
181.505488
 51
201.063653
  0
ARC
  5
3E0
330
18
100
AcDbEntity
  8
0
100
AcDbCircle
 10
3.383789
 20
5.461886
 30
0.0
 40
0.021131
100
AcDbArc
 50
201.063653
 51
225.297837
  0
ARC
  5
3E1
330
18
100
AcDbEntity
  8
0
100
AcDbCircle
 10
3.379353
 20
5.457404
 30
0.0
 40
0.014825
100
AcDbArc
 50
225.297837
 51
254.324794
  0
ARC
  5
3E2
330
18
100
AcDbEntity
  8
0
100
AcDbCircle
 10
5.695138
 20
4.509778
 30
0.0
 40
0.019448
100
AcDbArc
 50
176.787689
 51
200.434032
  0
ARC
  5
3E3
330
18
100
AcDbEntity
  8
0
100
AcDbCircle
 10
5.695138
 20
4.509778
 30
0.0
 40
0.019448
100
AcDbArc
 50
200.434032
 51
226.240298
  0
ARC
  5
3E4
330
18
100
AcDbEntity
  8
0
100
AcDbCircle
 10
5.697712
 20
4.512466000000001
 30
0.0
 40
0.02317
100
AcDbArc
 50
226.240298
 51
249.85058
  0
ARC
  5
3E5
330
18
100
AcDbEntity
  8
0
100
AcDbCircle
 10
5.69886
 20
4.515594999999999
 30
0.0
 40
0.026503
100
AcDbArc
 50
249.85058
 51
270.898507
  0
ARC
  5
3E6
330
18
100
AcDbEntity
  8
0
100
AcDbCircle
 10
5.698794
 20
4.519809
 30
0.0
 40
0.030718
100
AcDbArc
 50
270.898507
 51
290.434032
  0
ARC
  5
3E7
330
18
100
AcDbEntity
  8
0
100
AcDbCircle
 10
5.698794
 20
4.519809
 30
0.0
 40
0.030718
100
AcDbArc
 50
290.434032
 51
309.969556
  0
ARC
  5
3E8
330
18
100
AcDbEntity
  8
0
100
AcDbCircle
 10
5.701501
 20
4.516579
 30
0.0
 40
0.026503
100
AcDbArc
 50
309.969556
 51
331.017484
  0
ARC
  5
3E9
330
18
100
AcDbEntity
  8
0
100
AcDbCircle
 10
5.704416999999999
 20
4.514964
 30
0.0
 40
0.02317
100
AcDbArc
 50
331.017484
 51
354.627765
  0
ARC
  5
3EA
330
18
100
AcDbEntity
  8
0
100
AcDbCircle
 10
5.708122
 20
4.514615
 30
0.0
 40
0.019448
100
AcDbArc
 50
354.627765
 51
20.434032
  0
ARC
  5
3EB
330
18
100
AcDbEntity
  8
0
100
AcDbCircle
 10
5.708122
 20
4.514615
 30
0.0
 40
0.019448
100
AcDbArc
 50
20.434032
 51
46.240298
  0
ARC
  5
3EC
330
18
100
AcDbEntity
  8
0
100
AcDbCircle
 10
5.705548
 20
4.511927
 30
0.0
 40
0.02317
100
AcDbArc
 50
46.240298
 51
58.43625600000001
  0
ARC
  5
3ED
330
18
100
AcDbEntity
  8
0
100
AcDbCircle
 10
6.014567
 20
4.476542
 30
0.0
 40
0.019448
100
AcDbArc
 50
200.434032
 51
226.240298
  0
ARC
  5
3EE
330
18
100
AcDbEntity
  8
0
100
AcDbCircle
 10
6.017141000000001
 20
4.47923
 30
0.0
 40
0.02317
100
AcDbArc
 50
226.240298
 51
249.85058
  0
ARC
  5
3EF
330
18
100
AcDbEntity
  8
0
100
AcDbCircle
 10
6.018289
 20
4.482359
 30
0.0
 40
0.026503
100
AcDbArc
 50
249.85058
 51
270.898507
  0
ARC
  5
3F0
330
18
100
AcDbEntity
  8
0
100
AcDbCircle
 10
6.018223
 20
4.486573
 30
0.0
 40
0.030718
100
AcDbArc
 50
270.898507
 51
290.434032
  0
ARC
  5
3F1
330
18
100
AcDbEntity
  8
0
100
AcDbCircle
 10
6.018223
 20
4.486573
 30
0.0
 40
0.030718
100
AcDbArc
 50
290.434032
 51
309.969556
  0
ARC
  5
3F2
330
18
100
AcDbEntity
  8
0
100
AcDbCircle
 10
6.020931
 20
4.483343
 30
0.0
 40
0.026503
100
AcDbArc
 50
309.969556
 51
331.017484
  0
ARC
  5
3F3
330
18
100
AcDbEntity
  8
0
100
AcDbCircle
 10
6.023846
 20
4.481728
 30
0.0
 40
0.02317
100
AcDbArc
 50
331.017484
 51
354.627765
  0
ARC
  5
3F4
330
18
100
AcDbEntity
  8
0
100
AcDbCircle
 10
6.027552
 20
4.481379
 30
0.0
 40
0.019448
100
AcDbArc
 50
354.627765
 51
20.434032
  0
ARC
  5
3F5
330
18
100
AcDbEntity
  8
0
100
AcDbCircle
 10
6.027552
 20
4.481379
 30
0.0
 40
0.019448
100
AcDbArc
 50
20.434032
 51
46.240298
  0
ARC
  5
3F6
330
18
100
AcDbEntity
  8
0
100
AcDbCircle
 10
6.024978
 20
4.478691
 30
0.0
 40
0.02317
100
AcDbArc
 50
46.240298
 51
69.85058000000001
  0
ARC
  5
3F7
330
18
100
AcDbEntity
  8
0
100
AcDbCircle
 10
6.02383
 20
4.475562
 30
0.0
 40
0.026503
100
AcDbArc
 50
69.85058000000001
 51
90.898507
  0
ARC
  5
3F8
330
18
100
AcDbEntity
  8
0
100
AcDbCircle
 10
6.023896
 20
4.471348
 30
0.0
 40
0.030718
100
AcDbArc
 50
90.898507
 51
110.434032
  0
ARC
  5
3F9
330
18
100
AcDbEntity
  8
0
100
AcDbCircle
 10
6.023896
 20
4.471348
 30
0.0
 40
0.030718
100
AcDbArc
 50
110.434032
 51
129.969556
  0
ARC
  5
3FA
330
18
100
AcDbEntity
  8
0
100
AcDbCircle
 10
6.021188
 20
4.474578
 30
0.0
 40
0.026503
100
AcDbArc
 50
129.969556
 51
151.017484
  0
ARC
  5
3FB
330
18
100
AcDbEntity
  8
0
100
AcDbCircle
 10
6.018273000000001
 20
4.476193
 30
0.0
 40
0.02317
100
AcDbArc
 50
151.017484
 51
174.627765
  0
ARC
  5
3FC
330
18
100
AcDbEntity
  8
0
100
AcDbCircle
 10
6.014567
 20
4.476542
 30
0.0
 40
0.019448
100
AcDbArc
 50
174.627765
 51
200.434032
  0
ARC
  5
3FD
330
18
100
AcDbEntity
  8
0
100
AcDbCircle
 10
5.712029
 20
4.249745
 30
0.0
 40
0.019448
100
AcDbArc
 50
200.434032
 51
226.240298
  0
ARC
  5
3FE
330
18
100
AcDbEntity
  8
0
100
AcDbCircle
 10
5.714603
 20
4.252433
 30
0.0
 40
0.02317
100
AcDbArc
 50
226.240298
 51
249.85058
  0
ARC
  5
3FF
330
18
100
AcDbEntity
  8
0
100
AcDbCircle
 10
5.715751
 20
4.255562
 30
0.0
 40
0.026503
100
AcDbArc
 50
249.85058
 51
270.898507
  0
ARC
  5
400
330
18
100
AcDbEntity
  8
0
100
AcDbCircle
 10
5.715685
 20
4.259776000000001
 30
0.0
 40
0.030718
100
AcDbArc
 50
270.898507
 51
290.434032
  0
ARC
  5
401
330
18
100
AcDbEntity
  8
0
100
AcDbCircle
 10
5.715685
 20
4.259776000000001
 30
0.0
 40
0.030718
100
AcDbArc
 50
290.434032
 51
309.969556
  0
ARC
  5
402
330
18
100
AcDbEntity
  8
0
100
AcDbCircle
 10
5.718393
 20
4.256546
 30
0.0
 40
0.026503
100
AcDbArc
 50
309.969556
 51
331.017484
  0
ARC
  5
403
330
18
100
AcDbEntity
  8
0
100
AcDbCircle
 10
5.721308000000001
 20
4.254931
 30
0.0
 40
0.02317
100
AcDbArc
 50
331.017484
 51
354.627765
  0
ARC
  5
404
330
18
100
AcDbEntity
  8
0
100
AcDbCircle
 10
5.725014
 20
4.254582
 30
0.0
 40
0.019448
100
AcDbArc
 50
354.627765
 51
20.434032
  0
ARC
  5
405
330
18
100
AcDbEntity
  8
0
100
AcDbCircle
 10
5.725014
 20
4.254582
 30
0.0
 40
0.019448
100
AcDbArc
 50
20.434032
 51
46.240298
  0
ARC
  5
406
330
18
100
AcDbEntity
  8
0
100
AcDbCircle
 10
5.72244
 20
4.251894
 30
0.0
 40
0.02317
100
AcDbArc
 50
46.240298
 51
69.85058000000001
  0
ARC
  5
407
330
18
100
AcDbEntity
  8
0
100
AcDbCircle
 10
5.721291000000001
 20
4.248765000000001
 30
0.0
 40
0.026503
100
AcDbArc
 50
69.85058000000001
 51
90.898507
  0
ARC
  5
408
330
18
100
AcDbEntity
  8
0
100
AcDbCircle
 10
5.721358
 20
4.244551
 30
0.0
 40
0.030718
100
AcDbArc
 50
90.898507
 51
110.434032
  0
ARC
  5
409
330
18
100
AcDbEntity
  8
0
100
AcDbCircle
 10
5.721358
 20
4.244551
 30
0.0
 40
0.030718
100
AcDbArc
 50
110.434032
 51
129.969556
  0
ARC
  5
40A
330
18
100
AcDbEntity
  8
0
100
AcDbCircle
 10
5.71865
 20
4.247781
 30
0.0
 40
0.026503
100
AcDbArc
 50
129.969556
 51
151.017484
  0
ARC
  5
40B
330
18
100
AcDbEntity
  8
0
100
AcDbCircle
 10
5.715735
 20
4.249396
 30
0.0
 40
0.02317
100
AcDbArc
 50
151.017484
 51
174.627765
  0
ARC
  5
40C
330
18
100
AcDbEntity
  8
0
100
AcDbCircle
 10
5.712029
 20
4.249745
 30
0.0
 40
0.019448
100
AcDbArc
 50
174.627765
 51
200.434032
  0
ARC
  5
40D
330
18
100
AcDbEntity
  8
0
100
AcDbCircle
 10
5.956898000000001
 20
5.010606
 30
0.0
 40
0.014825
100
AcDbArc
 50
254.324794
 51
283.351751
  0
ARC
  5
40E
330
18
100
AcDbEntity
  8
0
100
AcDbCircle
 10
5.955442
 20
5.016741000000001
 30
0.0
 40
0.021131
100
AcDbArc
 50
283.351751
 51
307.585934
  0
ARC
  5
40F
330
18
100
AcDbEntity
  8
0
100
AcDbCircle
 10
5.951773
 20
5.021507
 30
0.0
 40
0.027145
100
AcDbArc
 50
307.585934
 51
327.1441
  0
ARC
  5
410
330
18
100
AcDbEntity
  8
0
100
AcDbCircle
 10
5.945091000000001
 20
5.025823
 30
0.0
 40
0.0351
100
AcDbArc
 50
327.1441
 51
344.324794
  0
ARC
  5
411
330
18
100
AcDbEntity
  8
0
100
AcDbCircle
 10
5.945091000000001
 20
5.025823
 30
0.0
 40
0.0351
100
AcDbArc
 50
344.324794
 51
1.505488
  0
ARC
  5
412
330
18
100
AcDbEntity
  8
0
100
AcDbCircle
 10
5.953043
 20
5.026032
 30
0.0
 40
0.027145
100
AcDbArc
 50
1.505488
 51
21.063653
  0
ARC
  5
413
330
18
100
AcDbEntity
  8
0
100
AcDbCircle
 10
5.958655
 20
5.028193
 30
0.0
 40
0.021131
100
AcDbArc
 50
21.063653
 51
45.297837
  0
ARC
  5
414
330
18
100
AcDbEntity
  8
0
100
AcDbCircle
 10
5.963091
 20
5.032675
 30
0.0
 40
0.014825
100
AcDbArc
 50
45.297837
 51
74.324794
  0
ARC
  5
415
330
18
100
AcDbEntity
  8
0
100
AcDbCircle
 10
5.963091
 20
5.032675
 30
0.0
 40
0.014825
100
AcDbArc
 50
74.324794
 51
103.351751
  0
ARC
  5
416
330
18
100
AcDbEntity
  8
0
100
AcDbCircle
 10
5.964547000000001
 20
5.02654
 30
0.0
 40
0.021131
100
AcDbArc
 50
103.351751
 51
127.585934
  0
ARC
  5
417
330
18
100
AcDbEntity
  8
0
100
AcDbCircle
 10
5.968216
 20
5.021774
 30
0.0
 40
0.027145
100
AcDbArc
 50
127.585934
 51
147.1441
  0
ARC
  5
418
330
18
100
AcDbEntity
  8
0
100
AcDbCircle
 10
5.974898000000001
 20
5.017458
 30
0.0
 40
0.0351
100
AcDbArc
 50
147.1441
 51
164.324794
  0
ARC
  5
419
330
18
100
AcDbEntity
  8
0
100
AcDbCircle
 10
5.974898000000001
 20
5.017458
 30
0.0
 40
0.0351
100
AcDbArc
 50
164.324794
 51
181.505488
  0
ARC
  5
41A
330
18
100
AcDbEntity
  8
0
100
AcDbCircle
 10
5.966946
 20
5.017249
 30
0.0
 40
0.027145
100
AcDbArc
 50
181.505488
 51
201.063653
  0
ARC
  5
41B
330
18
100
AcDbEntity
  8
0
100
AcDbCircle
 10
5.961334
 20
5.015088
 30
0.0
 40
0.021131
100
AcDbArc
 50
201.063653
 51
225.297837
  0
ARC
  5
41C
330
18
100
AcDbEntity
  8
0
100
AcDbCircle
 10
5.956898000000001
 20
5.010606
 30
0.0
 40
0.014825
100
AcDbArc
 50
225.297837
 51
254.324794
  0
LINE
  5
41D
330
18
100
AcDbEntity
  8
0
100
AcDbLine
 10
6.256396
 20
4.543019
 30
0.0
 11
6.252381
 21
4.639951
 31
0.0
  0
LINE
  5
41E
330
18
100
AcDbEntity
  8
0
100
AcDbLine
 10
6.252381
 20
4.639951
 30
0.0
 11
5.903269
 21
4.992168
 31
0.0
  0
ARC
  5
41F
330
18
100
AcDbEntity
  8
0
100
AcDbCircle
 10
5.926979
 20
5.015669
 30
0.0
 40
0.033385
100
AcDbArc
 50
156.810242
 51
224.746446
  0
LINE
  5
420
330
18
100
AcDbEntity
  8
0
100
AcDbLine
 10
5.896292
 20
5.028815
 30
0.0
 11
5.950231
 21
5.154728
 31
0.0
  0
ARC
  5
421
330
18
100
AcDbEntity
  8
0
100
AcDbCircle
 10
5.980919
 20
5.141581
 30
0.0
 40
0.033385
100
AcDbArc
 50
118.805435
 51
156.810242
  0
LINE
  5
422
330
18
100
AcDbEntity
  8
0
100
AcDbLine
 10
5.964833000000001
 20
5.170835
 30
0.0
 11
6.006841000000001
 21
5.193935
 31
0.0
  0
LINE
  5
423
330
18
100
AcDbEntity
  8
0
100
AcDbLine
 10
6.234201000000001
 20
4.527476999999999
 30
0.0
 11
6.229702
 21
4.636079000000001
 31
0.0
  0
LINE
  5
424
330
18
100
AcDbEntity
  8
0
100
AcDbLine
 10
6.229702
 20
4.636079000000001
 30
0.0
 11
5.880589
 21
4.988295
 31
0.0
  0
ARC
  5
425
330
18
100
AcDbEntity
  8
0
100
AcDbCircle
 10
5.9043
 20
5.011797000000001
 30
0.0
 40
0.033385
100
AcDbArc
 50
156.810242
 51
224.746446
  0
LINE
  5
426
330
18
100
AcDbEntity
  8
0
100
AcDbLine
 10
5.873613
 20
5.024943
 30
0.0
 11
5.927552
 21
5.150855
 31
0.0
  0
ARC
  5
427
330
18
100
AcDbEntity
  8
0
100
AcDbCircle
 10
5.958239
 20
5.137709
 30
0.0
 40
0.033385
100
AcDbArc
 50
118.805435
 51
156.810242
  0
LINE
  5
428
330
18
100
AcDbEntity
  8
0
100
AcDbLine
 10
5.942153
 20
5.166962
 30
0.0
 11
5.984162
 21
5.190062
 31
0.0
  0
TEXT
  5
429
330
18
100
AcDbEntity
  8
0
100
AcDbText
 10
4.287049
 20
2.582127
 30
0.0
 40
0.15
  1
Simpson Strong-Tie
100
AcDbText
  0
TEXT
  5
42A
330
18
100
AcDbEntity
  8
0
100
AcDbText
 10
4.287049
 20
2.339269
 30
0.0
 40
0.15
  1
AC with two H1's
100
AcDbText
  0
TEXT
  5
42B
330
18
100
AcDbEntity
  8
0
100
AcDbText
 10
4.287049
 20
2.096412
 30
0.0
 40
0.15
  1
Installation to Joist
100
AcDbText
  0
LWPOLYLINE
  5
42C
330
18
100
AcDbEntity
  8
0
100
AcDbPolyline
 90
        4
 70
     0
 43
0.0
 10
3.545290626518279
 20
3.510652183538356
 10
3.533370613161313
 20
3.460016673404865
 10
3.562545530349429
 20
3.47431239994433
 10
3.545290626518279
 20
3.510652183538356
  0
LINE
  5
433
330
18
100
AcDbEntity
  8
0
100
AcDbLine
 10
3.704353
 20
3.459100936523714
 30
0.0
 11
3.73461
 21
3.455409782006878
 31
0.0
  0
LINE
  5
434
330
18
100
AcDbEntity
  8
0
100
AcDbLine
 10
3.73461
 20
3.455409782006878
 30
0.0
 11
3.770214999133473
 21
3.420086074083595
 31
0.0
  0
LINE
  5
435
330
18
100
AcDbEntity
  8
0
100
AcDbLine
 10
3.704353
 20
3.459100936523714
 30
0.0
 11
3.737761677702057
 21
3.427917539978894
 31
0.0
  0
LINE
  5
436
330
18
100
AcDbEntity
  8
0
100
AcDbLine
 10
3.651297
 20
3.418502107234091
 30
0.0
 11
3.626067556627349
 21
3.34613951463947
 31
0.0
  0
LWPOLYLINE
  5
437
330
18
100
AcDbEntity
  8
0
100
AcDbPolyline
 90
        4
 70
     0
 43
0.0
 10
3.869558900320527
 20
3.544383307336767
 10
3.857638886963561
 20
3.493747797203277
 10
3.886813804151676
 20
3.508043523742742
 10
3.869558900320527
 20
3.544383307336767
  0
LWPOLYLINE
  5
43E
330
18
100
AcDbEntity
  8
0
100
AcDbPolyline
 90
        4
 70
     0
 43
0.0
 10
3.236726120035317
 20
3.56100299354411
 10
3.248295895711111
 20
3.512605497274129
 10
3.214606814671471
 20
3.521023721385653
 10
3.236726120035317
 20
3.56100299354411
  0
LINE
  5
445
330
18
100
AcDbEntity
  8
0
100
AcDbLine
 10
2.92524
 20
3.457741023086066
 30
0.0
 11
2.965621432103387
 21
3.39575657628388
 31
0.0
  0
LINE
  5
446
330
18
100
AcDbEntity
  8
0
100
AcDbLine
 10
2.628074482946776
 20
3.88042892503629
 30
0.0
 11
2.663989062347597
 21
3.820955201702475
 31
0.0
  0
LINE
  5
447
330
18
100
AcDbEntity
  8
0
100
AcDbLine
 10
2.628074482946777
 20
4.241758670279221
 30
0.0
 11
2.689893001346931
 21
4.275301124169779
 31
0.0
  0
LINE
  5
448
330
18
100
AcDbEntity
  8
0
100
AcDbLine
 10
3.846140715727188
 20
4.0442804269539
 30
0.0
 11
3.900209459510894
 21
3.980700831146023
 31
0.0
  0
LINE
  5
449
330
18
100
AcDbEntity
  8
0
100
AcDbLine
 10
3.901368009414239
 20
3.607405675467301
 30
0.0
 11
3.859179559574137
 21
3.561898123080543
 31
0.0
  0
LINE
  5
44A
330
18
100
AcDbEntity
  8
0
100
AcDbLine
 10
3.846140715727188
 20
4.0442804269539
 30
0.0
 11
2.688191613247413
 21
4.274377958533415
 31
0.0
  0
LINE
  5
44B
330
18
100
AcDbEntity
  8
0
100
AcDbLine
 10
3.876397715727189
 20
4.058389426953903
 30
0.0
 11
3.930466459510895
 21
3.992541604382389
 31
0.0
  0
LINE
  5
44C
330
18
100
AcDbEntity
  8
0
100
AcDbLine
 10
3.901368009414239
 20
3.607405675467301
 30
0.0
 11
3.930466459510895
 21
3.609925670861106
 31
0.0
  0
LINE
  5
44D
330
18
100
AcDbEntity
  8
0
100
AcDbLine
 10
3.859179559574137
 20
3.561898123080543
 30
0.0
 11
3.893350001176144
 21
3.575386079715039
 31
0.0
  0
LINE
  5
44E
330
18
100
AcDbEntity
  8
0
100
AcDbLine
 10
3.893350001176144
 20
3.575386079715039
 30
0.0
 11
3.930466459510895
 21
3.609925670861106
 31
0.0
  0
LWPOLYLINE
  5
44F
330
18
100
AcDbEntity
  8
0
100
AcDbPolyline
 90
        4
 70
     0
 43
0.0
 10
3.336007327486519
 20
3.880754685163188
 10
3.347577103162313
 20
3.832357188893207
 10
3.313888022122673
 20
3.840775413004732
 10
3.336007327486519
 20
3.880754685163188
  0
ENDSEC
  0
SECTION
  2
OBJECTS
  0
DICTIONARY
  5
C
330
0
100
AcDbDictionary
281
     1
  3
ACAD_COLOR
350
45B
  3
ACAD_GROUP
350
D
  3
ACAD_LAYOUT
350
15
  3
ACAD_MATERIAL
350
45D
  3
ACAD_MLINESTYLE
350
12
  3
ACAD_PLOTSETTINGS
350
14
  3
ACAD_PLOTSTYLENAME
350
E
  3
ACDBHEADERROUNDTRIPXREC
350
45A
  0
DICTIONARY
  5
45B
102
{ACAD_REACTORS
330
C
102
}
330
C
100
AcDbDictionary
281
     1
  0
DICTIONARY
  5
D
102
{ACAD_REACTORS
330
C
102
}
330
C
100
AcDbDictionary
281
     1
  0
DICTIONARY
  5
15
102
{ACAD_REACTORS
330
C
102
}
330
C
100
AcDbDictionary
281
     1
  3
Layout1
350
17
  3
Model
350
19
  0
DICTIONARY
  5
45D
102
{ACAD_REACTORS
330
C
102
}
330
C
100
AcDbDictionary
281
     1
  0
DICTIONARY
  5
12
102
{ACAD_REACTORS
330
C
102
}
330
C
100
AcDbDictionary
281
     1
  3
Standard
350
13
  0
DICTIONARY
  5
14
102
{ACAD_REACTORS
330
C
102
}
330
C
100
AcDbDictionary
281
     1
  0
ACDBDICTIONARYWDFLT
  5
E
102
{ACAD_REACTORS
330
C
102
}
330
C
100
AcDbDictionary
281
     1
  3
Normal
350
F
100
AcDbDictionaryWithDefault
340
F
  0
DICTIONARY
  5
45A
102
{ACAD_REACTORS
330
C
102
}
330
C
100
AcDbDictionary
281
     1
  3
COLORDICT
350
45C
  3
MATERIALDICT
350
45E
  0
LAYOUT
  5
17
102
{ACAD_REACTORS
330
15
102
}
102
{ACAD_XDICTIONARY
360
45F
102
}
330
15
100
AcDbPlotSettings
  1

  2

  4

  6

 40
0.0
 41
0.0
 42
0.0
 43
0.0
 44
0.0
 45
0.0
 46
0.0
 47
0.0
 48
0.0
 49
0.0
140
0.0
141
0.0
142
1.0
143
1.0
 70
   688
 72
     0
 73
     0
 74
     5
  7

 75
    16
147
1.0
148
0.0
149
0.0
100
AcDbLayout
  1
Layout1
 70
     1
 71
     1
 10
0.0
 20
0.0
 11
12.0
 21
9.0
 12
0.0
 22
0.0
 32
0.0
 14
1.000000000000000E+20
 24
1.000000000000000E+20
 34
1.000000000000000E+20
 15
-1.000000000000000E+20
 25
-1.000000000000000E+20
 35
-1.000000000000000E+20
146
0.0
 13
0.0
 23
0.0
 33
0.0
 16
1.0
 26
0.0
 36
0.0
 17
0.0
 27
1.0
 37
0.0
 76
     0
330
16
  0
LAYOUT
  5
19
102
{ACAD_REACTORS
330
15
102
}
102
{ACAD_XDICTIONARY
360
461
102
}
330
15
100
AcDbPlotSettings
  1

  2

  4

  6

 40
0.0
 41
0.0
 42
0.0
 43
0.0
 44
0.0
 45
0.0
 46
0.0
 47
0.0
 48
0.0
 49
0.0
140
0.0
141
0.0
142
1.0
143
1.0
 70
  1712
 72
     0
 73
     0
 74
     0
  7

 75
     0
147
1.0
148
0.0
149
0.0
100
AcDbLayout
  1
Model
 70
     1
 71
     0
 10
0.0
 20
0.0
 11
0.0
 21
0.0
 12
0.0
 22
0.0
 32
0.0
 14
0.0
 24
0.0
 34
0.0
 15
0.0
 25
0.0
 35
0.0
146
0.0
 13
0.0
 23
0.0
 33
0.0
 16
1.0
 26
0.0
 36
0.0
 17
0.0
 27
1.0
 37
0.0
 76
     0
330
18
  0
MLINESTYLE
  5
13
102
{ACAD_REACTORS
330
12
102
}
330
12
100
AcDbMlineStyle
  2
Standard
 70
     0
  3

 62
   256
 51
90.0
 52
90.0
 71
     2
 49
0.5
 62
   256
  6
BYLAYER
 49
-0.5
 62
   256
  6
BYLAYER
  0
ACDBPLACEHOLDER
  5
F
102
{ACAD_REACTORS
330
E
102
}
330
E
  0
XRECORD
  5
45C
102
{ACAD_REACTORS
330
45A
102
}
330
45A
100
AcDbXrecord
340
45B
  0
XRECORD
  5
45E
102
{ACAD_REACTORS
330
45A
102
}
330
45A
100
AcDbXrecord
340
45D
  0
DICTIONARY
  5
45F
330
17
100
AcDbDictionary
280
     1
281
     1
  3
ACAD_XREC_ROUNDTRIP
360
460
  0
DICTIONARY
  5
461
330
19
100
AcDbDictionary
280
     1
281
     1
  3
ACAD_XREC_ROUNDTRIP
360
462
  0
XRECORD
  5
460
102
{ACAD_REACTORS
330
45F
102
}
330
45F
100
AcDbXrecord
102
SHADEPLOT
 70
 18664
102
SHADEPLOTRESLEVEL
 70
   232
102
SHADEPLOTCUSTOMDPI
 70
 13608
  0
XRECORD
  5
462
102
{ACAD_REACTORS
330
461
102
}
330
461
100
AcDbXrecord
102
SHADEPLOT
 70
     0
102
SHADEPLOTRESLEVEL
 70
     0
102
SHADEPLOTCUSTOMDPI
 70
     0
  0
ENDSEC
  0
EOF
