  0
SECTION
  2
HEADER
  9
$ACADVER
  1
AC1015
  9
$ACADMAINTVER
 70
     6
  9
$DWGCODEPAGE
  3
ISO8859-1
  9
$INSBASE
 10
0.0
 20
0.0
 30
0.0
  9
$EXTMIN
 10
4.219809481847106
 20
5.654011674534517
 30
0.0
  9
$EXTMAX
 10
10.44373205927089
 20
10.87801367169918
 30
0.0
  9
$LIMMIN
 10
0.0
 20
0.0
  9
$LIMMAX
 10
12.0
 20
9.0
  9
$ORTHOMODE
 70
     0
  9
$REGENMODE
 70
     1
  9
$FILLMODE
 70
     1
  9
$QTEXTMODE
 70
     0
  9
$MIRRTEXT
 70
     1
  9
$LTSCALE
 40
1.0
  9
$ATTMODE
 70
     1
  9
$TEXTSIZE
 40
0.2
  9
$TRACEWID
 40
0.05
  9
$TEXTSTYLE
  7
STANDARD
  9
$CLAYER
  8
0
  9
$CELTYPE
  6
ByLayer
  9
$CECOLOR
 62
   256
  9
$CELTSCALE
 40
1.0
  9
$DISPSILH
 70
     0
  9
$DIMSCALE
 40
1.0
  9
$DIMASZ
 40
0.18
  9
$DIMEXO
 40
0.0625
  9
$DIMDLI
 40
0.38
  9
$DIMRND
 40
0.0
  9
$DIMDLE
 40
0.0
  9
$DIMEXE
 40
0.18
  9
$DIMTP
 40
0.0
  9
$DIMTM
 40
0.0
  9
$DIMTXT
 40
0.18
  9
$DIMCEN
 40
0.09
  9
$DIMTSZ
 40
0.0
  9
$DIMTOL
 70
     0
  9
$DIMLIM
 70
     0
  9
$DIMTIH
 70
     1
  9
$DIMTOH
 70
     1
  9
$DIMSE1
 70
     0
  9
$DIMSE2
 70
     0
  9
$DIMTAD
 70
     0
  9
$DIMZIN
 70
     0
  9
$DIMBLK
  1

  9
$DIMASO
 70
     1
  9
$DIMSHO
 70
     1
  9
$DIMPOST
  1

  9
$DIMAPOST
  1

  9
$DIMALT
 70
     0
  9
$DIMALTD
 70
     2
  9
$DIMALTF
 40
25.4
  9
$DIMLFAC
 40
1.0
  9
$DIMTOFL
 70
     0
  9
$DIMTVP
 40
0.0
  9
$DIMTIX
 70
     0
  9
$DIMSOXD
 70
     0
  9
$DIMSAH
 70
     0
  9
$DIMBLK1
  1

  9
$DIMBLK2
  1

  9
$DIMSTYLE
  2
Standard
  9
$DIMCLRD
 70
     0
  9
$DIMCLRE
 70
     0
  9
$DIMCLRT
 70
     0
  9
$DIMTFAC
 40
1.0
  9
$DIMGAP
 40
0.09
  9
$DIMJUST
 70
     0
  9
$DIMSD1
 70
     0
  9
$DIMSD2
 70
     0
  9
$DIMTOLJ
 70
     1
  9
$DIMTZIN
 70
     0
  9
$DIMALTZ
 70
     0
  9
$DIMALTTZ
 70
     0
  9
$DIMUPT
 70
     0
  9
$DIMDEC
 70
     4
  9
$DIMTDEC
 70
     4
  9
$DIMALTU
 70
     2
  9
$DIMALTTD
 70
     2
  9
$DIMTXSTY
  7
STANDARD
  9
$DIMAUNIT
 70
     0
  9
$DIMADEC
 70
     0
  9
$DIMALTRND
 40
0.0
  9
$DIMAZIN
 70
     0
  9
$DIMDSEP
 70
    46
  9
$DIMATFIT
 70
     3
  9
$DIMFRAC
 70
     0
  9
$DIMLDRBLK
  1

  9
$DIMLUNIT
 70
     2
  9
$DIMLWD
 70
    -2
  9
$DIMLWE
 70
    -2
  9
$DIMTMOVE
 70
     0
  9
$LUNITS
 70
     2
  9
$LUPREC
 70
     4
  9
$SKETCHINC
 40
0.1
  9
$FILLETRAD
 40
0.0
  9
$AUNITS
 70
     0
  9
$AUPREC
 70
     0
  9
$MENU
  1
acad
  9
$ELEVATION
 40
0.0
  9
$PELEVATION
 40
0.0
  9
$THICKNESS
 40
0.0
  9
$LIMCHECK
 70
     0
  9
$CHAMFERA
 40
0.0
  9
$CHAMFERB
 40
0.0
  9
$CHAMFERC
 40
1.0
  9
$CHAMFERD
 40
0.0
  9
$SKPOLY
 70
     0
  9
$TDCREATE
 40
2453955.562584398
  9
$TDUCREATE
 40
2453955.895917731
  9
$TDUPDATE
 40
2453955.604251077
  9
$TDUUPDATE
 40
2453955.895917743
  9
$TDINDWG
 40
0.0000000116
  9
$TDUSRTIMER
 40
0.0000000116
  9
$USRTIMER
 70
     1
  9
$ANGBASE
 50
0.0
  9
$ANGDIR
 70
     0
  9
$PDMODE
 70
     0
  9
$PDSIZE
 40
0.0
  9
$PLINEWID
 40
0.0
  9
$SPLFRAME
 70
     0
  9
$SPLINETYPE
 70
     6
  9
$SPLINESEGS
 70
     8
  9
$HANDSEED
  5
8D6
  9
$SURFTAB1
 70
     6
  9
$SURFTAB2
 70
     6
  9
$SURFTYPE
 70
     6
  9
$SURFU
 70
     6
  9
$SURFV
 70
     6
  9
$UCSBASE
  2

  9
$UCSNAME
  2

  9
$UCSORG
 10
0.0
 20
0.0
 30
0.0
  9
$UCSXDIR
 10
1.0
 20
0.0
 30
0.0
  9
$UCSYDIR
 10
0.0
 20
1.0
 30
0.0
  9
$UCSORTHOREF
  2

  9
$UCSORTHOVIEW
 70
     0
  9
$UCSORGTOP
 10
0.0
 20
0.0
 30
0.0
  9
$UCSORGBOTTOM
 10
0.0
 20
0.0
 30
0.0
  9
$UCSORGLEFT
 10
0.0
 20
0.0
 30
0.0
  9
$UCSORGRIGHT
 10
0.0
 20
0.0
 30
0.0
  9
$UCSORGFRONT
 10
0.0
 20
0.0
 30
0.0
  9
$UCSORGBACK
 10
0.0
 20
0.0
 30
0.0
  9
$PUCSBASE
  2

  9
$PUCSNAME
  2

  9
$PUCSORG
 10
0.0
 20
0.0
 30
0.0
  9
$PUCSXDIR
 10
1.0
 20
0.0
 30
0.0
  9
$PUCSYDIR
 10
0.0
 20
1.0
 30
0.0
  9
$PUCSORTHOREF
  2

  9
$PUCSORTHOVIEW
 70
     0
  9
$PUCSORGTOP
 10
0.0
 20
0.0
 30
0.0
  9
$PUCSORGBOTTOM
 10
0.0
 20
0.0
 30
0.0
  9
$PUCSORGLEFT
 10
0.0
 20
0.0
 30
0.0
  9
$PUCSORGRIGHT
 10
0.0
 20
0.0
 30
0.0
  9
$PUCSORGFRONT
 10
0.0
 20
0.0
 30
0.0
  9
$PUCSORGBACK
 10
0.0
 20
0.0
 30
0.0
  9
$USERI1
 70
     0
  9
$USERI2
 70
     0
  9
$USERI3
 70
     0
  9
$USERI4
 70
     0
  9
$USERI5
 70
     0
  9
$USERR1
 40
0.0
  9
$USERR2
 40
0.0
  9
$USERR3
 40
0.0
  9
$USERR4
 40
0.0
  9
$USERR5
 40
0.0
  9
$WORLDVIEW
 70
     1
  9
$SHADEDGE
 70
     3
  9
$SHADEDIF
 70
    70
  9
$TILEMODE
 70
     1
  9
$MAXACTVP
 70
    16
  9
$PINSBASE
 10
0.0
 20
0.0
 30
0.0
  9
$PLIMCHECK
 70
     0
  9
$PEXTMIN
 10
1.000000000000000E+20
 20
1.000000000000000E+20
 30
1.000000000000000E+20
  9
$PEXTMAX
 10
-1.000000000000000E+20
 20
-1.000000000000000E+20
 30
-1.000000000000000E+20
  9
$PLIMMIN
 10
0.0
 20
0.0
  9
$PLIMMAX
 10
12.0
 20
9.0
  9
$UNITMODE
 70
     0
  9
$VISRETAIN
 70
     0
  9
$PLINEGEN
 70
     0
  9
$PSLTSCALE
 70
     1
  9
$TREEDEPTH
 70
  3020
  9
$CMLSTYLE
  2
Standard
  9
$CMLJUST
 70
     0
  9
$CMLSCALE
 40
1.0
  9
$PROXYGRAPHICS
 70
     1
  9
$MEASUREMENT
 70
     0
  9
$CELWEIGHT
370
    -1
  9
$ENDCAPS
280
     0
  9
$JOINSTYLE
280
     0
  9
$LWDISPLAY
290
     0
  9
$INSUNITS
 70
     1
  9
$HYPERLINKBASE
  1

  9
$STYLESHEET
  1

  9
$XEDIT
290
     1
  9
$CEPSNTYPE
380
     0
  9
$PSTYLEMODE
290
     0
  9
$FINGERPRINTGUID
  2
{FAEB1C30-E019-11D5-929B-00C0DF256EC4}
  9
$VERSIONGUID
  2
{FAEB1C32-E019-11D5-929B-00C0DF256EC4}
  9
$EXTNAMES
290
     1
  9
$PSVPSCALE
 40
0.0
  9
$OLESTARTUP
290
     0
  0
ENDSEC
  0
SECTION
  2
CLASSES
  0
CLASS
  1
ACDBDICTIONARYWDFLT
  2
AcDbDictionaryWithDefault
  3
AutoCAD 2000
 90
        0
280
     0
281
     0
  0
CLASS
  1
ACDBPLACEHOLDER
  2
AcDbPlaceHolder
  3
ObjectDBX Classes
 90
        0
280
     0
281
     0
  0
CLASS
  1
LAYOUT
  2
AcDbLayout
  3
ObjectDBX Classes
 90
        0
280
     0
281
     0
  0
ENDSEC
  0
SECTION
  2
TABLES
  0
TABLE
  2
VPORT
  5
8
330
0
100
AcDbSymbolTable
 70
     2
  0
VPORT
  5
1E
330
8
100
AcDbSymbolTableRecord
100
AcDbViewportTableRecord
  2
*ACTIVE
 70
     0
 10
0.0
 20
0.0
 11
1.0
 21
1.0
 12
7.969705744899795
 22
8.108137580994644
 13
0.0
 23
0.0
 14
1.0
 24
1.0
 15
0.0
 25
0.0
 16
0.0
 26
0.0
 36
1.0
 17
0.0
 27
0.0
 37
0.0
 40
6.299329223867229
 41
0.688367129135539
 42
50.0
 43
0.0
 44
0.0
 50
0.0
 51
0.0
 71
     0
 72
   100
 73
     1
 74
     0
 75
     0
 76
     0
 77
     0
 78
     0
281
     0
 65
     1
110
0.0
120
0.0
130
0.0
111
1.0
121
0.0
131
0.0
112
0.0
122
1.0
132
0.0
 79
     0
146
0.0
  0
ENDTAB
  0
TABLE
  2
LTYPE
  5
5
330
0
100
AcDbSymbolTable
 70
     1
  0
LTYPE
  5
10
330
5
100
AcDbSymbolTableRecord
100
AcDbLinetypeTableRecord
  2
ByBlock
 70
     0
  3

 72
    65
 73
     0
 40
0.0
  0
LTYPE
  5
11
330
5
100
AcDbSymbolTableRecord
100
AcDbLinetypeTableRecord
  2
ByLayer
 70
     0
  3

 72
    65
 73
     0
 40
0.0
  0
LTYPE
  5
1B
330
5
100
AcDbSymbolTableRecord
100
AcDbLinetypeTableRecord
  2
CONTINUOUS
 70
     0
  3
Solid line
 72
    65
 73
     0
 40
0.0
  0
ENDTAB
  0
TABLE
  2
LAYER
  5
2
330
0
100
AcDbSymbolTable
 70
     1
  0
LAYER
  5
1C
330
2
100
AcDbSymbolTableRecord
100
AcDbLayerTableRecord
  2
0
 70
     0
 62
     7
  6
CONTINUOUS
370
    -3
390
F
  0
ENDTAB
  0
TABLE
  2
STYLE
  5
3
330
0
100
AcDbSymbolTable
 70
     1
  0
STYLE
  5
20
330
3
100
AcDbSymbolTableRecord
100
AcDbTextStyleTableRecord
  2
STANDARD
 70
     0
 40
0.0
 41
1.0
 50
0.0
 71
     0
 42
0.2
  3
ROMANS.SHX
  4

  0
ENDTAB
  0
TABLE
  2
VIEW
  5
6
330
0
100
AcDbSymbolTable
 70
     0
  0
ENDTAB
  0
TABLE
  2
UCS
  5
7
330
0
100
AcDbSymbolTable
 70
     0
  0
ENDTAB
  0
TABLE
  2
APPID
  5
9
330
0
100
AcDbSymbolTable
 70
     1
  0
APPID
  5
1F
330
9
100
AcDbSymbolTableRecord
100
AcDbRegAppTableRecord
  2
ACAD
 70
     0
  0
ENDTAB
  0
TABLE
  2
DIMSTYLE
  5
A
330
0
100
AcDbSymbolTable
 70
     1
100
AcDbDimStyleTable
  0
DIMSTYLE
105
21
330
A
100
AcDbSymbolTableRecord
100
AcDbDimStyleTableRecord
  2
Standard
 70
     0
  3

  4

340
20
  0
ENDTAB
  0
TABLE
  2
BLOCK_RECORD
  5
1
330
0
100
AcDbSymbolTable
 70
     0
  0
BLOCK_RECORD
  5
18
330
1
100
AcDbSymbolTableRecord
100
AcDbBlockTableRecord
  2
*Model_Space
340
19
  0
BLOCK_RECORD
  5
16
330
1
100
AcDbSymbolTableRecord
100
AcDbBlockTableRecord
  2
*Paper_Space
340
17
  0
ENDTAB
  0
ENDSEC
  0
SECTION
  2
BLOCKS
  0
BLOCK
  5
8CB
330
18
100
AcDbEntity
  8
0
100
AcDbBlockBegin
  2
*Model_Space
 70
     0
 10
0.0
 20
0.0
 30
0.0
  3
*Model_Space
  1

  4

  0
ENDBLK
  5
8CC
330
18
100
AcDbEntity
  8
0
100
AcDbBlockEnd
  0
BLOCK
  5
8C9
330
16
100
AcDbEntity
 67
     1
  8
0
100
AcDbBlockBegin
  2
*Paper_Space
 70
     0
 10
0.0
 20
0.0
 30
0.0
  3
*Paper_Space
  1

  4

  0
ENDBLK
  5
8CA
330
16
100
AcDbEntity
 67
     1
  8
0
100
AcDbBlockEnd
  0
ENDSEC
  0
SECTION
  2
ENTITIES
  0
TEXT
  5
22
330
18
100
AcDbEntity
  8
0
100
AcDbText
 10
6.512864593848162
 20
5.704011674534518
 30
0.0
 40
0.15
  1
1-ply Carrying Member
100
AcDbText
  0
TEXT
  5
23
330
18
100
AcDbEntity
  8
0
100
AcDbText
 10
6.512864593848162
 20
5.953059293582138
 30
0.0
 40
0.15
  1
with Wood Blocking Attached to
100
AcDbText
  0
TEXT
  5
24
330
18
100
AcDbEntity
  8
0
100
AcDbText
 10
6.512864593848162
 20
6.202106912629757
 30
0.0
 40
0.15
  1
HUS26 Face Mount Hanger
100
AcDbText
  0
TEXT
  5
25
330
18
100
AcDbEntity
  8
0
100
AcDbText
 10
6.512864593848162
 20
6.451154531677377
 30
0.0
 40
0.15
  1
Simpson Strong-Tie
100
AcDbText
  0
LINE
  5
26
330
18
100
AcDbEntity
  8
0
100
AcDbLine
 10
6.976139272956687
 20
8.433360907524188
 30
0.0
 11
6.976139272956687
 21
8.135807640177422
 31
0.0
  0
ARC
  5
27
330
18
100
AcDbEntity
  8
0
100
AcDbCircle
 10
7.267085878346112
 20
8.288049458478891
 30
0.0
 40
0.057
100
AcDbArc
 50
75.33611497542182
 51
119.4618454611567
  0
ARC
  5
28
330
18
100
AcDbEntity
  8
0
100
AcDbCircle
 10
7.269646817162037
 20
8.287346646798165
 30
0.0
 40
0.03
100
AcDbArc
 50
75.33611497542172
 51
119.4618454611578
  0
LINE
  5
29
330
18
100
AcDbEntity
  8
0
100
AcDbLine
 10
7.664560386668834
 20
9.391292525982324
 30
0.0
 11
7.896238308428025
 21
9.391292525982326
 31
0.0
  0
LINE
  5
2A
330
18
100
AcDbEntity
  8
0
100
AcDbLine
 10
7.403028729143886
 20
8.961961021104489
 30
0.0
 11
7.664560386668834
 21
9.391292525982324
 31
0.0
  0
SOLID
  5
2B
330
18
100
AcDbEntity
  8
0
100
AcDbTrace
 10
7.428649398407746
 20
8.9463539295602
 30
0.0
 11
7.377408059880025
 21
8.977568112648781
 31
0.0
 12
7.309386179878146
 22
8.808237005521324
 32
0.0
 13
7.309386179878146
 23
8.808237005521324
 33
0.0
  0
LINE
  5
2C
330
18
100
AcDbEntity
  8
0
100
AcDbLine
 10
7.32730265120569
 20
7.396476623358733
 30
0.0
 11
7.53808252115762
 21
7.51862086608419
 31
0.0
  0
LINE
  5
2D
330
18
100
AcDbEntity
  8
0
100
AcDbLine
 10
7.197472371107732
 20
7.975938890564359
 30
0.0
 11
7.221213329246521
 21
7.982931639540619
 31
0.0
  0
LINE
  5
2E
330
18
100
AcDbEntity
  8
0
100
AcDbLine
 10
7.207692207994731
 20
7.902805197826038
 30
0.0
 11
7.234753230805851
 21
7.911158492265043
 31
0.0
  0
LWPOLYLINE
  5
2F
330
18
100
AcDbEntity
  8
0
100
AcDbPolyline
 90
       33
 70
   129
 43
0.0
 10
7.174932417991647
 20
7.901976503614117
 10
7.180911870842578
 20
7.899369166952459
 10
7.187406917328413
 20
7.898123419308252
 10
7.194182809546478
 20
7.898284285247123
 10
7.200994649097596
 20
7.899845950654908
 10
7.207596238352314
 20
7.902751972874889
 10
7.213748978674696
 20
7.906897320692471
 10
7.21923049399868
 20
7.912132170436927
 10
7.223842668078508
 20
7.918267320999225
 10
7.227418804926036
 20
7.925081032053063
 10
7.229829653638058
 20
7.932327038328007
 10
7.230988079860716
 20
7.939743450277993
 10
7.230852215052075
 20
7.947062219451876
 10
7.229426969720311
 20
7.954018826462846
 10
7.226763855945154
 20
7.960361841408264
 10
7.222959125597113
 20
7.965862011201436
 10
7.218150291544095
 20
7.970320545375486
 10
7.212511157578072
 20
7.973576300888767
 10
7.206245536693194
 20
7.975511606254238
 10
7.199579884753159
 20
7.976056514493605
 10
7.192755115786264
 20
7.975191331203351
 10
7.186017894724738
 20
7.972947326361799
 10
7.179611722291399
 20
7.969405604150619
 10
7.17376813424911
 20
7.964694171638394
 10
7.168698333095039
 20
7.95898331227163
 10
7.164585554652131
 20
7.952479431387342
 10
7.161578445449054
 20
7.945417596186386
 10
7.159785690247353
 20
7.938053039792353
 10
7.159272083890995
 20
7.930651936461492
 10
7.160056189451889
 20
7.923481781351565
 10
7.162109667312095
 20
7.9168017225499
 10
7.165358299431462
 20
7.910853194786315
 10
7.169684671780968
 20
7.905851193352924
  0
LINE
  5
53
330
18
100
AcDbEntity
  8
0
100
AcDbLine
 10
7.197472371107732
 20
7.813367037245946
 30
0.0
 11
7.221213329246521
 21
7.820359786222206
 31
0.0
  0
LINE
  5
54
330
18
100
AcDbEntity
  8
0
100
AcDbLine
 10
7.207692207994731
 20
7.740233344507625
 30
0.0
 11
7.234753230805851
 21
7.748586638946629
 31
0.0
  0
LWPOLYLINE
  5
55
330
18
100
AcDbEntity
  8
0
100
AcDbPolyline
 90
       33
 70
   129
 43
0.0
 10
7.174932417991647
 20
7.739404650295704
 10
7.180911870842578
 20
7.736797313634046
 10
7.187406917328413
 20
7.735551565989839
 10
7.194182809546478
 20
7.73571243192871
 10
7.200994649097596
 20
7.737274097336495
 10
7.207596238352314
 20
7.740180119556476
 10
7.213748978674696
 20
7.744325467374058
 10
7.21923049399868
 20
7.749560317118514
 10
7.223842668078508
 20
7.755695467680812
 10
7.227418804926036
 20
7.76250917873465
 10
7.229829653638058
 20
7.769755185009593
 10
7.230988079860716
 20
7.77717159695958
 10
7.230852215052075
 20
7.784490366133463
 10
7.229426969720311
 20
7.791446973144433
 10
7.226763855945154
 20
7.797789988089851
 10
7.222959125597113
 20
7.803290157883023
 10
7.218150291544095
 20
7.807748692057073
 10
7.212511157578072
 20
7.811004447570354
 10
7.206245536693194
 20
7.812939752935825
 10
7.199579884753159
 20
7.813484661175192
 10
7.192755115786264
 20
7.812619477884938
 10
7.186017894724738
 20
7.810375473043385
 10
7.179611722291399
 20
7.806833750832206
 10
7.17376813424911
 20
7.802122318319981
 10
7.168698333095039
 20
7.796411458953217
 10
7.164585554652131
 20
7.789907578068929
 10
7.161578445449054
 20
7.782845742867973
 10
7.159785690247353
 20
7.77548118647394
 10
7.159272083890995
 20
7.768080083143079
 10
7.160056189451889
 20
7.760909928033152
 10
7.162109667312095
 20
7.754229869231487
 10
7.165358299431462
 20
7.748281341467902
 10
7.169684671780968
 20
7.743279340034511
  0
TEXT
  5
79
330
18
100
AcDbEntity
  8
0
100
AcDbText
 10
8.036128176445587
 20
9.310374304598346
 30
0.0
 40
0.15
  1
Wood Blocking
100
AcDbText
  0
LWPOLYLINE
  5
7A
330
18
100
AcDbEntity
  8
0
100
AcDbPolyline
 90
        2
 70
     0
 43
0.0
 10
6.380112446445525
 20
10.81530186377302
 10
6.256936127204295
 20
10.84858662851917
  0
LWPOLYLINE
  5
7F
330
18
100
AcDbEntity
  8
0
100
AcDbPolyline
 90
        2
 70
     0
 43
0.0
 10
6.341682528832657
 20
10.79995426432205
 10
6.212024554081238
 20
10.83065047674415
  0
LWPOLYLINE
  5
84
330
18
100
AcDbEntity
  8
0
100
AcDbPolyline
 90
        2
 70
     0
 43
0.0
 10
6.308369371796955
 20
10.78185733119387
 10
6.157892477904586
 20
10.80903197027277
  0
LWPOLYLINE
  5
89
330
18
100
AcDbEntity
  8
0
100
AcDbPolyline
 90
        2
 70
     0
 43
0.0
 10
6.288153190640446
 20
10.76293890401655
 10
6.098704476753749
 20
10.7853942996663
  0
LWPOLYLINE
  5
8E
330
18
100
AcDbEntity
  8
0
100
AcDbPolyline
 90
        2
 70
     0
 43
0.0
 10
6.273562469635179
 20
10.74928481719047
 10
6.163251425860707
 20
10.75187190428676
  0
LWPOLYLINE
  5
93
330
18
100
AcDbEntity
  8
0
100
AcDbPolyline
 90
        3
 70
     0
 43
0.0
 10
6.570158556908903
 20
10.73789474235119
 10
6.549027639290669
 20
10.80139493958072
 10
6.51761469735978
 20
10.87021557688315
  0
LWPOLYLINE
  5
99
330
18
100
AcDbEntity
  8
0
100
AcDbPolyline
 90
        3
 70
     0
 43
0.0
 10
6.531493850904978
 20
10.72245337641812
 10
6.512969279451718
 20
10.78615461538503
 10
6.48016961750247
 20
10.85526128806971
  0
LWPOLYLINE
  5
9F
330
18
100
AcDbEntity
  8
0
100
AcDbPolyline
 90
        3
 70
     0
 43
0.0
 10
6.490878592057701
 20
10.70623302615183
 10
6.471388820270464
 20
10.7570459022471
 10
6.430858677908946
 20
10.83556817925131
  0
LWPOLYLINE
  5
A5
330
18
100
AcDbEntity
  8
0
100
AcDbPolyline
 90
        4
 70
     0
 43
0.0
 10
6.437573482573406
 20
10.66759684600691
 10
6.417123751624795
 20
10.71604440100566
 10
6.385538843305787
 20
10.79098650535952
 10
6.367702641734182
 20
10.81034581068196
  0
LWPOLYLINE
  5
AC
330
18
100
AcDbEntity
  8
0
100
AcDbPolyline
 90
        4
 70
     0
 43
0.0
 10
6.407510231001908
 20
10.61361592599824
 10
6.388825058183109
 20
10.66811392383851
 10
6.356351664132969
 20
10.74400070964136
 10
6.33257463930763
 20
10.79631688363126
  0
LWPOLYLINE
  5
B3
330
18
100
AcDbEntity
  8
0
100
AcDbPolyline
 90
        3
 70
     0
 43
0.0
 10
6.859264064527683
 20
10.70893550399068
 10
6.721688911315136
 20
10.74001151957781
 10
6.634402483033925
 20
10.76355157709273
  0
LWPOLYLINE
  5
B9
330
18
100
AcDbEntity
  8
0
100
AcDbPolyline
 90
        2
 70
     0
 43
0.0
 10
6.828619358098517
 20
10.6966970525762
 10
6.583866152463519
 20
10.74633867257207
  0
LWPOLYLINE
  5
BE
330
18
100
AcDbEntity
  8
0
100
AcDbPolyline
 90
        2
 70
     0
 43
0.0
 10
6.792384343053937
 20
10.68222602241146
 10
6.522939467688977
 20
10.71903704728435
  0
LWPOLYLINE
  5
C3
330
18
100
AcDbEntity
  8
0
100
AcDbPolyline
 90
        2
 70
     0
 43
0.0
 10
6.761749197958666
 20
10.66999138946791
 10
6.468244323869413
 20
10.69719367078503
  0
LWPOLYLINE
  5
C8
330
18
100
AcDbEntity
  8
0
100
AcDbPolyline
 90
        2
 70
     0
 43
0.0
 10
6.722859264897577
 20
10.65446007552367
 10
6.550212199380622
 20
10.66825108106261
  0
LINE
  5
CD
330
18
100
AcDbEntity
  8
0
100
AcDbLine
 10
6.317303812190403
 20
10.79021823569136
 30
0.0
 11
6.537140887255118
 21
10.87801367169918
 31
0.0
  0
LINE
  5
CE
330
18
100
AcDbEntity
  8
0
100
AcDbLine
 10
6.449998481189058
 20
10.68990690301403
 30
0.0
 11
6.669835556253775
 21
10.77770233902185
 31
0.0
  0
LINE
  5
CF
330
18
100
AcDbEntity
  8
0
100
AcDbLine
 10
6.42074627728534
 20
10.83152963106022
 30
0.0
 11
6.286737762890195
 21
10.86048838620958
 31
0.0
  0
LINE
  5
D0
330
18
100
AcDbEntity
  8
0
100
AcDbLine
 10
6.584789118803714
 20
10.74373769018069
 30
0.0
 11
6.537140887255118
 21
10.87801367169918
 31
0.0
  0
LINE
  5
D1
330
18
100
AcDbEntity
  8
0
100
AcDbLine
 10
6.255114094609317
 20
10.73202071390782
 30
0.0
 11
6.06690068782548
 21
10.77269295020177
 31
0.0
  0
LINE
  5
D2
330
18
100
AcDbEntity
  8
0
100
AcDbLine
 10
6.317303812190403
 20
10.79021823569136
 30
0.0
 11
6.255114094609317
 21
10.73202071390782
 31
0.0
  0
LINE
  5
D3
330
18
100
AcDbEntity
  8
0
100
AcDbLine
 10
6.39068935937262
 20
10.58341273511128
 30
0.0
 11
6.317303812190403
 21
10.79021823569136
 31
0.0
  0
LINE
  5
D4
330
18
100
AcDbEntity
  8
0
100
AcDbLine
 10
6.449998481189059
 20
10.68990690301403
 30
0.0
 11
6.39068935937262
 21
10.58341273511128
 31
0.0
  0
LINE
  5
D5
330
18
100
AcDbEntity
  8
0
100
AcDbLine
 10
6.286737762890195
 20
10.86048838620958
 30
0.0
 11
6.06690068782548
 21
10.77269295020177
 31
0.0
  0
LINE
  5
D6
330
18
100
AcDbEntity
  8
0
100
AcDbLine
 10
6.904485387659393
 20
10.72699535936325
 30
0.0
 11
6.669835556253775
 21
10.77770233902185
 31
0.0
  0
LINE
  5
D7
330
18
100
AcDbEntity
  8
0
100
AcDbLine
 10
7.207692207994731
 20
7.362077084383326
 30
0.0
 11
7.234753230805851
 21
7.370430378822331
 31
0.0
  0
LINE
  5
D8
330
18
100
AcDbEntity
  8
0
100
AcDbLine
 10
7.197472371107732
 20
7.435210777121648
 30
0.0
 11
7.221213329246521
 21
7.442203526097908
 31
0.0
  0
LWPOLYLINE
  5
D9
330
18
100
AcDbEntity
  8
0
100
AcDbPolyline
 90
       33
 70
   129
 43
0.0
 10
7.174932417991647
 20
7.361248390171404
 10
7.180911870842578
 20
7.358641053509746
 10
7.187406917328413
 20
7.35739530586554
 10
7.194182809546478
 20
7.357556171804411
 10
7.200994649097596
 20
7.359117837212195
 10
7.207596238352314
 20
7.362023859432177
 10
7.213748978674696
 20
7.366169207249758
 10
7.21923049399868
 20
7.371404056994214
 10
7.223842668078508
 20
7.377539207556512
 10
7.227418804926036
 20
7.38435291861035
 10
7.229829653638058
 20
7.391598924885294
 10
7.230988079860716
 20
7.39901533683528
 10
7.230852215052075
 20
7.406334106009163
 10
7.229426969720311
 20
7.413290713020134
 10
7.226763855945154
 20
7.419633727965551
 10
7.222959125597113
 20
7.425133897758723
 10
7.218150291544095
 20
7.429592431932774
 10
7.212511157578072
 20
7.432848187446054
 10
7.206245536693194
 20
7.434783492811525
 10
7.199579884753159
 20
7.435328401050892
 10
7.192755115786264
 20
7.434463217760638
 10
7.186017894724738
 20
7.432219212919086
 10
7.179611722291399
 20
7.428677490707907
 10
7.17376813424911
 20
7.423966058195681
 10
7.168698333095039
 20
7.418255198828917
 10
7.164585554652131
 20
7.41175131794463
 10
7.161578445449054
 20
7.404689482743673
 10
7.159785690247353
 20
7.397324926349641
 10
7.159272083890995
 20
7.389923823018779
 10
7.160056189451889
 20
7.382753667908852
 10
7.162109667312095
 20
7.376073609107188
 10
7.165358299431462
 20
7.370125081343603
 10
7.169684671780968
 20
7.365123079910211
  0
LINE
  5
FD
330
18
100
AcDbEntity
  8
0
100
AcDbLine
 10
7.278695250183358
 20
7.640924743309101
 30
0.0
 11
7.278695250183358
 21
7.475232318619481
 31
0.0
  0
LINE
  5
FE
330
18
100
AcDbEntity
  8
0
100
AcDbLine
 10
7.265258715670312
 20
7.64058581577653
 30
0.0
 11
7.26525871567031
 21
7.473745399445024
 31
0.0
  0
CIRCLE
  5
FF
330
18
100
AcDbEntity
  8
0
100
AcDbCircle
 10
7.270845880373282
 20
7.685597014244321
 30
0.0
 40
0.0270508102577601
  0
LINE
  5
100
330
18
100
AcDbEntity
  8
0
100
AcDbLine
 10
7.48395357155266
 20
7.724187541598195
 30
0.0
 11
7.499630016857283
 21
7.731393445673598
 31
0.0
  0
LWPOLYLINE
  5
101
330
18
100
AcDbEntity
  8
0
100
AcDbPolyline
 90
       18
 70
   128
 43
0.0
 10
7.5125536730248
 20
7.648181387091411
 10
7.51777051455668
 20
7.650547661884575
 10
7.522590909317962
 20
7.654376118620346
 10
7.526836758035959
 20
7.659525307190605
 10
7.530351189208222
 20
7.66580498036775
 10
7.533004355038734
 20
7.672983122874831
 10
7.534698228928404
 20
7.680794523661082
 10
7.535370227266819
 20
7.68895057466273
 10
7.534995521710816
 20
7.697149934013948
 10
7.533587956518034
 20
7.705089659733996
 10
7.531199537042704
 20
7.712476402533846
 10
7.527918508292233
 20
7.719037244201334
 10
7.523866094536222
 20
7.724529781118697
 10
7.519192020429665
 20
7.728751080356451
 10
7.514068979131541
 20
7.731545177442542
 10
7.508686251805388
 20
7.732808838786469
 10
7.503242714242367
 20
7.732495375853906
 10
7.497939488991317
 20
7.73061637016941
  0
LINE
  5
116
330
18
100
AcDbEntity
  8
0
100
AcDbLine
 10
7.517879587720728
 20
7.650615379196774
 30
0.0
 11
7.500719545636146
 21
7.642704073648727
 31
0.0
  0
LWPOLYLINE
  5
117
330
18
100
AcDbEntity
  8
0
100
AcDbPolyline
 90
       33
 70
   129
 43
0.0
 10
7.494172885888235
 20
7.727064135145065
 10
7.488809410440771
 20
7.72629143774494
 10
7.483639784970378
 20
7.724001272841846
 10
7.478850853210883
 20
7.720276412962351
 10
7.474615699633514
 20
7.715251484247525
 10
7.471087393723142
 20
7.709108100713446
 10
7.46839345764828
 20
7.702068300247467
 10
7.466631257277655
 20
7.694386519580448
 10
7.46586448312403
 20
7.68634039828038
 10
7.466120848403127
 20
7.678220744135012
 10
7.467391087405807
 20
7.670321022600709
 10
7.469629290384937
 20
7.662926750196247
 10
7.472754562853271
 20
7.656305175191911
 10
7.476653949320984
 20
7.650695618560701
 10
7.481186515801382
 20
7.646300824294829
 10
7.486188443532376
 20
7.643279631709588
 10
7.491478949813373
 20
7.641741234576647
 10
7.496866821963097
 20
7.641741234576647
 10
7.502157328244093
 20
7.643279631709588
 10
7.507159255975087
 20
7.646300824294829
 10
7.511691822455485
 20
7.650695618560701
 10
7.515591208923198
 20
7.656305175191911
 10
7.518716481391532
 20
7.662926750196247
 10
7.520954684370662
 20
7.670321022600709
 10
7.522224923373342
 20
7.678220744135012
 10
7.522481288652439
 20
7.68634039828038
 10
7.521714514498815
 20
7.694386519580448
 10
7.519952314128189
 20
7.702068300247467
 10
7.517258378053327
 20
7.709108100713446
 10
7.513730072142955
 20
7.715251484247525
 10
7.509494918565586
 20
7.720276412962351
 10
7.504705986806092
 20
7.724001272841846
 10
7.499536361335698
 20
7.72629143774494
  0
LWPOLYLINE
  5
13B
330
18
100
AcDbEntity
  8
0
100
AcDbPolyline
 90
       33
 70
   129
 43
0.0
 10
7.494172885888235
 20
7.990341429004287
 10
7.488809410440771
 20
7.989568731604162
 10
7.483639784970378
 20
7.987278566701068
 10
7.478850853210883
 20
7.983553706821573
 10
7.474615699633514
 20
7.978528778106747
 10
7.471087393723142
 20
7.972385394572668
 10
7.46839345764828
 20
7.965345594106688
 10
7.466631257277655
 20
7.95766381343967
 10
7.46586448312403
 20
7.949617692139602
 10
7.466120848403127
 20
7.941498037994234
 10
7.467391087405807
 20
7.933598316459931
 10
7.469629290384937
 20
7.926204044055469
 10
7.472754562853271
 20
7.919582469051132
 10
7.476653949320984
 20
7.913972912419923
 10
7.481186515801382
 20
7.909578118154051
 10
7.486188443532376
 20
7.906556925568809
 10
7.491478949813373
 20
7.905018528435869
 10
7.496866821963097
 20
7.905018528435869
 10
7.502157328244093
 20
7.906556925568809
 10
7.507159255975087
 20
7.909578118154051
 10
7.511691822455485
 20
7.913972912419923
 10
7.515591208923198
 20
7.919582469051132
 10
7.518716481391532
 20
7.926204044055469
 10
7.520954684370662
 20
7.933598316459931
 10
7.522224923373342
 20
7.941498037994234
 10
7.522481288652439
 20
7.949617692139602
 10
7.521714514498815
 20
7.95766381343967
 10
7.519952314128189
 20
7.965345594106688
 10
7.517258378053327
 20
7.972385394572668
 10
7.513730072142955
 20
7.978528778106747
 10
7.509494918565586
 20
7.983553706821573
 10
7.504705986806092
 20
7.987278566701068
 10
7.499536361335698
 20
7.989568731604162
  0
LINE
  5
15F
330
18
100
AcDbEntity
  8
0
100
AcDbLine
 10
7.517879587720728
 20
7.913892673055996
 30
0.0
 11
7.500719545636146
 21
7.905981367507949
 31
0.0
  0
LWPOLYLINE
  5
160
330
18
100
AcDbEntity
  8
0
100
AcDbPolyline
 90
       18
 70
   128
 43
0.0
 10
7.5125536730248
 20
7.911458680950634
 10
7.51777051455668
 20
7.913824955743799
 10
7.522590909317962
 20
7.917653412479569
 10
7.526836758035959
 20
7.922802601049829
 10
7.530351189208222
 20
7.929082274226974
 10
7.533004355038734
 20
7.936260416734054
 10
7.534698228928404
 20
7.944071817520306
 10
7.535370227266819
 20
7.952227868521954
 10
7.534995521710816
 20
7.960427227873172
 10
7.533587956518034
 20
7.96836695359322
 10
7.531199537042704
 20
7.97575369639307
 10
7.527918508292233
 20
7.982314538060558
 10
7.523866094536222
 20
7.987807074977921
 10
7.519192020429665
 20
7.992028374215675
 10
7.514068979131541
 20
7.994822471301766
 10
7.508686251805388
 20
7.996086132645693
 10
7.503242714242367
 20
7.995772669713129
 10
7.497939488991317
 20
7.993893664028634
  0
LINE
  5
175
330
18
100
AcDbEntity
  8
0
100
AcDbLine
 10
7.48395357155266
 20
7.987464835457417
 30
0.0
 11
7.499630016857283
 21
7.99467073953282
 31
0.0
  0
LWPOLYLINE
  5
176
330
18
100
AcDbEntity
  8
0
100
AcDbPolyline
 90
       18
 70
   128
 43
0.0
 10
7.378405142396251
 20
7.558534695075847
 10
7.383621983928131
 20
7.560900969869012
 10
7.388442378689413
 20
7.564729426604782
 10
7.39268822740741
 20
7.569878615175042
 10
7.396202658579673
 20
7.576158288352187
 10
7.398855824410186
 20
7.583336430859268
 10
7.400549698299855
 20
7.591147831645519
 10
7.40122169663827
 20
7.599303882647167
 10
7.400846991082267
 20
7.607503241998385
 10
7.399439425889486
 20
7.615442967718433
 10
7.397051006414155
 20
7.622829710518283
 10
7.393769977663684
 20
7.629390552185771
 10
7.389717563907674
 20
7.634883089103134
 10
7.385043489801117
 20
7.639104388340888
 10
7.379920448502992
 20
7.641898485426979
 10
7.374537721176839
 20
7.643162146770906
 10
7.369094183613818
 20
7.642848683838342
 10
7.363790958362769
 20
7.640969678153847
  0
LINE
  5
18B
330
18
100
AcDbEntity
  8
0
100
AcDbLine
 10
7.383731057092179
 20
7.560968687181211
 30
0.0
 11
7.366571015007597
 21
7.553057381633163
 31
0.0
  0
LWPOLYLINE
  5
18C
330
18
100
AcDbEntity
  8
0
100
AcDbPolyline
 90
       33
 70
   129
 43
0.0
 10
7.360024355259686
 20
7.6374174431295
 10
7.354660879812222
 20
7.636644745729375
 10
7.349491254341829
 20
7.634354580826281
 10
7.344702322582334
 20
7.630629720946786
 10
7.340467169004965
 20
7.62560479223196
 10
7.336938863094593
 20
7.619461408697881
 10
7.334244927019731
 20
7.612421608231902
 10
7.332482726649106
 20
7.604739827564883
 10
7.331715952495482
 20
7.596693706264815
 10
7.331972317774579
 20
7.588574052119447
 10
7.333242556777258
 20
7.580674330585144
 10
7.335480759756388
 20
7.573280058180682
 10
7.338606032224722
 20
7.566658483176346
 10
7.342505418692435
 20
7.561048926545136
 10
7.347037985172833
 20
7.556654132279264
 10
7.352039912903828
 20
7.553632939694023
 10
7.357330419184824
 20
7.552094542561082
 10
7.362718291334548
 20
7.552094542561082
 10
7.368008797615544
 20
7.553632939694023
 10
7.373010725346538
 20
7.556654132279264
 10
7.377543291826936
 20
7.561048926545136
 10
7.38144267829465
 20
7.566658483176346
 10
7.384567950762984
 20
7.573280058180682
 10
7.386806153742113
 20
7.580674330585144
 10
7.388076392744793
 20
7.588574052119447
 10
7.38833275802389
 20
7.596693706264815
 10
7.387565983870266
 20
7.604739827564883
 10
7.38580378349964
 20
7.612421608231902
 10
7.383109847424779
 20
7.619461408697881
 10
7.379581541514407
 20
7.62560479223196
 10
7.375346387937038
 20
7.630629720946786
 10
7.370557456177543
 20
7.634354580826281
 10
7.365387830707149
 20
7.636644745729375
  0
LINE
  5
1B0
330
18
100
AcDbEntity
  8
0
100
AcDbLine
 10
7.349805040924111
 20
7.634540849582631
 30
0.0
 11
7.365481486228735
 21
7.641746753658034
 31
0.0
  0
LINE
  5
1B1
330
18
100
AcDbEntity
  8
0
100
AcDbLine
 10
7.378405142396251
 20
7.79336049744361
 30
0.0
 11
7.366571015007597
 21
7.787883184000926
 31
0.0
  0
LWPOLYLINE
  5
1B2
330
18
100
AcDbEntity
  8
0
100
AcDbPolyline
 90
       18
 70
   128
 43
0.0
 10
7.378405142396251
 20
7.79336049744361
 10
7.383621983928131
 20
7.795726772236774
 10
7.388442378689413
 20
7.799555228972545
 10
7.39268822740741
 20
7.804704417542804
 10
7.396202658579673
 20
7.810984090719949
 10
7.398855824410186
 20
7.81816223322703
 10
7.400549698299855
 20
7.825973634013281
 10
7.40122169663827
 20
7.834129685014929
 10
7.400846991082267
 20
7.842329044366148
 10
7.399439425889486
 20
7.850268770086196
 10
7.397051006414155
 20
7.857655512886045
 10
7.393769977663684
 20
7.864216354553533
 10
7.389717563907674
 20
7.869708891470896
 10
7.385043489801117
 20
7.87393019070865
 10
7.379920448502992
 20
7.876724287794741
 10
7.374537721176839
 20
7.877987949138668
 10
7.369094183613818
 20
7.877674486206105
 10
7.363790958362769
 20
7.875795480521609
  0
LINE
  5
1C7
330
18
100
AcDbEntity
  8
0
100
AcDbLine
 10
7.349805040924111
 20
7.869366651950394
 30
0.0
 11
7.365481486228735
 21
7.876572556025796
 31
0.0
  0
LWPOLYLINE
  5
1C8
330
18
100
AcDbEntity
  8
0
100
AcDbPolyline
 90
       33
 70
   129
 43
0.0
 10
7.360024355259686
 20
7.872243245497263
 10
7.354660879812222
 20
7.871470548097137
 10
7.349491254341829
 20
7.869180383194044
 10
7.344702322582334
 20
7.865455523314548
 10
7.340467169004965
 20
7.860430594599722
 10
7.336938863094593
 20
7.854287211065643
 10
7.334244927019731
 20
7.847247410599664
 10
7.332482726649106
 20
7.839565629932645
 10
7.331715952495482
 20
7.831519508632577
 10
7.331972317774579
 20
7.823399854487209
 10
7.333242556777258
 20
7.815500132952907
 10
7.335480759756388
 20
7.808105860548444
 10
7.338606032224722
 20
7.801484285544108
 10
7.342505418692435
 20
7.795874728912899
 10
7.347037985172833
 20
7.791479934647026
 10
7.352039912903828
 20
7.788458742061785
 10
7.357330419184824
 20
7.786920344928844
 10
7.362718291334548
 20
7.786920344928844
 10
7.368008797615544
 20
7.788458742061785
 10
7.373010725346538
 20
7.791479934647026
 10
7.377543291826936
 20
7.795874728912899
 10
7.38144267829465
 20
7.801484285544108
 10
7.384567950762984
 20
7.808105860548444
 10
7.386806153742113
 20
7.815500132952907
 10
7.388076392744793
 20
7.823399854487209
 10
7.38833275802389
 20
7.831519508632577
 10
7.387565983870266
 20
7.839565629932645
 10
7.38580378349964
 20
7.847247410599664
 10
7.383109847424779
 20
7.854287211065643
 10
7.379581541514407
 20
7.860430594599722
 10
7.375346387937038
 20
7.865455523314548
 10
7.370557456177543
 20
7.869180383194044
 10
7.365387830707149
 20
7.871470548097137
  0
LWPOLYLINE
  5
1EC
330
18
100
AcDbEntity
  8
0
100
AcDbPolyline
 90
       18
 70
   128
 43
0.0
 10
7.378405142396251
 20
7.9813690440754
 10
7.383621983928131
 20
7.983735318868565
 10
7.388442378689413
 20
7.987563775604335
 10
7.39268822740741
 20
7.992712964174594
 10
7.396202658579673
 20
7.99899263735174
 10
7.398855824410186
 20
8.00617077985882
 10
7.400549698299855
 20
8.013982180645073
 10
7.40122169663827
 20
8.02213823164672
 10
7.400846991082267
 20
8.030337590997938
 10
7.399439425889486
 20
8.038277316717986
 10
7.397051006414155
 20
8.045664059517836
 10
7.393769977663684
 20
8.052224901185323
 10
7.389717563907674
 20
8.057717438102687
 10
7.385043489801117
 20
8.061938737340441
 10
7.379920448502992
 20
8.064732834426531
 10
7.374537721176839
 20
8.065996495770458
 10
7.369094183613818
 20
8.065683032837896
 10
7.363790958362769
 20
8.063804027153401
  0
LINE
  5
201
330
18
100
AcDbEntity
  8
0
100
AcDbLine
 10
7.383731057092184
 20
7.983803036180766
 30
0.0
 11
7.366571015007597
 21
7.975891730632717
 31
0.0
  0
LWPOLYLINE
  5
202
330
18
100
AcDbEntity
  8
0
100
AcDbPolyline
 90
       33
 70
   129
 43
0.0
 10
7.360024355259686
 20
8.060251792129055
 10
7.354660879812222
 20
8.059479094728928
 10
7.349491254341829
 20
8.057188929825836
 10
7.344702322582334
 20
8.05346406994634
 10
7.340467169004965
 20
8.048439141231514
 10
7.336938863094593
 20
8.042295757697437
 10
7.334244927019731
 20
8.035255957231456
 10
7.332482726649106
 20
8.027574176564437
 10
7.331715952495482
 20
8.019528055264368
 10
7.331972317774579
 20
8.011408401119001
 10
7.333242556777258
 20
8.0035086795847
 10
7.335480759756388
 20
7.996114407180237
 10
7.338606032224722
 20
7.9894928321759
 10
7.342505418692435
 20
7.983883275544691
 10
7.347037985172833
 20
7.979488481278819
 10
7.352039912903828
 20
7.976467288693577
 10
7.357330419184824
 20
7.974928891560636
 10
7.362718291334548
 20
7.974928891560636
 10
7.368008797615544
 20
7.976467288693577
 10
7.373010725346538
 20
7.979488481278819
 10
7.377543291826936
 20
7.983883275544691
 10
7.38144267829465
 20
7.9894928321759
 10
7.384567950762984
 20
7.996114407180237
 10
7.386806153742113
 20
8.0035086795847
 10
7.388076392744793
 20
8.011408401119001
 10
7.38833275802389
 20
8.019528055264368
 10
7.387565983870266
 20
8.027574176564437
 10
7.38580378349964
 20
8.035255957231456
 10
7.383109847424779
 20
8.042295757697437
 10
7.379581541514407
 20
8.048439141231514
 10
7.375346387937038
 20
8.05346406994634
 10
7.370557456177543
 20
8.057188929825836
 10
7.365387830707149
 20
8.059479094728928
  0
LINE
  5
226
330
18
100
AcDbEntity
  8
0
100
AcDbLine
 10
7.349805040924111
 20
8.057375198582184
 30
0.0
 11
7.365481486228719
 21
8.064581102657579
 31
0.0
  0
LWPOLYLINE
  5
227
330
18
100
AcDbEntity
  8
0
100
AcDbPolyline
 90
       18
 70
   128
 43
0.0
 10
7.532122976209671
 20
8.106927223571992
 10
7.53733981774155
 20
8.109293498365156
 10
7.542160212502832
 20
8.113121955100928
 10
7.54640606122083
 20
8.118271143671185
 10
7.549920492393093
 20
8.124550816848331
 10
7.552573658223605
 20
8.131728959355412
 10
7.554267532113275
 20
8.139540360141664
 10
7.55493953045169
 20
8.147696411143311
 10
7.554564824895687
 20
8.15589577049453
 10
7.553157259702905
 20
8.163835496214578
 10
7.550768840227574
 20
8.171222239014428
 10
7.547487811477104
 20
8.177783080681914
 10
7.543435397721093
 20
8.183275617599279
 10
7.538761323614536
 20
8.187496916837032
 10
7.533638282316412
 20
8.190291013923122
 10
7.528255554990259
 20
8.191554675267049
 10
7.522812017427238
 20
8.191241212334488
 10
7.517508792176188
 20
8.189362206649992
  0
LINE
  5
23C
330
18
100
AcDbEntity
  8
0
100
AcDbLine
 10
7.537448890905593
 20
8.109361215677351
 30
0.0
 11
7.520288848821017
 21
8.101449910129308
 31
0.0
  0
LWPOLYLINE
  5
23D
330
18
100
AcDbEntity
  8
0
100
AcDbPolyline
 90
       33
 70
   129
 43
0.0
 10
7.513742189073105
 20
8.185809971625645
 10
7.508378713625642
 20
8.185037274225518
 10
7.503209088155249
 20
8.182747109322426
 10
7.498420156395754
 20
8.17902224944293
 10
7.494185002818385
 20
8.173997320728104
 10
7.490656696908013
 20
8.167853937194026
 10
7.487962760833151
 20
8.160814136728046
 10
7.486200560462526
 20
8.153132356061027
 10
7.485433786308901
 20
8.145086234760958
 10
7.485690151587998
 20
8.13696658061559
 10
7.486960390590678
 20
8.12906685908129
 10
7.489198593569808
 20
8.121672586676827
 10
7.492323866038142
 20
8.11505101167249
 10
7.496223252505855
 20
8.109441455041281
 10
7.500755818986253
 20
8.105046660775409
 10
7.505757746717247
 20
8.102025468190167
 10
7.511048252998243
 20
8.100487071057225
 10
7.516436125147967
 20
8.100487071057225
 10
7.521726631428964
 20
8.102025468190167
 10
7.526728559159958
 20
8.105046660775409
 10
7.531261125640356
 20
8.109441455041281
 10
7.535160512108069
 20
8.11505101167249
 10
7.538285784576403
 20
8.121672586676827
 10
7.540523987555533
 20
8.12906685908129
 10
7.541794226558213
 20
8.13696658061559
 10
7.54205059183731
 20
8.145086234760958
 10
7.541283817683685
 20
8.153132356061027
 10
7.53952161731306
 20
8.160814136728046
 10
7.536827681238198
 20
8.167853937194026
 10
7.533299375327826
 20
8.173997320728104
 10
7.529064221750457
 20
8.17902224944293
 10
7.524275289990962
 20
8.182747109322426
 10
7.519105664520569
 20
8.185037274225518
  0
LINE
  5
261
330
18
100
AcDbEntity
  8
0
100
AcDbLine
 10
7.503522874737531
 20
8.182933378078774
 30
0.0
 11
7.51919932004217
 21
8.190139282154183
 31
0.0
  0
LINE
  5
262
330
18
100
AcDbEntity
  8
0
100
AcDbLine
 10
7.383731057092174
 20
8.149584790730639
 30
0.0
 11
7.366571015007597
 21
8.141673485182594
 31
0.0
  0
LWPOLYLINE
  5
263
330
18
100
AcDbEntity
  8
0
100
AcDbPolyline
 90
       18
 70
   128
 43
0.0
 10
7.378405142396251
 20
8.14715079862528
 10
7.383621983928131
 20
8.149517073418444
 10
7.388442378689413
 20
8.153345530154216
 10
7.39268822740741
 20
8.158494718724473
 10
7.396202658579673
 20
8.164774391901618
 10
7.398855824410186
 20
8.1719525344087
 10
7.400549698299855
 20
8.179763935194952
 10
7.40122169663827
 20
8.187919986196599
 10
7.400846991082267
 20
8.196119345547817
 10
7.399439425889486
 20
8.204059071267865
 10
7.397051006414155
 20
8.211445814067716
 10
7.393769977663684
 20
8.218006655735202
 10
7.389717563907674
 20
8.223499192652566
 10
7.385043489801117
 20
8.22772049189032
 10
7.379920448502992
 20
8.23051458897641
 10
7.374537721176839
 20
8.231778250320337
 10
7.369094183613818
 20
8.231464787387775
 10
7.363790958362769
 20
8.22958578170328
  0
LINE
  5
278
330
18
100
AcDbEntity
  8
0
100
AcDbLine
 10
7.349805040924111
 20
8.223156953132062
 30
0.0
 11
7.36548148622875
 21
8.230362857207471
 31
0.0
  0
LWPOLYLINE
  5
279
330
18
100
AcDbEntity
  8
0
100
AcDbPolyline
 90
       33
 70
   129
 43
0.0
 10
7.360024355259686
 20
8.226033546678931
 10
7.354660879812222
 20
8.225260849278804
 10
7.349491254341829
 20
8.222970684375712
 10
7.344702322582334
 20
8.219245824496216
 10
7.340467169004965
 20
8.21422089578139
 10
7.336938863094593
 20
8.208077512247312
 10
7.334244927019731
 20
8.201037711781332
 10
7.332482726649106
 20
8.193355931114313
 10
7.331715952495482
 20
8.185309809814244
 10
7.331972317774579
 20
8.177190155668876
 10
7.333242556777258
 20
8.169290434134576
 10
7.335480759756388
 20
8.161896161730113
 10
7.338606032224722
 20
8.155274586725776
 10
7.342505418692435
 20
8.149665030094567
 10
7.347037985172833
 20
8.145270235828695
 10
7.352039912903828
 20
8.142249043243453
 10
7.357330419184824
 20
8.140710646110511
 10
7.362718291334548
 20
8.140710646110511
 10
7.368008797615544
 20
8.142249043243453
 10
7.373010725346538
 20
8.145270235828695
 10
7.377543291826936
 20
8.149665030094567
 10
7.38144267829465
 20
8.155274586725776
 10
7.384567950762984
 20
8.161896161730113
 10
7.386806153742113
 20
8.169290434134576
 10
7.388076392744793
 20
8.177190155668876
 10
7.38833275802389
 20
8.185309809814244
 10
7.387565983870266
 20
8.193355931114313
 10
7.38580378349964
 20
8.201037711781332
 10
7.383109847424779
 20
8.208077512247312
 10
7.379581541514407
 20
8.21422089578139
 10
7.375346387937038
 20
8.219245824496216
 10
7.370557456177543
 20
8.222970684375712
 10
7.365387830707149
 20
8.225260849278804
  0
LINE
  5
29D
330
18
100
AcDbEntity
  8
0
100
AcDbLine
 10
7.278695250183358
 20
7.438864050782932
 30
0.0
 11
7.278695250183358
 21
7.409065434118951
 31
0.0
  0
LINE
  5
29E
330
18
100
AcDbEntity
  8
0
100
AcDbLine
 10
7.26525871567031
 20
7.437247774697341
 30
0.0
 11
7.26525871567031
 21
7.399363841706082
 31
0.0
  0
LINE
  5
29F
330
18
100
AcDbEntity
  8
0
100
AcDbLine
 10
7.278695250183358
 20
8.304223393410299
 30
0.0
 11
7.278695250183359
 21
7.73026928517954
 31
0.0
  0
LINE
  5
2A0
330
18
100
AcDbEntity
  8
0
100
AcDbLine
 10
7.26525871567031
 20
8.307229913638787
 30
0.0
 11
7.265258715670309
 21
7.730608212712111
 31
0.0
  0
LINE
  5
2A1
330
18
100
AcDbEntity
  8
0
100
AcDbLine
 10
6.719395698092701
 20
8.282692000484984
 30
0.0
 11
6.736762671263295
 21
8.290674980064576
 31
0.0
  0
LWPOLYLINE
  5
2A2
330
18
100
AcDbEntity
  8
0
100
AcDbPolyline
 90
       33
 70
   129
 43
0.0
 10
6.729615012428276
 20
8.285568594031854
 10
6.724251536980813
 20
8.284795896631728
 10
6.719081911510419
 20
8.282505731728636
 10
6.714292979750924
 20
8.27878087184914
 10
6.710057826173555
 20
8.273755943134313
 10
6.706529520263183
 20
8.267612559600236
 10
6.703835584188322
 20
8.260572759134256
 10
6.702073383817696
 20
8.252890978467237
 10
6.701306609664072
 20
8.244844857167168
 10
6.701562974943169
 20
8.2367252030218
 10
6.702833213945849
 20
8.228825481487499
 10
6.705071416924978
 20
8.221431209083036
 10
6.708196689393312
 20
8.2148096340787
 10
6.712096075861026
 20
8.209200077447491
 10
6.716628642341424
 20
8.204805283181619
 10
6.721630570072418
 20
8.201784090596377
 10
6.726921076353414
 20
8.200245693463435
 10
6.732308948503138
 20
8.200245693463435
 10
6.737599454784134
 20
8.201784090596377
 10
6.742601382515129
 20
8.204805283181619
 10
6.747133948995526
 20
8.209200077447491
 10
6.75103333546324
 20
8.2148096340787
 10
6.754158607931574
 20
8.221431209083036
 10
6.756396810910704
 20
8.228825481487499
 10
6.757667049913383
 20
8.2367252030218
 10
6.75792341519248
 20
8.244844857167168
 10
6.757156641038856
 20
8.252890978467237
 10
6.755394440668231
 20
8.260572759134256
 10
6.752700504593369
 20
8.267612559600236
 10
6.749172198682997
 20
8.273755943134313
 10
6.744937045105628
 20
8.27878087184914
 10
6.740148113346133
 20
8.282505731728636
 10
6.73497848787574
 20
8.284795896631728
  0
LINE
  5
2C6
330
18
100
AcDbEntity
  8
0
100
AcDbLine
 10
6.755026328770995
 20
8.209905717638261
 30
0.0
 11
6.736161672176188
 21
8.201208532535516
 31
0.0
  0
LWPOLYLINE
  5
2C7
330
18
100
AcDbEntity
  8
0
100
AcDbPolyline
 90
       18
 70
   128
 43
0.0
 10
6.74968632743081
 20
8.207462921482389
 10
6.75490316896269
 20
8.209829196275553
 10
6.759723563723972
 20
8.213657653011325
 10
6.763969412441969
 20
8.218806841581582
 10
6.767483843614232
 20
8.225086514758727
 10
6.770137009444745
 20
8.232264657265809
 10
6.771830883334414
 20
8.240076058052061
 10
6.772502881672829
 20
8.248232109053708
 10
6.772128176116826
 20
8.256431468404927
 10
6.770720610924045
 20
8.264371194124975
 10
6.768332191448714
 20
8.271757936924825
 10
6.765051162698243
 20
8.278318778592311
 10
6.760998748942233
 20
8.283811315509675
 10
6.756324674835676
 20
8.288032614747429
 10
6.751201633537551
 20
8.290826711833519
 10
6.745818906211398
 20
8.292090373177446
 10
6.740375368648377
 20
8.291776910244884
 10
6.735072143397328
 20
8.289897904560389
  0
LINE
  5
2DC
330
18
100
AcDbEntity
  8
0
100
AcDbLine
 10
6.718620960882998
 20
8.386239521274936
 30
0.0
 11
6.701460918798421
 21
8.37832821572689
 31
0.0
  0
LINE
  5
2DD
330
18
100
AcDbEntity
  8
0
100
AcDbLine
 10
6.684694944714935
 20
8.459811683676358
 30
0.0
 11
6.700371390019575
 21
8.467017587751768
 31
0.0
  0
LWPOLYLINE
  5
2DE
330
18
100
AcDbEntity
  8
0
100
AcDbPolyline
 90
       18
 70
   128
 43
0.0
 10
6.713295046187075
 20
8.383805529169575
 10
6.718511887718955
 20
8.386171803962739
 10
6.723332282480237
 20
8.390000260698511
 10
6.727578131198234
 20
8.395149449268768
 10
6.731092562370497
 20
8.401429122445913
 10
6.73374572820101
 20
8.408607264952995
 10
6.735439602090679
 20
8.416418665739247
 10
6.736111600429094
 20
8.424574716740894
 10
6.735736894873091
 20
8.432774076092112
 10
6.73432932968031
 20
8.44071380181216
 10
6.731940910204979
 20
8.448100544612011
 10
6.728659881454508
 20
8.454661386279497
 10
6.724607467698498
 20
8.460153923196861
 10
6.719933393591941
 20
8.464375222434615
 10
6.714810352293816
 20
8.467169319520705
 10
6.709427624967663
 20
8.468432980864632
 10
6.703984087404642
 20
8.46811951793207
 10
6.698680862153593
 20
8.466240512247575
  0
LWPOLYLINE
  5
2F3
330
18
100
AcDbEntity
  8
0
100
AcDbPolyline
 90
       33
 70
   129
 43
0.0
 10
6.69491425905051
 20
8.462688277223228
 10
6.689550783603046
 20
8.461915579823101
 10
6.684381158132653
 20
8.459625414920009
 10
6.679592226373158
 20
8.455900555040513
 10
6.675357072795789
 20
8.450875626325686
 10
6.671828766885417
 20
8.444732242791609
 10
6.669134830810555
 20
8.437692442325629
 10
6.66737263043993
 20
8.43001066165861
 10
6.666605856286306
 20
8.421964540358541
 10
6.666862221565403
 20
8.413844886213173
 10
6.668132460568082
 20
8.405945164678872
 10
6.670370663547212
 20
8.398550892274409
 10
6.673495936015546
 20
8.391929317270073
 10
6.677395322483259
 20
8.386319760638864
 10
6.681927888963657
 20
8.381924966372992
 10
6.686929816694652
 20
8.37890377378775
 10
6.692220322975648
 20
8.377365376654808
 10
6.697608195125372
 20
8.377365376654808
 10
6.702898701406368
 20
8.37890377378775
 10
6.707900629137362
 20
8.381924966372992
 10
6.71243319561776
 20
8.386319760638864
 10
6.716332582085474
 20
8.391929317270073
 10
6.719457854553808
 20
8.398550892274409
 10
6.721696057532937
 20
8.405945164678872
 10
6.722966296535617
 20
8.413844886213173
 10
6.723222661814714
 20
8.421964540358541
 10
6.72245588766109
 20
8.43001066165861
 10
6.720693687290464
 20
8.437692442325629
 10
6.717999751215602
 20
8.444732242791609
 10
6.714471445305231
 20
8.450875626325686
 10
6.710236291727862
 20
8.455900555040513
 10
6.705447359968367
 20
8.459625414920009
 10
6.700277734497973
 20
8.461915579823101
  0
LINE
  5
317
330
18
100
AcDbEntity
  8
0
100
AcDbLine
 10
6.529225725291311
 20
8.174734989866689
 30
0.0
 11
6.504487545179813
 21
8.182157501973796
 31
0.0
  0
LINE
  5
318
330
18
100
AcDbEntity
  8
0
100
AcDbLine
 10
6.504487545179813
 20
8.182157501973798
 30
0.0
 11
6.52922572529131
 21
8.196527458009056
 31
0.0
  0
LINE
  5
319
330
18
100
AcDbEntity
  8
0
100
AcDbLine
 10
6.52922572529131
 20
8.241616587974196
 30
0.0
 11
6.529225725291311
 21
8.174734989866689
 31
0.0
  0
LINE
  5
31A
330
18
100
AcDbEntity
  8
0
100
AcDbLine
 10
6.504487545179813
 20
8.249039100081305
 30
0.0
 11
6.504487545179813
 21
8.182157501973796
 31
0.0
  0
LINE
  5
31B
330
18
100
AcDbEntity
  8
0
100
AcDbLine
 10
6.504487545179813
 20
8.249039100081305
 30
0.0
 11
6.52922572529131
 21
8.241616587974196
 31
0.0
  0
LINE
  5
31C
330
18
100
AcDbEntity
  8
0
100
AcDbLine
 10
6.486815115379669
 20
8.311149317456367
 30
0.0
 11
6.48681511537967
 21
8.244267719348862
 31
0.0
  0
LINE
  5
31D
330
18
100
AcDbEntity
  8
0
100
AcDbLine
 10
6.462076935268173
 20
8.318571829563476
 30
0.0
 11
6.462076935268173
 21
8.251690231455969
 31
0.0
  0
LINE
  5
31E
330
18
100
AcDbEntity
  8
0
100
AcDbLine
 10
6.462076935268173
 20
8.251690231455971
 30
0.0
 11
6.486815115379669
 21
8.266060187491227
 31
0.0
  0
LINE
  5
31F
330
18
100
AcDbEntity
  8
0
100
AcDbLine
 10
6.48681511537967
 20
8.244267719348862
 30
0.0
 11
6.462076935268173
 21
8.251690231455969
 31
0.0
  0
LINE
  5
320
330
18
100
AcDbEntity
  8
0
100
AcDbLine
 10
6.462076935268173
 20
8.318571829563476
 30
0.0
 11
6.486815115379669
 21
8.311149317456367
 31
0.0
  0
LINE
  5
321
330
18
100
AcDbEntity
  8
0
100
AcDbLine
 10
6.42258850615244
 20
8.206730716575736
 30
0.0
 11
6.397850326040942
 21
8.214153228682843
 31
0.0
  0
LINE
  5
322
330
18
100
AcDbEntity
  8
0
100
AcDbLine
 10
6.397850326040942
 20
8.214153228682845
 30
0.0
 11
6.422588506152439
 21
8.228523184718101
 31
0.0
  0
LINE
  5
323
330
18
100
AcDbEntity
  8
0
100
AcDbLine
 10
6.422588506152439
 20
8.273612314683241
 30
0.0
 11
6.42258850615244
 21
8.206730716575736
 31
0.0
  0
LINE
  5
324
330
18
100
AcDbEntity
  8
0
100
AcDbLine
 10
6.397850326040942
 20
8.28103482679035
 30
0.0
 11
6.397850326040942
 21
8.214153228682843
 31
0.0
  0
LINE
  5
325
330
18
100
AcDbEntity
  8
0
100
AcDbLine
 10
6.397850326040942
 20
8.28103482679035
 30
0.0
 11
6.422588506152439
 21
8.273612314683241
 31
0.0
  0
LINE
  5
326
330
18
100
AcDbEntity
  8
0
100
AcDbLine
 10
6.3801778962408
 20
8.343145044165411
 30
0.0
 11
6.380177896240801
 21
8.276263446057905
 31
0.0
  0
LINE
  5
327
330
18
100
AcDbEntity
  8
0
100
AcDbLine
 10
6.355439716129302
 20
8.350567556272521
 30
0.0
 11
6.355439716129302
 21
8.283685958165012
 31
0.0
  0
LINE
  5
328
330
18
100
AcDbEntity
  8
0
100
AcDbLine
 10
6.355439716129302
 20
8.283685958165014
 30
0.0
 11
6.3801778962408
 21
8.298055914200271
 31
0.0
  0
LINE
  5
329
330
18
100
AcDbEntity
  8
0
100
AcDbLine
 10
6.380177896240801
 20
8.276263446057905
 30
0.0
 11
6.355439716129302
 21
8.283685958165012
 31
0.0
  0
LINE
  5
32A
330
18
100
AcDbEntity
  8
0
100
AcDbLine
 10
6.355439716129302
 20
8.350567556272521
 30
0.0
 11
6.3801778962408
 21
8.343145044165411
 31
0.0
  0
LINE
  5
32B
330
18
100
AcDbEntity
  8
0
100
AcDbLine
 10
6.30999092193721
 20
8.307396405845239
 30
0.0
 11
6.30999092193721
 21
8.240514807737732
 31
0.0
  0
LINE
  5
32C
330
18
100
AcDbEntity
  8
0
100
AcDbLine
 10
6.242842131914072
 20
8.384351647434519
 30
0.0
 11
6.267580312025569
 21
8.37692913532741
 31
0.0
  0
LINE
  5
32D
330
18
100
AcDbEntity
  8
0
100
AcDbLine
 10
6.153739119060346
 20
8.411086362304637
 30
0.0
 11
6.178477299171843
 21
8.403663850197528
 31
0.0
  0
LINE
  5
32E
330
18
100
AcDbEntity
  8
0
100
AcDbLine
 10
6.242842131914072
 20
8.317470049327014
 30
0.0
 11
6.267580312025569
 21
8.33184000536227
 31
0.0
  0
LINE
  5
32F
330
18
100
AcDbEntity
  8
0
100
AcDbLine
 10
6.26758031202557
 20
8.310047537219905
 30
0.0
 11
6.242842131914072
 21
8.317470049327012
 31
0.0
  0
LINE
  5
330
330
18
100
AcDbEntity
  8
0
100
AcDbLine
 10
6.196149728971987
 20
8.341553632822468
 30
0.0
 11
6.196149728971987
 21
8.274672034714961
 31
0.0
  0
LINE
  5
331
330
18
100
AcDbEntity
  8
0
100
AcDbLine
 10
6.220887909083483
 20
8.334131120715359
 30
0.0
 11
6.220887909083485
 21
8.267249522607854
 31
0.0
  0
LINE
  5
332
330
18
100
AcDbEntity
  8
0
100
AcDbLine
 10
6.196149728971987
 20
8.274672034714962
 30
0.0
 11
6.220887909083483
 21
8.289041990750219
 31
0.0
  0
LINE
  5
333
330
18
100
AcDbEntity
  8
0
100
AcDbLine
 10
6.220887909083485
 20
8.267249522607854
 30
0.0
 11
6.196149728971987
 21
8.274672034714961
 31
0.0
  0
LINE
  5
334
330
18
100
AcDbEntity
  8
0
100
AcDbLine
 10
6.196149728971987
 20
8.341553632822468
 30
0.0
 11
6.220887909083483
 21
8.334131120715359
 31
0.0
  0
LINE
  5
335
330
18
100
AcDbEntity
  8
0
100
AcDbLine
 10
6.285252741825713
 20
8.314818917952348
 30
0.0
 11
6.285252741825713
 21
8.247937319844841
 31
0.0
  0
LINE
  5
336
330
18
100
AcDbEntity
  8
0
100
AcDbLine
 10
6.178477299171844
 20
8.336782252090023
 30
0.0
 11
6.153739119060346
 21
8.34420476419713
 31
0.0
  0
LINE
  5
337
330
18
100
AcDbEntity
  8
0
100
AcDbLine
 10
6.153739119060346
 20
8.344204764197132
 30
0.0
 11
6.178477299171843
 21
8.358574720232388
 31
0.0
  0
LINE
  5
338
330
18
100
AcDbEntity
  8
0
100
AcDbLine
 10
6.153739119060346
 20
8.411086362304637
 30
0.0
 11
6.153739119060346
 21
8.34420476419713
 31
0.0
  0
LINE
  5
339
330
18
100
AcDbEntity
  8
0
100
AcDbLine
 10
6.178477299171843
 20
8.403663850197528
 30
0.0
 11
6.178477299171844
 21
8.336782252090023
 31
0.0
  0
LINE
  5
33A
330
18
100
AcDbEntity
  8
0
100
AcDbLine
 10
6.267580312025569
 20
8.37692913532741
 30
0.0
 11
6.26758031202557
 21
8.310047537219905
 31
0.0
  0
LINE
  5
33B
330
18
100
AcDbEntity
  8
0
100
AcDbLine
 10
6.242842131914072
 20
8.384351647434519
 30
0.0
 11
6.242842131914072
 21
8.317470049327012
 31
0.0
  0
LINE
  5
33C
330
18
100
AcDbEntity
  8
0
100
AcDbLine
 10
6.30999092193721
 20
8.240514807737732
 30
0.0
 11
6.285252741825713
 21
8.247937319844841
 31
0.0
  0
LINE
  5
33D
330
18
100
AcDbEntity
  8
0
100
AcDbLine
 10
6.285252741825713
 20
8.247937319844841
 30
0.0
 11
6.30999092193721
 21
8.262307275880099
 31
0.0
  0
LINE
  5
33E
330
18
100
AcDbEntity
  8
0
100
AcDbLine
 10
6.285252741825713
 20
8.314818917952348
 30
0.0
 11
6.30999092193721
 21
8.307396405845239
 31
0.0
  0
LINE
  5
33F
330
18
100
AcDbEntity
  8
0
100
AcDbLine
 10
6.529225725291311
 20
8.315340924066668
 30
0.0
 11
6.504487545179813
 21
8.322763436173775
 31
0.0
  0
LINE
  5
340
330
18
100
AcDbEntity
  8
0
100
AcDbLine
 10
6.504487545179813
 20
8.322763436173776
 30
0.0
 11
6.52922572529131
 21
8.337133392209033
 31
0.0
  0
LINE
  5
341
330
18
100
AcDbEntity
  8
0
100
AcDbLine
 10
6.52922572529131
 20
8.382222522174173
 30
0.0
 11
6.529225725291311
 21
8.315340924066668
 31
0.0
  0
LINE
  5
342
330
18
100
AcDbEntity
  8
0
100
AcDbLine
 10
6.504487545179813
 20
8.389645034281282
 30
0.0
 11
6.504487545179813
 21
8.322763436173775
 31
0.0
  0
LINE
  5
343
330
18
100
AcDbEntity
  8
0
100
AcDbLine
 10
6.504487545179813
 20
8.389645034281282
 30
0.0
 11
6.52922572529131
 21
8.382222522174173
 31
0.0
  0
LINE
  5
344
330
18
100
AcDbEntity
  8
0
100
AcDbLine
 10
6.486815115379669
 20
8.451755251656344
 30
0.0
 11
6.48681511537967
 21
8.384873653548839
 31
0.0
  0
LINE
  5
345
330
18
100
AcDbEntity
  8
0
100
AcDbLine
 10
6.462076935268173
 20
8.459177763763453
 30
0.0
 11
6.462076935268173
 21
8.392296165655946
 31
0.0
  0
LINE
  5
346
330
18
100
AcDbEntity
  8
0
100
AcDbLine
 10
6.462076935268173
 20
8.392296165655948
 30
0.0
 11
6.486815115379669
 21
8.406666121691204
 31
0.0
  0
LINE
  5
347
330
18
100
AcDbEntity
  8
0
100
AcDbLine
 10
6.48681511537967
 20
8.384873653548839
 30
0.0
 11
6.462076935268173
 21
8.392296165655946
 31
0.0
  0
LINE
  5
348
330
18
100
AcDbEntity
  8
0
100
AcDbLine
 10
6.462076935268173
 20
8.459177763763453
 30
0.0
 11
6.486815115379669
 21
8.451755251656344
 31
0.0
  0
LINE
  5
349
330
18
100
AcDbEntity
  8
0
100
AcDbLine
 10
6.42258850615244
 20
8.347336650775713
 30
0.0
 11
6.397850326040942
 21
8.35475916288282
 31
0.0
  0
LINE
  5
34A
330
18
100
AcDbEntity
  8
0
100
AcDbLine
 10
6.397850326040942
 20
8.354759162882822
 30
0.0
 11
6.422588506152439
 21
8.36912911891808
 31
0.0
  0
LINE
  5
34B
330
18
100
AcDbEntity
  8
0
100
AcDbLine
 10
6.422588506152439
 20
8.41421824888322
 30
0.0
 11
6.42258850615244
 21
8.347336650775713
 31
0.0
  0
LINE
  5
34C
330
18
100
AcDbEntity
  8
0
100
AcDbLine
 10
6.397850326040942
 20
8.421640760990329
 30
0.0
 11
6.397850326040942
 21
8.35475916288282
 31
0.0
  0
LINE
  5
34D
330
18
100
AcDbEntity
  8
0
100
AcDbLine
 10
6.397850326040942
 20
8.421640760990329
 30
0.0
 11
6.422588506152439
 21
8.41421824888322
 31
0.0
  0
LINE
  5
34E
330
18
100
AcDbEntity
  8
0
100
AcDbLine
 10
6.3801778962408
 20
8.483750978365389
 30
0.0
 11
6.380177896240801
 21
8.416869380257884
 31
0.0
  0
LINE
  5
34F
330
18
100
AcDbEntity
  8
0
100
AcDbLine
 10
6.355439716129302
 20
8.491173490472498
 30
0.0
 11
6.355439716129302
 21
8.424291892364991
 31
0.0
  0
LINE
  5
350
330
18
100
AcDbEntity
  8
0
100
AcDbLine
 10
6.355439716129302
 20
8.424291892364993
 30
0.0
 11
6.3801778962408
 21
8.438661848400249
 31
0.0
  0
LINE
  5
351
330
18
100
AcDbEntity
  8
0
100
AcDbLine
 10
6.380177896240801
 20
8.416869380257884
 30
0.0
 11
6.355439716129302
 21
8.424291892364991
 31
0.0
  0
LINE
  5
352
330
18
100
AcDbEntity
  8
0
100
AcDbLine
 10
6.355439716129302
 20
8.491173490472498
 30
0.0
 11
6.3801778962408
 21
8.483750978365389
 31
0.0
  0
LINE
  5
353
330
18
100
AcDbEntity
  8
0
100
AcDbLine
 10
6.30999092193721
 20
8.448002340045216
 30
0.0
 11
6.30999092193721
 21
8.381120741937711
 31
0.0
  0
LINE
  5
354
330
18
100
AcDbEntity
  8
0
100
AcDbLine
 10
6.242842131914072
 20
8.524957581634496
 30
0.0
 11
6.267580312025569
 21
8.517535069527387
 31
0.0
  0
LINE
  5
355
330
18
100
AcDbEntity
  8
0
100
AcDbLine
 10
6.153739119060346
 20
8.551692296504616
 30
0.0
 11
6.178477299171843
 21
8.544269784397507
 31
0.0
  0
LINE
  5
356
330
18
100
AcDbEntity
  8
0
100
AcDbLine
 10
6.242842131914072
 20
8.458075983526991
 30
0.0
 11
6.267580312025569
 21
8.472445939562247
 31
0.0
  0
LINE
  5
357
330
18
100
AcDbEntity
  8
0
100
AcDbLine
 10
6.26758031202557
 20
8.450653471419882
 30
0.0
 11
6.242842131914072
 21
8.458075983526989
 31
0.0
  0
LINE
  5
358
330
18
100
AcDbEntity
  8
0
100
AcDbLine
 10
6.196149728971987
 20
8.482159567022444
 30
0.0
 11
6.196149728971987
 21
8.415277968914937
 31
0.0
  0
LINE
  5
359
330
18
100
AcDbEntity
  8
0
100
AcDbLine
 10
6.220887909083483
 20
8.474737054915336
 30
0.0
 11
6.220887909083485
 21
8.40785545680783
 31
0.0
  0
LINE
  5
35A
330
18
100
AcDbEntity
  8
0
100
AcDbLine
 10
6.196149728971987
 20
8.415277968914939
 30
0.0
 11
6.220887909083483
 21
8.429647924950196
 31
0.0
  0
LINE
  5
35B
330
18
100
AcDbEntity
  8
0
100
AcDbLine
 10
6.220887909083485
 20
8.40785545680783
 30
0.0
 11
6.196149728971987
 21
8.415277968914937
 31
0.0
  0
LINE
  5
35C
330
18
100
AcDbEntity
  8
0
100
AcDbLine
 10
6.196149728971987
 20
8.482159567022444
 30
0.0
 11
6.220887909083483
 21
8.474737054915336
 31
0.0
  0
LINE
  5
35D
330
18
100
AcDbEntity
  8
0
100
AcDbLine
 10
6.285252741825713
 20
8.455424852152325
 30
0.0
 11
6.285252741825713
 21
8.388543254044818
 31
0.0
  0
LINE
  5
35E
330
18
100
AcDbEntity
  8
0
100
AcDbLine
 10
6.178477299171844
 20
8.47738818629
 30
0.0
 11
6.153739119060346
 21
8.484810698397109
 31
0.0
  0
LINE
  5
35F
330
18
100
AcDbEntity
  8
0
100
AcDbLine
 10
6.153739119060346
 20
8.484810698397109
 30
0.0
 11
6.178477299171843
 21
8.499180654432367
 31
0.0
  0
LINE
  5
360
330
18
100
AcDbEntity
  8
0
100
AcDbLine
 10
6.153739119060346
 20
8.551692296504616
 30
0.0
 11
6.153739119060346
 21
8.484810698397109
 31
0.0
  0
LINE
  5
361
330
18
100
AcDbEntity
  8
0
100
AcDbLine
 10
6.178477299171843
 20
8.544269784397507
 30
0.0
 11
6.178477299171844
 21
8.47738818629
 31
0.0
  0
LINE
  5
362
330
18
100
AcDbEntity
  8
0
100
AcDbLine
 10
6.267580312025569
 20
8.517535069527387
 30
0.0
 11
6.26758031202557
 21
8.450653471419882
 31
0.0
  0
LINE
  5
363
330
18
100
AcDbEntity
  8
0
100
AcDbLine
 10
6.242842131914072
 20
8.524957581634496
 30
0.0
 11
6.242842131914072
 21
8.458075983526989
 31
0.0
  0
LINE
  5
364
330
18
100
AcDbEntity
  8
0
100
AcDbLine
 10
6.30999092193721
 20
8.381120741937711
 30
0.0
 11
6.285252741825713
 21
8.388543254044818
 31
0.0
  0
LINE
  5
365
330
18
100
AcDbEntity
  8
0
100
AcDbLine
 10
6.285252741825713
 20
8.388543254044819
 30
0.0
 11
6.30999092193721
 21
8.402913210080076
 31
0.0
  0
LINE
  5
366
330
18
100
AcDbEntity
  8
0
100
AcDbLine
 10
6.285252741825713
 20
8.455424852152325
 30
0.0
 11
6.30999092193721
 21
8.448002340045216
 31
0.0
  0
LINE
  5
367
330
18
100
AcDbEntity
  8
0
100
AcDbLine
 10
6.529225725291311
 20
8.445368513456089
 30
0.0
 11
6.504487545179813
 21
8.452791025563197
 31
0.0
  0
LINE
  5
368
330
18
100
AcDbEntity
  8
0
100
AcDbLine
 10
6.504487545179813
 20
8.452791025563197
 30
0.0
 11
6.52922572529131
 21
8.467160981598456
 31
0.0
  0
LINE
  5
369
330
18
100
AcDbEntity
  8
0
100
AcDbLine
 10
6.52922572529131
 20
8.512250111563596
 30
0.0
 11
6.529225725291311
 21
8.445368513456089
 31
0.0
  0
LINE
  5
36A
330
18
100
AcDbEntity
  8
0
100
AcDbLine
 10
6.504487545179813
 20
8.519672623670704
 30
0.0
 11
6.504487545179813
 21
8.452791025563197
 31
0.0
  0
LINE
  5
36B
330
18
100
AcDbEntity
  8
0
100
AcDbLine
 10
6.504487545179813
 20
8.519672623670704
 30
0.0
 11
6.52922572529131
 21
8.512250111563596
 31
0.0
  0
LINE
  5
36C
330
18
100
AcDbEntity
  8
0
100
AcDbLine
 10
6.486815115379669
 20
8.581782841045767
 30
0.0
 11
6.48681511537967
 21
8.514901242938262
 31
0.0
  0
LINE
  5
36D
330
18
100
AcDbEntity
  8
0
100
AcDbLine
 10
6.462076935268173
 20
8.589205353152876
 30
0.0
 11
6.462076935268173
 21
8.522323755045369
 31
0.0
  0
LINE
  5
36E
330
18
100
AcDbEntity
  8
0
100
AcDbLine
 10
6.462076935268173
 20
8.52232375504537
 30
0.0
 11
6.486815115379669
 21
8.536693711080627
 31
0.0
  0
LINE
  5
36F
330
18
100
AcDbEntity
  8
0
100
AcDbLine
 10
6.48681511537967
 20
8.514901242938262
 30
0.0
 11
6.462076935268173
 21
8.522323755045369
 31
0.0
  0
LINE
  5
370
330
18
100
AcDbEntity
  8
0
100
AcDbLine
 10
6.462076935268173
 20
8.589205353152876
 30
0.0
 11
6.486815115379669
 21
8.581782841045767
 31
0.0
  0
LINE
  5
371
330
18
100
AcDbEntity
  8
0
100
AcDbLine
 10
6.42258850615244
 20
8.477364240165136
 30
0.0
 11
6.397850326040942
 21
8.484786752272242
 31
0.0
  0
LINE
  5
372
330
18
100
AcDbEntity
  8
0
100
AcDbLine
 10
6.397850326040942
 20
8.484786752272244
 30
0.0
 11
6.422588506152439
 21
8.499156708307501
 31
0.0
  0
LINE
  5
373
330
18
100
AcDbEntity
  8
0
100
AcDbLine
 10
6.422588506152439
 20
8.544245838272641
 30
0.0
 11
6.42258850615244
 21
8.477364240165136
 31
0.0
  0
LINE
  5
374
330
18
100
AcDbEntity
  8
0
100
AcDbLine
 10
6.397850326040942
 20
8.55166835037975
 30
0.0
 11
6.397850326040942
 21
8.484786752272242
 31
0.0
  0
LINE
  5
375
330
18
100
AcDbEntity
  8
0
100
AcDbLine
 10
6.397850326040942
 20
8.55166835037975
 30
0.0
 11
6.422588506152439
 21
8.544245838272641
 31
0.0
  0
LINE
  5
376
330
18
100
AcDbEntity
  8
0
100
AcDbLine
 10
6.3801778962408
 20
8.61377856775481
 30
0.0
 11
6.380177896240801
 21
8.546896969647305
 31
0.0
  0
LINE
  5
377
330
18
100
AcDbEntity
  8
0
100
AcDbLine
 10
6.355439716129302
 20
8.621201079861921
 30
0.0
 11
6.355439716129302
 21
8.554319481754412
 31
0.0
  0
LINE
  5
378
330
18
100
AcDbEntity
  8
0
100
AcDbLine
 10
6.355439716129302
 20
8.554319481754414
 30
0.0
 11
6.3801778962408
 21
8.568689437789672
 31
0.0
  0
LINE
  5
379
330
18
100
AcDbEntity
  8
0
100
AcDbLine
 10
6.380177896240801
 20
8.546896969647305
 30
0.0
 11
6.355439716129302
 21
8.554319481754412
 31
0.0
  0
LINE
  5
37A
330
18
100
AcDbEntity
  8
0
100
AcDbLine
 10
6.355439716129302
 20
8.621201079861921
 30
0.0
 11
6.3801778962408
 21
8.61377856775481
 31
0.0
  0
LINE
  5
37B
330
18
100
AcDbEntity
  8
0
100
AcDbLine
 10
6.30999092193721
 20
8.578029929434639
 30
0.0
 11
6.30999092193721
 21
8.511148331327131
 31
0.0
  0
LINE
  5
37C
330
18
100
AcDbEntity
  8
0
100
AcDbLine
 10
6.242842131914072
 20
8.654985171023919
 30
0.0
 11
6.267580312025569
 21
8.64756265891681
 31
0.0
  0
LINE
  5
37D
330
18
100
AcDbEntity
  8
0
100
AcDbLine
 10
6.153739119060346
 20
8.681719885894037
 30
0.0
 11
6.178477299171843
 21
8.674297373786928
 31
0.0
  0
LINE
  5
37E
330
18
100
AcDbEntity
  8
0
100
AcDbLine
 10
6.242842131914072
 20
8.588103572916413
 30
0.0
 11
6.267580312025569
 21
8.60247352895167
 31
0.0
  0
LINE
  5
37F
330
18
100
AcDbEntity
  8
0
100
AcDbLine
 10
6.26758031202557
 20
8.580681060809305
 30
0.0
 11
6.242842131914072
 21
8.588103572916412
 31
0.0
  0
LINE
  5
380
330
18
100
AcDbEntity
  8
0
100
AcDbLine
 10
6.196149728971987
 20
8.612187156411867
 30
0.0
 11
6.196149728971987
 21
8.54530555830436
 31
0.0
  0
LINE
  5
381
330
18
100
AcDbEntity
  8
0
100
AcDbLine
 10
6.220887909083483
 20
8.604764644304758
 30
0.0
 11
6.220887909083485
 21
8.537883046197253
 31
0.0
  0
LINE
  5
382
330
18
100
AcDbEntity
  8
0
100
AcDbLine
 10
6.196149728971987
 20
8.545305558304362
 30
0.0
 11
6.220887909083483
 21
8.559675514339618
 31
0.0
  0
LINE
  5
383
330
18
100
AcDbEntity
  8
0
100
AcDbLine
 10
6.220887909083485
 20
8.537883046197253
 30
0.0
 11
6.196149728971987
 21
8.54530555830436
 31
0.0
  0
LINE
  5
384
330
18
100
AcDbEntity
  8
0
100
AcDbLine
 10
6.196149728971987
 20
8.612187156411867
 30
0.0
 11
6.220887909083483
 21
8.604764644304758
 31
0.0
  0
LINE
  5
385
330
18
100
AcDbEntity
  8
0
100
AcDbLine
 10
6.285252741825713
 20
8.585452441541747
 30
0.0
 11
6.285252741825713
 21
8.51857084343424
 31
0.0
  0
LINE
  5
386
330
18
100
AcDbEntity
  8
0
100
AcDbLine
 10
6.178477299171844
 20
8.607415775679423
 30
0.0
 11
6.153739119060346
 21
8.61483828778653
 31
0.0
  0
LINE
  5
387
330
18
100
AcDbEntity
  8
0
100
AcDbLine
 10
6.153739119060346
 20
8.614838287786531
 30
0.0
 11
6.178477299171843
 21
8.629208243821788
 31
0.0
  0
LINE
  5
388
330
18
100
AcDbEntity
  8
0
100
AcDbLine
 10
6.153739119060346
 20
8.681719885894037
 30
0.0
 11
6.153739119060346
 21
8.61483828778653
 31
0.0
  0
LINE
  5
389
330
18
100
AcDbEntity
  8
0
100
AcDbLine
 10
6.178477299171843
 20
8.674297373786928
 30
0.0
 11
6.178477299171844
 21
8.607415775679423
 31
0.0
  0
LINE
  5
38A
330
18
100
AcDbEntity
  8
0
100
AcDbLine
 10
6.267580312025569
 20
8.64756265891681
 30
0.0
 11
6.26758031202557
 21
8.580681060809305
 31
0.0
  0
LINE
  5
38B
330
18
100
AcDbEntity
  8
0
100
AcDbLine
 10
6.242842131914072
 20
8.654985171023919
 30
0.0
 11
6.242842131914072
 21
8.588103572916412
 31
0.0
  0
LINE
  5
38C
330
18
100
AcDbEntity
  8
0
100
AcDbLine
 10
6.30999092193721
 20
8.511148331327131
 30
0.0
 11
6.285252741825713
 21
8.51857084343424
 31
0.0
  0
LINE
  5
38D
330
18
100
AcDbEntity
  8
0
100
AcDbLine
 10
6.285252741825713
 20
8.51857084343424
 30
0.0
 11
6.30999092193721
 21
8.532940799469499
 31
0.0
  0
LINE
  5
38E
330
18
100
AcDbEntity
  8
0
100
AcDbLine
 10
6.285252741825713
 20
8.585452441541747
 30
0.0
 11
6.30999092193721
 21
8.578029929434639
 31
0.0
  0
LINE
  5
38F
330
18
100
AcDbEntity
  8
0
100
AcDbLine
 10
6.529225725291311
 20
8.586861637144555
 30
0.0
 11
6.504487545179813
 21
8.594284149251662
 31
0.0
  0
LINE
  5
390
330
18
100
AcDbEntity
  8
0
100
AcDbLine
 10
6.504487545179813
 20
8.594284149251664
 30
0.0
 11
6.52922572529131
 21
8.60865410528692
 31
0.0
  0
LINE
  5
391
330
18
100
AcDbEntity
  8
0
100
AcDbLine
 10
6.52922572529131
 20
8.65374323525206
 30
0.0
 11
6.529225725291311
 21
8.586861637144555
 31
0.0
  0
LINE
  5
392
330
18
100
AcDbEntity
  8
0
100
AcDbLine
 10
6.504487545179813
 20
8.661165747359169
 30
0.0
 11
6.504487545179813
 21
8.594284149251662
 31
0.0
  0
LINE
  5
393
330
18
100
AcDbEntity
  8
0
100
AcDbLine
 10
6.504487545179813
 20
8.661165747359169
 30
0.0
 11
6.52922572529131
 21
8.65374323525206
 31
0.0
  0
LINE
  5
394
330
18
100
AcDbEntity
  8
0
100
AcDbLine
 10
6.486815115379669
 20
8.723275964734231
 30
0.0
 11
6.48681511537967
 21
8.656394366626726
 31
0.0
  0
LINE
  5
395
330
18
100
AcDbEntity
  8
0
100
AcDbLine
 10
6.462076935268173
 20
8.73069847684134
 30
0.0
 11
6.462076935268173
 21
8.663816878733833
 31
0.0
  0
LINE
  5
396
330
18
100
AcDbEntity
  8
0
100
AcDbLine
 10
6.462076935268173
 20
8.663816878733835
 30
0.0
 11
6.486815115379669
 21
8.678186834769091
 31
0.0
  0
LINE
  5
397
330
18
100
AcDbEntity
  8
0
100
AcDbLine
 10
6.48681511537967
 20
8.656394366626726
 30
0.0
 11
6.462076935268173
 21
8.663816878733833
 31
0.0
  0
LINE
  5
398
330
18
100
AcDbEntity
  8
0
100
AcDbLine
 10
6.462076935268173
 20
8.73069847684134
 30
0.0
 11
6.486815115379669
 21
8.723275964734231
 31
0.0
  0
LINE
  5
399
330
18
100
AcDbEntity
  8
0
100
AcDbLine
 10
6.42258850615244
 20
8.6188573638536
 30
0.0
 11
6.397850326040942
 21
8.626279875960707
 31
0.0
  0
LINE
  5
39A
330
18
100
AcDbEntity
  8
0
100
AcDbLine
 10
6.397850326040942
 20
8.626279875960709
 30
0.0
 11
6.422588506152439
 21
8.640649831995965
 31
0.0
  0
LINE
  5
39B
330
18
100
AcDbEntity
  8
0
100
AcDbLine
 10
6.422588506152439
 20
8.685738961961105
 30
0.0
 11
6.42258850615244
 21
8.6188573638536
 31
0.0
  0
LINE
  5
39C
330
18
100
AcDbEntity
  8
0
100
AcDbLine
 10
6.397850326040942
 20
8.693161474068216
 30
0.0
 11
6.397850326040942
 21
8.626279875960707
 31
0.0
  0
LINE
  5
39D
330
18
100
AcDbEntity
  8
0
100
AcDbLine
 10
6.397850326040942
 20
8.693161474068216
 30
0.0
 11
6.422588506152439
 21
8.685738961961105
 31
0.0
  0
LINE
  5
39E
330
18
100
AcDbEntity
  8
0
100
AcDbLine
 10
6.3801778962408
 20
8.755271691443276
 30
0.0
 11
6.380177896240801
 21
8.688390093335769
 31
0.0
  0
LINE
  5
39F
330
18
100
AcDbEntity
  8
0
100
AcDbLine
 10
6.355439716129302
 20
8.762694203550385
 30
0.0
 11
6.355439716129302
 21
8.695812605442878
 31
0.0
  0
LINE
  5
3A0
330
18
100
AcDbEntity
  8
0
100
AcDbLine
 10
6.355439716129302
 20
8.69581260544288
 30
0.0
 11
6.3801778962408
 21
8.710182561478137
 31
0.0
  0
LINE
  5
3A1
330
18
100
AcDbEntity
  8
0
100
AcDbLine
 10
6.380177896240801
 20
8.688390093335769
 30
0.0
 11
6.355439716129302
 21
8.695812605442878
 31
0.0
  0
LINE
  5
3A2
330
18
100
AcDbEntity
  8
0
100
AcDbLine
 10
6.355439716129302
 20
8.762694203550385
 30
0.0
 11
6.3801778962408
 21
8.755271691443276
 31
0.0
  0
LINE
  5
3A3
330
18
100
AcDbEntity
  8
0
100
AcDbLine
 10
6.30999092193721
 20
8.719523053123103
 30
0.0
 11
6.30999092193721
 21
8.652641455015598
 31
0.0
  0
LINE
  5
3A4
330
18
100
AcDbEntity
  8
0
100
AcDbLine
 10
6.242842131914072
 20
8.796478294712383
 30
0.0
 11
6.267580312025569
 21
8.789055782605274
 31
0.0
  0
LINE
  5
3A5
330
18
100
AcDbEntity
  8
0
100
AcDbLine
 10
6.153739119060346
 20
8.823213009582503
 30
0.0
 11
6.178477299171843
 21
8.815790497475394
 31
0.0
  0
LINE
  5
3A6
330
18
100
AcDbEntity
  8
0
100
AcDbLine
 10
6.242842131914072
 20
8.729596696604878
 30
0.0
 11
6.267580312025569
 21
8.743966652640134
 31
0.0
  0
LINE
  5
3A7
330
18
100
AcDbEntity
  8
0
100
AcDbLine
 10
6.26758031202557
 20
8.722174184497769
 30
0.0
 11
6.242842131914072
 21
8.729596696604876
 31
0.0
  0
LINE
  5
3A8
330
18
100
AcDbEntity
  8
0
100
AcDbLine
 10
6.196149728971987
 20
8.753680280100332
 30
0.0
 11
6.196149728971987
 21
8.686798681992825
 31
0.0
  0
LINE
  5
3A9
330
18
100
AcDbEntity
  8
0
100
AcDbLine
 10
6.220887909083483
 20
8.746257767993223
 30
0.0
 11
6.220887909083485
 21
8.679376169885718
 31
0.0
  0
LINE
  5
3AA
330
18
100
AcDbEntity
  8
0
100
AcDbLine
 10
6.196149728971987
 20
8.686798681992826
 30
0.0
 11
6.220887909083483
 21
8.701168638028083
 31
0.0
  0
LINE
  5
3AB
330
18
100
AcDbEntity
  8
0
100
AcDbLine
 10
6.220887909083485
 20
8.679376169885718
 30
0.0
 11
6.196149728971987
 21
8.686798681992825
 31
0.0
  0
LINE
  5
3AC
330
18
100
AcDbEntity
  8
0
100
AcDbLine
 10
6.196149728971987
 20
8.753680280100332
 30
0.0
 11
6.220887909083483
 21
8.746257767993223
 31
0.0
  0
LINE
  5
3AD
330
18
100
AcDbEntity
  8
0
100
AcDbLine
 10
6.285252741825713
 20
8.726945565230212
 30
0.0
 11
6.285252741825713
 21
8.660063967122705
 31
0.0
  0
LINE
  5
3AE
330
18
100
AcDbEntity
  8
0
100
AcDbLine
 10
6.178477299171844
 20
8.748908899367887
 30
0.0
 11
6.153739119060346
 21
8.756331411474994
 31
0.0
  0
LINE
  5
3AF
330
18
100
AcDbEntity
  8
0
100
AcDbLine
 10
6.153739119060346
 20
8.756331411474996
 30
0.0
 11
6.178477299171843
 21
8.770701367510252
 31
0.0
  0
LINE
  5
3B0
330
18
100
AcDbEntity
  8
0
100
AcDbLine
 10
6.153739119060346
 20
8.823213009582503
 30
0.0
 11
6.153739119060346
 21
8.756331411474994
 31
0.0
  0
LINE
  5
3B1
330
18
100
AcDbEntity
  8
0
100
AcDbLine
 10
6.178477299171843
 20
8.815790497475394
 30
0.0
 11
6.178477299171844
 21
8.748908899367887
 31
0.0
  0
LINE
  5
3B2
330
18
100
AcDbEntity
  8
0
100
AcDbLine
 10
6.267580312025569
 20
8.789055782605274
 30
0.0
 11
6.26758031202557
 21
8.722174184497769
 31
0.0
  0
LINE
  5
3B3
330
18
100
AcDbEntity
  8
0
100
AcDbLine
 10
6.242842131914072
 20
8.796478294712383
 30
0.0
 11
6.242842131914072
 21
8.729596696604876
 31
0.0
  0
LINE
  5
3B4
330
18
100
AcDbEntity
  8
0
100
AcDbLine
 10
6.30999092193721
 20
8.652641455015598
 30
0.0
 11
6.285252741825713
 21
8.660063967122705
 31
0.0
  0
LINE
  5
3B5
330
18
100
AcDbEntity
  8
0
100
AcDbLine
 10
6.285252741825713
 20
8.660063967122706
 30
0.0
 11
6.30999092193721
 21
8.674433923157963
 31
0.0
  0
LINE
  5
3B6
330
18
100
AcDbEntity
  8
0
100
AcDbLine
 10
6.285252741825713
 20
8.726945565230212
 30
0.0
 11
6.30999092193721
 21
8.719523053123103
 31
0.0
  0
LINE
  5
3B7
330
18
100
AcDbEntity
  8
0
100
AcDbLine
 10
6.529225725291311
 20
8.732891319206345
 30
0.0
 11
6.504487545179813
 21
8.740313831313454
 31
0.0
  0
LINE
  5
3B8
330
18
100
AcDbEntity
  8
0
100
AcDbLine
 10
6.504487545179813
 20
8.740313831313456
 30
0.0
 11
6.52922572529131
 21
8.754683787348712
 31
0.0
  0
LINE
  5
3B9
330
18
100
AcDbEntity
  8
0
100
AcDbLine
 10
6.52922572529131
 20
8.799772917313852
 30
0.0
 11
6.529225725291311
 21
8.732891319206345
 31
0.0
  0
LINE
  5
3BA
330
18
100
AcDbEntity
  8
0
100
AcDbLine
 10
6.504487545179813
 20
8.807195429420961
 30
0.0
 11
6.504487545179813
 21
8.740313831313454
 31
0.0
  0
LINE
  5
3BB
330
18
100
AcDbEntity
  8
0
100
AcDbLine
 10
6.504487545179813
 20
8.807195429420961
 30
0.0
 11
6.52922572529131
 21
8.799772917313852
 31
0.0
  0
LINE
  5
3BC
330
18
100
AcDbEntity
  8
0
100
AcDbLine
 10
6.486815115379669
 20
8.869305646796024
 30
0.0
 11
6.48681511537967
 21
8.802424048688518
 31
0.0
  0
LINE
  5
3BD
330
18
100
AcDbEntity
  8
0
100
AcDbLine
 10
6.462076935268173
 20
8.876728158903132
 30
0.0
 11
6.462076935268173
 21
8.809846560795625
 31
0.0
  0
LINE
  5
3BE
330
18
100
AcDbEntity
  8
0
100
AcDbLine
 10
6.462076935268173
 20
8.809846560795627
 30
0.0
 11
6.486815115379669
 21
8.824216516830884
 31
0.0
  0
LINE
  5
3BF
330
18
100
AcDbEntity
  8
0
100
AcDbLine
 10
6.48681511537967
 20
8.802424048688518
 30
0.0
 11
6.462076935268173
 21
8.809846560795625
 31
0.0
  0
LINE
  5
3C0
330
18
100
AcDbEntity
  8
0
100
AcDbLine
 10
6.462076935268173
 20
8.876728158903132
 30
0.0
 11
6.486815115379669
 21
8.869305646796024
 31
0.0
  0
LINE
  5
3C1
330
18
100
AcDbEntity
  8
0
100
AcDbLine
 10
6.42258850615244
 20
8.764887045915392
 30
0.0
 11
6.397850326040942
 21
8.772309558022499
 31
0.0
  0
LINE
  5
3C2
330
18
100
AcDbEntity
  8
0
100
AcDbLine
 10
6.397850326040942
 20
8.772309558022501
 30
0.0
 11
6.422588506152439
 21
8.786679514057758
 31
0.0
  0
LINE
  5
3C3
330
18
100
AcDbEntity
  8
0
100
AcDbLine
 10
6.422588506152439
 20
8.831768644022898
 30
0.0
 11
6.42258850615244
 21
8.764887045915392
 31
0.0
  0
LINE
  5
3C4
330
18
100
AcDbEntity
  8
0
100
AcDbLine
 10
6.397850326040942
 20
8.839191156130006
 30
0.0
 11
6.397850326040942
 21
8.772309558022499
 31
0.0
  0
LINE
  5
3C5
330
18
100
AcDbEntity
  8
0
100
AcDbLine
 10
6.397850326040942
 20
8.839191156130006
 30
0.0
 11
6.422588506152439
 21
8.831768644022898
 31
0.0
  0
LINE
  5
3C6
330
18
100
AcDbEntity
  8
0
100
AcDbLine
 10
6.3801778962408
 20
8.901301373505069
 30
0.0
 11
6.380177896240801
 21
8.834419775397562
 31
0.0
  0
LINE
  5
3C7
330
18
100
AcDbEntity
  8
0
100
AcDbLine
 10
6.355439716129302
 20
8.908723885612178
 30
0.0
 11
6.355439716129302
 21
8.841842287504671
 31
0.0
  0
LINE
  5
3C8
330
18
100
AcDbEntity
  8
0
100
AcDbLine
 10
6.355439716129302
 20
8.841842287504672
 30
0.0
 11
6.3801778962408
 21
8.856212243539929
 31
0.0
  0
LINE
  5
3C9
330
18
100
AcDbEntity
  8
0
100
AcDbLine
 10
6.380177896240801
 20
8.834419775397562
 30
0.0
 11
6.355439716129302
 21
8.841842287504671
 31
0.0
  0
LINE
  5
3CA
330
18
100
AcDbEntity
  8
0
100
AcDbLine
 10
6.355439716129302
 20
8.908723885612178
 30
0.0
 11
6.3801778962408
 21
8.901301373505069
 31
0.0
  0
LINE
  5
3CB
330
18
100
AcDbEntity
  8
0
100
AcDbLine
 10
6.30999092193721
 20
8.865552735184895
 30
0.0
 11
6.30999092193721
 21
8.798671137077388
 31
0.0
  0
LINE
  5
3CC
330
18
100
AcDbEntity
  8
0
100
AcDbLine
 10
6.242842131914072
 20
8.942507976774175
 30
0.0
 11
6.267580312025569
 21
8.935085464667067
 31
0.0
  0
LINE
  5
3CD
330
18
100
AcDbEntity
  8
0
100
AcDbLine
 10
6.153739119060346
 20
8.969242691644293
 30
0.0
 11
6.178477299171843
 21
8.961820179537185
 31
0.0
  0
LINE
  5
3CE
330
18
100
AcDbEntity
  8
0
100
AcDbLine
 10
6.242842131914072
 20
8.87562637866667
 30
0.0
 11
6.267580312025569
 21
8.889996334701927
 31
0.0
  0
LINE
  5
3CF
330
18
100
AcDbEntity
  8
0
100
AcDbLine
 10
6.26758031202557
 20
8.868203866559561
 30
0.0
 11
6.242842131914072
 21
8.875626378666668
 31
0.0
  0
LINE
  5
3D0
330
18
100
AcDbEntity
  8
0
100
AcDbLine
 10
6.196149728971987
 20
8.899709962162124
 30
0.0
 11
6.196149728971987
 21
8.832828364054617
 31
0.0
  0
LINE
  5
3D1
330
18
100
AcDbEntity
  8
0
100
AcDbLine
 10
6.220887909083483
 20
8.892287450055015
 30
0.0
 11
6.220887909083485
 21
8.82540585194751
 31
0.0
  0
LINE
  5
3D2
330
18
100
AcDbEntity
  8
0
100
AcDbLine
 10
6.196149728971987
 20
8.832828364054619
 30
0.0
 11
6.220887909083483
 21
8.847198320089875
 31
0.0
  0
LINE
  5
3D3
330
18
100
AcDbEntity
  8
0
100
AcDbLine
 10
6.220887909083485
 20
8.82540585194751
 30
0.0
 11
6.196149728971987
 21
8.832828364054617
 31
0.0
  0
LINE
  5
3D4
330
18
100
AcDbEntity
  8
0
100
AcDbLine
 10
6.196149728971987
 20
8.899709962162124
 30
0.0
 11
6.220887909083483
 21
8.892287450055015
 31
0.0
  0
LINE
  5
3D5
330
18
100
AcDbEntity
  8
0
100
AcDbLine
 10
6.285252741825713
 20
8.872975247292004
 30
0.0
 11
6.285252741825713
 21
8.806093649184497
 31
0.0
  0
LINE
  5
3D6
330
18
100
AcDbEntity
  8
0
100
AcDbLine
 10
6.178477299171844
 20
8.894938581429679
 30
0.0
 11
6.153739119060346
 21
8.902361093536786
 31
0.0
  0
LINE
  5
3D7
330
18
100
AcDbEntity
  8
0
100
AcDbLine
 10
6.153739119060346
 20
8.902361093536788
 30
0.0
 11
6.178477299171843
 21
8.916731049572045
 31
0.0
  0
LINE
  5
3D8
330
18
100
AcDbEntity
  8
0
100
AcDbLine
 10
6.153739119060346
 20
8.969242691644293
 30
0.0
 11
6.153739119060346
 21
8.902361093536786
 31
0.0
  0
LINE
  5
3D9
330
18
100
AcDbEntity
  8
0
100
AcDbLine
 10
6.178477299171843
 20
8.961820179537185
 30
0.0
 11
6.178477299171844
 21
8.894938581429679
 31
0.0
  0
LINE
  5
3DA
330
18
100
AcDbEntity
  8
0
100
AcDbLine
 10
6.267580312025569
 20
8.935085464667067
 30
0.0
 11
6.26758031202557
 21
8.868203866559561
 31
0.0
  0
LINE
  5
3DB
330
18
100
AcDbEntity
  8
0
100
AcDbLine
 10
6.242842131914072
 20
8.942507976774175
 30
0.0
 11
6.242842131914072
 21
8.875626378666668
 31
0.0
  0
LINE
  5
3DC
330
18
100
AcDbEntity
  8
0
100
AcDbLine
 10
6.30999092193721
 20
8.798671137077388
 30
0.0
 11
6.285252741825713
 21
8.806093649184497
 31
0.0
  0
LINE
  5
3DD
330
18
100
AcDbEntity
  8
0
100
AcDbLine
 10
6.285252741825713
 20
8.806093649184499
 30
0.0
 11
6.30999092193721
 21
8.820463605219755
 31
0.0
  0
LINE
  5
3DE
330
18
100
AcDbEntity
  8
0
100
AcDbLine
 10
6.285252741825713
 20
8.872975247292004
 30
0.0
 11
6.30999092193721
 21
8.865552735184895
 31
0.0
  0
LINE
  5
3DF
330
18
100
AcDbEntity
  8
0
100
AcDbLine
 10
6.504487545179813
 20
8.931799270948568
 30
0.0
 11
6.52922572529131
 21
8.92437675884146
 31
0.0
  0
LINE
  5
3E0
330
18
100
AcDbEntity
  8
0
100
AcDbLine
 10
6.504487545179813
 20
8.931799270948568
 30
0.0
 11
6.504487545179813
 21
8.864917672841061
 31
0.0
  0
LINE
  5
3E1
330
18
100
AcDbEntity
  8
0
100
AcDbLine
 10
6.52922572529131
 20
8.92437675884146
 30
0.0
 11
6.529225725291311
 21
8.857495160733954
 31
0.0
  0
LINE
  5
3E2
330
18
100
AcDbEntity
  8
0
100
AcDbLine
 10
6.504487545179813
 20
8.864917672841063
 30
0.0
 11
6.52922572529131
 21
8.87928762887632
 31
0.0
  0
LINE
  5
3E3
330
18
100
AcDbEntity
  8
0
100
AcDbLine
 10
6.529225725291311
 20
8.857495160733954
 30
0.0
 11
6.504487545179813
 21
8.864917672841061
 31
0.0
  0
LINE
  5
3E4
330
18
100
AcDbEntity
  8
0
100
AcDbLine
 10
6.397850326040942
 20
8.963794997657615
 30
0.0
 11
6.422588506152439
 21
8.956372485550505
 31
0.0
  0
LINE
  5
3E5
330
18
100
AcDbEntity
  8
0
100
AcDbLine
 10
6.397850326040942
 20
8.963794997657615
 30
0.0
 11
6.397850326040942
 21
8.896913399550106
 31
0.0
  0
LINE
  5
3E6
330
18
100
AcDbEntity
  8
0
100
AcDbLine
 10
6.422588506152439
 20
8.956372485550505
 30
0.0
 11
6.42258850615244
 21
8.889490887442999
 31
0.0
  0
LINE
  5
3E7
330
18
100
AcDbEntity
  8
0
100
AcDbLine
 10
6.397850326040942
 20
8.896913399550108
 30
0.0
 11
6.422588506152439
 21
8.911283355585365
 31
0.0
  0
LINE
  5
3E8
330
18
100
AcDbEntity
  8
0
100
AcDbLine
 10
6.42258850615244
 20
8.889490887442999
 30
0.0
 11
6.397850326040942
 21
8.896913399550106
 31
0.0
  0
LINE
  5
3E9
330
18
100
AcDbEntity
  8
0
100
AcDbLine
 10
6.285252741825713
 20
8.997579088819611
 30
0.0
 11
6.30999092193721
 21
8.990156576712503
 31
0.0
  0
LINE
  5
3EA
330
18
100
AcDbEntity
  8
0
100
AcDbLine
 10
6.285252741825713
 20
8.997579088819611
 30
0.0
 11
6.285252741825713
 21
8.930697490712104
 31
0.0
  0
LINE
  5
3EB
330
18
100
AcDbEntity
  8
0
100
AcDbLine
 10
6.30999092193721
 20
8.990156576712503
 30
0.0
 11
6.30999092193721
 21
8.923274978604997
 31
0.0
  0
LINE
  5
3EC
330
18
100
AcDbEntity
  8
0
100
AcDbLine
 10
6.285252741825713
 20
8.930697490712106
 30
0.0
 11
6.30999092193721
 21
8.945067446747363
 31
0.0
  0
LINE
  5
3ED
330
18
100
AcDbEntity
  8
0
100
AcDbLine
 10
6.30999092193721
 20
8.923274978604997
 30
0.0
 11
6.285252741825713
 21
8.930697490712104
 31
0.0
  0
LINE
  5
3EE
330
18
100
AcDbEntity
  8
0
100
AcDbLine
 10
6.196149728971987
 20
9.024313803689731
 30
0.0
 11
6.220887909083483
 21
9.016891291582622
 31
0.0
  0
LINE
  5
3EF
330
18
100
AcDbEntity
  8
0
100
AcDbLine
 10
6.220887909083485
 20
8.950009693475117
 30
0.0
 11
6.196149728971987
 21
8.957432205582224
 31
0.0
  0
LINE
  5
3F0
330
18
100
AcDbEntity
  8
0
100
AcDbLine
 10
6.196149728971987
 20
8.957432205582226
 30
0.0
 11
6.220887909083483
 21
8.971802161617482
 31
0.0
  0
LINE
  5
3F1
330
18
100
AcDbEntity
  8
0
100
AcDbLine
 10
6.220887909083483
 20
9.016891291582622
 30
0.0
 11
6.220887909083485
 21
8.950009693475117
 31
0.0
  0
LINE
  5
3F2
330
18
100
AcDbEntity
  8
0
100
AcDbLine
 10
6.196149728971987
 20
9.024313803689731
 30
0.0
 11
6.196149728971987
 21
8.957432205582224
 31
0.0
  0
LINE
  5
3F3
330
18
100
AcDbEntity
  8
0
100
AcDbLine
 10
6.462076935268173
 20
9.00133200043074
 30
0.0
 11
6.486815115379669
 21
8.993909488323631
 31
0.0
  0
LINE
  5
3F4
330
18
100
AcDbEntity
  8
0
100
AcDbLine
 10
6.48681511537967
 20
8.927027890216126
 30
0.0
 11
6.462076935268173
 21
8.934450402323233
 31
0.0
  0
LINE
  5
3F5
330
18
100
AcDbEntity
  8
0
100
AcDbLine
 10
6.462076935268173
 20
8.934450402323234
 30
0.0
 11
6.486815115379669
 21
8.948820358358491
 31
0.0
  0
LINE
  5
3F6
330
18
100
AcDbEntity
  8
0
100
AcDbLine
 10
6.462076935268173
 20
9.00133200043074
 30
0.0
 11
6.462076935268173
 21
8.934450402323233
 31
0.0
  0
LINE
  5
3F7
330
18
100
AcDbEntity
  8
0
100
AcDbLine
 10
6.486815115379669
 20
8.993909488323631
 30
0.0
 11
6.48681511537967
 21
8.927027890216126
 31
0.0
  0
LINE
  5
3F8
330
18
100
AcDbEntity
  8
0
100
AcDbLine
 10
6.355439716129302
 20
9.033327727139785
 30
0.0
 11
6.3801778962408
 21
9.025905215032676
 31
0.0
  0
LINE
  5
3F9
330
18
100
AcDbEntity
  8
0
100
AcDbLine
 10
6.380177896240801
 20
8.959023616925171
 30
0.0
 11
6.355439716129302
 21
8.966446129032278
 31
0.0
  0
LINE
  5
3FA
330
18
100
AcDbEntity
  8
0
100
AcDbLine
 10
6.355439716129302
 20
8.966446129032279
 30
0.0
 11
6.3801778962408
 21
8.980816085067536
 31
0.0
  0
LINE
  5
3FB
330
18
100
AcDbEntity
  8
0
100
AcDbLine
 10
6.355439716129302
 20
9.033327727139785
 30
0.0
 11
6.355439716129302
 21
8.966446129032278
 31
0.0
  0
LINE
  5
3FC
330
18
100
AcDbEntity
  8
0
100
AcDbLine
 10
6.3801778962408
 20
9.025905215032676
 30
0.0
 11
6.380177896240801
 21
8.959023616925171
 31
0.0
  0
LINE
  5
3FD
330
18
100
AcDbEntity
  8
0
100
AcDbLine
 10
6.242842131914072
 20
9.067111818301783
 30
0.0
 11
6.267580312025569
 21
9.059689306194674
 31
0.0
  0
LINE
  5
3FE
330
18
100
AcDbEntity
  8
0
100
AcDbLine
 10
6.26758031202557
 20
8.992807708087169
 30
0.0
 11
6.242842131914072
 21
9.000230220194275
 31
0.0
  0
LINE
  5
3FF
330
18
100
AcDbEntity
  8
0
100
AcDbLine
 10
6.242842131914072
 20
9.000230220194277
 30
0.0
 11
6.267580312025569
 21
9.014600176229534
 31
0.0
  0
LINE
  5
400
330
18
100
AcDbEntity
  8
0
100
AcDbLine
 10
6.242842131914072
 20
9.067111818301783
 30
0.0
 11
6.242842131914072
 21
9.000230220194275
 31
0.0
  0
LINE
  5
401
330
18
100
AcDbEntity
  8
0
100
AcDbLine
 10
6.267580312025569
 20
9.059689306194674
 30
0.0
 11
6.26758031202557
 21
8.992807708087169
 31
0.0
  0
LINE
  5
402
330
18
100
AcDbEntity
  8
0
100
AcDbLine
 10
6.153739119060346
 20
9.026964935064395
 30
0.0
 11
6.178477299171843
 21
9.041334891099652
 31
0.0
  0
LINE
  5
403
330
18
100
AcDbEntity
  8
0
100
AcDbLine
 10
6.178477299171844
 20
9.019542422957287
 30
0.0
 11
6.153739119060346
 21
9.026964935064394
 31
0.0
  0
LINE
  5
404
330
18
100
AcDbEntity
  8
0
100
AcDbLine
 10
6.178477299171843
 20
9.086424021064794
 30
0.0
 11
6.178477299171844
 21
9.019542422957287
 31
0.0
  0
LINE
  5
405
330
18
100
AcDbEntity
  8
0
100
AcDbLine
 10
6.153739119060346
 20
9.093846533171902
 30
0.0
 11
6.153739119060346
 21
9.026964935064394
 31
0.0
  0
LINE
  5
406
330
18
100
AcDbEntity
  8
0
100
AcDbLine
 10
6.153739119060346
 20
9.093846533171902
 30
0.0
 11
6.178477299171843
 21
9.086424021064794
 31
0.0
  0
LINE
  5
407
330
18
100
AcDbEntity
  8
0
100
AcDbLine
 10
6.840931062171411
 20
7.158171174944433
 30
0.0
 11
6.058978377492755
 21
6.721849919918217
 31
0.0
  0
LINE
  5
408
330
18
100
AcDbEntity
  8
0
100
AcDbLine
 10
6.716836616132169
 20
7.205965864142719
 30
0.0
 11
6.716836616132169
 21
7.164101983493726
 31
0.0
  0
LINE
  5
409
330
18
100
AcDbEntity
  8
0
100
AcDbLine
 10
6.639990121368717
 20
7.163086339976453
 30
0.0
 11
6.639990121368717
 21
7.12122245932746
 31
0.0
  0
LINE
  5
40A
330
18
100
AcDbEntity
  8
0
100
AcDbLine
 10
6.639990121368717
 20
7.12122245932746
 30
0.0
 11
6.716836616132169
 21
7.164101983493726
 31
0.0
  0
LINE
  5
40B
330
18
100
AcDbEntity
  8
0
100
AcDbLine
 10
6.678494512598775
 20
7.184571379461193
 30
0.0
 11
6.716836616132169
 21
7.164101983493726
 31
0.0
  0
LINE
  5
40C
330
18
100
AcDbEntity
  8
0
100
AcDbLine
 10
6.71683661613217
 20
7.20596586414272
 30
0.0
 11
6.639990121368717
 21
7.163086339976453
 31
0.0
  0
LINE
  5
40D
330
18
100
AcDbEntity
  8
0
100
AcDbLine
 10
6.546424640901659
 20
7.110877800170372
 30
0.0
 11
6.584766744435054
 21
7.090408404202905
 31
0.0
  0
LINE
  5
40E
330
18
100
AcDbEntity
  8
0
100
AcDbLine
 10
6.584766744435055
 20
7.132272284851899
 30
0.0
 11
6.507920249671602
 21
7.089392760685632
 31
0.0
  0
LINE
  5
40F
330
18
100
AcDbEntity
  8
0
100
AcDbLine
 10
6.584766744435054
 20
7.132272284851898
 30
0.0
 11
6.584766744435054
 21
7.090408404202905
 31
0.0
  0
LINE
  5
410
330
18
100
AcDbEntity
  8
0
100
AcDbLine
 10
6.507920249671602
 20
7.089392760685632
 30
0.0
 11
6.507920249671602
 21
7.047528880036639
 31
0.0
  0
LINE
  5
411
330
18
100
AcDbEntity
  8
0
100
AcDbLine
 10
6.507920249671602
 20
7.047528880036639
 30
0.0
 11
6.584766744435054
 21
7.090408404202905
 31
0.0
  0
LINE
  5
412
330
18
100
AcDbEntity
  8
0
100
AcDbLine
 10
6.418679392770505
 20
7.039597314687896
 30
0.0
 11
6.4570214963039
 21
7.019127918720428
 31
0.0
  0
LINE
  5
413
330
18
100
AcDbEntity
  8
0
100
AcDbLine
 10
6.4570214963039
 20
7.060991799369421
 30
0.0
 11
6.4570214963039
 21
7.019127918720428
 31
0.0
  0
LINE
  5
414
330
18
100
AcDbEntity
  8
0
100
AcDbLine
 10
6.380175001540447
 20
7.018112275203156
 30
0.0
 11
6.380175001540447
 21
6.976248394554163
 31
0.0
  0
LINE
  5
415
330
18
100
AcDbEntity
  8
0
100
AcDbLine
 10
6.380175001540447
 20
6.976248394554163
 30
0.0
 11
6.4570214963039
 21
7.019127918720428
 31
0.0
  0
LINE
  5
416
330
18
100
AcDbEntity
  8
0
100
AcDbLine
 10
6.4570214963039
 20
7.060991799369422
 30
0.0
 11
6.380175001540447
 21
7.018112275203156
 31
0.0
  0
LINE
  5
417
330
18
100
AcDbEntity
  8
0
100
AcDbLine
 10
6.318867484390035
 20
6.983903334752236
 30
0.0
 11
6.318867484390035
 21
6.942039454103242
 31
0.0
  0
LINE
  5
418
330
18
100
AcDbEntity
  8
0
100
AcDbLine
 10
6.242020989626583
 20
6.941023810585969
 30
0.0
 11
6.242020989626583
 21
6.899159929936976
 31
0.0
  0
LINE
  5
419
330
18
100
AcDbEntity
  8
0
100
AcDbLine
 10
6.318867484390036
 20
6.983903334752236
 30
0.0
 11
6.242020989626583
 21
6.941023810585969
 31
0.0
  0
LINE
  5
41A
330
18
100
AcDbEntity
  8
0
100
AcDbLine
 10
6.28052538085664
 20
6.96250885007071
 30
0.0
 11
6.318867484390035
 21
6.942039454103242
 31
0.0
  0
LINE
  5
41B
330
18
100
AcDbEntity
  8
0
100
AcDbLine
 10
6.242020989626583
 20
6.899159929936976
 30
0.0
 11
6.318867484390035
 21
6.942039454103242
 31
0.0
  0
LINE
  5
41C
330
18
100
AcDbEntity
  8
0
100
AcDbLine
 10
6.098185632628171
 20
6.860765216028575
 30
0.0
 11
6.098185632628171
 21
6.818901335379582
 31
0.0
  0
LINE
  5
41D
330
18
100
AcDbEntity
  8
0
100
AcDbLine
 10
6.098185632628171
 20
6.818901335379582
 30
0.0
 11
6.175032127391623
 21
6.861780859545848
 31
0.0
  0
LINE
  5
41E
330
18
100
AcDbEntity
  8
0
100
AcDbLine
 10
6.136690023858228
 20
6.882250255513315
 30
0.0
 11
6.175032127391623
 21
6.861780859545848
 31
0.0
  0
LINE
  5
41F
330
18
100
AcDbEntity
  8
0
100
AcDbLine
 10
6.175032127391623
 20
6.903644740194841
 30
0.0
 11
6.175032127391623
 21
6.861780859545848
 31
0.0
  0
LINE
  5
420
330
18
100
AcDbEntity
  8
0
100
AcDbLine
 10
6.175032127391624
 20
6.903644740194842
 30
0.0
 11
6.098185632628171
 21
6.860765216028575
 31
0.0
  0
LINE
  5
421
330
18
100
AcDbEntity
  8
0
100
AcDbLine
 10
6.246949805890829
 20
7.049753239839916
 30
0.0
 11
6.246949805890829
 21
7.007889359190923
 31
0.0
  0
LINE
  5
422
330
18
100
AcDbEntity
  8
0
100
AcDbLine
 10
6.208607702357434
 20
7.02835875515839
 30
0.0
 11
6.246949805890829
 21
7.007889359190923
 31
0.0
  0
LINE
  5
423
330
18
100
AcDbEntity
  8
0
100
AcDbLine
 10
6.170103311127376
 20
7.00687371567365
 30
0.0
 11
6.170103311127376
 21
6.965009835024657
 31
0.0
  0
LINE
  5
424
330
18
100
AcDbEntity
  8
0
100
AcDbLine
 10
6.24694980589083
 20
7.049753239839916
 30
0.0
 11
6.170103311127376
 21
7.00687371567365
 31
0.0
  0
LINE
  5
425
330
18
100
AcDbEntity
  8
0
100
AcDbLine
 10
6.170103311127376
 20
6.965009835024657
 30
0.0
 11
6.246949805890829
 21
7.007889359190923
 31
0.0
  0
LINE
  5
426
330
18
100
AcDbEntity
  8
0
100
AcDbLine
 10
6.528939174803106
 20
7.207100299014495
 30
0.0
 11
6.528939174803106
 21
7.165236418365502
 31
0.0
  0
LINE
  5
427
330
18
100
AcDbEntity
  8
0
100
AcDbLine
 10
6.579837928170807
 20
7.235501260330707
 30
0.0
 11
6.579837928170807
 21
7.193637379681714
 31
0.0
  0
LINE
  5
428
330
18
100
AcDbEntity
  8
0
100
AcDbLine
 10
6.579837928170807
 20
7.193637379681714
 30
0.0
 11
6.656684422934259
 21
7.23651690384798
 31
0.0
  0
LINE
  5
429
330
18
100
AcDbEntity
  8
0
100
AcDbLine
 10
6.452092680039653
 20
7.16422077484823
 30
0.0
 11
6.452092680039653
 21
7.122356894199237
 31
0.0
  0
LINE
  5
42A
330
18
100
AcDbEntity
  8
0
100
AcDbLine
 10
6.313938668125788
 20
7.045268429582051
 30
0.0
 11
6.39078516288924
 21
7.088147953748317
 31
0.0
  0
LINE
  5
42B
330
18
100
AcDbEntity
  8
0
100
AcDbLine
 10
6.313938668125788
 20
7.087132310231044
 30
0.0
 11
6.313938668125788
 21
7.045268429582051
 31
0.0
  0
LINE
  5
42C
330
18
100
AcDbEntity
  8
0
100
AcDbLine
 10
6.352443059355846
 20
7.108617349715784
 30
0.0
 11
6.39078516288924
 21
7.088147953748317
 31
0.0
  0
LINE
  5
42D
330
18
100
AcDbEntity
  8
0
100
AcDbLine
 10
6.390785162889241
 20
7.13001183439731
 30
0.0
 11
6.313938668125788
 21
7.087132310231044
 31
0.0
  0
LINE
  5
42E
330
18
100
AcDbEntity
  8
0
100
AcDbLine
 10
6.39078516288924
 20
7.13001183439731
 30
0.0
 11
6.39078516288924
 21
7.088147953748317
 31
0.0
  0
LINE
  5
42F
330
18
100
AcDbEntity
  8
0
100
AcDbLine
 10
6.528939174803107
 20
7.207100299014496
 30
0.0
 11
6.452092680039653
 21
7.16422077484823
 31
0.0
  0
LINE
  5
430
330
18
100
AcDbEntity
  8
0
100
AcDbLine
 10
6.452092680039653
 20
7.122356894199237
 30
0.0
 11
6.528939174803106
 21
7.165236418365502
 31
0.0
  0
LINE
  5
431
330
18
100
AcDbEntity
  8
0
100
AcDbLine
 10
6.49059707126971
 20
7.18570581433297
 30
0.0
 11
6.528939174803106
 21
7.165236418365502
 31
0.0
  0
LINE
  5
432
330
18
100
AcDbEntity
  8
0
100
AcDbLine
 10
6.716836616132169
 20
7.418819652351511
 30
0.0
 11
6.716836616132169
 21
7.376955771702518
 31
0.0
  0
LINE
  5
433
330
18
100
AcDbEntity
  8
0
100
AcDbLine
 10
6.75041219109798
 20
7.330679879106267
 30
0.0
 11
6.788754294631375
 21
7.3102104831388
 31
0.0
  0
LINE
  5
434
330
18
100
AcDbEntity
  8
0
100
AcDbLine
 10
6.788754294631375
 20
7.352074363787793
 30
0.0
 11
6.788754294631375
 21
7.3102104831388
 31
0.0
  0
LINE
  5
435
330
18
100
AcDbEntity
  8
0
100
AcDbLine
 10
6.639990121368717
 20
7.375940128185246
 30
0.0
 11
6.639990121368717
 21
7.334076247536252
 31
0.0
  0
LINE
  5
436
330
18
100
AcDbEntity
  8
0
100
AcDbLine
 10
6.639990121368717
 20
7.334076247536252
 30
0.0
 11
6.716836616132169
 21
7.376955771702518
 31
0.0
  0
LINE
  5
437
330
18
100
AcDbEntity
  8
0
100
AcDbLine
 10
6.678494512598775
 20
7.397425167669986
 30
0.0
 11
6.716836616132169
 21
7.376955771702518
 31
0.0
  0
LINE
  5
438
330
18
100
AcDbEntity
  8
0
100
AcDbLine
 10
6.71683661613217
 20
7.418819652351512
 30
0.0
 11
6.639990121368717
 21
7.375940128185246
 31
0.0
  0
LINE
  5
439
330
18
100
AcDbEntity
  8
0
100
AcDbLine
 10
6.788754294631376
 20
7.352074363787794
 30
0.0
 11
6.711907799867923
 21
7.309194839621528
 31
0.0
  0
LINE
  5
43A
330
18
100
AcDbEntity
  8
0
100
AcDbLine
 10
6.656684422934259
 20
7.278380784496973
 30
0.0
 11
6.656684422934259
 21
7.23651690384798
 31
0.0
  0
LINE
  5
43B
330
18
100
AcDbEntity
  8
0
100
AcDbLine
 10
6.618342319400864
 20
7.256986299815447
 30
0.0
 11
6.656684422934259
 21
7.23651690384798
 31
0.0
  0
LINE
  5
43C
330
18
100
AcDbEntity
  8
0
100
AcDbLine
 10
6.65668442293426
 20
7.278380784496974
 30
0.0
 11
6.579837928170807
 21
7.235501260330707
 31
0.0
  0
LINE
  5
43D
330
18
100
AcDbEntity
  8
0
100
AcDbLine
 10
6.711907799867923
 20
7.267330958972535
 30
0.0
 11
6.788754294631375
 21
7.3102104831388
 31
0.0
  0
LINE
  5
43E
330
18
100
AcDbEntity
  8
0
100
AcDbLine
 10
6.711907799867923
 20
7.309194839621528
 30
0.0
 11
6.711907799867923
 21
7.267330958972535
 31
0.0
  0
LINE
  5
43F
330
18
100
AcDbEntity
  8
0
100
AcDbLine
 10
6.546424640901659
 20
7.323731588379165
 30
0.0
 11
6.584766744435054
 21
7.303262192411697
 31
0.0
  0
LINE
  5
440
330
18
100
AcDbEntity
  8
0
100
AcDbLine
 10
6.584766744435055
 20
7.345126073060691
 30
0.0
 11
6.507920249671602
 21
7.302246548894425
 31
0.0
  0
LINE
  5
441
330
18
100
AcDbEntity
  8
0
100
AcDbLine
 10
6.584766744435054
 20
7.34512607306069
 30
0.0
 11
6.584766744435054
 21
7.303262192411697
 31
0.0
  0
LINE
  5
442
330
18
100
AcDbEntity
  8
0
100
AcDbLine
 10
6.507920249671602
 20
7.302246548894425
 30
0.0
 11
6.507920249671602
 21
7.260382668245432
 31
0.0
  0
LINE
  5
443
330
18
100
AcDbEntity
  8
0
100
AcDbLine
 10
6.507920249671602
 20
7.260382668245432
 30
0.0
 11
6.584766744435054
 21
7.303262192411697
 31
0.0
  0
LINE
  5
444
330
18
100
AcDbEntity
  8
0
100
AcDbLine
 10
6.418679392770505
 20
7.252451102896687
 30
0.0
 11
6.4570214963039
 21
7.23198170692922
 31
0.0
  0
LINE
  5
445
330
18
100
AcDbEntity
  8
0
100
AcDbLine
 10
6.4570214963039
 20
7.273845587578213
 30
0.0
 11
6.4570214963039
 21
7.23198170692922
 31
0.0
  0
LINE
  5
446
330
18
100
AcDbEntity
  8
0
100
AcDbLine
 10
6.380175001540447
 20
7.230966063411948
 30
0.0
 11
6.380175001540447
 21
7.189102182762955
 31
0.0
  0
LINE
  5
447
330
18
100
AcDbEntity
  8
0
100
AcDbLine
 10
6.380175001540447
 20
7.189102182762955
 30
0.0
 11
6.4570214963039
 21
7.23198170692922
 31
0.0
  0
LINE
  5
448
330
18
100
AcDbEntity
  8
0
100
AcDbLine
 10
6.4570214963039
 20
7.273845587578214
 30
0.0
 11
6.380175001540447
 21
7.230966063411948
 31
0.0
  0
LINE
  5
449
330
18
100
AcDbEntity
  8
0
100
AcDbLine
 10
6.318867484390035
 20
7.196757122961028
 30
0.0
 11
6.318867484390035
 21
7.154893242312035
 31
0.0
  0
LINE
  5
44A
330
18
100
AcDbEntity
  8
0
100
AcDbLine
 10
6.242020989626583
 20
7.153877598794763
 30
0.0
 11
6.242020989626583
 21
7.11201371814577
 31
0.0
  0
LINE
  5
44B
330
18
100
AcDbEntity
  8
0
100
AcDbLine
 10
6.318867484390036
 20
7.196757122961029
 30
0.0
 11
6.242020989626583
 21
7.153877598794763
 31
0.0
  0
LINE
  5
44C
330
18
100
AcDbEntity
  8
0
100
AcDbLine
 10
6.28052538085664
 20
7.175362638279502
 30
0.0
 11
6.318867484390035
 21
7.154893242312035
 31
0.0
  0
LINE
  5
44D
330
18
100
AcDbEntity
  8
0
100
AcDbLine
 10
6.242020989626583
 20
7.11201371814577
 30
0.0
 11
6.318867484390035
 21
7.154893242312035
 31
0.0
  0
LINE
  5
44E
330
18
100
AcDbEntity
  8
0
100
AcDbLine
 10
6.098185632628171
 20
7.073619004237368
 30
0.0
 11
6.098185632628171
 21
7.031755123588375
 31
0.0
  0
LINE
  5
44F
330
18
100
AcDbEntity
  8
0
100
AcDbLine
 10
6.098185632628171
 20
7.031755123588375
 30
0.0
 11
6.175032127391623
 21
7.074634647754641
 31
0.0
  0
LINE
  5
450
330
18
100
AcDbEntity
  8
0
100
AcDbLine
 10
6.136690023858228
 20
7.095104043722108
 30
0.0
 11
6.175032127391623
 21
7.074634647754641
 31
0.0
  0
LINE
  5
451
330
18
100
AcDbEntity
  8
0
100
AcDbLine
 10
6.175032127391623
 20
7.116498528403634
 30
0.0
 11
6.175032127391623
 21
7.074634647754641
 31
0.0
  0
LINE
  5
452
330
18
100
AcDbEntity
  8
0
100
AcDbLine
 10
6.175032127391624
 20
7.116498528403635
 30
0.0
 11
6.098185632628171
 21
7.073619004237368
 31
0.0
  0
LINE
  5
453
330
18
100
AcDbEntity
  8
0
100
AcDbLine
 10
6.246949805890829
 20
7.252804824704958
 30
0.0
 11
6.246949805890829
 21
7.210940944055965
 31
0.0
  0
LINE
  5
454
330
18
100
AcDbEntity
  8
0
100
AcDbLine
 10
6.208607702357434
 20
7.231410340023432
 30
0.0
 11
6.246949805890829
 21
7.210940944055965
 31
0.0
  0
LINE
  5
455
330
18
100
AcDbEntity
  8
0
100
AcDbLine
 10
6.170103311127376
 20
7.209925300538692
 30
0.0
 11
6.170103311127376
 21
7.168061419889699
 31
0.0
  0
LINE
  5
456
330
18
100
AcDbEntity
  8
0
100
AcDbLine
 10
6.24694980589083
 20
7.252804824704958
 30
0.0
 11
6.170103311127376
 21
7.209925300538692
 31
0.0
  0
LINE
  5
457
330
18
100
AcDbEntity
  8
0
100
AcDbLine
 10
6.170103311127376
 20
7.168061419889699
 30
0.0
 11
6.246949805890829
 21
7.210940944055965
 31
0.0
  0
LINE
  5
458
330
18
100
AcDbEntity
  8
0
100
AcDbLine
 10
6.528939174803106
 20
7.410151883879538
 30
0.0
 11
6.528939174803106
 21
7.368288003230544
 31
0.0
  0
LINE
  5
459
330
18
100
AcDbEntity
  8
0
100
AcDbLine
 10
6.579837928170807
 20
7.438552845195749
 30
0.0
 11
6.579837928170807
 21
7.396688964546756
 31
0.0
  0
LINE
  5
45A
330
18
100
AcDbEntity
  8
0
100
AcDbLine
 10
6.579837928170807
 20
7.396688964546756
 30
0.0
 11
6.656684422934259
 21
7.439568488713022
 31
0.0
  0
LINE
  5
45B
330
18
100
AcDbEntity
  8
0
100
AcDbLine
 10
6.452092680039653
 20
7.367272359713272
 30
0.0
 11
6.452092680039653
 21
7.325408479064279
 31
0.0
  0
LINE
  5
45C
330
18
100
AcDbEntity
  8
0
100
AcDbLine
 10
6.313938668125788
 20
7.248320014447093
 30
0.0
 11
6.39078516288924
 21
7.291199538613359
 31
0.0
  0
LINE
  5
45D
330
18
100
AcDbEntity
  8
0
100
AcDbLine
 10
6.313938668125788
 20
7.290183895096086
 30
0.0
 11
6.313938668125788
 21
7.248320014447093
 31
0.0
  0
LINE
  5
45E
330
18
100
AcDbEntity
  8
0
100
AcDbLine
 10
6.352443059355846
 20
7.311668934580826
 30
0.0
 11
6.39078516288924
 21
7.291199538613359
 31
0.0
  0
LINE
  5
45F
330
18
100
AcDbEntity
  8
0
100
AcDbLine
 10
6.390785162889241
 20
7.333063419262353
 30
0.0
 11
6.313938668125788
 21
7.290183895096086
 31
0.0
  0
LINE
  5
460
330
18
100
AcDbEntity
  8
0
100
AcDbLine
 10
6.39078516288924
 20
7.333063419262352
 30
0.0
 11
6.39078516288924
 21
7.291199538613359
 31
0.0
  0
LINE
  5
461
330
18
100
AcDbEntity
  8
0
100
AcDbLine
 10
6.528939174803107
 20
7.410151883879538
 30
0.0
 11
6.452092680039653
 21
7.367272359713272
 31
0.0
  0
LINE
  5
462
330
18
100
AcDbEntity
  8
0
100
AcDbLine
 10
6.452092680039653
 20
7.325408479064279
 30
0.0
 11
6.528939174803106
 21
7.368288003230544
 31
0.0
  0
LINE
  5
463
330
18
100
AcDbEntity
  8
0
100
AcDbLine
 10
6.49059707126971
 20
7.388757399198012
 30
0.0
 11
6.528939174803106
 21
7.368288003230544
 31
0.0
  0
LINE
  5
464
330
18
100
AcDbEntity
  8
0
100
AcDbLine
 10
6.716836616132169
 20
7.621871237216554
 30
0.0
 11
6.716836616132169
 21
7.580007356567561
 31
0.0
  0
LINE
  5
465
330
18
100
AcDbEntity
  8
0
100
AcDbLine
 10
6.75041219109798
 20
7.533731463971309
 30
0.0
 11
6.788754294631375
 21
7.513262068003842
 31
0.0
  0
LINE
  5
466
330
18
100
AcDbEntity
  8
0
100
AcDbLine
 10
6.788754294631375
 20
7.555125948652835
 30
0.0
 11
6.788754294631375
 21
7.513262068003842
 31
0.0
  0
LINE
  5
467
330
18
100
AcDbEntity
  8
0
100
AcDbLine
 10
6.639990121368717
 20
7.578991713050288
 30
0.0
 11
6.639990121368717
 21
7.537127832401295
 31
0.0
  0
LINE
  5
468
330
18
100
AcDbEntity
  8
0
100
AcDbLine
 10
6.639990121368717
 20
7.537127832401295
 30
0.0
 11
6.716836616132169
 21
7.580007356567561
 31
0.0
  0
LINE
  5
469
330
18
100
AcDbEntity
  8
0
100
AcDbLine
 10
6.678494512598775
 20
7.600476752535028
 30
0.0
 11
6.716836616132169
 21
7.580007356567561
 31
0.0
  0
LINE
  5
46A
330
18
100
AcDbEntity
  8
0
100
AcDbLine
 10
6.71683661613217
 20
7.621871237216555
 30
0.0
 11
6.639990121368717
 21
7.578991713050288
 31
0.0
  0
LINE
  5
46B
330
18
100
AcDbEntity
  8
0
100
AcDbLine
 10
6.788754294631376
 20
7.555125948652836
 30
0.0
 11
6.711907799867923
 21
7.51224642448657
 31
0.0
  0
LINE
  5
46C
330
18
100
AcDbEntity
  8
0
100
AcDbLine
 10
6.656684422934259
 20
7.481432369362015
 30
0.0
 11
6.656684422934259
 21
7.439568488713022
 31
0.0
  0
LINE
  5
46D
330
18
100
AcDbEntity
  8
0
100
AcDbLine
 10
6.618342319400864
 20
7.460037884680489
 30
0.0
 11
6.656684422934259
 21
7.439568488713022
 31
0.0
  0
LINE
  5
46E
330
18
100
AcDbEntity
  8
0
100
AcDbLine
 10
6.65668442293426
 20
7.481432369362016
 30
0.0
 11
6.579837928170807
 21
7.438552845195749
 31
0.0
  0
LINE
  5
46F
330
18
100
AcDbEntity
  8
0
100
AcDbLine
 10
6.711907799867923
 20
7.470382543837577
 30
0.0
 11
6.788754294631375
 21
7.513262068003842
 31
0.0
  0
LINE
  5
470
330
18
100
AcDbEntity
  8
0
100
AcDbLine
 10
6.711907799867923
 20
7.51224642448657
 30
0.0
 11
6.711907799867923
 21
7.470382543837577
 31
0.0
  0
LINE
  5
471
330
18
100
AcDbEntity
  8
0
100
AcDbLine
 10
6.546424640901659
 20
7.526783173244207
 30
0.0
 11
6.584766744435054
 21
7.506313777276739
 31
0.0
  0
LINE
  5
472
330
18
100
AcDbEntity
  8
0
100
AcDbLine
 10
6.584766744435055
 20
7.548177657925733
 30
0.0
 11
6.507920249671602
 21
7.505298133759467
 31
0.0
  0
LINE
  5
473
330
18
100
AcDbEntity
  8
0
100
AcDbLine
 10
6.584766744435054
 20
7.548177657925733
 30
0.0
 11
6.584766744435054
 21
7.506313777276739
 31
0.0
  0
LINE
  5
474
330
18
100
AcDbEntity
  8
0
100
AcDbLine
 10
6.507920249671602
 20
7.505298133759467
 30
0.0
 11
6.507920249671602
 21
7.463434253110474
 31
0.0
  0
LINE
  5
475
330
18
100
AcDbEntity
  8
0
100
AcDbLine
 10
6.507920249671602
 20
7.463434253110474
 30
0.0
 11
6.584766744435054
 21
7.506313777276739
 31
0.0
  0
LINE
  5
476
330
18
100
AcDbEntity
  8
0
100
AcDbLine
 10
6.418679392770505
 20
7.455502687761729
 30
0.0
 11
6.4570214963039
 21
7.435033291794262
 31
0.0
  0
LINE
  5
477
330
18
100
AcDbEntity
  8
0
100
AcDbLine
 10
6.4570214963039
 20
7.476897172443255
 30
0.0
 11
6.4570214963039
 21
7.435033291794262
 31
0.0
  0
LINE
  5
478
330
18
100
AcDbEntity
  8
0
100
AcDbLine
 10
6.380175001540447
 20
7.43401764827699
 30
0.0
 11
6.380175001540447
 21
7.392153767627997
 31
0.0
  0
LINE
  5
479
330
18
100
AcDbEntity
  8
0
100
AcDbLine
 10
6.380175001540447
 20
7.392153767627997
 30
0.0
 11
6.4570214963039
 21
7.435033291794262
 31
0.0
  0
LINE
  5
47A
330
18
100
AcDbEntity
  8
0
100
AcDbLine
 10
6.4570214963039
 20
7.476897172443256
 30
0.0
 11
6.380175001540447
 21
7.43401764827699
 31
0.0
  0
LINE
  5
47B
330
18
100
AcDbEntity
  8
0
100
AcDbLine
 10
6.318867484390035
 20
7.39980870782607
 30
0.0
 11
6.318867484390035
 21
7.357944827177077
 31
0.0
  0
LINE
  5
47C
330
18
100
AcDbEntity
  8
0
100
AcDbLine
 10
6.242020989626583
 20
7.356929183659805
 30
0.0
 11
6.242020989626583
 21
7.315065303010812
 31
0.0
  0
LINE
  5
47D
330
18
100
AcDbEntity
  8
0
100
AcDbLine
 10
6.318867484390036
 20
7.399808707826071
 30
0.0
 11
6.242020989626583
 21
7.356929183659805
 31
0.0
  0
LINE
  5
47E
330
18
100
AcDbEntity
  8
0
100
AcDbLine
 10
6.28052538085664
 20
7.378414223144544
 30
0.0
 11
6.318867484390035
 21
7.357944827177077
 31
0.0
  0
LINE
  5
47F
330
18
100
AcDbEntity
  8
0
100
AcDbLine
 10
6.242020989626583
 20
7.315065303010812
 30
0.0
 11
6.318867484390035
 21
7.357944827177077
 31
0.0
  0
LINE
  5
480
330
18
100
AcDbEntity
  8
0
100
AcDbLine
 10
6.098185632628171
 20
7.27667058910241
 30
0.0
 11
6.098185632628171
 21
7.234806708453417
 31
0.0
  0
LINE
  5
481
330
18
100
AcDbEntity
  8
0
100
AcDbLine
 10
6.098185632628171
 20
7.234806708453417
 30
0.0
 11
6.175032127391623
 21
7.277686232619683
 31
0.0
  0
LINE
  5
482
330
18
100
AcDbEntity
  8
0
100
AcDbLine
 10
6.136690023858228
 20
7.29815562858715
 30
0.0
 11
6.175032127391623
 21
7.277686232619683
 31
0.0
  0
LINE
  5
483
330
18
100
AcDbEntity
  8
0
100
AcDbLine
 10
6.175032127391623
 20
7.319550113268676
 30
0.0
 11
6.175032127391623
 21
7.277686232619683
 31
0.0
  0
LINE
  5
484
330
18
100
AcDbEntity
  8
0
100
AcDbLine
 10
6.175032127391624
 20
7.319550113268677
 30
0.0
 11
6.098185632628171
 21
7.27667058910241
 31
0.0
  0
LINE
  5
485
330
18
100
AcDbEntity
  8
0
100
AcDbLine
 10
6.313938668125788
 20
7.493892701607599
 30
0.0
 11
6.313938668125788
 21
7.452028820958606
 31
0.0
  0
LINE
  5
486
330
18
100
AcDbEntity
  8
0
100
AcDbLine
 10
6.313938668125788
 20
7.452028820958606
 30
0.0
 11
6.39078516288924
 21
7.494908345124872
 31
0.0
  0
LINE
  5
487
330
18
100
AcDbEntity
  8
0
100
AcDbLine
 10
6.788754294631375
 20
7.758834755164348
 30
0.0
 11
6.788754294631375
 21
7.716970874515355
 31
0.0
  0
LINE
  5
488
330
18
100
AcDbEntity
  8
0
100
AcDbLine
 10
6.711907799867923
 20
7.715955230998083
 30
0.0
 11
6.711907799867923
 21
7.67409135034909
 31
0.0
  0
LINE
  5
489
330
18
100
AcDbEntity
  8
0
100
AcDbLine
 10
6.618342319400864
 20
7.663746691192002
 30
0.0
 11
6.656684422934259
 21
7.643277295224535
 31
0.0
  0
LINE
  5
48A
330
18
100
AcDbEntity
  8
0
100
AcDbLine
 10
6.65668442293426
 20
7.685141175873529
 30
0.0
 11
6.579837928170807
 21
7.642261651707262
 31
0.0
  0
LINE
  5
48B
330
18
100
AcDbEntity
  8
0
100
AcDbLine
 10
6.656684422934259
 20
7.685141175873528
 30
0.0
 11
6.656684422934259
 21
7.643277295224535
 31
0.0
  0
LINE
  5
48C
330
18
100
AcDbEntity
  8
0
100
AcDbLine
 10
6.711907799867923
 20
7.67409135034909
 30
0.0
 11
6.788754294631375
 21
7.716970874515355
 31
0.0
  0
LINE
  5
48D
330
18
100
AcDbEntity
  8
0
100
AcDbLine
 10
6.75041219109798
 20
7.737440270482823
 30
0.0
 11
6.788754294631375
 21
7.716970874515355
 31
0.0
  0
LINE
  5
48E
330
18
100
AcDbEntity
  8
0
100
AcDbLine
 10
6.788754294631376
 20
7.758834755164349
 30
0.0
 11
6.711907799867923
 21
7.715955230998083
 31
0.0
  0
LINE
  5
48F
330
18
100
AcDbEntity
  8
0
100
AcDbLine
 10
6.579837928170807
 20
7.642261651707262
 30
0.0
 11
6.579837928170807
 21
7.600397771058269
 31
0.0
  0
LINE
  5
490
330
18
100
AcDbEntity
  8
0
100
AcDbLine
 10
6.579837928170807
 20
7.600397771058269
 30
0.0
 11
6.656684422934259
 21
7.643277295224535
 31
0.0
  0
LINE
  5
491
330
18
100
AcDbEntity
  8
0
100
AcDbLine
 10
6.49059707126971
 20
7.592466205709525
 30
0.0
 11
6.528939174803106
 21
7.571996809742058
 31
0.0
  0
LINE
  5
492
330
18
100
AcDbEntity
  8
0
100
AcDbLine
 10
6.528939174803106
 20
7.613860690391051
 30
0.0
 11
6.528939174803106
 21
7.571996809742058
 31
0.0
  0
LINE
  5
493
330
18
100
AcDbEntity
  8
0
100
AcDbLine
 10
6.39078516288924
 20
7.536772225773865
 30
0.0
 11
6.39078516288924
 21
7.494908345124872
 31
0.0
  0
LINE
  5
494
330
18
100
AcDbEntity
  8
0
100
AcDbLine
 10
6.452092680039653
 20
7.570981166224786
 30
0.0
 11
6.452092680039653
 21
7.529117285575793
 31
0.0
  0
LINE
  5
495
330
18
100
AcDbEntity
  8
0
100
AcDbLine
 10
6.452092680039653
 20
7.529117285575793
 30
0.0
 11
6.528939174803106
 21
7.571996809742058
 31
0.0
  0
LINE
  5
496
330
18
100
AcDbEntity
  8
0
100
AcDbLine
 10
6.528939174803107
 20
7.613860690391052
 30
0.0
 11
6.452092680039653
 21
7.570981166224786
 31
0.0
  0
LINE
  5
497
330
18
100
AcDbEntity
  8
0
100
AcDbLine
 10
6.390785162889241
 20
7.536772225773866
 30
0.0
 11
6.313938668125788
 21
7.493892701607599
 31
0.0
  0
LINE
  5
498
330
18
100
AcDbEntity
  8
0
100
AcDbLine
 10
6.352443059355846
 20
7.51537774109234
 30
0.0
 11
6.39078516288924
 21
7.494908345124872
 31
0.0
  0
LINE
  5
499
330
18
100
AcDbEntity
  8
0
100
AcDbLine
 10
6.170103311127376
 20
7.413634107050205
 30
0.0
 11
6.170103311127376
 21
7.371770226401212
 31
0.0
  0
LINE
  5
49A
330
18
100
AcDbEntity
  8
0
100
AcDbLine
 10
6.170103311127376
 20
7.371770226401212
 30
0.0
 11
6.246949805890829
 21
7.414649750567478
 31
0.0
  0
LINE
  5
49B
330
18
100
AcDbEntity
  8
0
100
AcDbLine
 10
6.24694980589083
 20
7.456513631216472
 30
0.0
 11
6.170103311127376
 21
7.413634107050205
 31
0.0
  0
LINE
  5
49C
330
18
100
AcDbEntity
  8
0
100
AcDbLine
 10
6.208607702357434
 20
7.435119146534945
 30
0.0
 11
6.246949805890829
 21
7.414649750567478
 31
0.0
  0
LINE
  5
49D
330
18
100
AcDbEntity
  8
0
100
AcDbLine
 10
6.246949805890829
 20
7.456513631216471
 30
0.0
 11
6.246949805890829
 21
7.414649750567478
 31
0.0
  0
LINE
  5
49E
330
18
100
AcDbEntity
  8
0
100
AcDbLine
 10
6.716836616132169
 20
7.825580043728067
 30
0.0
 11
6.716836616132169
 21
7.783716163079074
 31
0.0
  0
LINE
  5
49F
330
18
100
AcDbEntity
  8
0
100
AcDbLine
 10
6.639990121368717
 20
7.782700519561801
 30
0.0
 11
6.639990121368717
 21
7.740836638912808
 31
0.0
  0
LINE
  5
4A0
330
18
100
AcDbEntity
  8
0
100
AcDbLine
 10
6.71683661613217
 20
7.825580043728068
 30
0.0
 11
6.639990121368717
 21
7.782700519561801
 31
0.0
  0
LINE
  5
4A1
330
18
100
AcDbEntity
  8
0
100
AcDbLine
 10
6.678494512598775
 20
7.804185559046541
 30
0.0
 11
6.716836616132169
 21
7.783716163079074
 31
0.0
  0
LINE
  5
4A2
330
18
100
AcDbEntity
  8
0
100
AcDbLine
 10
6.639990121368717
 20
7.740836638912808
 30
0.0
 11
6.716836616132169
 21
7.783716163079074
 31
0.0
  0
LINE
  5
4A3
330
18
100
AcDbEntity
  8
0
100
AcDbLine
 10
6.584766744435054
 20
7.751886464437246
 30
0.0
 11
6.584766744435054
 21
7.710022583788253
 31
0.0
  0
LINE
  5
4A4
330
18
100
AcDbEntity
  8
0
100
AcDbLine
 10
6.507920249671602
 20
7.709006940270981
 30
0.0
 11
6.507920249671602
 21
7.667143059621988
 31
0.0
  0
LINE
  5
4A5
330
18
100
AcDbEntity
  8
0
100
AcDbLine
 10
6.584766744435055
 20
7.751886464437247
 30
0.0
 11
6.507920249671602
 21
7.709006940270981
 31
0.0
  0
LINE
  5
4A6
330
18
100
AcDbEntity
  8
0
100
AcDbLine
 10
6.546424640901659
 20
7.73049197975572
 30
0.0
 11
6.584766744435054
 21
7.710022583788253
 31
0.0
  0
LINE
  5
4A7
330
18
100
AcDbEntity
  8
0
100
AcDbLine
 10
6.507920249671602
 20
7.667143059621988
 30
0.0
 11
6.584766744435054
 21
7.710022583788253
 31
0.0
  0
LINE
  5
4A8
330
18
100
AcDbEntity
  8
0
100
AcDbLine
 10
6.4570214963039
 20
7.680605978954769
 30
0.0
 11
6.4570214963039
 21
7.638742098305776
 31
0.0
  0
LINE
  5
4A9
330
18
100
AcDbEntity
  8
0
100
AcDbLine
 10
6.380175001540447
 20
7.637726454788504
 30
0.0
 11
6.380175001540447
 21
7.595862574139511
 31
0.0
  0
LINE
  5
4AA
330
18
100
AcDbEntity
  8
0
100
AcDbLine
 10
6.4570214963039
 20
7.68060597895477
 30
0.0
 11
6.380175001540447
 21
7.637726454788504
 31
0.0
  0
LINE
  5
4AB
330
18
100
AcDbEntity
  8
0
100
AcDbLine
 10
6.418679392770505
 20
7.659211494273244
 30
0.0
 11
6.4570214963039
 21
7.638742098305776
 31
0.0
  0
LINE
  5
4AC
330
18
100
AcDbEntity
  8
0
100
AcDbLine
 10
6.380175001540447
 20
7.595862574139511
 30
0.0
 11
6.4570214963039
 21
7.638742098305776
 31
0.0
  0
LINE
  5
4AD
330
18
100
AcDbEntity
  8
0
100
AcDbLine
 10
6.242020989626583
 20
7.560637990171317
 30
0.0
 11
6.242020989626583
 21
7.518774109522325
 31
0.0
  0
LINE
  5
4AE
330
18
100
AcDbEntity
  8
0
100
AcDbLine
 10
6.242020989626583
 20
7.518774109522325
 30
0.0
 11
6.318867484390035
 21
7.56165363368859
 31
0.0
  0
LINE
  5
4AF
330
18
100
AcDbEntity
  8
0
100
AcDbLine
 10
6.28052538085664
 20
7.582123029656057
 30
0.0
 11
6.318867484390035
 21
7.56165363368859
 31
0.0
  0
LINE
  5
4B0
330
18
100
AcDbEntity
  8
0
100
AcDbLine
 10
6.318867484390035
 20
7.603517514337583
 30
0.0
 11
6.318867484390035
 21
7.56165363368859
 31
0.0
  0
LINE
  5
4B1
330
18
100
AcDbEntity
  8
0
100
AcDbLine
 10
6.318867484390036
 20
7.603517514337584
 30
0.0
 11
6.242020989626583
 21
7.560637990171317
 31
0.0
  0
LINE
  5
4B2
330
18
100
AcDbEntity
  8
0
100
AcDbLine
 10
6.136690023858228
 20
7.501864435098663
 30
0.0
 11
6.175032127391623
 21
7.481395039131196
 31
0.0
  0
LINE
  5
4B3
330
18
100
AcDbEntity
  8
0
100
AcDbLine
 10
6.098185632628171
 20
7.43851551496493
 30
0.0
 11
6.175032127391623
 21
7.481395039131196
 31
0.0
  0
LINE
  5
4B4
330
18
100
AcDbEntity
  8
0
100
AcDbLine
 10
6.175032127391623
 20
7.523258919780189
 30
0.0
 11
6.175032127391623
 21
7.481395039131196
 31
0.0
  0
LINE
  5
4B5
330
18
100
AcDbEntity
  8
0
100
AcDbLine
 10
6.175032127391624
 20
7.52325891978019
 30
0.0
 11
6.098185632628171
 21
7.480379395613923
 31
0.0
  0
LINE
  5
4B6
330
18
100
AcDbEntity
  8
0
100
AcDbLine
 10
6.098185632628171
 20
7.480379395613923
 30
0.0
 11
6.098185632628171
 21
7.43851551496493
 31
0.0
  0
LWPOLYLINE
  5
4B7
330
18
100
AcDbEntity
  8
0
100
AcDbPolyline
 90
        2
 70
     0
 43
0.0
 10
9.934235159303199
 20
7.912183384781622
 10
9.958960306924693
 20
7.851527440376835
  0
LWPOLYLINE
  5
4BC
330
18
100
AcDbEntity
  8
0
100
AcDbPolyline
 90
        2
 70
     0
 43
0.0
 10
9.988305411211783
 20
7.952723740973646
 10
10.01103419028437
 20
7.836355779896588
  0
LWPOLYLINE
  5
4C1
330
18
100
AcDbEntity
  8
0
100
AcDbPolyline
 90
        2
 70
     0
 43
0.0
 10
10.03795858144598
 20
7.98995229339025
 10
10.04905654104651
 20
7.825278015781327
  0
LWPOLYLINE
  5
4C6
330
18
100
AcDbEntity
  8
0
100
AcDbPolyline
 90
        7
 70
     0
 43
0.0
 10
10.30957128889485
 20
7.697317617840307
 10
10.33225148711638
 20
7.609836140449586
 10
10.34116904988199
 20
7.511995649377216
 10
10.3358890490404
 20
7.43113067840646
 10
10.33237691561558
 20
7.347446036078852
 10
10.33187923372135
 20
7.266223505524037
 10
10.40781506723245
 20
7.197100598070852
  0
LWPOLYLINE
  5
4D0
330
18
100
AcDbEntity
  8
0
100
AcDbPolyline
 90
       10
 70
     0
 43
0.0
 10
10.28290182051403
 20
7.676598498219827
 10
10.31055456370361
 20
7.594365848411879
 10
10.30168420375547
 20
7.513558369401627
 10
10.29318710967279
 20
7.470893537204901
 10
10.29988531347443
 20
7.421472204963967
 10
10.30389985199167
 20
7.373024300152279
 10
10.30340823353474
 20
7.32278764337349
 10
10.30113053957002
 20
7.273510041033815
 10
10.30414423766474
 20
7.241218762953679
 10
10.37975328650279
 20
7.172020825135984
  0
LWPOLYLINE
  5
4DD
330
18
100
AcDbEntity
  8
0
100
AcDbPolyline
 90
       12
 70
     0
 43
0.0
 10
10.25224084953518
 20
7.652778438655098
 10
10.27019943993695
 20
7.598733866803014
 10
10.27939922811304
 20
7.529732937955506
 10
10.27364042358776
 20
7.491676529082737
 10
10.26603181523621
 20
7.448067015437017
 10
10.26305682049584
 20
7.419270572182533
 10
10.26551288464277
 20
7.395039433281626
 10
10.27316330249405
 20
7.351185578803767
 10
10.27519147650254
 20
7.283229942336133
 10
10.27120053939404
 20
7.24235386210651
 10
10.26603886823379
 20
7.206864514219546
 10
10.34554346992503
 20
7.141446342348182
  0
LWPOLYLINE
  5
4EC
330
18
100
AcDbEntity
  8
0
100
AcDbPolyline
 90
        9
 70
     0
 43
0.0
 10
10.21862314594866
 20
7.626661336805558
 10
10.23291574468341
 20
7.550016811078255
 10
10.23221473317998
 20
7.478383059745534
 10
10.22539446605908
 20
7.42359547160329
 10
10.23034301053496
 20
7.378854427636943
 10
10.24238123276893
 20
7.324695315160922
 10
10.24355733722828
 20
7.261405593977747
 10
10.22970275950459
 20
7.174105358857572
 10
10.30302228517547
 20
7.102342641880972
  0
LWPOLYLINE
  5
4F8
330
18
100
AcDbEntity
  8
0
100
AcDbPolyline
 90
        8
 70
     0
 43
0.0
 10
10.17847434876803
 20
7.595470323939248
 10
10.19092189272693
 20
7.386929306873418
 10
10.1887534473082
 20
7.348815406040142
 10
10.1930320031449
 20
7.327346446535584
 10
10.19734697516361
 20
7.309598720866489
 10
10.20320221346161
 20
7.265773612368884
 10
10.18185790121098
 20
7.130970383734262
 10
10.26414473097812
 20
7.067292222818876
  0
LWPOLYLINE
  5
503
330
18
100
AcDbEntity
  8
0
100
AcDbPolyline
 90
        2
 70
     0
 43
0.0
 10
10.32227408254117
 20
7.068639410416187
 10
10.29523475401876
 20
7.095321721040213
  0
LWPOLYLINE
  5
508
330
18
100
AcDbEntity
  8
0
100
AcDbPolyline
 90
        9
 70
     0
 43
0.0
 10
10.34988972562089
 20
6.523890156707095
 10
10.33292617797768
 20
6.577951583685113
 10
10.32454204316874
 20
6.638565363412697
 10
10.32240462061427
 20
6.695357298373931
 10
10.32557080031012
 20
6.743690219264613
 10
10.32625360372255
 20
6.813463353679602
 10
10.32257591488877
 20
6.896332671469351
 10
10.3203929721068
 20
6.948473064136252
 10
10.35830569384985
 20
7.017157787200988
  0
LWPOLYLINE
  5
514
330
18
100
AcDbEntity
  8
0
100
AcDbPolyline
 90
       10
 70
     0
 43
0.0
 10
10.32443227935964
 20
6.500938760248914
 10
10.30678682590922
 20
6.56720469889237
 10
10.30057113651902
 20
6.665932379453228
 10
10.29402770149085
 20
6.731168955494892
 10
10.29540780567893
 20
6.78046093082469
 10
10.2996354479704
 20
6.845525030984843
 10
10.30027273115533
 20
6.910646623105498
 10
10.30717493468571
 20
6.97380698737754
 10
10.29490527790822
 20
7.043964811115423
 10
10.25806476410653
 20
7.061810772374457
  0
LWPOLYLINE
  5
521
330
18
100
AcDbEntity
  8
0
100
AcDbPolyline
 90
       12
 70
     0
 43
0.0
 10
10.29232567813174
 20
6.471992756547529
 10
10.27769979123689
 20
6.530452296221741
 10
10.28268846262252
 20
6.581547396508769
 10
10.28585464231837
 20
6.629880317399451
 10
10.28265575716828
 20
6.669941073091215
 10
10.27237629830558
 20
6.720350205751517
 10
10.26384649876867
 20
6.766079050137236
 10
10.26359529622245
 20
6.832145323706884
 10
10.27219253480562
 20
6.88504354895114
 10
10.27449754090684
 20
6.937112076667415
 10
10.25761269257797
 20
7.010343335415096
 10
10.22200489081276
 20
7.029410354214161
  0
LWPOLYLINE
  5
530
330
18
100
AcDbEntity
  8
0
100
AcDbPolyline
 90
       11
 70
     0
 43
0.0
 10
10.25269544141992
 20
6.436263749593328
 10
10.24702697005776
 20
6.515125734085293
 10
10.24849811470083
 20
6.573720794003757
 10
10.24472028136656
 20
6.646356718745976
 10
10.23620868992064
 20
6.693946180049428
 10
10.23032613948614
 20
6.734980363170436
 10
10.22453462950662
 20
6.78531763088011
 10
10.23146414517351
 20
6.851268920528751
 10
10.23822068397591
 20
6.899544349458926
 10
10.22013820765869
 20
6.976557866455559
 10
10.18747518578377
 20
6.998549976179783
  0
LWPOLYLINE
  5
53E
330
18
100
AcDbEntity
  8
0
100
AcDbPolyline
 90
        9
 70
     0
 43
0.0
 10
10.22504164403186
 20
6.411332212434646
 10
10.21260902099859
 20
6.484041420108619
 10
10.20974698553196
 20
6.558523588778444
 10
10.19867008139312
 20
6.619180487476406
 10
10.1913200970433
 20
6.693734521096859
 10
10.18575618820127
 20
6.767329500278196
 10
10.18552319374605
 20
6.835256390765577
 10
10.18227723164859
 20
6.942423952873511
 10
10.15338820827162
 20
6.968085278865068
  0
LWPOLYLINE
  5
54A
330
18
100
AcDbEntity
  8
0
100
AcDbPolyline
 90
        5
 70
     0
 43
0.0
 10
10.19145077485736
 20
6.381048053219031
 10
10.18247873182164
 20
6.432418455086252
 10
10.17508322724433
 20
6.502320946412375
 10
10.17397995514897
 20
6.573053135266482
 10
10.15059687840967
 20
6.664597061978675
  0
LINE
  5
552
330
18
100
AcDbEntity
  8
0
100
AcDbLine
 10
10.15059687840967
 20
7.102786719094929
 30
0.0
 11
10.35830569384985
 21
7.290048525409035
 31
0.0
  0
LINE
  5
553
330
18
100
AcDbEntity
  8
0
100
AcDbLine
 10
10.35830569384985
 20
7.1011240433085
 30
0.0
 11
10.35830569384985
 21
6.531477650810789
 31
0.0
  0
LINE
  5
554
330
18
100
AcDbEntity
  8
0
100
AcDbLine
 10
10.23602324383071
 20
7.041939035626007
 30
0.0
 11
10.44373205927089
 21
7.229200841940112
 31
0.0
  0
LINE
  5
555
330
18
100
AcDbEntity
  8
0
100
AcDbLine
 10
10.15059687840967
 20
6.913862236994397
 30
0.0
 11
10.35830569384985
 21
7.1011240433085
 31
0.0
  0
LINE
  5
556
330
18
100
AcDbEntity
  8
0
100
AcDbLine
 10
10.44373205927089
 20
7.229200841940112
 30
0.0
 11
10.35830569384985
 21
7.290048525409033
 31
0.0
  0
LINE
  5
557
330
18
100
AcDbEntity
  8
0
100
AcDbLine
 10
10.35830569384985
 20
7.1011240433085
 30
0.0
 11
10.32509172925359
 21
7.123167922418102
 31
0.0
  0
LINE
  5
558
330
18
100
AcDbEntity
  8
0
100
AcDbLine
 10
10.32509172925359
 20
7.123167922418102
 30
0.0
 11
10.44373205927089
 21
7.229200841940112
 31
0.0
  0
LINE
  5
559
330
18
100
AcDbEntity
  8
0
100
AcDbLine
 10
10.15059687840967
 20
7.102786719094928
 30
0.0
 11
10.15059687840967
 21
7.573812725264099
 31
0.0
  0
LINE
  5
55A
330
18
100
AcDbEntity
  8
0
100
AcDbLine
 10
10.23602324383071
 20
7.041939035626007
 30
0.0
 11
10.15059687840967
 21
7.102786719094929
 31
0.0
  0
LINE
  5
55B
330
18
100
AcDbEntity
  8
0
100
AcDbLine
 10
10.1173829138134
 20
6.935906116103997
 30
0.0
 11
10.23602324383071
 21
7.041939035626007
 31
0.0
  0
LINE
  5
55C
330
18
100
AcDbEntity
  8
0
100
AcDbLine
 10
10.15059687840967
 20
6.913862236994397
 30
0.0
 11
10.1173829138134
 21
6.935906116103997
 31
0.0
  0
LWPOLYLINE
  5
55D
330
18
100
AcDbEntity
  8
0
100
AcDbPolyline
 90
       16
 70
     0
 43
0.0
 10
4.389417996274627
 20
8.190314293847507
 10
4.399816981552217
 20
8.136562222056936
 10
4.388718158594611
 20
8.103243593419254
 10
4.381970723837705
 20
8.055898472947943
 10
4.378161867639186
 20
8.033628561895652
 10
4.391170512013789
 20
7.986897544100437
 10
4.391758564243461
 20
7.955252683508849
 10
4.376235520721164
 20
7.928518079033863
 10
4.348353170966231
 20
7.918868904567283
 10
4.269109411645554
 20
7.848267916667158
 10
4.378455269277636
 20
7.733672604296373
 10
4.319346930574995
 20
7.662459413415089
 10
4.314135925176467
 20
7.637349840298095
 10
4.309498600837538
 20
7.530421859488948
 10
4.297092506055849
 20
7.455253723192399
 10
4.278191917849224
 20
7.374405953982633
  0
LWPOLYLINE
  5
570
330
18
100
AcDbEntity
  8
0
100
AcDbPolyline
 90
       15
 70
     0
 43
0.0
 10
4.387037715710535
 20
7.3292794126855
 10
4.390802293918272
 20
7.398856360156046
 10
4.395102768573736
 20
7.47136292798713
 10
4.393908456023397
 20
7.532792032252573
 10
4.394509323026329
 20
7.594192390537762
 10
4.408147365269594
 20
7.625643509060607
 10
4.467126216607124
 20
7.696910384301269
 10
4.375964684516111
 20
7.803966630087828
 10
4.471501724160031
 20
7.864747057473743
 10
4.47748108457114
 20
7.908287761972295
 10
4.479649529989874
 20
7.94640166280557
 10
4.467547579437404
 20
7.994048616069527
 10
4.476942263296725
 20
8.036699075276125
 10
4.488095710527324
 20
8.075599554667008
 10
4.494815507084764
 20
8.146866787671206
  0
LWPOLYLINE
  5
582
330
18
100
AcDbEntity
  8
0
100
AcDbPolyline
 90
        2
 70
     0
 43
0.0
 10
4.342660191617843
 20
7.433123606142043
 10
4.334735419463195
 20
7.350963499512146
  0
LWPOLYLINE
  5
587
330
18
100
AcDbEntity
  8
0
100
AcDbPolyline
 90
       17
 70
     0
 43
0.0
 10
4.439441518194705
 20
8.16969333932138
 10
4.447252679031474
 20
8.121845826697262
 10
4.445120649794744
 20
8.087453159699454
 10
4.430604444595079
 20
8.071867883740737
 10
4.427583929627199
 20
8.038419898191922
 10
4.420148298140133
 20
8.012486245264668
 10
4.434218405110354
 20
7.982486406738923
 10
4.442884765329758
 20
7.950712189236201
 10
4.435376301478706
 20
7.917336068638015
 10
4.422638825115192
 20
7.886221531042994
 10
4.397122184084526
 20
7.861190918232449
 10
4.320641867631571
 20
7.826902999059969
 10
4.423946683989252
 20
7.714812250980167
 10
4.360791370967652
 20
7.645276901203649
 10
4.359721818829461
 20
7.617080340165472
 10
4.356537431042608
 20
7.566886802357058
 10
4.342660191617843
 20
7.433123606142043
  0
LWPOLYLINE
  5
59B
330
18
100
AcDbEntity
  8
0
100
AcDbPolyline
 90
       16
 70
     0
 43
0.0
 10
4.437862713808002
 20
7.308207801097014
 10
4.436479228026252
 20
7.387889944612089
 10
4.457797492255824
 20
7.456402191795313
 10
4.458598648259734
 20
7.538269336175567
 10
4.468610715147206
 20
7.60057591886579
 10
4.528424150428609
 20
7.671496782707308
 10
4.43443632874807
 20
7.779724784100289
 10
4.520204587269411
 20
7.843342917174381
 10
4.525559458553076
 20
7.867508356774232
 10
4.539432987250082
 20
7.909156642571336
 10
4.528246834565249
 20
7.958649839762899
 10
4.522255035584753
 20
7.988520321377509
 10
4.53246537281122
 20
8.022783631464185
 10
4.534697546548442
 20
8.067409691509523
 10
4.539522345115086
 20
8.101759239536955
 10
4.542786696317491
 20
8.127091856323652
  0
LWPOLYLINE
  5
5AE
330
18
100
AcDbEntity
  8
0
100
AcDbPolyline
 90
       15
 70
     0
 43
0.0
 10
4.487531770858595
 20
7.287615432827188
 10
4.494622274506676
 20
7.366488914158836
 10
4.498006951294501
 20
7.437149238062315
 10
4.498762587070912
 20
7.514364840148234
 10
4.509989231202408
 20
7.583420738323511
 10
4.567620271755178
 20
7.655246404442961
 10
4.472861429158424
 20
7.763794064544872
 10
4.567902330164253
 20
7.822380511358707
 10
4.574817647722109
 20
7.855554140810906
 10
4.579833631244232
 20
7.909440166474532
 10
4.576716682503631
 20
7.957873698296094
 10
4.577969330054728
 20
7.994141355201762
 10
4.595405905721781
 20
8.032941223661762
 10
4.598426420689654
 20
8.066389209210579
 10
4.598105183416145
 20
8.10428818390854
  0
LWPOLYLINE
  5
5C0
330
18
100
AcDbEntity
  8
0
100
AcDbPolyline
 90
        4
 70
     0
 43
0.0
 10
4.640111337947984
 20
7.928584192653972
 10
4.629674479325203
 20
7.957025691878661
 10
4.626994524768553
 20
8.050114029725817
 10
4.623833723836405
 20
8.093682232114954
  0
LWPOLYLINE
  5
5C7
330
18
100
AcDbEntity
  8
0
100
AcDbPolyline
 90
        7
 70
     0
 43
0.0
 10
4.522169649212922
 20
7.273254863299338
 10
4.544694625360264
 20
7.385661130329602
 10
4.543391524678889
 20
7.447904242063267
 10
4.531275437859173
 20
7.505662091355767
 10
4.553358331132837
 20
7.565440278650424
 10
4.603004290731669
 20
7.640576491364316
 10
4.517013117820873
 20
7.74548915024489
  0
LINE
  5
5D1
330
18
100
AcDbEntity
  8
0
100
AcDbLine
 10
4.323225656827693
 20
7.929912050773853
 30
0.0
 11
4.624608524833223
 21
7.797459033050304
 31
0.0
  0
LINE
  5
5D2
330
18
100
AcDbEntity
  8
0
100
AcDbLine
 10
4.52864672710237
 20
7.740665954862142
 30
0.0
 11
4.219809481847106
 21
7.868707247920261
 31
0.0
  0
LINE
  5
5D3
330
18
100
AcDbEntity
  8
0
100
AcDbLine
 10
4.339216708788039
 20
7.749940577476469
 30
0.0
 11
4.648053954043304
 21
7.62189928441835
 31
0.0
  0
LINE
  5
5D4
330
18
100
AcDbEntity
  8
0
100
AcDbLine
 10
4.595129653969075
 20
7.548122243760303
 30
0.0
 11
4.286292408713811
 21
7.676163536818423
 31
0.0
  0
LINE
  5
5D5
330
18
100
AcDbEntity
  8
0
100
AcDbLine
 10
4.286292408713811
 20
7.676163536818423
 30
0.0
 11
4.251904402799125
 21
7.385304533962898
 31
0.0
  0
LINE
  5
5D6
330
18
100
AcDbEntity
  8
0
100
AcDbLine
 10
4.219809481847106
 20
7.868707247920261
 30
0.0
 11
4.323225656827693
 21
7.929912050773853
 31
0.0
  0
LINE
  5
5D7
330
18
100
AcDbEntity
  8
0
100
AcDbLine
 10
4.286292408713811
 20
7.676163536818423
 30
0.0
 11
4.339216708788039
 21
7.749940577476469
 31
0.0
  0
LINE
  5
5D8
330
18
100
AcDbEntity
  8
0
100
AcDbLine
 10
4.339216708788039
 20
7.749940577476469
 30
0.0
 11
4.219809481847106
 21
7.868707247920261
 31
0.0
  0
LINE
  5
5D9
330
18
100
AcDbEntity
  8
0
100
AcDbLine
 10
4.624608524833223
 20
7.797459033050304
 30
0.0
 11
4.657967172377584
 21
8.079611565693021
 31
0.0
  0
LINE
  5
5DA
330
18
100
AcDbEntity
  8
0
100
AcDbLine
 10
4.52864672710237
 20
7.740665954862142
 30
0.0
 11
4.624608524833224
 21
7.797459033050306
 31
0.0
  0
LINE
  5
5DB
330
18
100
AcDbEntity
  8
0
100
AcDbLine
 10
4.648053954043304
 20
7.62189928441835
 30
0.0
 11
4.52864672710237
 21
7.740665954862142
 31
0.0
  0
LINE
  5
5DC
330
18
100
AcDbEntity
  8
0
100
AcDbLine
 10
4.595129653969075
 20
7.548122243760305
 30
0.0
 11
4.648053954043304
 21
7.62189928441835
 31
0.0
  0
LWPOLYLINE
  5
5DD
330
18
100
AcDbEntity
  8
0
100
AcDbPolyline
 90
        4
 70
     0
 43
0.0
 10
4.679089059991728
 20
6.116916938329901
 10
4.725598081957616
 20
6.18682501027144
 10
4.763520784084379
 20
6.21227382511737
 10
4.787734453791883
 20
6.222052939876154
  0
LWPOLYLINE
  5
5E4
330
18
100
AcDbEntity
  8
0
100
AcDbPolyline
 90
        4
 70
     0
 43
0.0
 10
4.772479758484301
 20
6.543953187983632
 10
4.773479021206764
 20
6.448950826313954
 10
4.772758015209448
 20
6.357947127496683
 10
4.79571564141994
 20
6.304648243409204
  0
LWPOLYLINE
  5
5EB
330
18
100
AcDbEntity
  8
0
100
AcDbPolyline
 90
        8
 70
     0
 43
0.0
 10
4.720855753051012
 20
6.563853892537852
 10
4.707165574022364
 20
6.467567398311738
 10
4.72455204563625
 20
6.394872910565132
 10
4.736594560415425
 20
6.327828969556585
 10
4.738950179058448
 20
6.285073501808547
 10
4.733350209094221
 20
6.2629946273379
 10
4.66480516450523
 20
6.222077655649681
 10
4.636372206580866
 20
6.136116969273726
  0
LWPOLYLINE
  5
5F6
330
18
100
AcDbEntity
  8
0
100
AcDbPolyline
 90
        8
 70
     0
 43
0.0
 10
4.661461743579196
 20
6.586749881039104
 10
4.655271894090445
 20
6.492473856621611
 10
4.680755230200987
 20
6.421518249655572
 10
4.688454805678716
 20
6.373112235169478
 10
4.691553939713108
 20
6.31084282619967
 10
4.687423783405002
 20
6.283637271258577
 10
4.621803364889708
 20
6.235709317719584
 10
4.576638388481512
 20
6.16296564993073
  0
LWPOLYLINE
  5
601
330
18
100
AcDbEntity
  8
0
100
AcDbPolyline
 90
        8
 70
     0
 43
0.0
 10
4.596961719346471
 20
6.611614203658435
 10
4.611342648982202
 20
6.502404230623165
 10
4.626138071423325
 20
6.442749717133243
 10
4.643612829485862
 20
6.381198539445894
 10
4.643230254875046
 20
6.332910862522443
 10
4.643272700462005
 20
6.303481948265929
 10
4.574318839095724
 20
6.250335332051447
 10
4.521827478896056
 20
6.187601620889966
  0
LWPOLYLINE
  5
60C
330
18
100
AcDbEntity
  8
0
100
AcDbPolyline
 90
        8
 70
     0
 43
0.0
 10
4.55778812554617
 20
6.626715358828468
 10
4.56572037137771
 20
6.525361430263329
 10
4.590180618342829
 20
6.438632615998079
 10
4.587928438338449
 20
6.381085144594723
 10
4.582593089561465
 20
6.330755736336032
 10
4.529668150208281
 20
6.282565474789585
 10
4.504302967144487
 20
6.255075360947444
 10
4.467636789228071
 20
6.211958820342018
  0
LWPOLYLINE
  5
617
330
18
100
AcDbEntity
  8
0
100
AcDbPolyline
 90
        8
 70
     0
 43
0.0
 10
4.508578241217309
 20
6.645685436042673
 10
4.509373394083529
 20
6.554976677521584
 10
4.526752508493364
 20
6.481353580603374
 10
4.538883309721189
 20
6.425452949654083
 10
4.541032926650692
 20
6.356696425101113
 10
4.53952735277135
 20
6.350112580601593
 10
4.475912222086857
 20
6.29914074779116
 10
4.426082828811125
 20
6.230636163407763
  0
LWPOLYLINE
  5
622
330
18
100
AcDbEntity
  8
0
100
AcDbPolyline
 90
        3
 70
     0
 43
0.0
 10
4.521306663101958
 20
5.787233927728236
 10
4.511267697780574
 20
5.887201494193153
 10
4.475167393349828
 20
5.952638040601849
  0
LWPOLYLINE
  5
628
330
18
100
AcDbEntity
  8
0
100
AcDbPolyline
 90
        6
 70
     0
 43
0.0
 10
4.553766809595099
 20
5.772643999694097
 10
4.554107638906892
 20
5.853140430347947
 10
4.542079838535828
 20
5.922041589699704
 10
4.526518829091176
 20
5.998424216896586
 10
4.528598531229116
 20
6.086604135171855
 10
4.557225861129326
 20
6.171691038064424
  0
LWPOLYLINE
  5
631
330
18
100
AcDbEntity
  8
0
100
AcDbPolyline
 90
        7
 70
     0
 43
0.0
 10
4.60570926011628
 20
5.749297320861917
 10
4.611404133305961
 20
5.830012298672854
 10
4.590418237781997
 20
5.901830771720141
 10
4.569366127421551
 20
5.965291762222984
 10
4.561762195596524
 20
6.025769695939941
 10
4.565640473022085
 20
6.069954818289739
 10
4.600268287423888
 20
6.152344671214687
  0
LWPOLYLINE
  5
63B
330
18
100
AcDbEntity
  8
0
100
AcDbPolyline
 90
        7
 70
     0
 43
0.0
 10
4.677537134390229
 20
5.7170127001895
 10
4.677577793613323
 20
5.793752152414577
 10
4.641391829425253
 20
5.874151634513524
 10
4.614068316737368
 20
5.939561883686077
 10
4.612860859708701
 20
6.013876914650606
 10
4.613753131347435
 20
6.048329523941597
 10
4.657474759673041
 20
6.126631961834942
  0
LWPOLYLINE
  5
645
330
18
100
AcDbEntity
  8
0
100
AcDbPolyline
 90
        7
 70
     0
 43
0.0
 10
4.734666059798338
 20
5.691334845946047
 10
4.726762709107621
 20
5.767027921615707
 10
4.691614548473084
 20
5.865057829357074
 10
4.676929484092773
 20
5.938641480421071
 10
4.673845064466491
 20
6.002768107734088
 10
4.671099156948284
 20
6.022554089233157
 10
4.713758943269193
 20
6.101382277728703
  0
LWPOLYLINE
  5
64F
330
18
100
AcDbEntity
  8
0
100
AcDbPolyline
 90
        6
 70
     0
 43
0.0
 10
4.795715641419939
 20
5.761464472492676
 10
4.7604454727897
 20
5.824115191386559
 10
4.741321825455236
 20
5.904264849742146
 10
4.731863002644767
 20
5.957340207322407
 10
4.733011437518591
 20
5.994726250620627
 10
4.774862843239453
 20
6.079704503911177
  0
LINE
  5
658
330
18
100
AcDbEntity
  8
0
100
AcDbLine
 10
4.79571564141994
 20
6.23496310968463
 30
0.0
 11
4.475167393349828
 21
6.379040582403388
 31
0.0
  0
LINE
  5
659
330
18
100
AcDbEntity
  8
0
100
AcDbLine
 10
4.713247002390046
 20
6.101563898518727
 30
0.0
 11
4.392698754319935
 21
6.245641371237485
 31
0.0
  0
LINE
  5
65A
330
18
100
AcDbEntity
  8
0
100
AcDbLine
 10
4.795715641419939
 20
5.96654246461855
 30
0.0
 11
4.475167393349829
 21
6.110619937337311
 31
0.0
  0
LINE
  5
65B
330
18
100
AcDbEntity
  8
0
100
AcDbLine
 10
4.475167393349829
 20
6.110619937337311
 30
0.0
 11
4.475167393349828
 21
5.807972239102572
 31
0.0
  0
LINE
  5
65C
330
18
100
AcDbEntity
  8
0
100
AcDbLine
 10
4.795715641419939
 20
5.96654246461855
 30
0.0
 11
4.79571564141994
 21
5.663894766383814
 31
0.0
  0
LINE
  5
65D
330
18
100
AcDbEntity
  8
0
100
AcDbLine
 10
4.475167393349828
 20
6.110619937337311
 30
0.0
 11
4.501769879513712
 21
6.196616950860451
 31
0.0
  0
LINE
  5
65E
330
18
100
AcDbEntity
  8
0
100
AcDbLine
 10
4.392698754319935
 20
6.245641371237485
 30
0.0
 11
4.475167393349828
 21
6.379040582403388
 31
0.0
  0
LINE
  5
65F
330
18
100
AcDbEntity
  8
0
100
AcDbLine
 10
4.713247002390046
 20
6.101563898518727
 30
0.0
 11
4.79571564141994
 21
6.23496310968463
 31
0.0
  0
LINE
  5
660
330
18
100
AcDbEntity
  8
0
100
AcDbLine
 10
4.825197441587041
 20
6.061847345223989
 30
0.0
 11
4.713247002390046
 21
6.101563898518727
 31
0.0
  0
LINE
  5
661
330
18
100
AcDbEntity
  8
0
100
AcDbLine
 10
4.79571564141994
 20
5.966542464618552
 30
0.0
 11
4.825197441587041
 21
6.061847345223989
 31
0.0
  0
LINE
  5
662
330
18
100
AcDbEntity
  8
0
100
AcDbLine
 10
4.436527892868558
 20
8.678347577098732
 30
0.0
 11
4.436527892868558
 21
8.316268891881286
 31
0.0
  0
LINE
  5
663
330
18
100
AcDbEntity
  8
0
100
AcDbLine
 10
4.537696088089099
 20
8.882855235936059
 30
0.0
 11
4.436527892868558
 21
8.9281565928785
 31
0.0
  0
LINE
  5
664
330
18
100
AcDbEntity
  8
0
100
AcDbLine
 10
4.332087492971439
 20
8.777205847778607
 30
0.0
 11
4.537696088089099
 21
8.882855235936059
 31
0.0
  0
LINE
  5
665
330
18
100
AcDbEntity
  8
0
100
AcDbLine
 10
4.436527892868558
 20
8.678347577098732
 30
0.0
 11
4.332087492971439
 21
8.777205847778607
 31
0.0
  0
LWPOLYLINE
  5
666
330
18
100
AcDbEntity
  8
0
100
AcDbPolyline
 90
       33
 70
   129
 43
0.0
 10
5.825111898792926
 20
8.42368649745621
 10
5.818135785232373
 20
8.421863260400645
 10
5.811642600905481
 20
8.418508143833655
 10
5.805867026411652
 20
8.41374241040964
 10
5.801017806061203
 20
8.407738306151542
 10
5.797270203312123
 20
8.40071283503079
 10
5.794759666292045
 20
8.392919915878371
 10
5.793576932350015
 20
8.384641205096711
 10
5.793764748572283
 20
8.376175916863428
 10
5.795316326791224
 20
8.367830008751366
 10
5.798175588927409
 20
8.359905123624746
 10
5.802239193797501
 20
8.352687687480131
 10
5.807360272133876
 20
8.346438557264634
 10
5.813353734822617
 20
8.341383592826192
 10
5.82000296250634
 20
8.337705493750194
 10
5.82706763477216
 20
8.335537196120439
 10
5.834292415957566
 20
8.33495706786271
 10
5.841416183646534
 20
8.335986076323753
 10
5.84818146631399
 20
8.338587030456727
 10
5.854343749017559
 20
8.342665925002549
 10
5.859680310804664
 20
8.348075338084877
 10
5.863998274428042
 20
8.354619759420826
 10
5.867141577431999
 20
8.362062656571993
 10
5.868996612656177
 20
8.370135023843053
 10
5.869496334294327
 20
8.378545104848485
 10
5.868622681104435
 20
8.386988937348496
 10
5.866407229189063
 20
8.395161339236351
 10
5.862930050752738
 20
8.402766938614832
 10
5.858316820083847
 20
8.409530849306208
 10
5.852734271358421
 20
8.415208605954893
 10
5.846384172432584
 20
8.419594999642353
 10
5.839496032426538
 20
8.422531494672089
 10
5.832318806666976
 20
8.42391195846276
  0
LWPOLYLINE
  5
68A
330
18
100
AcDbEntity
  8
0
100
AcDbPolyline
 90
       33
 70
   129
 43
0.0
 10
5.229255105646374
 20
8.599579979362645
 10
5.222278992085821
 20
8.59775674230708
 10
5.215785807758929
 20
8.59440162574009
 10
5.210010233265099
 20
8.589635892316075
 10
5.205161012914651
 20
8.583631788057977
 10
5.201413410165571
 20
8.576606316937225
 10
5.198902873145492
 20
8.568813397784806
 10
5.197720139203462
 20
8.560534687003147
 10
5.19790795542573
 20
8.552069398769863
 10
5.199459533644672
 20
8.543723490657801
 10
5.202318795780856
 20
8.535798605531181
 10
5.206382400650949
 20
8.528581169386566
 10
5.211503478987324
 20
8.522332039171069
 10
5.217496941676065
 20
8.517277074732627
 10
5.224146169359788
 20
8.513598975656629
 10
5.231210841625607
 20
8.511430678026875
 10
5.238435622811013
 20
8.510850549769145
 10
5.245559390499982
 20
8.511879558230188
 10
5.252324673167438
 20
8.514480512363162
 10
5.258486955871007
 20
8.518559406908985
 10
5.263823517658111
 20
8.523968819991312
 10
5.268141481281489
 20
8.530513241327261
 10
5.271284784285447
 20
8.537956138478428
 10
5.273139819509625
 20
8.546028505749488
 10
5.273639541147775
 20
8.55443858675492
 10
5.272765887957883
 20
8.562882419254931
 10
5.270550436042511
 20
8.571054821142786
 10
5.267073257606185
 20
8.578660420521267
 10
5.262460026937295
 20
8.585424331212643
 10
5.256877478211869
 20
8.591102087861328
 10
5.250527379286032
 20
8.595488481548788
 10
5.243639239279986
 20
8.598424976578524
 10
5.236462013520423
 20
8.599805440369195
  0
LWPOLYLINE
  5
6AE
330
18
100
AcDbEntity
  8
0
100
AcDbPolyline
 90
       33
 70
   129
 43
0.0
 10
5.546712814475585
 20
8.81375869556212
 10
5.539736700915032
 20
8.811935458506556
 10
5.53324351658814
 20
8.808580341939566
 10
5.527467942094311
 20
8.80381460851555
 10
5.522618721743863
 20
8.797810504257452
 10
5.518871118994782
 20
8.7907850331367
 10
5.516360581974704
 20
8.782992113984282
 10
5.515177848032674
 20
8.774713403202622
 10
5.515365664254942
 20
8.766248114969338
 10
5.516917242473883
 20
8.757902206857276
 10
5.519776504610068
 20
8.749977321730656
 10
5.52384010948016
 20
8.742759885586041
 10
5.528961187816535
 20
8.736510755370544
 10
5.534954650505276
 20
8.731455790932102
 10
5.541603878188999
 20
8.727777691856105
 10
5.548668550454819
 20
8.72560939422635
 10
5.555893331640225
 20
8.725029265968621
 10
5.563017099329193
 20
8.726058274429663
 10
5.569782381996649
 20
8.728659228562638
 10
5.575944664700218
 20
8.73273812310846
 10
5.581281226487323
 20
8.738147536190787
 10
5.585599190110701
 20
8.744691957526737
 10
5.588742493114658
 20
8.752134854677903
 10
5.590597528338837
 20
8.760207221948964
 10
5.591097249976986
 20
8.768617302954395
 10
5.590223596787094
 20
8.777061135454407
 10
5.588008144871722
 20
8.785233537342261
 10
5.584530966435397
 20
8.792839136720742
 10
5.579917735766506
 20
8.799603047412118
 10
5.57433518704108
 20
8.805280804060804
 10
5.567985088115243
 20
8.809667197748263
 10
5.561096948109197
 20
8.812603692778
 10
5.553919722349635
 20
8.813984156568671
  0
LWPOLYLINE
  5
6D2
330
18
100
AcDbEntity
  8
0
100
AcDbPolyline
 90
       33
 70
   129
 43
0.0
 10
4.923834667545487
 20
9.000648780685774
 10
4.916858553984934
 20
8.998825543630209
 10
4.910365369658042
 20
8.99547042706322
 10
4.904589795164212
 20
8.990704693639204
 10
4.899740574813764
 20
8.984700589381106
 10
4.895992972064684
 20
8.977675118260354
 10
4.893482435044605
 20
8.969882199107936
 10
4.892299701102576
 20
8.961603488326276
 10
4.892487517324843
 20
8.953138200092992
 10
4.894039095543785
 20
8.94479229198093
 10
4.896898357679969
 20
8.93686740685431
 10
4.900961962550062
 20
8.929649970709695
 10
4.906083040886437
 20
8.923400840494198
 10
4.912076503575178
 20
8.918345876055756
 10
4.918725731258901
 20
8.914667776979758
 10
4.92579040352472
 20
8.912499479350004
 10
4.933015184710127
 20
8.911919351092275
 10
4.940138952399095
 20
8.912948359553317
 10
4.946904235066551
 20
8.915549313686292
 10
4.95306651777012
 20
8.919628208232114
 10
4.958403079557225
 20
8.925037621314441
 10
4.962721043180602
 20
8.931582042650391
 10
4.96586434618456
 20
8.939024939801557
 10
4.967719381408738
 20
8.947097307072617
 10
4.968219103046888
 20
8.955507388078049
 10
4.967345449856996
 20
8.963951220578061
 10
4.965129997941624
 20
8.972123622465915
 10
4.961652819505298
 20
8.979729221844396
 10
4.957039588836408
 20
8.986493132535772
 10
4.951457040110982
 20
8.992170889184457
 10
4.945106941185145
 20
8.996557282871917
 10
4.938218801179099
 20
8.999493777901654
 10
4.931041575419537
 20
9.000874241692324
  0
LWPOLYLINE
  5
6F6
330
18
100
AcDbEntity
  8
0
100
AcDbPolyline
 90
       33
 70
   129
 43
0.0
 10
4.923834667545487
 20
8.365371655168385
 10
4.916858553984934
 20
8.363548418112821
 10
4.910365369658042
 20
8.360193301545831
 10
4.904589795164212
 20
8.355427568121815
 10
4.899740574813764
 20
8.349423463863717
 10
4.895992972064684
 20
8.342397992742965
 10
4.893482435044605
 20
8.334605073590547
 10
4.892299701102576
 20
8.326326362808887
 10
4.892487517324843
 20
8.317861074575603
 10
4.894039095543785
 20
8.309515166463541
 10
4.896898357679969
 20
8.301590281336921
 10
4.900961962550062
 20
8.294372845192306
 10
4.906083040886437
 20
8.288123714976809
 10
4.912076503575178
 20
8.283068750538368
 10
4.918725731258901
 20
8.27939065146237
 10
4.92579040352472
 20
8.277222353832615
 10
4.933015184710127
 20
8.276642225574886
 10
4.940138952399095
 20
8.277671234035928
 10
4.946904235066551
 20
8.280272188168903
 10
4.95306651777012
 20
8.284351082714725
 10
4.958403079557225
 20
8.289760495797053
 10
4.962721043180602
 20
8.296304917133002
 10
4.96586434618456
 20
8.303747814284169
 10
4.967719381408738
 20
8.311820181555229
 10
4.968219103046888
 20
8.32023026256066
 10
4.967345449856996
 20
8.328674095060672
 10
4.965129997941624
 20
8.336846496948526
 10
4.961652819505298
 20
8.344452096327007
 10
4.957039588836408
 20
8.351216007018383
 10
4.951457040110982
 20
8.356893763667069
 10
4.945106941185145
 20
8.361280157354528
 10
4.938218801179099
 20
8.364216652384265
 10
4.931041575419537
 20
8.365597116174936
  0
LWPOLYLINE
  5
71A
330
18
100
AcDbEntity
  8
0
100
AcDbPolyline
 90
       33
 70
   129
 43
0.0
 10
7.671453255338682
 20
7.803651877012189
 10
7.664477141778129
 20
7.801828639956625
 10
7.657983957451237
 20
7.798473523389635
 10
7.652208382957408
 20
7.79370778996562
 10
7.64735916260696
 20
7.787703685707522
 10
7.643611559857879
 20
7.780678214586769
 10
7.641101022837801
 20
7.772885295434352
 10
7.639918288895771
 20
7.764606584652692
 10
7.640106105118039
 20
7.756141296419409
 10
7.64165768333698
 20
7.747795388307346
 10
7.644516945473165
 20
7.739870503180725
 10
7.648580550343257
 20
7.732653067036111
 10
7.653701628679633
 20
7.726403936820613
 10
7.659695091368374
 20
7.721348972382173
 10
7.666344319052096
 20
7.717670873306174
 10
7.673408991317916
 20
7.715502575676419
 10
7.680633772503322
 20
7.714922447418691
 10
7.68775754019229
 20
7.715951455879733
 10
7.694522822859747
 20
7.718552410012707
 10
7.700685105563315
 20
7.722631304558529
 10
7.70602166735042
 20
7.728040717640857
 10
7.710339630973798
 20
7.734585138976806
 10
7.713482933977756
 20
7.742028036127972
 10
7.715337969201934
 20
7.750100403399033
 10
7.715837690840083
 20
7.758510484404463
 10
7.714964037650192
 20
7.766954316904477
 10
7.712748585734819
 20
7.77512671879233
 10
7.709271407298494
 20
7.782732318170812
 10
7.704658176629604
 20
7.789496228862187
 10
7.699075627904177
 20
7.795173985510872
 10
7.692725528978341
 20
7.799560379198334
 10
7.685837388972295
 20
7.802496874228069
 10
7.678660163212732
 20
7.80387733801874
  0
LWPOLYLINE
  5
73E
330
18
100
AcDbEntity
  8
0
100
AcDbPolyline
 90
       33
 70
   129
 43
0.0
 10
8.019463020746962
 20
7.301059416028099
 10
8.012486907186409
 20
7.299236178972535
 10
8.005993722859516
 20
7.295881062405545
 10
8.000218148365686
 20
7.291115328981531
 10
7.995368928015239
 20
7.285111224723432
 10
7.991621325266158
 20
7.278085753602679
 10
7.98911078824608
 20
7.270292834450262
 10
7.98792805430405
 20
7.262014123668602
 10
7.988115870526318
 20
7.253548835435319
 10
7.98966744874526
 20
7.245202927323256
 10
7.992526710881444
 20
7.237278042196635
 10
7.996590315751536
 20
7.230060606052021
 10
8.001711394087911
 20
7.223811475836524
 10
8.007704856776654
 20
7.218756511398083
 10
8.014354084460376
 20
7.215078412322084
 10
8.021418756726195
 20
7.212910114692329
 10
8.028643537911602
 20
7.212329986434601
 10
8.035767305600571
 20
7.213358994895643
 10
8.042532588268026
 20
7.215959949028617
 10
8.048694870971595
 20
7.220038843574439
 10
8.054031432758698
 20
7.225448256656767
 10
8.058349396382077
 20
7.231992677992716
 10
8.061492699386035
 20
7.239435575143882
 10
8.063347734610213
 20
7.247507942414943
 10
8.063847456248363
 20
7.255918023420374
 10
8.062973803058471
 20
7.264361855920387
 10
8.060758351143099
 20
7.27253425780824
 10
8.057281172706773
 20
7.280139857186722
 10
8.052667942037884
 20
7.286903767878097
 10
8.047085393312457
 20
7.292581524526782
 10
8.04073529438662
 20
7.296967918214244
 10
8.033847154380574
 20
7.299904413243979
 10
8.026669928621011
 20
7.30128487703465
  0
LWPOLYLINE
  5
762
330
18
100
AcDbEntity
  8
0
100
AcDbPolyline
 90
       33
 70
   129
 43
0.0
 10
8.019463020746962
 20
8.13574757512011
 10
8.012486907186409
 20
8.133924338064546
 10
8.005993722859516
 20
8.130569221497556
 10
8.000218148365686
 20
8.12580348807354
 10
7.995368928015239
 20
8.119799383815442
 10
7.991621325266158
 20
8.11277391269469
 10
7.98911078824608
 20
8.104980993542272
 10
7.98792805430405
 20
8.096702282760612
 10
7.988115870526318
 20
8.088236994527328
 10
7.98966744874526
 20
8.079891086415266
 10
7.992526710881444
 20
8.071966201288646
 10
7.996590315751536
 20
8.064748765144032
 10
8.001711394087911
 20
8.058499634928534
 10
8.007704856776654
 20
8.053444670490093
 10
8.014354084460376
 20
8.049766571414095
 10
8.021418756726195
 20
8.04759827378434
 10
8.028643537911602
 20
8.047018145526611
 10
8.035767305600571
 20
8.048047153987653
 10
8.042532588268026
 20
8.050648108120628
 10
8.048694870971595
 20
8.05472700266645
 10
8.054031432758698
 20
8.060136415748778
 10
8.058349396382077
 20
8.066680837084727
 10
8.061492699386035
 20
8.074123734235894
 10
8.063347734610213
 20
8.082196101506954
 10
8.063847456248363
 20
8.090606182512385
 10
8.062973803058471
 20
8.099050015012397
 10
8.060758351143099
 20
8.107222416900251
 10
8.057281172706773
 20
8.114828016278732
 10
8.052667942037884
 20
8.121591926970108
 10
8.047085393312457
 20
8.127269683618794
 10
8.04073529438662
 20
8.131656077306253
 10
8.033847154380574
 20
8.13459257233599
 10
8.026669928621011
 20
8.135973036126661
  0
LWPOLYLINE
  5
786
330
18
100
AcDbEntity
  8
0
100
AcDbPolyline
 90
       33
 70
   129
 43
0.0
 10
8.315830256122839
 20
7.579105604276657
 10
8.308854142562286
 20
7.577282367221093
 10
8.302360958235393
 20
7.573927250654103
 10
8.296585383741563
 20
7.569161517230088
 10
8.291736163391116
 20
7.56315741297199
 10
8.287988560642035
 20
7.556131941851237
 10
8.285478023621957
 20
7.54833902269882
 10
8.284295289679928
 20
7.54006031191716
 10
8.284483105902195
 20
7.531595023683877
 10
8.286034684121137
 20
7.523249115571814
 10
8.288893946257321
 20
7.515324230445193
 10
8.292957551127413
 20
7.508106794300579
 10
8.298078629463788
 20
7.501857664085081
 10
8.304072092152531
 20
7.496802699646641
 10
8.310721319836253
 20
7.493124600570642
 10
8.317785992102072
 20
7.490956302940887
 10
8.325010773287479
 20
7.490376174683159
 10
8.332134540976448
 20
7.491405183144201
 10
8.338899823643903
 20
7.494006137277175
 10
8.345062106347472
 20
7.498085031822997
 10
8.350398668134575
 20
7.503494444905325
 10
8.354716631757954
 20
7.510038866241274
 10
8.357859934761912
 20
7.51748176339244
 10
8.35971496998609
 20
7.525554130663501
 10
8.36021469162424
 20
7.533964211668931
 10
8.359341038434348
 20
7.542408044168945
 10
8.357125586518976
 20
7.550580446056798
 10
8.35364840808265
 20
7.55818604543528
 10
8.349035177413761
 20
7.564949956126655
 10
8.343452628688334
 20
7.57062771277534
 10
8.337102529762497
 20
7.575014106462802
 10
8.330214389756451
 20
7.577950601492537
 10
8.323037163996888
 20
7.579331065283208
  0
LWPOLYLINE
  5
7AA
330
18
100
AcDbEntity
  8
0
100
AcDbPolyline
 90
       33
 70
   129
 43
0.0
 10
8.6672476051275
 20
7.075325701477184
 10
8.660271491566947
 20
7.073502464421621
 10
8.653778307240055
 20
7.070147347854631
 10
8.648002732746225
 20
7.065381614430616
 10
8.643153512395777
 20
7.059377510172518
 10
8.639405909646696
 20
7.052352039051764
 10
8.636895372626618
 20
7.044559119899348
 10
8.63571263868459
 20
7.036280409117688
 10
8.635900454906857
 20
7.027815120884404
 10
8.637452033125799
 20
7.019469212772342
 10
8.640311295261983
 20
7.011544327645721
 10
8.644374900132075
 20
7.004326891501107
 10
8.649495978468449
 20
6.998077761285609
 10
8.655489441157192
 20
6.993022796847169
 10
8.662138668840914
 20
6.98934469777117
 10
8.669203341106734
 20
6.987176400141415
 10
8.67642812229214
 20
6.986596271883687
 10
8.683551889981109
 20
6.987625280344728
 10
8.690317172648564
 20
6.990226234477703
 10
8.696479455352133
 20
6.994305129023525
 10
8.701816017139237
 20
6.999714542105853
 10
8.706133980762616
 20
7.006258963441802
 10
8.709277283766573
 20
7.013701860592968
 10
8.711132318990751
 20
7.021774227864029
 10
8.711632040628901
 20
7.030184308869459
 10
8.710758387439009
 20
7.038628141369473
 10
8.708542935523637
 20
7.046800543257326
 10
8.705065757087311
 20
7.054406142635807
 10
8.700452526418422
 20
7.061170053327182
 10
8.694869977692996
 20
7.066847809975868
 10
8.688519878767158
 20
7.071234203663329
 10
8.681631738761112
 20
7.074170698693065
 10
8.67445451300155
 20
7.075551162483736
  0
LWPOLYLINE
  5
7CE
330
18
100
AcDbEntity
  8
0
100
AcDbPolyline
 90
       33
 70
   129
 43
0.0
 10
8.6672476051275
 20
7.910013860569195
 10
8.660271491566947
 20
7.908190623513631
 10
8.653778307240055
 20
7.904835506946641
 10
8.648002732746225
 20
7.900069773522627
 10
8.643153512395777
 20
7.894065669264529
 10
8.639405909646696
 20
7.887040198143775
 10
8.636895372626618
 20
7.879247278991358
 10
8.63571263868459
 20
7.870968568209698
 10
8.635900454906857
 20
7.862503279976415
 10
8.637452033125799
 20
7.854157371864353
 10
8.640311295261983
 20
7.846232486737732
 10
8.644374900132075
 20
7.839015050593117
 10
8.649495978468449
 20
7.83276592037762
 10
8.655489441157192
 20
7.827710955939179
 10
8.662138668840914
 20
7.82403285686318
 10
8.669203341106734
 20
7.821864559233426
 10
8.67642812229214
 20
7.821284430975697
 10
8.683551889981109
 20
7.822313439436739
 10
8.690317172648564
 20
7.824914393569713
 10
8.696479455352133
 20
7.828993288115536
 10
8.701816017139237
 20
7.834402701197863
 10
8.706133980762616
 20
7.840947122533812
 10
8.709277283766573
 20
7.848390019684978
 10
8.711132318990751
 20
7.856462386956039
 10
8.711632040628901
 20
7.86487246796147
 10
8.710758387439009
 20
7.873316300461483
 10
8.708542935523637
 20
7.881488702349336
 10
8.705065757087311
 20
7.889094301727818
 10
8.700452526418422
 20
7.895858212419193
 10
8.694869977692996
 20
7.901535969067878
 10
8.688519878767158
 20
7.90592236275534
 10
8.681631738761112
 20
7.908858857785075
 10
8.67445451300155
 20
7.910239321575746
  0
LWPOLYLINE
  5
7F2
330
18
100
AcDbEntity
  8
0
100
AcDbPolyline
 90
       33
 70
   129
 43
0.0
 10
9.01024112441014
 20
7.355796876306141
 10
9.003265010849587
 20
7.353973639250578
 10
8.996771826522695
 20
7.350618522683588
 10
8.990996252028864
 20
7.345852789259573
 10
8.986147031678417
 20
7.339848685001475
 10
8.982399428929336
 20
7.332823213880721
 10
8.979888891909258
 20
7.325030294728305
 10
8.978706157967229
 20
7.316751583946645
 10
8.978893974189496
 20
7.308286295713361
 10
8.980445552408439
 20
7.299940387601299
 10
8.983304814544622
 20
7.292015502474678
 10
8.987368419414715
 20
7.284798066330064
 10
8.992489497751089
 20
7.278548936114566
 10
8.998482960439832
 20
7.273493971676126
 10
9.005132188123554
 20
7.269815872600127
 10
9.012196860389373
 20
7.267647574970372
 10
9.01942164157478
 20
7.267067446712644
 10
9.026545409263749
 20
7.268096455173685
 10
9.033310691931204
 20
7.27069740930666
 10
9.039472974634773
 20
7.274776303852482
 10
9.044809536421877
 20
7.28018571693481
 10
9.049127500045255
 20
7.286730138270759
 10
9.052270803049213
 20
7.294173035421925
 10
9.054125838273391
 20
7.302245402692986
 10
9.054625559911541
 20
7.310655483698416
 10
9.053751906721649
 20
7.31909931619843
 10
9.051536454806277
 20
7.327271718086283
 10
9.048059276369951
 20
7.334877317464764
 10
9.043446045701062
 20
7.341641228156139
 10
9.037863496975636
 20
7.347318984804825
 10
9.031513398049798
 20
7.351705378492286
 10
9.024625258043752
 20
7.354641873522022
 10
9.01744803228419
 20
7.356022337312693
  0
LWPOLYLINE
  5
816
330
18
100
AcDbEntity
  8
0
100
AcDbPolyline
 90
       33
 70
   129
 43
0.0
 10
9.339366206367995
 20
6.841112303790562
 10
9.332390092807442
 20
6.839289066734999
 10
9.32589690848055
 20
6.835933950168009
 10
9.32012133398672
 20
6.831168216743994
 10
9.315272113636272
 20
6.825164112485896
 10
9.311524510887191
 20
6.818138641365143
 10
9.309013973867113
 20
6.810345722212726
 10
9.307831239925084
 20
6.802067011431066
 10
9.308019056147352
 20
6.793601723197782
 10
9.309570634366294
 20
6.78525581508572
 10
9.312429896502477
 20
6.777330929959099
 10
9.31649350137257
 20
6.770113493814485
 10
9.321614579708944
 20
6.763864363598987
 10
9.327608042397687
 20
6.758809399160547
 10
9.334257270081409
 20
6.755131300084548
 10
9.341321942347229
 20
6.752963002454793
 10
9.348546723532635
 20
6.752382874197065
 10
9.355670491221604
 20
6.753411882658106
 10
9.362435773889059
 20
6.756012836791081
 10
9.368598056592628
 20
6.760091731336903
 10
9.373934618379732
 20
6.765501144419231
 10
9.37825258200311
 20
6.77204556575518
 10
9.381395885007068
 20
6.779488462906346
 10
9.383250920231246
 20
6.787560830177407
 10
9.383750641869396
 20
6.795970911182837
 10
9.382876988679504
 20
6.804414743682851
 10
9.380661536764132
 20
6.812587145570704
 10
9.377184358327806
 20
6.820192744949186
 10
9.372571127658917
 20
6.826956655640561
 10
9.366988578933491
 20
6.832634412289246
 10
9.360638480007653
 20
6.837020805976708
 10
9.353750340001607
 20
6.839957301006443
 10
9.346573114242045
 20
6.841337764797114
  0
LWPOLYLINE
  5
83A
330
18
100
AcDbEntity
  8
0
100
AcDbPolyline
 90
       33
 70
   129
 43
0.0
 10
9.339366206367995
 20
7.675800462882573
 10
9.332390092807442
 20
7.673977225827009
 10
9.32589690848055
 20
7.67062210926002
 10
9.32012133398672
 20
7.665856375836005
 10
9.315272113636272
 20
7.659852271577907
 10
9.311524510887191
 20
7.652826800457153
 10
9.309013973867113
 20
7.645033881304737
 10
9.307831239925084
 20
7.636755170523077
 10
9.308019056147352
 20
7.628289882289793
 10
9.309570634366294
 20
7.619943974177731
 10
9.312429896502477
 20
7.61201908905111
 10
9.31649350137257
 20
7.604801652906495
 10
9.321614579708944
 20
7.598552522690998
 10
9.327608042397687
 20
7.593497558252557
 10
9.334257270081409
 20
7.589819459176558
 10
9.341321942347229
 20
7.587651161546804
 10
9.348546723532635
 20
7.587071033289075
 10
9.355670491221604
 20
7.588100041750117
 10
9.362435773889059
 20
7.590700995883092
 10
9.368598056592628
 20
7.594779890428914
 10
9.373934618379732
 20
7.600189303511241
 10
9.37825258200311
 20
7.606733724847191
 10
9.381395885007068
 20
7.614176621998356
 10
9.383250920231246
 20
7.622248989269417
 10
9.383750641869396
 20
7.630659070274848
 10
9.382876988679504
 20
7.639102902774861
 10
9.380661536764132
 20
7.647275304662714
 10
9.377184358327806
 20
7.654880904041196
 10
9.372571127658917
 20
7.661644814732571
 10
9.366988578933491
 20
7.667322571381257
 10
9.360638480007653
 20
7.671708965068718
 10
9.353750340001607
 20
7.674645460098454
 10
9.346573114242045
 20
7.676025923889124
  0
LINE
  5
85E
330
18
100
AcDbEntity
  8
0
100
AcDbLine
 10
6.976139272956687
 20
8.135807640177422
 30
0.0
 11
7.103147298674804
 21
8.08662657069149
 31
0.0
  0
ARC
  5
85F
330
18
100
AcDbEntity
  8
0
100
AcDbCircle
 10
6.966986360263665
 20
8.433360907524188
 30
0.0
 40
0.0091529126930231
100
AcDbArc
 50
306.9291659629935
 51
71.41799356986111
  0
LINE
  5
860
330
18
100
AcDbEntity
  8
0
100
AcDbLine
 10
6.848503635797577
 20
8.332857182507707
 30
0.0
 11
6.972485679357972
 21
8.426044262099877
 31
0.0
  0
ARC
  5
861
330
18
100
AcDbEntity
  8
0
100
AcDbCircle
 10
6.802739072332462
 20
8.17275631249562
 30
0.0
 40
0.0457645634651156
100
AcDbArc
 50
320.8597843028972
 51
0.0
  0
LINE
  5
862
330
18
100
AcDbEntity
  8
0
100
AcDbLine
 10
6.848503635797577
 20
8.332857182507707
 30
0.0
 11
6.848503635797577
 21
8.17275631249562
 31
0.0
  0
LINE
  5
863
330
18
100
AcDbEntity
  8
0
100
AcDbLine
 10
6.848503635797577
 20
8.332857182507707
 30
0.0
 11
6.810166044025653
 21
8.344360099771709
 31
0.0
  0
LINE
  5
864
330
18
100
AcDbEntity
  8
0
100
AcDbLine
 10
6.652032866370383
 20
8.548900678073004
 30
0.0
 11
6.969903042522094
 21
8.442036665437446
 31
0.0
  0
LINE
  5
865
330
18
100
AcDbEntity
  8
0
100
AcDbLine
 10
6.613161084920623
 20
8.531130560343271
 30
0.0
 11
6.652032866370383
 21
8.548900678073004
 31
0.0
  0
ARC
  5
866
330
18
100
AcDbEntity
  8
0
100
AcDbCircle
 10
6.911274836520278
 20
8.426080257559377
 30
0.0
 40
0.0045764563465116
100
AcDbArc
 50
306.9291659629938
 51
71.41799356986097
  0
ARC
  5
867
330
18
100
AcDbEntity
  8
0
100
AcDbCircle
 10
6.65892564838574
 20
8.38944531138034
 30
0.0
 40
0.0457645634651156
100
AcDbArc
 50
180.0
 51
242.6408325965095
  0
ARC
  5
868
330
18
100
AcDbEntity
  8
0
100
AcDbCircle
 10
6.616861886267643
 20
8.308154346365237
 30
0.0
 40
0.0457645634651156
100
AcDbArc
 50
0.0
 51
62.64083259650998
  0
ARC
  5
869
330
18
100
AcDbEntity
  8
0
100
AcDbCircle
 10
6.764401480560538
 20
8.18425922975962
 30
0.0
 40
0.0457645634651156
100
AcDbArc
 50
320.8597843028972
 51
0.0
  0
LINE
  5
86A
330
18
100
AcDbEntity
  8
0
100
AcDbLine
 10
6.799896638306788
 20
8.15537170570993
 30
0.0
 11
6.787899794861386
 21
8.140630745224042
 31
0.0
  0
LINE
  5
86B
330
18
100
AcDbEntity
  8
0
100
AcDbLine
 10
6.810166044025653
 20
8.344360099771709
 30
0.0
 11
6.810166044025653
 21
8.18425922975962
 31
0.0
  0
LINE
  5
86C
330
18
100
AcDbEntity
  8
0
100
AcDbLine
 10
6.810166044025653
 20
8.344360099771709
 30
0.0
 11
6.914024496067432
 21
8.422421934847222
 31
0.0
  0
LINE
  5
86D
330
18
100
AcDbEntity
  8
0
100
AcDbLine
 10
6.613161084920623
 20
8.531130560343271
 30
0.0
 11
6.912733177649493
 21
8.430418136516007
 31
0.0
  0
LINE
  5
86E
330
18
100
AcDbEntity
  8
0
100
AcDbLine
 10
7.142594510603862
 20
8.250031250189888
 30
0.0
 11
7.104256918831939
 21
8.26153416745389
 31
0.0
  0
LINE
  5
86F
330
18
100
AcDbEntity
  8
0
100
AcDbLine
 10
7.638050008879083
 20
8.221956108996
 30
0.0
 11
7.676921790328843
 21
8.239726226725733
 31
0.0
  0
LINE
  5
870
330
18
100
AcDbEntity
  8
0
100
AcDbLine
 10
7.676921790328843
 20
8.239726226725733
 30
0.0
 11
7.281515325800022
 21
8.343192826585808
 31
0.0
  0
ARC
  5
871
330
18
100
AcDbEntity
  8
0
100
AcDbCircle
 10
7.668356563756301
 20
8.055712771859319
 30
0.0
 40
0.0457645634651156
100
AcDbArc
 50
113.980189658248
 51
180.0
  0
ARC
  5
872
330
18
100
AcDbEntity
  8
0
100
AcDbCircle
 10
7.631157226863727
 20
8.139341656889359
 30
0.0
 40
0.0457645634651156
100
AcDbArc
 50
293.9801896582476
 51
0.0
  0
LINE
  5
873
330
18
100
AcDbEntity
  8
0
100
AcDbLine
 10
7.676921790328843
 20
8.139341656889359
 30
0.0
 11
7.676921790328843
 21
8.239726226725733
 31
0.0
  0
ARC
  5
874
330
18
100
AcDbEntity
  8
0
100
AcDbCircle
 10
7.531062873360954
 20
7.608287808828806
 30
0.0
 40
0.0915291269302312
100
AcDbArc
 50
317.3367994601684
 51
0.0
  0
LINE
  5
875
330
18
100
AcDbEntity
  8
0
100
AcDbLine
 10
7.622592000291185
 20
8.055712771859319
 30
0.0
 11
7.622592000291185
 21
7.608287808828806
 31
0.0
  0
ARC
  5
876
330
18
100
AcDbEntity
  8
0
100
AcDbCircle
 10
7.058492355366822
 20
8.096643122359277
 30
0.0
 40
0.0457645634651156
100
AcDbArc
 50
320.2324859328411
 51
0.0
  0
LINE
  5
877
330
18
100
AcDbEntity
  8
0
100
AcDbLine
 10
7.104256918831939
 20
8.26153416745389
 30
0.0
 11
7.104256918831937
 21
8.096643122359277
 31
0.0
  0
LINE
  5
878
330
18
100
AcDbEntity
  8
0
100
AcDbLine
 10
7.239050778230787
 20
8.337678413349247
 30
0.0
 11
7.104256918831939
 21
8.26153416745389
 31
0.0
  0
ARC
  5
879
330
18
100
AcDbEntity
  8
0
100
AcDbCircle
 10
7.014284412068301
 20
7.566587618914643
 30
0.0
 40
0.0457645634651156
100
AcDbArc
 50
337.4238003933769
 51
0.0
  0
LINE
  5
87A
330
18
100
AcDbEntity
  8
0
100
AcDbLine
 10
7.060048975533416
 20
8.010418149216825
 30
0.0
 11
7.060048975533416
 21
7.566587618914643
 31
0.0
  0
LINE
  5
87B
330
18
100
AcDbEntity
  8
0
100
AcDbLine
 10
7.09366911928462
 20
8.067368721435875
 30
0.0
 11
7.070636775080734
 21
8.039692550140229
 31
0.0
  0
ARC
  5
87C
330
18
100
AcDbEntity
  8
0
100
AcDbCircle
 10
7.105813538998532
 20
8.010418149216825
 30
0.0
 40
0.0457645634651156
100
AcDbArc
 50
140.2324859328404
 51
180.0
  0
LINE
  5
87D
330
18
100
AcDbEntity
  8
0
100
AcDbLine
 10
7.056542026596189
 20
7.549018063326494
 30
0.0
 11
6.861568557270392
 21
7.080075427378904
 31
0.0
  0
ARC
  5
87E
330
18
100
AcDbEntity
  8
0
100
AcDbCircle
 10
7.259431312065978
 20
7.345485136193164
 30
0.0
 40
0.0457645634651156
100
AcDbArc
 50
302.8227108048645
 51
7.15158395786256
  0
ARC
  5
87F
330
18
100
AcDbEntity
  8
0
100
AcDbCircle
 10
6.857648534514428
 20
7.086142065703053
 30
0.0
 40
0.0457645634651156
100
AcDbArc
 50
269.9999999999992
 51
337.4238003933768
  0
LINE
  5
880
330
18
100
AcDbEntity
  8
0
100
AcDbLine
 10
6.857648534514427
 20
7.040377502237936
 30
0.0
 11
6.803659226445286
 21
7.040377502237936
 31
0.0
  0
ARC
  5
881
330
18
100
AcDbEntity
  8
0
100
AcDbCircle
 10
7.350248365828902
 20
7.356880039546708
 30
0.0
 40
0.0457645634651156
100
AcDbArc
 50
120.091744102924
 51
187.1515839578632
  0
ARC
  5
882
330
18
100
AcDbEntity
  8
0
100
AcDbCircle
 10
7.052622003840225
 20
7.555084701650643
 30
0.0
 40
0.0457645634651156
100
AcDbArc
 50
337.4238003933769
 51
0.0
  0
ARC
  5
883
330
18
100
AcDbEntity
  8
0
100
AcDbCircle
 10
7.144151130770456
 20
7.998915231952824
 30
0.0
 40
0.0457645634651156
100
AcDbArc
 50
140.2324859328404
 51
180.0
  0
ARC
  5
884
330
18
100
AcDbEntity
  8
0
100
AcDbCircle
 10
7.096829947138746
 20
8.085140205095277
 30
0.0
 40
0.0457645634651156
100
AcDbArc
 50
320.2324859328411
 51
0.0
  0
ARC
  5
885
330
18
100
AcDbEntity
  8
0
100
AcDbCircle
 10
7.592285445413967
 20
8.121571539159627
 30
0.0
 40
0.0457645634651156
100
AcDbArc
 50
293.9801896582476
 51
0.0
  0
ARC
  5
886
330
18
100
AcDbEntity
  8
0
100
AcDbCircle
 10
7.629484782306541
 20
8.037942654129587
 30
0.0
 40
0.0457645634651156
100
AcDbArc
 50
113.980189658248
 51
180.0
  0
ARC
  5
887
330
18
100
AcDbEntity
  8
0
100
AcDbCircle
 10
7.492191091911195
 20
7.597814033708239
 30
0.0
 40
0.0915291269302312
100
AcDbArc
 50
300.0917441029243
 51
0.0
  0
LINE
  5
888
330
18
100
AcDbEntity
  8
0
100
AcDbLine
 10
6.662626449732759
 20
8.308154346365237
 30
0.0
 11
6.662626449732759
 21
8.143840520926831
 31
0.0
  0
LINE
  5
889
330
18
100
AcDbEntity
  8
0
100
AcDbLine
 10
6.613161084920623
 20
8.531130560343271
 30
0.0
 11
6.613161084920623
 21
8.38944531138034
 31
0.0
  0
LINE
  5
88A
330
18
100
AcDbEntity
  8
0
100
AcDbLine
 10
7.094879618368112
 20
7.537515146062494
 30
0.0
 11
6.899906149042315
 21
7.068572510114903
 31
0.0
  0
LINE
  5
88B
330
18
100
AcDbEntity
  8
0
100
AcDbLine
 10
7.09838656730534
 20
7.998915231952824
 30
0.0
 11
7.09838656730534
 21
7.555084701650643
 31
0.0
  0
LINE
  5
88C
330
18
100
AcDbEntity
  8
0
100
AcDbLine
 10
7.132006711056543
 20
8.055865804171875
 30
0.0
 11
7.108974366852658
 21
8.028189632876227
 31
0.0
  0
LINE
  5
88D
330
18
100
AcDbEntity
  8
0
100
AcDbLine
 10
7.142594510603862
 20
8.250031250189888
 30
0.0
 11
7.14259451060386
 21
8.085140205095277
 31
0.0
  0
LINE
  5
88E
330
18
100
AcDbEntity
  8
0
100
AcDbLine
 10
7.254891501311866
 20
8.313467149361509
 30
0.0
 11
7.142594510603862
 21
8.250031250189888
 31
0.0
  0
LINE
  5
88F
330
18
100
AcDbEntity
  8
0
100
AcDbLine
 10
7.638050008879083
 20
8.221956108996
 30
0.0
 11
7.277241263190411
 21
8.316369472117595
 31
0.0
  0
LINE
  5
890
330
18
100
AcDbEntity
  8
0
100
AcDbLine
 10
7.638050008879083
 20
8.121571539159627
 30
0.0
 11
7.638050008879083
 21
8.221956108996
 31
0.0
  0
LINE
  5
891
330
18
100
AcDbEntity
  8
0
100
AcDbLine
 10
7.583720218841425
 20
8.037942654129587
 30
0.0
 11
7.583720218841425
 21
7.597814033708239
 31
0.0
  0
LINE
  5
892
330
18
100
AcDbEntity
  8
0
100
AcDbLine
 10
7.310399789238442
 20
7.379385288109363
 30
0.0
 11
7.598368817428685
 21
7.546259662235812
 31
0.0
  0
LINE
  5
893
330
18
100
AcDbEntity
  8
0
100
AcDbLine
 10
6.887411233925283
 20
7.051377471746965
 30
0.0
 11
7.28423759783322
 21
7.30702680217326
 31
0.0
  0
LINE
  5
894
330
18
100
AcDbEntity
  8
0
100
AcDbLine
 10
6.579283025168549
 20
8.645359629462069
 30
0.0
 11
10.15059687840967
 21
7.573812725264099
 31
0.0
  0
LINE
  5
895
330
18
100
AcDbEntity
  8
0
100
AcDbLine
 10
6.111601648883675
 20
9.159785916739235
 30
0.0
 11
6.138312255998011
 21
9.175301619518425
 31
0.0
  0
LINE
  5
896
330
18
100
AcDbEntity
  8
0
100
AcDbLine
 10
6.138312255998011
 20
9.175301619518425
 30
0.0
 11
6.579283025168549
 21
9.042991528060725
 31
0.0
  0
LINE
  5
897
330
18
100
AcDbEntity
  8
0
100
AcDbLine
 10
6.579283025168549
 20
9.042991528060725
 30
0.0
 11
6.579283025168549
 21
8.145975960823316
 31
0.0
  0
LINE
  5
898
330
18
100
AcDbEntity
  8
0
100
AcDbLine
 10
6.552572418054213
 20
9.027475825281536
 30
0.0
 11
6.579283025168548
 21
9.042991528060723
 31
0.0
  0
LINE
  5
899
330
18
100
AcDbEntity
  8
0
100
AcDbLine
 10
6.111601648883675
 20
9.159785916739235
 30
0.0
 11
6.552572418054213
 21
9.027475825281536
 31
0.0
  0
LINE
  5
89A
330
18
100
AcDbEntity
  8
0
100
AcDbLine
 10
6.552572418054213
 20
9.027475825281536
 30
0.0
 11
6.552572418054213
 21
8.146660344701102
 31
0.0
  0
LINE
  5
89B
330
18
100
AcDbEntity
  8
0
100
AcDbLine
 10
6.111601648883675
 20
8.242431478666536
 30
0.0
 11
6.419422945381441
 21
8.150071923930391
 31
0.0
  0
LINE
  5
89C
330
18
100
AcDbEntity
  8
0
100
AcDbLine
 10
6.111601648883675
 20
9.159785916739233
 30
0.0
 11
6.111601648883675
 21
8.242431478666536
 31
0.0
  0
LINE
  5
89D
330
18
100
AcDbEntity
  8
0
100
AcDbLine
 10
6.840931062171411
 20
7.941904167160823
 30
0.0
 11
6.801580186894353
 21
7.962912108131276
 31
0.0
  0
LINE
  5
89E
330
18
100
AcDbEntity
  8
0
100
AcDbLine
 10
6.058978377492755
 20
6.721849919918217
 30
0.0
 11
6.019627502215696
 21
6.74285786088867
 31
0.0
  0
LINE
  5
89F
330
18
100
AcDbEntity
  8
0
100
AcDbLine
 10
6.019627502215696
 20
7.52659085310506
 30
0.0
 11
6.058978377492755
 21
7.505582912134607
 31
0.0
  0
LINE
  5
8A0
330
18
100
AcDbEntity
  8
0
100
AcDbLine
 10
6.019627502215696
 20
7.52659085310506
 30
0.0
 11
6.019627502215696
 21
6.74285786088867
 31
0.0
  0
LINE
  5
8A1
330
18
100
AcDbEntity
  8
0
100
AcDbLine
 10
6.801580186894353
 20
7.962912108131276
 30
0.0
 11
6.019627502215696
 21
7.52659085310506
 31
0.0
  0
LINE
  5
8A2
330
18
100
AcDbEntity
  8
0
100
AcDbLine
 10
6.840931062171411
 20
7.941904167160823
 30
0.0
 11
6.058978377492755
 21
7.505582912134607
 31
0.0
  0
LINE
  5
8A3
330
18
100
AcDbEntity
  8
0
100
AcDbLine
 10
6.840931062171411
 20
7.158171174944433
 30
0.0
 11
6.840931062171411
 21
7.941904167160823
 31
0.0
  0
LINE
  5
8A4
330
18
100
AcDbEntity
  8
0
100
AcDbLine
 10
6.058978377492755
 20
7.505582912134607
 30
0.0
 11
6.058978377492755
 21
6.721849919918217
 31
0.0
  0
LINE
  5
8A5
330
18
100
AcDbEntity
  8
0
100
AcDbLine
 10
4.657967172377584
 20
8.079611565693021
 30
0.0
 11
7.078321238067868
 21
8.048926369853252
 31
0.0
  0
LINE
  5
8A6
330
18
100
AcDbEntity
  8
0
100
AcDbLine
 10
4.560741648054389
 20
7.25726324090478
 30
0.0
 11
6.019627502215697
 21
7.333099145209472
 31
0.0
  0
LINE
  5
8A7
330
18
100
AcDbEntity
  8
0
100
AcDbLine
 10
4.657967172377584
 20
8.079611565693021
 30
0.0
 11
4.35897132454361
 21
8.20286517809433
 31
0.0
  0
LINE
  5
8A8
330
18
100
AcDbEntity
  8
0
100
AcDbLine
 10
4.560741648054389
 20
7.25726324090478
 30
0.0
 11
4.595129653969075
 21
7.548122243760303
 31
0.0
  0
LINE
  5
8A9
330
18
100
AcDbEntity
  8
0
100
AcDbLine
 10
4.251904402799125
 20
7.385304533962898
 30
0.0
 11
4.560741648054389
 21
7.25726324090478
 31
0.0
  0
LINE
  5
8AA
330
18
100
AcDbEntity
  8
0
100
AcDbLine
 10
4.35897132454361
 20
8.20286517809433
 30
0.0
 11
4.323225656827693
 21
7.929912050773853
 31
0.0
  0
LINE
  5
8AB
330
18
100
AcDbEntity
  8
0
100
AcDbLine
 10
4.35897132454361
 20
8.20286517809433
 30
0.0
 11
6.976139272956687
 21
8.135807640177422
 31
0.0
  0
LINE
  5
8AC
330
18
100
AcDbEntity
  8
0
100
AcDbLine
 10
4.475167393349828
 20
6.658565091674508
 30
0.0
 11
5.585251552992586
 21
7.310519384891978
 31
0.0
  0
LINE
  5
8AD
330
18
100
AcDbEntity
  8
0
100
AcDbLine
 10
4.79571564141994
 20
6.534995912439484
 30
0.0
 11
6.019627502215697
 21
7.294144192110791
 31
0.0
  0
LINE
  5
8AE
330
18
100
AcDbEntity
  8
0
100
AcDbLine
 10
4.475167393349828
 20
5.807972239102572
 30
0.0
 11
4.79571564141994
 21
5.663894766383814
 31
0.0
  0
LINE
  5
8AF
330
18
100
AcDbEntity
  8
0
100
AcDbLine
 10
4.475167393349828
 20
6.658565091674508
 30
0.0
 11
4.475167393349829
 21
6.379040582403388
 31
0.0
  0
LINE
  5
8B0
330
18
100
AcDbEntity
  8
0
100
AcDbLine
 10
4.79571564141994
 20
6.534995912439484
 30
0.0
 11
4.475167393349828
 21
6.658565091674508
 31
0.0
  0
LINE
  5
8B1
330
18
100
AcDbEntity
  8
0
100
AcDbLine
 10
4.79571564141994
 20
5.663894766383814
 30
0.0
 11
6.861568557270392
 21
7.080075427378904
 31
0.0
  0
LINE
  5
8B2
330
18
100
AcDbEntity
  8
0
100
AcDbLine
 10
4.79571564141994
 20
6.534995912439484
 30
0.0
 11
4.79571564141994
 21
6.234963109684629
 31
0.0
  0
LINE
  5
8B3
330
18
100
AcDbEntity
  8
0
100
AcDbLine
 10
4.436527892868558
 20
8.316268891881286
 30
0.0
 11
4.783595342628884
 21
8.191985386749472
 31
0.0
  0
LINE
  5
8B4
330
18
100
AcDbEntity
  8
0
100
AcDbLine
 10
10.15059687840967
 20
6.344215844496684
 30
0.0
 11
7.304874635999684
 21
7.335865642667866
 31
0.0
  0
LINE
  5
8B5
330
18
100
AcDbEntity
  8
0
100
AcDbLine
 10
6.904485387659395
 20
8.741444869819164
 30
0.0
 11
10.35830569384985
 21
7.735178663717842
 31
0.0
  0
LINE
  5
8B6
330
18
100
AcDbEntity
  8
0
100
AcDbLine
 10
6.904485387659393
 20
8.906829342691319
 30
0.0
 11
10.07042403973856
 21
8.014293982149971
 31
0.0
  0
LINE
  5
8B7
330
18
100
AcDbEntity
  8
0
100
AcDbLine
 10
5.048988581275721
 20
9.282041532722058
 30
0.0
 11
5.26099806061704
 21
9.370158141884428
 31
0.0
  0
LINE
  5
8B8
330
18
100
AcDbEntity
  8
0
100
AcDbLine
 10
4.436527892868558
 20
9.288277816668327
 30
0.0
 11
4.715689147947575
 21
9.379147903794605
 31
0.0
  0
LINE
  5
8B9
330
18
100
AcDbEntity
  8
0
100
AcDbLine
 10
4.436527892868558
 20
9.288277816668327
 30
0.0
 11
4.436527892868558
 21
8.928156592878501
 31
0.0
  0
LINE
  5
8BA
330
18
100
AcDbEntity
  8
0
100
AcDbLine
 10
6.06690068782548
 20
10.77269295020177
 30
0.0
 11
6.066900687825481
 21
8.799096245706931
 31
0.0
  0
LINE
  5
8BB
330
18
100
AcDbEntity
  8
0
100
AcDbLine
 10
6.684648312594677
 20
10.63919992335544
 30
0.0
 11
6.449998481189058
 21
10.68990690301403
 31
0.0
  0
LINE
  5
8BC
330
18
100
AcDbEntity
  8
0
100
AcDbLine
 10
10.07042403973856
 20
8.014293982149971
 30
0.0
 11
10.07042403973856
 21
7.819052621888025
 31
0.0
  0
LINE
  5
8BD
330
18
100
AcDbEntity
  8
0
100
AcDbLine
 10
10.07042403973856
 20
8.014293982149971
 30
0.0
 11
9.882894036250772
 21
7.873689252751998
 31
0.0
  0
LINE
  5
8BE
330
18
100
AcDbEntity
  8
0
100
AcDbLine
 10
5.26099806061704
 20
9.370158141884428
 30
0.0
 11
6.066900687825481
 21
9.142959616902168
 31
0.0
  0
LINE
  5
8BF
330
18
100
AcDbEntity
  8
0
100
AcDbLine
 10
10.15059687840967
 20
7.573812725264099
 30
0.0
 11
10.35830569384985
 21
7.735178663717842
 31
0.0
  0
LINE
  5
8C0
330
18
100
AcDbEntity
  8
0
100
AcDbLine
 10
4.436527892868558
 20
9.288277816668327
 30
0.0
 11
6.111601648883675
 21
8.785684045490164
 31
0.0
  0
LINE
  5
8C1
330
18
100
AcDbEntity
  8
0
100
AcDbLine
 10
6.684648312594677
 20
8.613745536668482
 30
0.0
 11
6.904485387659393
 21
8.741444869819164
 31
0.0
  0
LINE
  5
8C2
330
18
100
AcDbEntity
  8
0
100
AcDbLine
 10
6.684648312594677
 20
10.63919992335544
 30
0.0
 11
6.684648312594677
 21
8.613745536668482
 31
0.0
  0
LINE
  5
8C3
330
18
100
AcDbEntity
  8
0
100
AcDbLine
 10
6.904485387659393
 20
10.72699535936325
 30
0.0
 11
6.684648312594677
 21
10.63919992335544
 31
0.0
  0
LINE
  5
8C4
330
18
100
AcDbEntity
  8
0
100
AcDbLine
 10
10.15059687840967
 20
6.344215844496684
 30
0.0
 11
10.15059687840967
 21
6.913862236994397
 31
0.0
  0
LINE
  5
8C5
330
18
100
AcDbEntity
  8
0
100
AcDbLine
 10
10.35830569384985
 20
6.531477650810789
 30
0.0
 11
10.15059687840967
 21
6.344215844496684
 31
0.0
  0
LINE
  5
8C6
330
18
100
AcDbEntity
  8
0
100
AcDbLine
 10
10.35830569384985
 20
7.735178663717842
 30
0.0
 11
10.35830569384985
 21
7.290048525409035
 31
0.0
  0
LINE
  5
8C7
330
18
100
AcDbEntity
  8
0
100
AcDbLine
 10
4.715689147947575
 20
9.379147903794605
 30
0.0
 11
6.066900687825481
 21
8.985474119597948
 31
0.0
  0
LINE
  5
8C8
330
18
100
AcDbEntity
  8
0
100
AcDbLine
 10
6.904485387659393
 20
10.72699535936325
 30
0.0
 11
6.904485387659393
 21
8.741444869819164
 31
0.0
  0
ENDSEC
  0
SECTION
  2
OBJECTS
  0
DICTIONARY
  5
C
330
0
100
AcDbDictionary
281
     1
  3
ACAD_COLOR
350
8CE
  3
ACAD_GROUP
350
D
  3
ACAD_LAYOUT
350
15
  3
ACAD_MATERIAL
350
8D0
  3
ACAD_MLINESTYLE
350
12
  3
ACAD_PLOTSETTINGS
350
14
  3
ACAD_PLOTSTYLENAME
350
E
  3
ACDBHEADERROUNDTRIPXREC
350
8CD
  0
DICTIONARY
  5
8CE
102
{ACAD_REACTORS
330
C
102
}
330
C
100
AcDbDictionary
281
     1
  0
DICTIONARY
  5
D
102
{ACAD_REACTORS
330
C
102
}
330
C
100
AcDbDictionary
281
     1
  0
DICTIONARY
  5
15
102
{ACAD_REACTORS
330
C
102
}
330
C
100
AcDbDictionary
281
     1
  3
Layout1
350
17
  3
Model
350
19
  0
DICTIONARY
  5
8D0
102
{ACAD_REACTORS
330
C
102
}
330
C
100
AcDbDictionary
281
     1
  0
DICTIONARY
  5
12
102
{ACAD_REACTORS
330
C
102
}
330
C
100
AcDbDictionary
281
     1
  3
Standard
350
13
  0
DICTIONARY
  5
14
102
{ACAD_REACTORS
330
C
102
}
330
C
100
AcDbDictionary
281
     1
  0
ACDBDICTIONARYWDFLT
  5
E
102
{ACAD_REACTORS
330
C
102
}
330
C
100
AcDbDictionary
281
     1
  3
Normal
350
F
100
AcDbDictionaryWithDefault
340
F
  0
DICTIONARY
  5
8CD
102
{ACAD_REACTORS
330
C
102
}
330
C
100
AcDbDictionary
281
     1
  3
COLORDICT
350
8CF
  3
MATERIALDICT
350
8D1
  0
LAYOUT
  5
17
102
{ACAD_REACTORS
330
15
102
}
102
{ACAD_XDICTIONARY
360
8D2
102
}
330
15
100
AcDbPlotSettings
  1

  2

  4

  6

 40
0.0
 41
0.0
 42
0.0
 43
0.0
 44
0.0
 45
0.0
 46
0.0
 47
0.0
 48
0.0
 49
0.0
140
0.0
141
0.0
142
1.0
143
1.0
 70
   688
 72
     0
 73
     0
 74
     5
  7

 75
    16
147
1.0
148
0.0
149
0.0
100
AcDbLayout
  1
Layout1
 70
     1
 71
     1
 10
0.0
 20
0.0
 11
12.0
 21
9.0
 12
0.0
 22
0.0
 32
0.0
 14
1.000000000000000E+20
 24
1.000000000000000E+20
 34
1.000000000000000E+20
 15
-1.000000000000000E+20
 25
-1.000000000000000E+20
 35
-1.000000000000000E+20
146
0.0
 13
0.0
 23
0.0
 33
0.0
 16
1.0
 26
0.0
 36
0.0
 17
0.0
 27
1.0
 37
0.0
 76
     0
330
16
  0
LAYOUT
  5
19
102
{ACAD_REACTORS
330
15
102
}
102
{ACAD_XDICTIONARY
360
8D4
102
}
330
15
100
AcDbPlotSettings
  1

  2

  4

  6

 40
0.0
 41
0.0
 42
0.0
 43
0.0
 44
0.0
 45
0.0
 46
0.0
 47
0.0
 48
0.0
 49
0.0
140
0.0
141
0.0
142
1.0
143
1.0
 70
  1712
 72
     0
 73
     0
 74
     0
  7

 75
     0
147
1.0
148
0.0
149
0.0
100
AcDbLayout
  1
Model
 70
     1
 71
     0
 10
0.0
 20
0.0
 11
0.0
 21
0.0
 12
0.0
 22
0.0
 32
0.0
 14
0.0
 24
0.0
 34
0.0
 15
0.0
 25
0.0
 35
0.0
146
0.0
 13
0.0
 23
0.0
 33
0.0
 16
1.0
 26
0.0
 36
0.0
 17
0.0
 27
1.0
 37
0.0
 76
     0
330
18
  0
MLINESTYLE
  5
13
102
{ACAD_REACTORS
330
12
102
}
330
12
100
AcDbMlineStyle
  2
Standard
 70
     0
  3

 62
   256
 51
90.0
 52
90.0
 71
     2
 49
0.5
 62
   256
  6
BYLAYER
 49
-0.5
 62
   256
  6
BYLAYER
  0
ACDBPLACEHOLDER
  5
F
102
{ACAD_REACTORS
330
E
102
}
330
E
  0
XRECORD
  5
8CF
102
{ACAD_REACTORS
330
8CD
102
}
330
8CD
100
AcDbXrecord
340
8CE
  0
XRECORD
  5
8D1
102
{ACAD_REACTORS
330
8CD
102
}
330
8CD
100
AcDbXrecord
340
8D0
  0
DICTIONARY
  5
8D2
330
17
100
AcDbDictionary
280
     1
281
     1
  3
ACAD_XREC_ROUNDTRIP
360
8D3
  0
DICTIONARY
  5
8D4
330
19
100
AcDbDictionary
280
     1
281
     1
  3
ACAD_XREC_ROUNDTRIP
360
8D5
  0
XRECORD
  5
8D3
102
{ACAD_REACTORS
330
8D2
102
}
330
8D2
100
AcDbXrecord
102
SHADEPLOT
 70
     0
102
SHADEPLOTRESLEVEL
 70
     0
102
SHADEPLOTCUSTOMDPI
 70
     0
  0
XRECORD
  5
8D5
102
{ACAD_REACTORS
330
8D4
102
}
330
8D4
100
AcDbXrecord
102
SHADEPLOT
 70
 18664
102
SHADEPLOTRESLEVEL
 70
   232
102
SHADEPLOTCUSTOMDPI
 70
 13608
  0
ENDSEC
  0
EOF
