  0
SECTION
  2
HEADER
  9
$ACADVER
  1
AC1015
  9
$ACADMAINTVER
 70
     6
  9
$DWGCODEPAGE
  3
ISO8859-1
  9
$INSBASE
 10
0.0
 20
0.0
 30
0.0
  9
$EXTMIN
 10
13.235294
 20
3.406815
 30
0.0
  9
$EXTMAX
 10
18.019686
 20
12.47467
 30
0.0
  9
$LIMMIN
 10
0.0
 20
0.0
  9
$LIMMAX
 10
12.0
 20
9.0
  9
$ORTHOMODE
 70
     0
  9
$REGENMODE
 70
     0
  9
$FILLMODE
 70
     1
  9
$QTEXTMODE
 70
     0
  9
$MIRRTEXT
 70
     1
  9
$LTSCALE
 40
0.5
  9
$ATTMODE
 70
     1
  9
$TEXTSIZE
 40
0.2
  9
$TRACEWID
 40
0.05
  9
$TEXTSTYLE
  7
STANDARD
  9
$CLAYER
  8
0
  9
$CELTYPE
  6
ByLayer
  9
$CECOLOR
 62
   256
  9
$CELTSCALE
 40
1.0
  9
$DISPSILH
 70
     0
  9
$DIMSCALE
 40
1.0
  9
$DIMASZ
 40
0.125
  9
$DIMEXO
 40
0.0625
  9
$DIMDLI
 40
0.38
  9
$DIMRND
 40
0.0
  9
$DIMDLE
 40
0.0
  9
$DIMEXE
 40
0.18
  9
$DIMTP
 40
0.0
  9
$DIMTM
 40
0.0
  9
$DIMTXT
 40
0.125
  9
$DIMCEN
 40
0.09
  9
$DIMTSZ
 40
0.0
  9
$DIMTOL
 70
     0
  9
$DIMLIM
 70
     0
  9
$DIMTIH
 70
     1
  9
$DIMTOH
 70
     1
  9
$DIMSE1
 70
     0
  9
$DIMSE2
 70
     0
  9
$DIMTAD
 70
     0
  9
$DIMZIN
 70
     0
  9
$DIMBLK
  1

  9
$DIMASO
 70
     0
  9
$DIMSHO
 70
     1
  9
$DIMPOST
  1

  9
$DIMAPOST
  1

  9
$DIMALT
 70
     0
  9
$DIMALTD
 70
     2
  9
$DIMALTF
 40
25.4
  9
$DIMLFAC
 40
1.0
  9
$DIMTOFL
 70
     0
  9
$DIMTVP
 40
0.0
  9
$DIMTIX
 70
     0
  9
$DIMSOXD
 70
     0
  9
$DIMSAH
 70
     0
  9
$DIMBLK1
  1

  9
$DIMBLK2
  1

  9
$DIMSTYLE
  2
Standard
  9
$DIMCLRD
 70
     0
  9
$DIMCLRE
 70
     0
  9
$DIMCLRT
 70
     0
  9
$DIMTFAC
 40
1.0
  9
$DIMGAP
 40
0.09
  9
$DIMJUST
 70
     0
  9
$DIMSD1
 70
     0
  9
$DIMSD2
 70
     0
  9
$DIMTOLJ
 70
     1
  9
$DIMTZIN
 70
     0
  9
$DIMALTZ
 70
     0
  9
$DIMALTTZ
 70
     0
  9
$DIMUPT
 70
     0
  9
$DIMDEC
 70
     4
  9
$DIMTDEC
 70
     4
  9
$DIMALTU
 70
     2
  9
$DIMALTTD
 70
     2
  9
$DIMTXSTY
  7
STANDARD
  9
$DIMAUNIT
 70
     0
  9
$DIMADEC
 70
     0
  9
$DIMALTRND
 40
0.0
  9
$DIMAZIN
 70
     0
  9
$DIMDSEP
 70
    46
  9
$DIMATFIT
 70
     3
  9
$DIMFRAC
 70
     0
  9
$DIMLDRBLK
  1

  9
$DIMLUNIT
 70
     2
  9
$DIMLWD
 70
    -2
  9
$DIMLWE
 70
    -2
  9
$DIMTMOVE
 70
     0
  9
$LUNITS
 70
     2
  9
$LUPREC
 70
     4
  9
$SKETCHINC
 40
0.1
  9
$FILLETRAD
 40
0.03
  9
$AUNITS
 70
     0
  9
$AUPREC
 70
     0
  9
$MENU
  1
acad
  9
$ELEVATION
 40
0.0
  9
$PELEVATION
 40
0.0
  9
$THICKNESS
 40
0.0
  9
$LIMCHECK
 70
     0
  9
$CHAMFERA
 40
0.0
  9
$CHAMFERB
 40
0.0
  9
$CHAMFERC
 40
1.0
  9
$CHAMFERD
 40
0.0
  9
$SKPOLY
 70
     0
  9
$TDCREATE
 40
2453955.562554016
  9
$TDUCREATE
 40
2453955.89588735
  9
$TDUPDATE
 40
2453955.604220694
  9
$TDUUPDATE
 40
2453955.895887361
  9
$TDINDWG
 40
0.0000000116
  9
$TDUSRTIMER
 40
0.0000000116
  9
$USRTIMER
 70
     1
  9
$ANGBASE
 50
0.0
  9
$ANGDIR
 70
     0
  9
$PDMODE
 70
     0
  9
$PDSIZE
 40
0.0
  9
$PLINEWID
 40
0.0
  9
$SPLFRAME
 70
     0
  9
$SPLINETYPE
 70
     6
  9
$SPLINESEGS
 70
     8
  9
$HANDSEED
  5
247
  9
$SURFTAB1
 70
     6
  9
$SURFTAB2
 70
     6
  9
$SURFTYPE
 70
     6
  9
$SURFU
 70
     6
  9
$SURFV
 70
     6
  9
$UCSBASE
  2

  9
$UCSNAME
  2

  9
$UCSORG
 10
0.0
 20
0.0
 30
0.0
  9
$UCSXDIR
 10
1.0
 20
0.0
 30
0.0
  9
$UCSYDIR
 10
0.0
 20
1.0
 30
0.0
  9
$UCSORTHOREF
  2

  9
$UCSORTHOVIEW
 70
     0
  9
$UCSORGTOP
 10
0.0
 20
0.0
 30
0.0
  9
$UCSORGBOTTOM
 10
0.0
 20
0.0
 30
0.0
  9
$UCSORGLEFT
 10
0.0
 20
0.0
 30
0.0
  9
$UCSORGRIGHT
 10
0.0
 20
0.0
 30
0.0
  9
$UCSORGFRONT
 10
0.0
 20
0.0
 30
0.0
  9
$UCSORGBACK
 10
0.0
 20
0.0
 30
0.0
  9
$PUCSBASE
  2

  9
$PUCSNAME
  2

  9
$PUCSORG
 10
0.0
 20
0.0
 30
0.0
  9
$PUCSXDIR
 10
1.0
 20
0.0
 30
0.0
  9
$PUCSYDIR
 10
0.0
 20
1.0
 30
0.0
  9
$PUCSORTHOREF
  2

  9
$PUCSORTHOVIEW
 70
     0
  9
$PUCSORGTOP
 10
0.0
 20
0.0
 30
0.0
  9
$PUCSORGBOTTOM
 10
0.0
 20
0.0
 30
0.0
  9
$PUCSORGLEFT
 10
0.0
 20
0.0
 30
0.0
  9
$PUCSORGRIGHT
 10
0.0
 20
0.0
 30
0.0
  9
$PUCSORGFRONT
 10
0.0
 20
0.0
 30
0.0
  9
$PUCSORGBACK
 10
0.0
 20
0.0
 30
0.0
  9
$USERI1
 70
     0
  9
$USERI2
 70
     0
  9
$USERI3
 70
     0
  9
$USERI4
 70
     0
  9
$USERI5
 70
     0
  9
$USERR1
 40
0.0
  9
$USERR2
 40
0.0
  9
$USERR3
 40
0.0
  9
$USERR4
 40
0.0
  9
$USERR5
 40
0.0
  9
$WORLDVIEW
 70
     1
  9
$SHADEDGE
 70
     3
  9
$SHADEDIF
 70
    70
  9
$TILEMODE
 70
     1
  9
$MAXACTVP
 70
    16
  9
$PINSBASE
 10
0.0
 20
0.0
 30
0.0
  9
$PLIMCHECK
 70
     0
  9
$PEXTMIN
 10
1.000000000000000E+20
 20
1.000000000000000E+20
 30
1.000000000000000E+20
  9
$PEXTMAX
 10
-1.000000000000000E+20
 20
-1.000000000000000E+20
 30
-1.000000000000000E+20
  9
$PLIMMIN
 10
0.0
 20
0.0
  9
$PLIMMAX
 10
12.0
 20
9.0
  9
$UNITMODE
 70
     0
  9
$VISRETAIN
 70
     0
  9
$PLINEGEN
 70
     0
  9
$PSLTSCALE
 70
     1
  9
$TREEDEPTH
 70
  3020
  9
$CMLSTYLE
  2
Standard
  9
$CMLJUST
 70
     0
  9
$CMLSCALE
 40
1.0
  9
$PROXYGRAPHICS
 70
     1
  9
$MEASUREMENT
 70
     0
  9
$CELWEIGHT
370
    -1
  9
$ENDCAPS
280
     0
  9
$JOINSTYLE
280
     0
  9
$LWDISPLAY
290
     0
  9
$INSUNITS
 70
     1
  9
$HYPERLINKBASE
  1

  9
$STYLESHEET
  1

  9
$XEDIT
290
     1
  9
$CEPSNTYPE
380
     0
  9
$PSTYLEMODE
290
     0
  9
$FINGERPRINTGUID
  2
{FAEB1C30-E019-11D5-929B-00C0DF256EC4}
  9
$VERSIONGUID
  2
{FAEB1C32-E019-11D5-929B-00C0DF256EC4}
  9
$EXTNAMES
290
     1
  9
$PSVPSCALE
 40
0.0
  9
$OLESTARTUP
290
     0
  0
ENDSEC
  0
SECTION
  2
CLASSES
  0
CLASS
  1
ACDBDICTIONARYWDFLT
  2
AcDbDictionaryWithDefault
  3
AutoCAD 2000
 90
        0
280
     0
281
     0
  0
CLASS
  1
ACDBPLACEHOLDER
  2
AcDbPlaceHolder
  3
ObjectDBX Classes
 90
        0
280
     0
281
     0
  0
CLASS
  1
LAYOUT
  2
AcDbLayout
  3
ObjectDBX Classes
 90
        0
280
     0
281
     0
  0
ENDSEC
  0
SECTION
  2
TABLES
  0
TABLE
  2
VPORT
  5
8
330
0
100
AcDbSymbolTable
 70
     2
  0
VPORT
  5
1F
330
8
100
AcDbSymbolTableRecord
100
AcDbViewportTableRecord
  2
*ACTIVE
 70
     0
 10
0.0
 20
0.0
 11
1.0
 21
1.0
 12
9.009843
 22
6.494005513089005
 13
0.0
 23
0.0
 14
1.0
 24
1.0
 15
0.0
 25
0.0
 16
0.0
 26
0.0
 36
1.0
 17
0.0
 27
0.0
 37
0.0
 40
12.98801102617801
 41
0.7207678883071553
 42
50.0
 43
0.0
 44
0.0
 50
0.0
 51
0.0
 71
     0
 72
  2000
 73
     1
 74
     0
 75
     0
 76
     0
 77
     0
 78
     0
281
     0
 65
     1
110
0.0
120
0.0
130
0.0
111
1.0
121
0.0
131
0.0
112
0.0
122
1.0
132
0.0
 79
     0
146
0.0
  0
ENDTAB
  0
TABLE
  2
LTYPE
  5
5
330
0
100
AcDbSymbolTable
 70
     2
  0
LTYPE
  5
10
330
5
100
AcDbSymbolTableRecord
100
AcDbLinetypeTableRecord
  2
ByBlock
 70
     0
  3

 72
    65
 73
     0
 40
0.0
  0
LTYPE
  5
11
330
5
100
AcDbSymbolTableRecord
100
AcDbLinetypeTableRecord
  2
ByLayer
 70
     0
  3

 72
    65
 73
     0
 40
0.0
  0
LTYPE
  5
1B
330
5
100
AcDbSymbolTableRecord
100
AcDbLinetypeTableRecord
  2
CONTINUOUS
 70
     0
  3
Solid line
 72
    65
 73
     0
 40
0.0
  0
LTYPE
  5
1C
330
5
100
AcDbSymbolTableRecord
100
AcDbLinetypeTableRecord
  2
HIDDEN
 70
     0
  3
__ __ __ __ __ __ __ __ __ __ __ __ __ __ __ __
 72
    65
 73
     2
 40
0.375
 49
0.25
 74
     0
 49
-0.125
 74
     0
  0
ENDTAB
  0
TABLE
  2
LAYER
  5
2
330
0
100
AcDbSymbolTable
 70
     1
  0
LAYER
  5
1D
330
2
100
AcDbSymbolTableRecord
100
AcDbLayerTableRecord
  2
0
 70
     0
 62
     7
  6
CONTINUOUS
370
    -3
390
F
  0
ENDTAB
  0
TABLE
  2
STYLE
  5
3
330
0
100
AcDbSymbolTable
 70
     1
  0
STYLE
  5
22
330
3
100
AcDbSymbolTableRecord
100
AcDbTextStyleTableRecord
  2
STANDARD
 70
     0
 40
0.0
 41
1.0
 50
0.0
 71
     0
 42
0.2
  3
ROMANS.SHX
  4

  0
ENDTAB
  0
TABLE
  2
VIEW
  5
6
330
0
100
AcDbSymbolTable
 70
     1
  0
VIEW
  5
21
330
6
100
AcDbSymbolTableRecord
100
AcDbViewTableRecord
  2
1
 70
     0
 40
11.880139
 10
13.893109
 20
8.266033999999999
 41
15.478216
 11
0.0
 21
0.0
 31
1.0
 12
0.0
 22
0.0
 32
0.0
 42
50.0
 43
0.0
 44
0.0
 50
0.0
 71
     0
281
     0
 72
     0
  0
ENDTAB
  0
TABLE
  2
UCS
  5
7
330
0
100
AcDbSymbolTable
 70
     0
  0
ENDTAB
  0
TABLE
  2
APPID
  5
9
330
0
100
AcDbSymbolTable
 70
     1
  0
APPID
  5
20
330
9
100
AcDbSymbolTableRecord
100
AcDbRegAppTableRecord
  2
ACAD
 70
     0
  0
ENDTAB
  0
TABLE
  2
DIMSTYLE
  5
A
330
0
100
AcDbSymbolTable
 70
     1
100
AcDbDimStyleTable
  0
DIMSTYLE
105
23
330
A
100
AcDbSymbolTableRecord
100
AcDbDimStyleTableRecord
  2
Standard
 70
     0
  3

  4

340
22
  0
ENDTAB
  0
TABLE
  2
BLOCK_RECORD
  5
1
330
0
100
AcDbSymbolTable
 70
     0
  0
BLOCK_RECORD
  5
18
330
1
100
AcDbSymbolTableRecord
100
AcDbBlockTableRecord
  2
*Model_Space
340
19
  0
BLOCK_RECORD
  5
16
330
1
100
AcDbSymbolTableRecord
100
AcDbBlockTableRecord
  2
*Paper_Space
340
17
  0
ENDTAB
  0
ENDSEC
  0
SECTION
  2
BLOCKS
  0
BLOCK
  5
23C
330
18
100
AcDbEntity
  8
0
100
AcDbBlockBegin
  2
*Model_Space
 70
     0
 10
0.0
 20
0.0
 30
0.0
  3
*Model_Space
  1

  4

  0
ENDBLK
  5
23D
330
18
100
AcDbEntity
  8
0
100
AcDbBlockEnd
  0
BLOCK
  5
23A
330
16
100
AcDbEntity
 67
     1
  8
0
100
AcDbBlockBegin
  2
*Paper_Space
 70
     0
 10
0.0
 20
0.0
 30
0.0
  3
*Paper_Space
  1

  4

  0
ENDBLK
  5
23B
330
16
100
AcDbEntity
 67
     1
  8
0
100
AcDbBlockEnd
  0
ENDSEC
  0
SECTION
  2
ENTITIES
  0
LINE
  5
24
330
18
100
AcDbEntity
  8
0
100
AcDbLine
 10
14.264845
 20
12.214926
 30
0.0
 11
14.264845
 21
8.401439999999999
 31
0.0
  0
LINE
  5
25
330
18
100
AcDbEntity
  8
0
100
AcDbLine
 10
15.274638
 20
12.365039
 30
0.0
 11
15.274638
 21
8.37144
 31
0.0
  0
LINE
  5
26
330
18
100
AcDbEntity
  8
0
100
AcDbLine
 10
14.294845
 20
8.37144
 30
0.0
 11
17.919005
 21
8.37144
 31
0.0
  0
LINE
  5
27
330
18
100
AcDbEntity
  8
0
100
AcDbLine
 10
14.294845
 20
7.864764
 30
0.0
 11
17.919005
 21
7.864764
 31
0.0
  0
LINE
  5
28
330
18
100
AcDbEntity
  8
0
100
AcDbLine
 10
17.919005
 20
8.489894
 30
0.0
 11
17.919005
 21
8.234354
 31
0.0
  0
LINE
  5
29
330
18
100
AcDbEntity
  8
0
100
AcDbLine
 10
15.274638
 20
10.117183
 30
0.0
 11
16.506464
 21
8.37144
 31
0.0
  0
LINE
  5
2A
330
18
100
AcDbEntity
  8
0
100
AcDbLine
 10
15.274638
 20
8.718081
 30
0.0
 11
15.519234
 21
8.37144
 31
0.0
  0
LINE
  5
2B
330
18
100
AcDbEntity
  8
0
100
AcDbLine
 10
14.78196
 20
12.365039
 30
0.0
 11
14.78196
 21
8.37144
 31
0.0
  0
LINE
  5
2C
330
18
100
AcDbEntity
  8
0
100
AcDbLine
 10
15.411284
 20
10.229773
 30
0.0
 11
14.172762
 21
10.229773
 31
0.0
  0
LINE
  5
2D
330
18
100
AcDbEntity
  8
0
100
AcDbLine
 10
15.411284
 20
10.341169
 30
0.0
 11
14.172762
 21
10.341169
 31
0.0
  0
LINE
  5
2E
330
18
100
AcDbEntity
  8
0
100
AcDbLine
 10
15.345217
 20
11.801444
 30
0.0
 11
15.345217
 21
11.023726
 31
0.0
  0
LINE
  5
2F
330
18
100
AcDbEntity
  8
0
100
AcDbLine
 10
15.345217
 20
11.801444
 30
0.0
 11
15.274638
 21
11.801444
 31
0.0
  0
LINE
  5
30
330
18
100
AcDbEntity
  8
0
100
AcDbLine
 10
15.345217
 20
10.8124
 30
0.0
 11
15.274638
 21
10.8124
 31
0.0
  0
LINE
  5
31
330
18
100
AcDbEntity
  8
0
100
AcDbLine
 10
15.411284
 20
10.884206
 30
0.0
 11
15.411284
 21
9.923527999999999
 31
0.0
  0
LINE
  5
32
330
18
100
AcDbEntity
  8
0
100
AcDbLine
 10
15.361373
 20
10.976023
 30
0.0
 11
15.395128
 21
10.931908
 31
0.0
  0
LINE
  5
33
330
18
100
AcDbEntity
  8
0
100
AcDbLine
 10
15.345217
 20
10.861829
 30
0.0
 11
15.345217
 21
10.017159
 31
0.0
  0
LINE
  5
34
330
18
100
AcDbEntity
  8
0
100
AcDbLine
 10
15.274638
 20
10.980658
 30
0.0
 11
15.32906
 21
10.909532
 31
0.0
  0
LINE
  5
35
330
18
100
AcDbEntity
  8
0
100
AcDbLine
 10
14.172762
 20
10.672661
 30
0.0
 11
14.264845
 21
10.672661
 31
0.0
  0
LINE
  5
36
330
18
100
AcDbEntity
  8
0
100
AcDbLine
 10
14.264845
 20
9.898280999999999
 30
0.0
 11
14.172762
 21
9.898280999999999
 31
0.0
  0
LINE
  5
37
330
18
100
AcDbEntity
  8
0
100
AcDbLine
 10
14.172762
 20
10.672661
 30
0.0
 11
14.172762
 21
9.898280999999999
 31
0.0
  0
LINE
  5
38
330
18
100
AcDbEntity
  8
0
100
AcDbLine
 10
14.172762
 20
10.439438
 30
0.0
 11
14.063668
 21
10.439438
 31
0.0
  0
LINE
  5
39
330
18
100
AcDbEntity
  8
0
100
AcDbLine
 10
14.172762
 20
10.131504
 30
0.0
 11
14.063668
 21
10.131504
 31
0.0
  0
LINE
  5
3A
330
18
100
AcDbEntity
  8
0
100
AcDbLine
 10
13.89141
 20
10.341169
 30
0.0
 11
13.89141
 21
10.229773
 31
0.0
  0
LINE
  5
3B
330
18
100
AcDbEntity
  8
0
100
AcDbLine
 10
14.024235
 20
10.229773
 30
0.0
 11
13.89141
 21
10.229773
 31
0.0
  0
LINE
  5
3C
330
18
100
AcDbEntity
  8
0
100
AcDbLine
 10
14.024235
 20
10.341169
 30
0.0
 11
13.89141
 21
10.341169
 31
0.0
  0
ARC
  5
3D
330
18
100
AcDbEntity
  8
0
100
AcDbCircle
 10
14.3052
 20
10.285471
 30
0.0
 40
0.286433
100
AcDbArc
 50
147.484149
 51
212.515851
  0
LINE
  5
3E
330
18
100
AcDbEntity
  8
0
100
AcDbLine
 10
14.172762
 20
10.207666
 30
0.0
 11
14.077685
 21
10.207666
 31
0.0
  0
LINE
  5
3F
330
18
100
AcDbEntity
  8
0
100
AcDbLine
 10
14.077685
 20
10.363276
 30
0.0
 11
14.172762
 21
10.363276
 31
0.0
  0
ARC
  5
40
330
18
100
AcDbEntity
  8
0
100
AcDbCircle
 10
14.136078
 20
10.285471
 30
0.0
 40
0.09728
100
AcDbArc
 50
126.888341
 51
233.111659
  0
ARC
  5
41
330
18
100
AcDbEntity
  8
0
100
AcDbCircle
 10
14.15441
 20
10.423081
 30
0.0
 40
0.09728
100
AcDbArc
 50
176.525741
 51
217.935463
  0
ARC
  5
42
330
18
100
AcDbEntity
  8
0
100
AcDbCircle
 10
14.155084
 20
10.148735
 30
0.0
 40
0.09728
100
AcDbArc
 50
142.714565
 51
184.843954
  0
LINE
  5
43
330
18
100
AcDbEntity
  8
0
100
AcDbLine
 10
14.018695
 20
10.341169
 30
0.0
 11
14.001803
 21
10.229773
 31
0.0
  0
LINE
  5
44
330
18
100
AcDbEntity
  8
0
100
AcDbLine
 10
13.990627
 20
10.341169
 30
0.0
 11
13.973734
 21
10.229773
 31
0.0
  0
LINE
  5
45
330
18
100
AcDbEntity
  8
0
100
AcDbLine
 10
13.962558
 20
10.341169
 30
0.0
 11
13.945666
 21
10.229773
 31
0.0
  0
LINE
  5
46
330
18
100
AcDbEntity
  8
0
100
AcDbLine
 10
13.934489
 20
10.341169
 30
0.0
 11
13.917597
 21
10.229773
 31
0.0
  0
LINE
  5
47
330
18
100
AcDbEntity
  8
0
100
AcDbLine
 10
13.90642
 20
10.341169
 30
0.0
 11
13.89141
 21
10.242182
 31
0.0
  0
ARC
  5
48
330
18
100
AcDbEntity
  8
0
100
AcDbCircle
 10
15.448394
 20
10.297653
 30
0.0
 40
0.133556
100
AcDbArc
 50
324.368769
 51
35.631231
  0
LINE
  5
49
330
18
100
AcDbEntity
  8
0
100
AcDbLine
 10
15.411284
 20
10.375458
 30
0.0
 11
15.556946
 21
10.375458
 31
0.0
  0
LINE
  5
4A
330
18
100
AcDbEntity
  8
0
100
AcDbLine
 10
15.411284
 20
10.452818
 30
0.0
 11
15.561173
 21
10.452818
 31
0.0
  0
ARC
  5
4B
330
18
100
AcDbEntity
  8
0
100
AcDbCircle
 10
15.474962
 20
10.418734
 30
0.0
 40
0.092704
100
AcDbArc
 50
332.172453
 51
21.571612
  0
LINE
  5
4C
330
18
100
AcDbEntity
  8
0
100
AcDbLine
 10
15.556946
 20
10.219848
 30
0.0
 11
15.411284
 21
10.219848
 31
0.0
  0
LINE
  5
4D
330
18
100
AcDbEntity
  8
0
100
AcDbLine
 10
15.411284
 20
10.144884
 30
0.0
 11
15.562868
 21
10.144884
 31
0.0
  0
ARC
  5
4E
330
18
100
AcDbEntity
  8
0
100
AcDbCircle
 10
15.473631
 20
10.17555
 30
0.0
 40
0.094359
100
AcDbArc
 50
341.034346
 51
27.999342
  0
LINE
  5
4F
330
18
100
AcDbEntity
  8
0
100
AcDbLine
 10
15.58194
 20
10.374318
 30
0.0
 11
15.58194
 21
10.223384
 31
0.0
  0
ARC
  5
50
330
18
100
AcDbEntity
  8
0
100
AcDbCircle
 10
15.419479
 20
10.221289
 30
0.0
 40
0.162475
100
AcDbArc
 50
331.948985
 51
0.7387750000000001
  0
ARC
  5
51
330
18
100
AcDbEntity
  8
0
100
AcDbCircle
 10
15.440098
 20
10.378791
 30
0.0
 40
0.141912
100
AcDbArc
 50
358.193834
 51
31.442287
  0
ARC
  5
52
330
18
100
AcDbEntity
  8
0
100
AcDbCircle
 10
15.332784
 20
10.884206
 30
0.0
 40
0.0785
100
AcDbArc
 50
0.0
 51
37.421498
  0
ARC
  5
53
330
18
100
AcDbEntity
  8
0
100
AcDbCircle
 10
15.423717
 20
11.023726
 30
0.0
 40
0.0785
100
AcDbArc
 50
180.0
 51
217.421498
  0
ARC
  5
54
330
18
100
AcDbEntity
  8
0
100
AcDbCircle
 10
15.266717
 20
10.861829
 30
0.0
 40
0.0785
100
AcDbArc
 50
0.0
 51
37.421498
  0
LINE
  5
55
330
18
100
AcDbEntity
  8
0
100
AcDbLine
 10
14.172762
 20
11.761765
 30
0.0
 11
14.172762
 21
10.987385
 31
0.0
  0
LINE
  5
56
330
18
100
AcDbEntity
  8
0
100
AcDbLine
 10
14.264845
 20
10.987385
 30
0.0
 11
14.172762
 21
10.987385
 31
0.0
  0
LINE
  5
57
330
18
100
AcDbEntity
  8
0
100
AcDbLine
 10
14.024235
 20
11.430274
 30
0.0
 11
13.89141
 21
11.430274
 31
0.0
  0
LINE
  5
58
330
18
100
AcDbEntity
  8
0
100
AcDbLine
 10
14.024235
 20
11.318877
 30
0.0
 11
13.89141
 21
11.318877
 31
0.0
  0
LINE
  5
59
330
18
100
AcDbEntity
  8
0
100
AcDbLine
 10
13.90642
 20
11.430274
 30
0.0
 11
13.89141
 21
11.331286
 31
0.0
  0
LINE
  5
5A
330
18
100
AcDbEntity
  8
0
100
AcDbLine
 10
13.934489
 20
11.430274
 30
0.0
 11
13.917597
 21
11.318877
 31
0.0
  0
LINE
  5
5B
330
18
100
AcDbEntity
  8
0
100
AcDbLine
 10
13.962558
 20
11.430274
 30
0.0
 11
13.945666
 21
11.318877
 31
0.0
  0
LINE
  5
5C
330
18
100
AcDbEntity
  8
0
100
AcDbLine
 10
13.89141
 20
11.430274
 30
0.0
 11
13.89141
 21
11.318877
 31
0.0
  0
LINE
  5
5D
330
18
100
AcDbEntity
  8
0
100
AcDbLine
 10
13.990627
 20
11.430274
 30
0.0
 11
13.973734
 21
11.318877
 31
0.0
  0
LINE
  5
5E
330
18
100
AcDbEntity
  8
0
100
AcDbLine
 10
14.018695
 20
11.430274
 30
0.0
 11
14.001803
 21
11.318877
 31
0.0
  0
ARC
  5
5F
330
18
100
AcDbEntity
  8
0
100
AcDbCircle
 10
14.136078
 20
11.374575
 30
0.0
 40
0.09728
100
AcDbArc
 50
126.888341
 51
233.111659
  0
ARC
  5
60
330
18
100
AcDbEntity
  8
0
100
AcDbCircle
 10
14.3052
 20
11.374575
 30
0.0
 40
0.286433
100
AcDbArc
 50
147.484149
 51
212.515851
  0
LINE
  5
61
330
18
100
AcDbEntity
  8
0
100
AcDbLine
 10
14.172762
 20
11.29677
 30
0.0
 11
14.077685
 21
11.29677
 31
0.0
  0
LINE
  5
62
330
18
100
AcDbEntity
  8
0
100
AcDbLine
 10
14.172762
 20
11.220608
 30
0.0
 11
14.063668
 21
11.220608
 31
0.0
  0
ARC
  5
63
330
18
100
AcDbEntity
  8
0
100
AcDbCircle
 10
14.155084
 20
11.23784
 30
0.0
 40
0.09728
100
AcDbArc
 50
142.714565
 51
184.843954
  0
LINE
  5
64
330
18
100
AcDbEntity
  8
0
100
AcDbLine
 10
14.077685
 20
11.45238
 30
0.0
 11
14.172762
 21
11.45238
 31
0.0
  0
LINE
  5
65
330
18
100
AcDbEntity
  8
0
100
AcDbLine
 10
14.172762
 20
11.528542
 30
0.0
 11
14.063668
 21
11.528542
 31
0.0
  0
ARC
  5
66
330
18
100
AcDbEntity
  8
0
100
AcDbCircle
 10
14.15441
 20
11.512185
 30
0.0
 40
0.09728
100
AcDbArc
 50
176.525741
 51
217.935463
  0
LINE
  5
67
330
18
100
AcDbEntity
  8
0
100
AcDbLine
 10
14.172762
 20
11.761765
 30
0.0
 11
14.264845
 21
11.761765
 31
0.0
  0
LINE
  5
68
330
18
100
AcDbEntity
  8
0
100
AcDbLine
 10
15.345217
 20
11.430274
 30
0.0
 11
14.172762
 21
11.430274
 31
0.0
  0
LINE
  5
69
330
18
100
AcDbEntity
  8
0
100
AcDbLine
 10
15.345217
 20
11.318877
 30
0.0
 11
14.172762
 21
11.318877
 31
0.0
  0
ARC
  5
6A
330
18
100
AcDbEntity
  8
0
100
AcDbCircle
 10
15.382326
 20
11.386758
 30
0.0
 40
0.133556
100
AcDbArc
 50
324.368769
 51
35.631231
  0
LINE
  5
6B
330
18
100
AcDbEntity
  8
0
100
AcDbLine
 10
15.515873
 20
11.463422
 30
0.0
 11
15.515873
 21
11.312488
 31
0.0
  0
LINE
  5
6C
330
18
100
AcDbEntity
  8
0
100
AcDbLine
 10
15.490878
 20
11.308953
 30
0.0
 11
15.345217
 21
11.308953
 31
0.0
  0
LINE
  5
6D
330
18
100
AcDbEntity
  8
0
100
AcDbLine
 10
15.345217
 20
11.233988
 30
0.0
 11
15.4968
 21
11.233988
 31
0.0
  0
ARC
  5
6E
330
18
100
AcDbEntity
  8
0
100
AcDbCircle
 10
15.407564
 20
11.264655
 30
0.0
 40
0.094359
100
AcDbArc
 50
341.034346
 51
27.999342
  0
ARC
  5
6F
330
18
100
AcDbEntity
  8
0
100
AcDbCircle
 10
15.353411
 20
11.310393
 30
0.0
 40
0.162475
100
AcDbArc
 50
331.948985
 51
0.7387750000000001
  0
LINE
  5
70
330
18
100
AcDbEntity
  8
0
100
AcDbLine
 10
15.345217
 20
11.464563
 30
0.0
 11
15.490878
 21
11.464563
 31
0.0
  0
LINE
  5
71
330
18
100
AcDbEntity
  8
0
100
AcDbLine
 10
15.345217
 20
11.541922
 30
0.0
 11
15.495106
 21
11.541922
 31
0.0
  0
ARC
  5
72
330
18
100
AcDbEntity
  8
0
100
AcDbCircle
 10
15.408895
 20
11.507838
 30
0.0
 40
0.092704
100
AcDbArc
 50
332.172453
 51
21.571612
  0
ARC
  5
73
330
18
100
AcDbEntity
  8
0
100
AcDbCircle
 10
15.374031
 20
11.467895
 30
0.0
 40
0.141912
100
AcDbArc
 50
358.193834
 51
31.442287
  0
LINE
  5
74
330
18
100
AcDbEntity
  8
0
100
AcDbLine
 10
14.159629
 20
12.215796
 30
0.0
 11
14.434198
 21
12.215796
 31
0.0
  0
LWPOLYLINE
  5
75
330
18
100
AcDbEntity
  8
0
100
AcDbPolyline
 90
        4
 70
     0
 43
0.0
 10
14.434198
 20
12.215796
 10
14.483153
 20
12.325427
 10
14.577611
 20
12.115115
 10
14.617572
 20
12.215796
  0
LINE
  5
7C
330
18
100
AcDbEntity
  8
0
100
AcDbLine
 10
14.617572
 20
12.215796
 30
0.0
 11
14.78196
 21
12.215796
 31
0.0
  0
LWPOLYLINE
  5
7D
330
18
100
AcDbEntity
  8
0
100
AcDbPolyline
 90
        4
 70
     0
 43
0.0
 10
14.997454
 20
12.365039
 10
15.04641
 20
12.47467
 10
15.140867
 20
12.264358
 10
15.180828
 20
12.365039
  0
LINE
  5
84
330
18
100
AcDbEntity
  8
0
100
AcDbLine
 10
14.722885
 20
12.365039
 30
0.0
 11
14.997454
 21
12.365039
 31
0.0
  0
LINE
  5
85
330
18
100
AcDbEntity
  8
0
100
AcDbLine
 10
15.180828
 20
12.365039
 30
0.0
 11
15.345217
 21
12.365039
 31
0.0
  0
TEXT
  5
86
330
18
100
AcDbEntity
  8
0
100
AcDbText
 10
13.37451442857143
 20
10.73896
 30
0.0
 40
0.2
  1
BP
 72
     2
 11
13.745943
 21
10.73896
 31
0.0
100
AcDbText
  0
LWPOLYLINE
  5
87
330
18
100
AcDbEntity
  8
0
100
AcDbPolyline
 90
        3
 70
     0
 43
0.0
 10
14.111709
 20
11.07941
 10
13.96385
 20
10.964109
 42
-0.065104
 10
13.855663
 20
10.897716
  0
LWPOLYLINE
  5
8D
330
18
100
AcDbEntity
  8
0
100
AcDbPolyline
 90
        3
 70
     0
 43
0.0
 10
14.087307
 20
10.563824
 10
13.955267
 20
10.696947
 42
0.036737
 10
13.857815
 20
10.779978
  0
LINE
  5
93
330
18
100
AcDbEntity
  8
0
100
AcDbLine
 10
15.93899
 20
8.460346000000001
 30
0.0
 11
16.034183
 21
8.460346000000001
 31
0.0
  0
ARC
  5
94
330
18
100
AcDbEntity
  8
0
100
AcDbCircle
 10
16.086991
 20
8.467657000000001
 30
0.0
 40
0.148182
100
AcDbArc
 50
132.654571
 51
182.828205
  0
ARC
  5
95
330
18
100
AcDbEntity
  8
0
100
AcDbCircle
 10
15.886182
 20
8.467657000000001
 30
0.0
 40
0.148182
100
AcDbArc
 50
357.171795
 51
47.345429
  0
LINE
  5
96
330
18
100
AcDbEntity
  8
0
100
AcDbLine
 10
16.361673
 20
8.576637
 30
0.0
 11
16.49406
 21
8.576637
 31
0.0
  0
LINE
  5
97
330
18
100
AcDbEntity
  8
0
100
AcDbLine
 10
16.49406
 20
8.576637
 30
0.0
 11
16.49406
 21
8.460346000000001
 31
0.0
  0
LINE
  5
98
330
18
100
AcDbEntity
  8
0
100
AcDbLine
 10
16.443731
 20
8.460346000000001
 30
0.0
 11
16.49406
 21
8.460346000000001
 31
0.0
  0
LINE
  5
99
330
18
100
AcDbEntity
  8
0
100
AcDbLine
 10
16.734943
 20
4.223675
 30
0.0
 11
16.673263
 21
4.366043
 31
0.0
  0
LINE
  5
9A
330
18
100
AcDbEntity
  8
0
  6
HIDDEN
100
AcDbLine
 10
15.873031
 20
8.37144
 30
0.0
 11
15.873031
 21
7.875124000000001
 31
0.0
  0
LINE
  5
9B
330
18
100
AcDbEntity
  8
0
  6
HIDDEN
100
AcDbLine
 10
16.028187
 20
8.37144
 30
0.0
 11
16.028187
 21
7.885046000000001
 31
0.0
  0
LINE
  5
9C
330
18
100
AcDbEntity
  8
0
  6
HIDDEN
100
AcDbLine
 10
16.031811
 20
7.828366
 30
0.0
 11
16.283526
 21
5.868221
 31
0.0
  0
ARC
  5
9D
330
18
100
AcDbEntity
  8
0
  6
HIDDEN
100
AcDbCircle
 10
16.597059
 20
5.909495
 30
0.0
 40
0.316238
100
AcDbArc
 50
187.499315
 51
242.329658
  0
ARC
  5
9E
330
18
100
AcDbEntity
  8
0
100
AcDbCircle
 10
16.23863
 20
5.243531
 30
0.0
 40
0.440087
100
AcDbArc
 50
296.623393
 51
61.265324
  0
ARC
  5
9F
330
18
100
AcDbEntity
  8
0
100
AcDbCircle
 10
16.565977
 20
4.613677
 30
0.0
 40
0.269876
100
AcDbArc
 50
118.828953
 51
293.424413
  0
LINE
  5
A0
330
18
100
AcDbEntity
  8
0
  6
HIDDEN
100
AcDbLine
 10
15.876656
 20
7.818444
 30
0.0
 11
16.129663
 21
5.848239
 31
0.0
  0
ARC
  5
A1
330
18
100
AcDbEntity
  8
0
  6
HIDDEN
100
AcDbCircle
 10
16.597059
 20
5.909495
 30
0.0
 40
0.471394
100
AcDbArc
 50
187.46645
 51
242.118496
  0
ARC
  5
A2
330
18
100
AcDbEntity
  8
0
100
AcDbCircle
 10
16.23863
 20
5.243531
 30
0.0
 40
0.284932
100
AcDbArc
 50
296.154132
 51
61.035087
  0
ARC
  5
A3
330
18
100
AcDbEntity
  8
0
100
AcDbCircle
 10
16.565977
 20
4.613677
 30
0.0
 40
0.4250310000000001
100
AcDbArc
 50
118.338314
 51
293.424413
  0
ARC
  5
A4
330
18
100
AcDbEntity
  8
0
100
AcDbCircle
 10
16.318031
 20
7.875124000000001
 30
0.0
 40
0.445
100
AcDbArc
 50
180.0
 51
187.317677
  0
ARC
  5
A5
330
18
100
AcDbEntity
  8
0
100
AcDbCircle
 10
16.473187
 20
7.885046000000001
 30
0.0
 40
0.445
100
AcDbArc
 50
180.0
 51
187.317677
  0
LWPOLYLINE
  5
A6
330
18
100
AcDbEntity
  8
0
100
AcDbPolyline
 90
       54
 70
     0
 43
0.0
 10
14.264845
 20
6.403011
 10
14.470749
 20
6.260999
 10
14.510053
 20
6.082684
 10
14.539129
 20
6.069693
 10
14.561184
 20
6.061705
 10
14.565242
 20
6.02263
 10
14.675499
 20
5.997718
 10
14.816756
 20
6.022947
 10
14.920969
 20
6.023078
 10
14.990094
 20
6.036192
 10
15.035174
 20
6.046269000000001
 10
15.093327
 20
6.019287
 10
15.130454
 20
5.978249
 10
15.169599
 20
5.927194
 10
15.210732
 20
5.888166
 10
15.254822
 20
5.888221
 10
15.308934
 20
5.887288
 10
15.345034
 20
5.86629
 10
15.378121
 20
5.851301
 10
15.430235
 20
5.845354
 10
15.483356
 20
5.835401
 10
15.635014
 20
5.559025
 10
15.720187
 20
5.560135
 10
15.788332
 20
5.55521
 10
15.82942
 20
5.552256
 10
15.871523
 20
5.539282
 10
15.895606
 20
5.512257
 10
15.919678
 20
5.494251
 10
15.997852
 20
5.483327
 10
16.079006
 20
5.492447
 10
16.109082
 20
5.481462000000001
 10
16.148159
 20
5.483516000000001
 10
16.187225
 20
5.494587999999999
 10
16.242323
 20
5.506682
 10
16.291475
 20
5.465659
 10
16.400659
 20
5.49686
 10
16.566879
 20
5.592265
 10
16.674043
 20
5.63649
 10
16.773184
 20
5.685715
 10
16.830349
 20
5.647709
 10
16.931543
 20
5.657857
 10
17.024735
 20
5.656972000000001
 10
17.107915
 20
5.649061
 10
17.161034
 20
5.641111
 10
17.199141
 20
5.618112
 10
17.254269
 20
5.606157
 10
17.330371
 20
5.648339
 10
17.385435
 20
5.687488
 10
17.433478
 20
5.731639
 10
17.486605
 20
5.716675
 10
17.539701
 20
5.726762
 10
17.590754
 20
5.767911
 10
17.671847
 20
5.826132
 10
17.919005
 20
5.927643
  0
LWPOLYLINE
  5
DF
330
18
100
AcDbEntity
  8
0
100
AcDbPolyline
 90
       27
 70
     0
 43
0.0
 10
15.035174
 20
6.046269000000001
 10
15.108308
 20
6.058386000000001
 10
15.140381
 20
6.052414
 10
15.163415
 20
6.063465
 10
15.192455
 20
6.078533
 10
15.220537
 20
6.059529
 10
15.256636
 20
6.039533000000001
 10
15.368889
 20
6.020636
 10
15.471111
 20
6.010744
 10
15.548275
 20
6.005831
 10
15.590368
 20
5.999872
 10
15.646556
 20
5.941823
 10
15.660622
 20
5.912782
 10
15.725759
 20
5.909858
 10
15.798947
 20
5.878886000000001
 10
15.839056
 20
5.857894
 10
15.853131
 20
5.820835
 10
15.924433
 20
5.696671
 10
15.951528
 20
5.665641
 10
15.973627
 20
5.622580999999999
 10
16.047796
 20
5.608646
 10
16.077893
 20
5.580626000000001
 10
16.081915
 20
5.569609
 10
16.139037
 20
5.565672
 10
16.180131
 20
5.557708
 10
16.230269
 20
5.529714
 10
16.242323
 20
5.506682
  0
LWPOLYLINE
  5
FD
330
18
100
AcDbEntity
  8
0
100
AcDbPolyline
 90
       21
 70
     0
 43
0.0
 10
16.773184
 20
5.685715
 10
16.867312
 20
5.736937999999999
 10
17.012631
 20
5.720086
 10
17.0577
 20
5.738180000000001
 10
17.112734
 20
5.801378
 10
17.155747
 20
5.860554000000001
 10
17.194786
 20
5.893669999999999
 10
17.23185
 20
5.902736
 10
17.278906
 20
5.934861
 10
17.335962
 20
5.983031
 10
17.362016
 20
5.983064
 10
17.394099
 20
5.969075
 10
17.415167
 20
5.949061
 10
17.461266
 20
5.945111
 10
17.493316
 20
5.958178
 10
17.521386
 20
5.948193
 10
17.554467
 20
5.937212000000001
 10
17.632641
 20
5.926287
 10
17.732844
 20
5.927416
 10
17.827032
 20
5.931543000000001
 10
17.919005
 20
5.927643
  0
LWPOLYLINE
  5
115
330
18
100
AcDbEntity
  8
0
100
AcDbPolyline
 90
        4
 70
     0
 43
0.0
 10
17.919005
 20
7.068967
 10
17.809374
 20
7.020012
 10
18.019686
 20
6.925553999999999
 10
17.919005
 20
6.885592999999999
  0
LINE
  5
11C
330
18
100
AcDbEntity
  8
0
100
AcDbLine
 10
17.919005
 20
6.885592999999999
 30
0.0
 11
17.919005
 21
5.824428
 31
0.0
  0
LWPOLYLINE
  5
11D
330
18
100
AcDbEntity
  8
0
100
AcDbPolyline
 90
        4
 70
     0
 43
0.0
 10
17.919005
 20
8.234354
 10
17.809374
 20
8.185399
 10
18.019686
 20
8.090941000000001
 10
17.919005
 20
8.050980000000001
  0
LINE
  5
124
330
18
100
AcDbEntity
  8
0
100
AcDbLine
 10
17.919005
 20
8.050980000000001
 30
0.0
 11
17.919005
 21
7.068967
 31
0.0
  0
LINE
  5
125
330
18
100
AcDbEntity
  8
0
100
AcDbLine
 10
14.264845
 20
7.834764
 30
0.0
 11
14.264845
 21
6.403011
 31
0.0
  0
LINE
  5
126
330
18
100
AcDbEntity
  8
0
100
AcDbLine
 10
14.264845
 20
8.341439999999999
 30
0.0
 11
14.264845
 21
7.894764
 31
0.0
  0
ARC
  5
127
330
18
100
AcDbEntity
  8
0
100
AcDbCircle
 10
14.294845
 20
7.834764
 30
0.0
 40
0.03
100
AcDbArc
 50
90.0
 51
180.0
  0
ARC
  5
128
330
18
100
AcDbEntity
  8
0
100
AcDbCircle
 10
14.294845
 20
7.894764
 30
0.0
 40
0.03
100
AcDbArc
 50
180.0
 51
270.0
  0
ARC
  5
129
330
18
100
AcDbEntity
  8
0
100
AcDbCircle
 10
14.294845
 20
8.341439999999999
 30
0.0
 40
0.03
100
AcDbArc
 50
90.0
 51
180.0
  0
ARC
  5
12A
330
18
100
AcDbEntity
  8
0
100
AcDbCircle
 10
14.294845
 20
8.401439999999999
 30
0.0
 40
0.03
100
AcDbArc
 50
180.0
 51
270.0
  0
LWPOLYLINE
  5
12B
330
18
100
AcDbEntity
  8
0
100
AcDbPolyline
 90
        3
 70
     0
 43
0.0
 10
16.191968
 20
4.815591
 10
16.044109
 20
4.930891
 42
0.065104
 10
15.935922
 20
4.997284
  0
TEXT
  5
131
330
18
100
AcDbEntity
  8
0
100
AcDbText
 10
15.1265430952381
 20
4.899541999999999
 30
0.0
 40
0.2
  1
SSTB
 72
     2
 11
15.831305
 21
4.899541999999999
 31
0.0
100
AcDbText
  0
TEXT
  5
132
330
18
100
AcDbEntity
  8
0
100
AcDbText
 10
13.375023
 20
3.730625
 30
0.0
 40
0.2
  1
Simpson Strong-Tie
100
AcDbText
  0
TEXT
  5
133
330
18
100
AcDbEntity
  8
0
100
AcDbText
 10
13.375023
 20
3.406815
 30
0.0
 40
0.2
  1
BP with SSTB
100
AcDbText
  0
POINT
  5
134
330
18
100
AcDbEntity
  8
0
100
AcDbPoint
 10
13.235294
 20
10.739685
 30
0.0
  0
LINE
  5
135
330
18
100
AcDbEntity
  8
0
 62
     0
100
AcDbLine
 10
17.261251
 20
5.890366
 30
0.0
 11
17.280535
 21
5.913347
 31
0.0
  0
LINE
  5
136
330
18
100
AcDbEntity
  8
0
 62
     0
100
AcDbLine
 10
17.548155
 20
5.865265
 30
0.0
 11
17.567439
 21
5.888246
 31
0.0
  0
LINE
  5
137
330
18
100
AcDbEntity
  8
0
 62
     0
100
AcDbLine
 10
15.882232
 20
5.714993
 30
0.0
 11
15.90104
 21
5.737408
 31
0.0
  0
LINE
  5
138
330
18
100
AcDbEntity
  8
0
 62
     0
100
AcDbLine
 10
15.595328
 20
5.740094
 30
0.0
 11
15.614611
 21
5.763075
 31
0.0
  0
LINE
  5
139
330
18
100
AcDbEntity
  8
0
 62
     0
100
AcDbLine
 10
15.595328
 20
5.740094
 30
0.0
 11
15.619236
 21
5.738002
 31
0.0
  0
LINE
  5
13A
330
18
100
AcDbEntity
  8
0
 62
     0
100
AcDbLine
 10
15.882232
 20
5.714993
 30
0.0
 11
15.90614
 21
5.712902
 31
0.0
  0
LINE
  5
13B
330
18
100
AcDbEntity
  8
0
 62
     0
100
AcDbLine
 10
17.261251
 20
5.890366
 30
0.0
 11
17.28516
 21
5.888274
 31
0.0
  0
LINE
  5
13C
330
18
100
AcDbEntity
  8
0
 62
     0
100
AcDbLine
 10
17.548155
 20
5.865265
 30
0.0
 11
17.572064
 21
5.863173000000001
 31
0.0
  0
LINE
  5
13D
330
18
100
AcDbEntity
  8
0
 62
     0
100
AcDbLine
 10
17.285165
 20
5.888261
 30
0.0
 11
17.28054
 21
5.913334
 31
0.0
  0
LINE
  5
13E
330
18
100
AcDbEntity
  8
0
 62
     0
100
AcDbLine
 10
17.572069
 20
5.863159
 30
0.0
 11
17.567444
 21
5.888233000000001
 31
0.0
  0
LINE
  5
13F
330
18
100
AcDbEntity
  8
0
 62
     0
100
AcDbLine
 10
15.906145
 20
5.712889
 30
0.0
 11
15.901897
 21
5.735915
 31
0.0
  0
LINE
  5
140
330
18
100
AcDbEntity
  8
0
 62
     0
100
AcDbLine
 10
15.619241
 20
5.73799
 30
0.0
 11
15.614616
 21
5.763063
 31
0.0
  0
LINE
  5
141
330
18
100
AcDbEntity
  8
0
 62
     0
100
AcDbLine
 10
17.348945
 20
5.894319
 30
0.0
 11
17.3801
 21
5.926789
 31
0.0
  0
LINE
  5
142
330
18
100
AcDbEntity
  8
0
 62
     0
100
AcDbLine
 10
15.694391
 20
5.703294000000001
 30
0.0
 11
15.725546
 21
5.735765
 31
0.0
  0
LINE
  5
143
330
18
100
AcDbEntity
  8
0
 62
     0
100
AcDbLine
 10
17.384524
 20
5.88879
 30
0.0
 11
17.380105
 21
5.926777
 31
0.0
  0
LINE
  5
144
330
18
100
AcDbEntity
  8
0
 62
     0
100
AcDbLine
 10
15.72997
 20
5.697766000000001
 30
0.0
 11
15.72555
 21
5.735754
 31
0.0
  0
LINE
  5
145
330
18
100
AcDbEntity
  8
0
 62
     0
100
AcDbLine
 10
15.694391
 20
5.703294000000001
 30
0.0
 11
15.729966
 21
5.697776999999999
 31
0.0
  0
LINE
  5
146
330
18
100
AcDbEntity
  8
0
 62
     0
100
AcDbLine
 10
17.348945
 20
5.894319
 30
0.0
 11
17.38452
 21
5.888802
 31
0.0
  0
LINE
  5
147
330
18
100
AcDbEntity
  8
0
 62
     0
100
AcDbLine
 10
16.21638
 20
5.511431
 30
0.0
 11
16.235913
 21
5.518929
 31
0.0
  0
LINE
  5
148
330
18
100
AcDbEntity
  8
0
 62
     0
100
AcDbLine
 10
17.224647
 20
5.898468
 30
0.0
 11
17.252655
 21
5.909219
 31
0.0
  0
LINE
  5
149
330
18
100
AcDbEntity
  8
0
 62
     0
100
AcDbLine
 10
17.46341
 20
5.737419999999999
 30
0.0
 11
17.491417
 21
5.748171
 31
0.0
  0
LINE
  5
14A
330
18
100
AcDbEntity
  8
0
 62
     0
100
AcDbLine
 10
15.738855
 20
5.833526
 30
0.0
 11
15.766862
 21
5.844277
 31
0.0
  0
LINE
  5
14B
330
18
100
AcDbEntity
  8
0
 62
     0
100
AcDbLine
 10
15.500092
 20
5.994573
 30
0.0
 11
15.528099
 21
6.005324
 31
0.0
  0
LINE
  5
14C
330
18
100
AcDbEntity
  8
0
 62
     0
100
AcDbLine
 10
17.224647
 20
5.898468
 30
0.0
 11
17.244544
 21
5.885047
 31
0.0
  0
LINE
  5
14D
330
18
100
AcDbEntity
  8
0
 62
     0
100
AcDbLine
 10
17.46341
 20
5.737419999999999
 30
0.0
 11
17.483307
 21
5.724
 31
0.0
  0
LINE
  5
14E
330
18
100
AcDbEntity
  8
0
 62
     0
100
AcDbLine
 10
15.500092
 20
5.994573
 30
0.0
 11
15.519989
 21
5.981153
 31
0.0
  0
LINE
  5
14F
330
18
100
AcDbEntity
  8
0
 62
     0
100
AcDbLine
 10
15.738855
 20
5.833526
 30
0.0
 11
15.758752
 21
5.820105
 31
0.0
  0
LINE
  5
150
330
18
100
AcDbEntity
  8
0
 62
     0
100
AcDbLine
 10
16.21638
 20
5.511431
 30
0.0
 11
16.228062
 21
5.503551
 31
0.0
  0
LINE
  5
151
330
18
100
AcDbEntity
  8
0
 62
     0
100
AcDbLine
 10
16.238947
 20
5.50594
 30
0.0
 11
16.240417
 21
5.510323000000001
 31
0.0
  0
LINE
  5
152
330
18
100
AcDbEntity
  8
0
 62
     0
100
AcDbLine
 10
17.244548
 20
5.885033999999999
 30
0.0
 11
17.252659
 21
5.909206
 31
0.0
  0
LINE
  5
153
330
18
100
AcDbEntity
  8
0
 62
     0
100
AcDbLine
 10
17.483311
 20
5.723986
 30
0.0
 11
17.491422
 21
5.748158
 31
0.0
  0
LINE
  5
154
330
18
100
AcDbEntity
  8
0
 62
     0
100
AcDbLine
 10
15.758756
 20
5.820093
 30
0.0
 11
15.766866
 21
5.844264
 31
0.0
  0
LINE
  5
155
330
18
100
AcDbEntity
  8
0
 62
     0
100
AcDbLine
 10
15.519993
 20
5.98114
 30
0.0
 11
15.528104
 21
6.005312
 31
0.0
  0
LINE
  5
156
330
18
100
AcDbEntity
  8
0
 62
     0
100
AcDbLine
 10
16.116072
 20
5.506756
 30
0.0
 11
16.116072
 21
5.506756
 31
0.0
  0
LINE
  5
157
330
18
100
AcDbEntity
  8
0
 62
     0
100
AcDbLine
 10
15.915561
 20
5.611749
 30
0.0
 11
15.915561
 21
5.611749
 31
0.0
  0
LINE
  5
158
330
18
100
AcDbEntity
  8
0
 62
     0
100
AcDbLine
 10
15.707806
 20
5.581758
 30
0.0
 11
15.707806
 21
5.581758
 31
0.0
  0
LINE
  5
159
330
18
100
AcDbEntity
  8
0
 62
     0
100
AcDbLine
 10
15.71267
 20
5.714916000000001
 30
0.0
 11
15.71267
 21
5.714916000000001
 31
0.0
  0
LINE
  5
15A
330
18
100
AcDbEntity
  8
0
 62
     0
100
AcDbLine
 10
15.717534
 20
5.848074
 30
0.0
 11
15.717534
 21
5.848074
 31
0.0
  0
LINE
  5
15B
330
18
100
AcDbEntity
  8
0
 62
     0
100
AcDbLine
 10
15.515492
 20
5.822466
 30
0.0
 11
15.515492
 21
5.822466
 31
0.0
  0
LINE
  5
15C
330
18
100
AcDbEntity
  8
0
 62
     0
100
AcDbLine
 10
15.520356
 20
5.955623999999999
 30
0.0
 11
15.520356
 21
5.955623999999999
 31
0.0
  0
LINE
  5
15D
330
18
100
AcDbEntity
  8
0
 62
     0
100
AcDbLine
 10
15.314981
 20
5.927459
 30
0.0
 11
15.314981
 21
5.927459
 31
0.0
  0
LINE
  5
15E
330
18
100
AcDbEntity
  8
0
 62
     0
100
AcDbLine
 10
15.11209
 20
6.030626
 30
0.0
 11
15.11209
 21
6.030626
 31
0.0
  0
LINE
  5
15F
330
18
100
AcDbEntity
  8
0
 62
     0
100
AcDbLine
 10
17.145905
 20
5.779273
 30
0.0
 11
17.145905
 21
5.779273
 31
0.0
  0
LINE
  5
160
330
18
100
AcDbEntity
  8
0
 62
     0
100
AcDbLine
 10
17.356144
 20
5.940595
 30
0.0
 11
17.356144
 21
5.940595
 31
0.0
  0
LINE
  5
161
330
18
100
AcDbEntity
  8
0
 62
     0
100
AcDbLine
 10
17.141041
 20
5.646116
 30
0.0
 11
17.141041
 21
5.646116
 31
0.0
  0
LINE
  5
162
330
18
100
AcDbEntity
  8
0
 62
     0
100
AcDbLine
 10
17.35128
 20
5.807437999999999
 30
0.0
 11
17.35128
 21
5.807437999999999
 31
0.0
  0
LINE
  5
163
330
18
100
AcDbEntity
  8
0
 62
     0
100
AcDbLine
 10
17.346416
 20
5.67428
 30
0.0
 11
17.346416
 21
5.67428
 31
0.0
  0
LINE
  5
164
330
18
100
AcDbEntity
  8
0
 62
     0
100
AcDbLine
 10
17.553323
 20
5.833044999999999
 30
0.0
 11
17.553323
 21
5.833044999999999
 31
0.0
  0
LINE
  5
165
330
18
100
AcDbEntity
  8
0
 62
     0
100
AcDbLine
 10
17.761077
 20
5.863036
 30
0.0
 11
17.761077
 21
5.863036
 31
0.0
  0
LINE
  5
166
330
18
100
AcDbEntity
  8
0
 62
     0
100
AcDbLine
 10
15.64103
 20
5.65696
 30
0.0
 11
15.64103
 21
5.65696
 31
0.0
  0
LINE
  5
167
330
18
100
AcDbEntity
  8
0
 62
     0
100
AcDbLine
 10
15.741166
 20
5.670143
 30
0.0
 11
15.741166
 21
5.670143
 31
0.0
  0
LINE
  5
168
330
18
100
AcDbEntity
  8
0
 62
     0
100
AcDbLine
 10
15.892658
 20
5.690087999999999
 30
0.0
 11
15.892658
 21
5.690087999999999
 31
0.0
  0
LINE
  5
169
330
18
100
AcDbEntity
  8
0
 62
     0
100
AcDbLine
 10
17.153776
 20
5.856117
 30
0.0
 11
17.153776
 21
5.856117
 31
0.0
  0
LINE
  5
16A
330
18
100
AcDbEntity
  8
0
 62
     0
100
AcDbLine
 10
17.253912
 20
5.8693
 30
0.0
 11
17.253912
 21
5.8693
 31
0.0
  0
LINE
  5
16B
330
18
100
AcDbEntity
  8
0
 62
     0
100
AcDbLine
 10
17.405405
 20
5.889245
 30
0.0
 11
17.405405
 21
5.889245
 31
0.0
  0
LINE
  5
16C
330
18
100
AcDbEntity
  8
0
 62
     0
100
AcDbLine
 10
17.658025
 20
5.922503
 30
0.0
 11
17.658025
 21
5.922503
 31
0.0
  0
LINE
  5
16D
330
18
100
AcDbEntity
  8
0
 62
     0
100
AcDbLine
 10
15.746258
 20
5.814725
 30
0.0
 11
15.746258
 21
5.814725
 31
0.0
  0
LINE
  5
16E
330
18
100
AcDbEntity
  8
0
 62
     0
100
AcDbLine
 10
15.846393
 20
5.827908
 30
0.0
 11
15.846393
 21
5.827908
 31
0.0
  0
LINE
  5
16F
330
18
100
AcDbEntity
  8
0
 62
     0
100
AcDbLine
 10
15.347236
 20
5.906104
 30
0.0
 11
15.347236
 21
5.906104
 31
0.0
  0
LINE
  5
170
330
18
100
AcDbEntity
  8
0
 62
     0
100
AcDbLine
 10
15.447372
 20
5.919287000000001
 30
0.0
 11
15.447372
 21
5.919287000000001
 31
0.0
  0
LINE
  5
171
330
18
100
AcDbEntity
  8
0
 62
     0
100
AcDbLine
 10
15.598865
 20
5.939231
 30
0.0
 11
15.598865
 21
5.939231
 31
0.0
  0
LINE
  5
172
330
18
100
AcDbEntity
  8
0
 62
     0
100
AcDbLine
 10
15.199844
 20
6.03061
 30
0.0
 11
15.199844
 21
6.03061
 31
0.0
  0
LINE
  5
173
330
18
100
AcDbEntity
  8
0
 62
     0
100
AcDbLine
 10
16.040051
 20
5.565581
 30
0.0
 11
16.040051
 21
5.565581
 31
0.0
  0
LINE
  5
174
330
18
100
AcDbEntity
  8
0
 62
     0
100
AcDbLine
 10
17.048548
 20
5.698352
 30
0.0
 11
17.048548
 21
5.698352
 31
0.0
  0
LINE
  5
175
330
18
100
AcDbEntity
  8
0
 62
     0
100
AcDbLine
 10
17.148684
 20
5.711535
 30
0.0
 11
17.148684
 21
5.711535
 31
0.0
  0
LINE
  5
176
330
18
100
AcDbEntity
  8
0
 62
     0
100
AcDbLine
 10
17.300177
 20
5.73148
 30
0.0
 11
17.300177
 21
5.73148
 31
0.0
  0
LINE
  5
177
330
18
100
AcDbEntity
  8
0
 62
     0
100
AcDbLine
 10
17.552797
 20
5.764738
 30
0.0
 11
17.552797
 21
5.764738
 31
0.0
  0
LINE
  5
178
330
18
100
AcDbEntity
  8
0
 62
     0
100
AcDbLine
 10
16.870783
 20
5.706731
 30
0.0
 11
16.870783
 21
5.706731
 31
0.0
  0
LINE
  5
179
330
18
100
AcDbEntity
  8
0
 62
     0
100
AcDbLine
 10
17.084312
 20
5.697709
 30
0.0
 11
17.084312
 21
5.697709
 31
0.0
  0
LINE
  5
17A
330
18
100
AcDbEntity
  8
0
 62
     0
100
AcDbLine
 10
17.297841
 20
5.688687
 30
0.0
 11
17.297841
 21
5.688687
 31
0.0
  0
LINE
  5
17B
330
18
100
AcDbEntity
  8
0
 62
     0
100
AcDbLine
 10
17.248231
 20
5.847302
 30
0.0
 11
17.248231
 21
5.847302
 31
0.0
  0
LINE
  5
17C
330
18
100
AcDbEntity
  8
0
 62
     0
100
AcDbLine
 10
17.377421
 20
5.89201
 30
0.0
 11
17.377421
 21
5.89201
 31
0.0
  0
LINE
  5
17D
330
18
100
AcDbEntity
  8
0
 62
     0
100
AcDbLine
 10
17.46176
 20
5.838280999999999
 30
0.0
 11
17.46176
 21
5.838280999999999
 31
0.0
  0
LINE
  5
17E
330
18
100
AcDbEntity
  8
0
 62
     0
100
AcDbLine
 10
17.59095
 20
5.882989
 30
0.0
 11
17.59095
 21
5.882989
 31
0.0
  0
LINE
  5
17F
330
18
100
AcDbEntity
  8
0
 62
     0
100
AcDbLine
 10
17.675289
 20
5.829259
 30
0.0
 11
17.675289
 21
5.829259
 31
0.0
  0
LINE
  5
180
330
18
100
AcDbEntity
  8
0
 62
     0
100
AcDbLine
 10
15.45566
 20
5.973208000000001
 30
0.0
 11
15.45566
 21
5.973208000000001
 31
0.0
  0
LINE
  5
181
330
18
100
AcDbEntity
  8
0
 62
     0
100
AcDbLine
 10
15.54
 20
5.919478
 30
0.0
 11
15.54
 21
5.919478
 31
0.0
  0
LINE
  5
182
330
18
100
AcDbEntity
  8
0
 62
     0
100
AcDbLine
 10
15.803138
 20
5.751841000000001
 30
0.0
 11
15.803138
 21
5.751841000000001
 31
0.0
  0
LINE
  5
183
330
18
100
AcDbEntity
  8
0
 62
     0
100
AcDbLine
 10
16.152302
 20
5.529399
 30
0.0
 11
16.152302
 21
5.529399
 31
0.0
  0
LINE
  5
184
330
18
100
AcDbEntity
  8
0
 62
     0
100
AcDbLine
 10
15.242131
 20
5.98223
 30
0.0
 11
15.242131
 21
5.98223
 31
0.0
  0
LINE
  5
185
330
18
100
AcDbEntity
  8
0
 62
     0
100
AcDbLine
 10
15.326471
 20
5.9285
 30
0.0
 11
15.326471
 21
5.9285
 31
0.0
  0
LINE
  5
186
330
18
100
AcDbEntity
  8
0
 62
     0
100
AcDbLine
 10
15.589609
 20
5.760863
 30
0.0
 11
15.589609
 21
5.760863
 31
0.0
  0
LINE
  5
187
330
18
100
AcDbEntity
  8
0
 62
     0
100
AcDbLine
 10
15.938773
 20
5.538421
 30
0.0
 11
15.938773
 21
5.538421
 31
0.0
  0
LINE
  5
188
330
18
100
AcDbEntity
  8
0
 62
     0
100
AcDbLine
 10
16.922248
 20
5.694314
 30
0.0
 11
16.922248
 21
5.694314
 31
0.0
  0
LINE
  5
189
330
18
100
AcDbEntity
  8
0
 62
     0
100
AcDbLine
 10
17.155523
 20
5.734356
 30
0.0
 11
17.155523
 21
5.734356
 31
0.0
  0
LINE
  5
18A
330
18
100
AcDbEntity
  8
0
 62
     0
100
AcDbLine
 10
17.388797
 20
5.774398000000001
 30
0.0
 11
17.388797
 21
5.774398000000001
 31
0.0
  0
LINE
  5
18B
330
18
100
AcDbEntity
  8
0
 62
     0
100
AcDbLine
 10
17.622072
 20
5.81444
 30
0.0
 11
17.622072
 21
5.81444
 31
0.0
  0
LINE
  5
18C
330
18
100
AcDbEntity
  8
0
 62
     0
100
AcDbLine
 10
15.523781
 20
5.960578
 30
0.0
 11
15.523781
 21
5.960578
 31
0.0
  0
LINE
  5
18D
330
18
100
AcDbEntity
  8
0
 62
     0
100
AcDbLine
 10
15.740541
 20
5.761955
 30
0.0
 11
15.740541
 21
5.761955
 31
0.0
  0
LINE
  5
18E
330
18
100
AcDbEntity
  8
0
 62
     0
100
AcDbLine
 10
15.836387
 20
5.674128
 30
0.0
 11
15.836387
 21
5.674128
 31
0.0
  0
LINE
  5
18F
330
18
100
AcDbEntity
  8
0
 62
     0
100
AcDbLine
 10
15.989151
 20
5.534146
 30
0.0
 11
15.989151
 21
5.534146
 31
0.0
  0
LINE
  5
190
330
18
100
AcDbEntity
  8
0
 62
     0
100
AcDbLine
 10
15.290507
 20
5.920536
 30
0.0
 11
15.290507
 21
5.920536
 31
0.0
  0
LINE
  5
191
330
18
100
AcDbEntity
  8
0
 62
     0
100
AcDbLine
 10
15.603112
 20
5.634086
 30
0.0
 11
15.603112
 21
5.634086
 31
0.0
  0
LINE
  5
192
330
18
100
AcDbEntity
  8
0
 62
     0
100
AcDbLine
 10
14.750841
 20
6.109998
 30
0.0
 11
14.811102
 21
6.181815
 31
0.0
  0
LINE
  5
193
330
18
100
AcDbEntity
  8
0
 62
     0
100
AcDbLine
 10
15.473977
 20
6.971798
 30
0.0
 11
15.534238
 21
7.043614999999999
 31
0.0
  0
LINE
  5
194
330
18
100
AcDbEntity
  8
0
 62
     0
100
AcDbLine
 10
16.197113
 20
7.833597999999999
 30
0.0
 11
16.223264
 21
7.864764
 31
0.0
  0
LINE
  5
195
330
18
100
AcDbEntity
  8
0
 62
     0
100
AcDbLine
 10
15.647416
 20
6.031558
 30
0.0
 11
15.707677
 21
6.103375
 31
0.0
  0
LINE
  5
196
330
18
100
AcDbEntity
  8
0
 62
     0
100
AcDbLine
 10
16.370552
 20
6.893358
 30
0.0
 11
16.430813
 21
6.965175
 31
0.0
  0
LINE
  5
197
330
18
100
AcDbEntity
  8
0
 62
     0
100
AcDbLine
 10
17.093688
 20
7.755158
 30
0.0
 11
17.153949
 21
7.826975
 31
0.0
  0
LINE
  5
198
330
18
100
AcDbEntity
  8
0
 62
     0
100
AcDbLine
 10
16.543991
 20
5.953118
 30
0.0
 11
16.604253
 21
6.024935
 31
0.0
  0
LINE
  5
199
330
18
100
AcDbEntity
  8
0
 62
     0
100
AcDbLine
 10
17.267127
 20
6.814918
 30
0.0
 11
17.327389
 21
6.886735000000001
 31
0.0
  0
LINE
  5
19A
330
18
100
AcDbEntity
  8
0
 62
     0
100
AcDbLine
 10
14.577402
 20
7.050238
 30
0.0
 11
14.637663
 21
7.122055000000001
 31
0.0
  0
LINE
  5
19B
330
18
100
AcDbEntity
  8
0
 62
     0
100
AcDbLine
 10
14.750841
 20
6.109998
 30
0.0
 11
14.825555
 21
6.103462
 31
0.0
  0
LINE
  5
19C
330
18
100
AcDbEntity
  8
0
 62
     0
100
AcDbLine
 10
16.543991
 20
5.953118
 30
0.0
 11
16.618706
 21
5.946581
 31
0.0
  0
LINE
  5
19D
330
18
100
AcDbEntity
  8
0
 62
     0
100
AcDbLine
 10
15.647416
 20
6.031558
 30
0.0
 11
15.722131
 21
6.025021
 31
0.0
  0
LINE
  5
19E
330
18
100
AcDbEntity
  8
0
 62
     0
100
AcDbLine
 10
14.577402
 20
7.050238
 30
0.0
 11
14.652116
 21
7.043702000000001
 31
0.0
  0
LINE
  5
19F
330
18
100
AcDbEntity
  8
0
 62
     0
100
AcDbLine
 10
15.473977
 20
6.971798
 30
0.0
 11
15.548691
 21
6.965261999999999
 31
0.0
  0
LINE
  5
1A0
330
18
100
AcDbEntity
  8
0
 62
     0
100
AcDbLine
 10
16.370552
 20
6.893358
 30
0.0
 11
16.445267
 21
6.886821
 31
0.0
  0
LINE
  5
1A1
330
18
100
AcDbEntity
  8
0
 62
     0
100
AcDbLine
 10
17.267127
 20
6.814918
 30
0.0
 11
17.341842
 21
6.808381
 31
0.0
  0
LINE
  5
1A2
330
18
100
AcDbEntity
  8
0
 62
     0
100
AcDbLine
 10
16.197113
 20
7.833597999999999
 30
0.0
 11
16.271827
 21
7.827062
 31
0.0
  0
LINE
  5
1A3
330
18
100
AcDbEntity
  8
0
 62
     0
100
AcDbLine
 10
17.093688
 20
7.755158
 30
0.0
 11
17.168403
 21
7.748621000000001
 31
0.0
  0
LINE
  5
1A4
330
18
100
AcDbEntity
  8
0
 62
     0
100
AcDbLine
 10
15.722135
 20
6.025009
 30
0.0
 11
15.707682
 21
6.103363
 31
0.0
  0
LINE
  5
1A5
330
18
100
AcDbEntity
  8
0
 62
     0
100
AcDbLine
 10
15.548697
 20
6.965249000000001
 30
0.0
 11
15.534244
 21
7.043603
 31
0.0
  0
LINE
  5
1A6
330
18
100
AcDbEntity
  8
0
 62
     0
100
AcDbLine
 10
16.61871
 20
5.946568
 30
0.0
 11
16.604257
 21
6.024922
 31
0.0
  0
LINE
  5
1A7
330
18
100
AcDbEntity
  8
0
 62
     0
100
AcDbLine
 10
16.445272
 20
6.886809
 30
0.0
 11
16.430819
 21
6.965161999999999
 31
0.0
  0
LINE
  5
1A8
330
18
100
AcDbEntity
  8
0
 62
     0
100
AcDbLine
 10
16.271833
 20
7.827049000000001
 30
0.0
 11
16.264877
 21
7.864764
 31
0.0
  0
LINE
  5
1A9
330
18
100
AcDbEntity
  8
0
 62
     0
100
AcDbLine
 10
17.341847
 20
6.808367999999999
 30
0.0
 11
17.327394
 21
6.886721000000001
 31
0.0
  0
LINE
  5
1AA
330
18
100
AcDbEntity
  8
0
 62
     0
100
AcDbLine
 10
17.168409
 20
7.748608
 30
0.0
 11
17.153955
 21
7.826961
 31
0.0
  0
LINE
  5
1AB
330
18
100
AcDbEntity
  8
0
 62
     0
100
AcDbLine
 10
14.82556
 20
6.10345
 30
0.0
 11
14.811107
 21
6.181803
 31
0.0
  0
LINE
  5
1AC
330
18
100
AcDbEntity
  8
0
 62
     0
100
AcDbLine
 10
14.652122
 20
7.04369
 30
0.0
 11
14.637668
 21
7.122044
 31
0.0
  0
LINE
  5
1AD
330
18
100
AcDbEntity
  8
0
 62
     0
100
AcDbLine
 10
15.014272
 20
6.314497
 30
0.0
 11
15.111633
 21
6.415968
 31
0.0
  0
LINE
  5
1AE
330
18
100
AcDbEntity
  8
0
 62
     0
100
AcDbLine
 10
16.1826
 20
7.532145
 30
0.0
 11
16.279961
 21
7.633616
 31
0.0
  0
LINE
  5
1AF
330
18
100
AcDbEntity
  8
0
 62
     0
100
AcDbLine
 10
16.348324
 20
6.107598
 30
0.0
 11
16.445684
 21
6.209069
 31
0.0
  0
LINE
  5
1B0
330
18
100
AcDbEntity
  8
0
 62
     0
100
AcDbLine
 10
17.516651
 20
7.325246000000001
 30
0.0
 11
17.614012
 21
7.426717
 31
0.0
  0
LINE
  5
1B1
330
18
100
AcDbEntity
  8
0
 62
     0
100
AcDbLine
 10
17.707738
 20
5.927133
 30
0.0
 11
17.779736
 21
6.00217
 31
0.0
  0
LINE
  5
1B2
330
18
100
AcDbEntity
  8
0
 62
     0
100
AcDbLine
 10
14.848549
 20
7.739044
 30
0.0
 11
14.945909
 21
7.840514999999999
 31
0.0
  0
LINE
  5
1B3
330
18
100
AcDbEntity
  8
0
 62
     0
100
AcDbLine
 10
15.125448
 20
6.297244999999999
 30
0.0
 11
15.111638
 21
6.415957
 31
0.0
  0
LINE
  5
1B4
330
18
100
AcDbEntity
  8
0
 62
     0
100
AcDbLine
 10
14.959725
 20
7.721792
 30
0.0
 11
14.945915
 21
7.840503999999999
 31
0.0
  0
LINE
  5
1B5
330
18
100
AcDbEntity
  8
0
 62
     0
100
AcDbLine
 10
16.459499
 20
6.090345
 30
0.0
 11
16.445689
 21
6.209057
 31
0.0
  0
LINE
  5
1B6
330
18
100
AcDbEntity
  8
0
 62
     0
100
AcDbLine
 10
16.293776
 20
7.514892
 30
0.0
 11
16.279966
 21
7.633603999999999
 31
0.0
  0
LINE
  5
1B7
330
18
100
AcDbEntity
  8
0
 62
     0
100
AcDbLine
 10
17.788153
 20
5.929839
 30
0.0
 11
17.77974
 21
6.002158000000001
 31
0.0
  0
LINE
  5
1B8
330
18
100
AcDbEntity
  8
0
 62
     0
100
AcDbLine
 10
17.627827
 20
7.307993
 30
0.0
 11
17.614017
 21
7.426705
 31
0.0
  0
LINE
  5
1B9
330
18
100
AcDbEntity
  8
0
 62
     0
100
AcDbLine
 10
15.014272
 20
6.314497
 30
0.0
 11
15.125443
 21
6.297255000000001
 31
0.0
  0
LINE
  5
1BA
330
18
100
AcDbEntity
  8
0
 62
     0
100
AcDbLine
 10
16.348324
 20
6.107598
 30
0.0
 11
16.459495
 21
6.090357
 31
0.0
  0
LINE
  5
1BB
330
18
100
AcDbEntity
  8
0
 62
     0
100
AcDbLine
 10
14.848549
 20
7.739044
 30
0.0
 11
14.95972
 21
7.721802
 31
0.0
  0
LINE
  5
1BC
330
18
100
AcDbEntity
  8
0
 62
     0
100
AcDbLine
 10
16.1826
 20
7.532145
 30
0.0
 11
16.293771
 21
7.514904
 31
0.0
  0
LINE
  5
1BD
330
18
100
AcDbEntity
  8
0
 62
     0
100
AcDbLine
 10
17.516651
 20
7.325246000000001
 30
0.0
 11
17.627822
 21
7.308005000000001
 31
0.0
  0
LINE
  5
1BE
330
18
100
AcDbEntity
  8
0
 62
     0
100
AcDbLine
 10
15.87917
 20
6.234959
 30
0.0
 11
15.966693
 21
6.268555999999999
 31
0.0
  0
LINE
  5
1BF
330
18
100
AcDbEntity
  8
0
 62
     0
100
AcDbLine
 10
16.929448
 20
6.638122999999999
 30
0.0
 11
17.016971
 21
6.67172
 31
0.0
  0
LINE
  5
1C0
330
18
100
AcDbEntity
  8
0
 62
     0
100
AcDbLine
 10
16.625304
 20
5.731686
 30
0.0
 11
16.712827
 21
5.765283
 31
0.0
  0
LINE
  5
1C1
330
18
100
AcDbEntity
  8
0
 62
     0
100
AcDbLine
 10
17.675581
 20
6.134849
 30
0.0
 11
17.763105
 21
6.168446
 31
0.0
  0
LINE
  5
1C2
330
18
100
AcDbEntity
  8
0
 62
     0
100
AcDbLine
 10
15.133036
 20
6.738233
 30
0.0
 11
15.220559
 21
6.771830000000001
 31
0.0
  0
LINE
  5
1C3
330
18
100
AcDbEntity
  8
0
 62
     0
100
AcDbLine
 10
16.183314
 20
7.141397
 30
0.0
 11
16.270837
 21
7.174994
 31
0.0
  0
LINE
  5
1C4
330
18
100
AcDbEntity
  8
0
 62
     0
100
AcDbLine
 10
17.233592
 20
7.544561
 30
0.0
 11
17.321115
 21
7.578158
 31
0.0
  0
LINE
  5
1C5
330
18
100
AcDbEntity
  8
0
 62
     0
100
AcDbLine
 10
14.386902
 20
7.241505999999999
 30
0.0
 11
14.474425
 21
7.275103
 31
0.0
  0
LINE
  5
1C6
330
18
100
AcDbEntity
  8
0
 62
     0
100
AcDbLine
 10
15.43718
 20
7.64467
 30
0.0
 11
15.524703
 21
7.678267
 31
0.0
  0
LINE
  5
1C7
330
18
100
AcDbEntity
  8
0
 62
     0
100
AcDbLine
 10
14.386902
 20
7.241505999999999
 30
0.0
 11
14.44908
 21
7.199567
 31
0.0
  0
LINE
  5
1C8
330
18
100
AcDbEntity
  8
0
 62
     0
100
AcDbLine
 10
15.133036
 20
6.738233
 30
0.0
 11
15.195214
 21
6.696292999999999
 31
0.0
  0
LINE
  5
1C9
330
18
100
AcDbEntity
  8
0
 62
     0
100
AcDbLine
 10
15.87917
 20
6.234959
 30
0.0
 11
15.941348
 21
6.19302
 31
0.0
  0
LINE
  5
1CA
330
18
100
AcDbEntity
  8
0
 62
     0
100
AcDbLine
 10
16.625304
 20
5.731686
 30
0.0
 11
16.687481
 21
5.689746
 31
0.0
  0
LINE
  5
1CB
330
18
100
AcDbEntity
  8
0
 62
     0
100
AcDbLine
 10
15.43718
 20
7.64467
 30
0.0
 11
15.499358
 21
7.602731
 31
0.0
  0
LINE
  5
1CC
330
18
100
AcDbEntity
  8
0
 62
     0
100
AcDbLine
 10
16.183314
 20
7.141397
 30
0.0
 11
16.245492
 21
7.099457000000001
 31
0.0
  0
LINE
  5
1CD
330
18
100
AcDbEntity
  8
0
 62
     0
100
AcDbLine
 10
16.929448
 20
6.638122999999999
 30
0.0
 11
16.991626
 21
6.596184
 31
0.0
  0
LINE
  5
1CE
330
18
100
AcDbEntity
  8
0
 62
     0
100
AcDbLine
 10
17.675581
 20
6.134849
 30
0.0
 11
17.737759
 21
6.09291
 31
0.0
  0
LINE
  5
1CF
330
18
100
AcDbEntity
  8
0
 62
     0
100
AcDbLine
 10
17.233592
 20
7.544561
 30
0.0
 11
17.29577
 21
7.502621
 31
0.0
  0
LINE
  5
1D0
330
18
100
AcDbEntity
  8
0
 62
     0
100
AcDbLine
 10
15.941352
 20
6.193007
 30
0.0
 11
15.966697
 21
6.268544
 31
0.0
  0
LINE
  5
1D1
330
18
100
AcDbEntity
  8
0
 62
     0
100
AcDbLine
 10
16.245497
 20
7.099444999999999
 30
0.0
 11
16.270842
 21
7.174981
 31
0.0
  0
LINE
  5
1D2
330
18
100
AcDbEntity
  8
0
 62
     0
100
AcDbLine
 10
16.687485
 20
5.689733
 30
0.0
 11
16.712831
 21
5.76527
 31
0.0
  0
LINE
  5
1D3
330
18
100
AcDbEntity
  8
0
 62
     0
100
AcDbLine
 10
16.99163
 20
6.59617
 30
0.0
 11
17.016976
 21
6.671707000000001
 31
0.0
  0
LINE
  5
1D4
330
18
100
AcDbEntity
  8
0
 62
     0
100
AcDbLine
 10
17.295775
 20
7.502608
 30
0.0
 11
17.321121
 21
7.578144
 31
0.0
  0
LINE
  5
1D5
330
18
100
AcDbEntity
  8
0
 62
     0
100
AcDbLine
 10
17.737764
 20
6.092896
 30
0.0
 11
17.763109
 21
6.168433
 31
0.0
  0
LINE
  5
1D6
330
18
100
AcDbEntity
  8
0
 62
     0
100
AcDbLine
 10
15.195219
 20
6.696282000000001
 30
0.0
 11
15.220564
 21
6.771818
 31
0.0
  0
LINE
  5
1D7
330
18
100
AcDbEntity
  8
0
 62
     0
100
AcDbLine
 10
15.499364
 20
7.602719
 30
0.0
 11
15.524709
 21
7.678255
 31
0.0
  0
LINE
  5
1D8
330
18
100
AcDbEntity
  8
0
 62
     0
100
AcDbLine
 10
14.449085
 20
7.199555999999999
 30
0.0
 11
14.474431
 21
7.275092
 31
0.0
  0
LINE
  5
1D9
330
18
100
AcDbEntity
  8
0
 62
     0
100
AcDbLine
 10
15.5313
 20
6.255228
 30
0.0
 11
15.5313
 21
6.255228
 31
0.0
  0
LINE
  5
1DA
330
18
100
AcDbEntity
  8
0
 62
     0
100
AcDbLine
 10
16.177883
 20
6.751369
 30
0.0
 11
16.177883
 21
6.751369
 31
0.0
  0
LINE
  5
1DB
330
18
100
AcDbEntity
  8
0
 62
     0
100
AcDbLine
 10
16.842316
 20
7.261206
 30
0.0
 11
16.842316
 21
7.261206
 31
0.0
  0
LINE
  5
1DC
330
18
100
AcDbEntity
  8
0
 62
     0
100
AcDbLine
 10
17.499312
 20
7.765337
 30
0.0
 11
17.499312
 21
7.765337
 31
0.0
  0
LINE
  5
1DD
330
18
100
AcDbEntity
  8
0
 62
     0
100
AcDbLine
 10
14.889504
 20
6.167215000000001
 30
0.0
 11
14.889504
 21
6.167215000000001
 31
0.0
  0
LINE
  5
1DE
330
18
100
AcDbEntity
  8
0
 62
     0
100
AcDbLine
 10
15.546499
 20
6.671345
 30
0.0
 11
15.546499
 21
6.671345
 31
0.0
  0
LINE
  5
1DF
330
18
100
AcDbEntity
  8
0
 62
     0
100
AcDbLine
 10
16.193082
 20
7.167486
 30
0.0
 11
16.193082
 21
7.167486
 31
0.0
  0
LINE
  5
1E0
330
18
100
AcDbEntity
  8
0
 62
     0
100
AcDbLine
 10
16.857516
 20
7.677324000000001
 30
0.0
 11
16.857516
 21
7.677324000000001
 31
0.0
  0
LINE
  5
1E1
330
18
100
AcDbEntity
  8
0
 62
     0
100
AcDbLine
 10
14.904703
 20
6.583332
 30
0.0
 11
14.904703
 21
6.583332
 31
0.0
  0
LINE
  5
1E2
330
18
100
AcDbEntity
  8
0
 62
     0
100
AcDbLine
 10
15.561699
 20
7.087463000000001
 30
0.0
 11
15.561699
 21
7.087463000000001
 31
0.0
  0
LINE
  5
1E3
330
18
100
AcDbEntity
  8
0
 62
     0
100
AcDbLine
 10
16.208282
 20
7.583603
 30
0.0
 11
16.208282
 21
7.583603
 31
0.0
  0
LINE
  5
1E4
330
18
100
AcDbEntity
  8
0
 62
     0
100
AcDbLine
 10
14.919903
 20
6.99945
 30
0.0
 11
14.919903
 21
6.99945
 31
0.0
  0
LINE
  5
1E5
330
18
100
AcDbEntity
  8
0
 62
     0
100
AcDbLine
 10
15.576899
 20
7.50358
 30
0.0
 11
15.576899
 21
7.50358
 31
0.0
  0
LINE
  5
1E6
330
18
100
AcDbEntity
  8
0
 62
     0
100
AcDbLine
 10
14.27067
 20
6.905728999999999
 30
0.0
 11
14.27067
 21
6.905728999999999
 31
0.0
  0
LINE
  5
1E7
330
18
100
AcDbEntity
  8
0
 62
     0
100
AcDbLine
 10
14.935103
 20
7.415567
 30
0.0
 11
14.935103
 21
7.415567
 31
0.0
  0
LINE
  5
1E8
330
18
100
AcDbEntity
  8
0
 62
     0
100
AcDbLine
 10
14.28587
 20
7.321846000000001
 30
0.0
 11
14.28587
 21
7.321846000000001
 31
0.0
  0
LINE
  5
1E9
330
18
100
AcDbEntity
  8
0
 62
     0
100
AcDbLine
 10
14.950303
 20
7.831684
 30
0.0
 11
14.950303
 21
7.831684
 31
0.0
  0
LINE
  5
1EA
330
18
100
AcDbEntity
  8
0
 62
     0
100
AcDbLine
 10
14.301069
 20
7.737964
 30
0.0
 11
14.301069
 21
7.737964
 31
0.0
  0
LINE
  5
1EB
330
18
100
AcDbEntity
  8
0
 62
     0
100
AcDbLine
 10
16.827116
 20
6.845089
 30
0.0
 11
16.827116
 21
6.845089
 31
0.0
  0
LINE
  5
1EC
330
18
100
AcDbEntity
  8
0
 62
     0
100
AcDbLine
 10
17.484112
 20
7.34922
 30
0.0
 11
17.484112
 21
7.34922
 31
0.0
  0
LINE
  5
1ED
330
18
100
AcDbEntity
  8
0
 62
     0
100
AcDbLine
 10
16.811916
 20
6.428972
 30
0.0
 11
16.811916
 21
6.428972
 31
0.0
  0
LINE
  5
1EE
330
18
100
AcDbEntity
  8
0
 62
     0
100
AcDbLine
 10
17.468912
 20
6.933102000000001
 30
0.0
 11
17.468912
 21
6.933102000000001
 31
0.0
  0
LINE
  5
1EF
330
18
100
AcDbEntity
  8
0
 62
     0
100
AcDbLine
 10
16.796717
 20
6.012854
 30
0.0
 11
16.796717
 21
6.012854
 31
0.0
  0
LINE
  5
1F0
330
18
100
AcDbEntity
  8
0
 62
     0
100
AcDbLine
 10
17.453712
 20
6.516985
 30
0.0
 11
17.453712
 21
6.516985
 31
0.0
  0
LINE
  5
1F1
330
18
100
AcDbEntity
  8
0
 62
     0
100
AcDbLine
 10
17.438512
 20
6.100868
 30
0.0
 11
17.438512
 21
6.100868
 31
0.0
  0
LINE
  5
1F2
330
18
100
AcDbEntity
  8
0
 62
     0
100
AcDbLine
 10
14.318813
 20
6.382332
 30
0.0
 11
14.318813
 21
6.382332
 31
0.0
  0
LINE
  5
1F3
330
18
100
AcDbEntity
  8
0
 62
     0
100
AcDbLine
 10
14.792228
 20
6.444658
 30
0.0
 11
14.792228
 21
6.444658
 31
0.0
  0
LINE
  5
1F4
330
18
100
AcDbEntity
  8
0
 62
     0
100
AcDbLine
 10
15.581666
 20
6.54859
 30
0.0
 11
15.581666
 21
6.54859
 31
0.0
  0
LINE
  5
1F5
330
18
100
AcDbEntity
  8
0
 62
     0
100
AcDbLine
 10
15.894591
 20
6.589786999999999
 30
0.0
 11
15.894591
 21
6.589786999999999
 31
0.0
  0
LINE
  5
1F6
330
18
100
AcDbEntity
  8
0
 62
     0
100
AcDbLine
 10
16.368006
 20
6.652113000000001
 30
0.0
 11
16.368006
 21
6.652113000000001
 31
0.0
  0
LINE
  5
1F7
330
18
100
AcDbEntity
  8
0
 62
     0
100
AcDbLine
 10
17.157444
 20
6.756044999999999
 30
0.0
 11
17.157444
 21
6.756044999999999
 31
0.0
  0
LINE
  5
1F8
330
18
100
AcDbEntity
  8
0
 62
     0
100
AcDbLine
 10
17.470368
 20
6.797242
 30
0.0
 11
17.470368
 21
6.797242
 31
0.0
  0
LINE
  5
1F9
330
18
100
AcDbEntity
  8
0
 62
     0
100
AcDbLine
 10
14.334725
 20
6.834149000000001
 30
0.0
 11
14.334725
 21
6.834149000000001
 31
0.0
  0
LINE
  5
1FA
330
18
100
AcDbEntity
  8
0
 62
     0
100
AcDbLine
 10
14.64765
 20
6.875347000000001
 30
0.0
 11
14.64765
 21
6.875347000000001
 31
0.0
  0
LINE
  5
1FB
330
18
100
AcDbEntity
  8
0
 62
     0
100
AcDbLine
 10
15.121065
 20
6.937672999999999
 30
0.0
 11
15.121065
 21
6.937672999999999
 31
0.0
  0
LINE
  5
1FC
330
18
100
AcDbEntity
  8
0
 62
     0
100
AcDbLine
 10
15.910503
 20
7.041604
 30
0.0
 11
15.910503
 21
7.041604
 31
0.0
  0
LINE
  5
1FD
330
18
100
AcDbEntity
  8
0
 62
     0
100
AcDbLine
 10
16.223428
 20
7.082802
 30
0.0
 11
16.223428
 21
7.082802
 31
0.0
  0
LINE
  5
1FE
330
18
100
AcDbEntity
  8
0
 62
     0
100
AcDbLine
 10
16.696842
 20
7.145128
 30
0.0
 11
16.696842
 21
7.145128
 31
0.0
  0
LINE
  5
1FF
330
18
100
AcDbEntity
  8
0
 62
     0
100
AcDbLine
 10
17.48628
 20
7.249059
 30
0.0
 11
17.48628
 21
7.249059
 31
0.0
  0
LINE
  5
200
330
18
100
AcDbEntity
  8
0
 62
     0
100
AcDbLine
 10
17.799205
 20
7.290257
 30
0.0
 11
17.799205
 21
7.290257
 31
0.0
  0
LINE
  5
201
330
18
100
AcDbEntity
  8
0
 62
     0
100
AcDbLine
 10
14.663562
 20
7.327164
 30
0.0
 11
14.663562
 21
7.327164
 31
0.0
  0
LINE
  5
202
330
18
100
AcDbEntity
  8
0
 62
     0
100
AcDbLine
 10
14.976487
 20
7.368361
 30
0.0
 11
14.976487
 21
7.368361
 31
0.0
  0
LINE
  5
203
330
18
100
AcDbEntity
  8
0
 62
     0
100
AcDbLine
 10
15.449902
 20
7.430687
 30
0.0
 11
15.449902
 21
7.430687
 31
0.0
  0
LINE
  5
204
330
18
100
AcDbEntity
  8
0
 62
     0
100
AcDbLine
 10
16.23934
 20
7.534619
 30
0.0
 11
16.23934
 21
7.534619
 31
0.0
  0
LINE
  5
205
330
18
100
AcDbEntity
  8
0
 62
     0
100
AcDbLine
 10
16.552264
 20
7.575816000000001
 30
0.0
 11
16.552264
 21
7.575816000000001
 31
0.0
  0
LINE
  5
206
330
18
100
AcDbEntity
  8
0
 62
     0
100
AcDbLine
 10
17.025679
 20
7.638142
 30
0.0
 11
17.025679
 21
7.638142
 31
0.0
  0
LINE
  5
207
330
18
100
AcDbEntity
  8
0
 62
     0
100
AcDbLine
 10
17.815117
 20
7.742074000000001
 30
0.0
 11
17.815117
 21
7.742074000000001
 31
0.0
  0
LINE
  5
208
330
18
100
AcDbEntity
  8
0
 62
     0
100
AcDbLine
 10
14.992399
 20
7.820178
 30
0.0
 11
14.992399
 21
7.820178
 31
0.0
  0
LINE
  5
209
330
18
100
AcDbEntity
  8
0
 62
     0
100
AcDbLine
 10
15.305324
 20
7.861376
 30
0.0
 11
15.305324
 21
7.861376
 31
0.0
  0
LINE
  5
20A
330
18
100
AcDbEntity
  8
0
 62
     0
100
AcDbLine
 10
15.252829
 20
6.055575
 30
0.0
 11
15.252829
 21
6.055575
 31
0.0
  0
LINE
  5
20B
330
18
100
AcDbEntity
  8
0
 62
     0
100
AcDbLine
 10
15.565754
 20
6.096772000000001
 30
0.0
 11
15.565754
 21
6.096772000000001
 31
0.0
  0
LINE
  5
20C
330
18
100
AcDbEntity
  8
0
 62
     0
100
AcDbLine
 10
16.039169
 20
6.159098999999999
 30
0.0
 11
16.039169
 21
6.159098999999999
 31
0.0
  0
LINE
  5
20D
330
18
100
AcDbEntity
  8
0
 62
     0
100
AcDbLine
 10
16.828607
 20
6.263030000000001
 30
0.0
 11
16.828607
 21
6.263030000000001
 31
0.0
  0
LINE
  5
20E
330
18
100
AcDbEntity
  8
0
 62
     0
100
AcDbLine
 10
17.141531
 20
6.304227
 30
0.0
 11
17.141531
 21
6.304227
 31
0.0
  0
LINE
  5
20F
330
18
100
AcDbEntity
  8
0
 62
     0
100
AcDbLine
 10
17.614946
 20
6.366554
 30
0.0
 11
17.614946
 21
6.366554
 31
0.0
  0
LINE
  5
210
330
18
100
AcDbEntity
  8
0
 62
     0
100
AcDbLine
 10
16.49977
 20
5.770015
 30
0.0
 11
16.49977
 21
5.770015
 31
0.0
  0
LINE
  5
211
330
18
100
AcDbEntity
  8
0
 62
     0
100
AcDbLine
 10
16.812694
 20
5.811213
 30
0.0
 11
16.812694
 21
5.811213
 31
0.0
  0
LINE
  5
212
330
18
100
AcDbEntity
  8
0
 62
     0
100
AcDbLine
 10
15.352181
 20
7.109103
 30
0.0
 11
15.352181
 21
7.109103
 31
0.0
  0
LINE
  5
213
330
18
100
AcDbEntity
  8
0
 62
     0
100
AcDbLine
 10
15.615741
 20
6.941197
 30
0.0
 11
15.615741
 21
6.941197
 31
0.0
  0
LINE
  5
214
330
18
100
AcDbEntity
  8
0
 62
     0
100
AcDbLine
 10
16.438047
 20
6.417330000000001
 30
0.0
 11
16.438047
 21
6.417330000000001
 31
0.0
  0
LINE
  5
215
330
18
100
AcDbEntity
  8
0
 62
     0
100
AcDbLine
 10
14.928321
 20
7.776041
 30
0.0
 11
14.928321
 21
7.776041
 31
0.0
  0
LINE
  5
216
330
18
100
AcDbEntity
  8
0
 62
     0
100
AcDbLine
 10
16.283019
 20
6.913003999999999
 30
0.0
 11
16.283019
 21
6.913003999999999
 31
0.0
  0
LINE
  5
217
330
18
100
AcDbEntity
  8
0
 62
     0
100
AcDbLine
 10
17.105325
 20
6.389136
 30
0.0
 11
17.105325
 21
6.389136
 31
0.0
  0
LINE
  5
218
330
18
100
AcDbEntity
  8
0
 62
     0
100
AcDbLine
 10
15.595599
 20
7.747847999999999
 30
0.0
 11
15.595599
 21
7.747847999999999
 31
0.0
  0
LINE
  5
219
330
18
100
AcDbEntity
  8
0
 62
     0
100
AcDbLine
 10
16.686737
 20
7.052716
 30
0.0
 11
16.686737
 21
7.052716
 31
0.0
  0
LINE
  5
21A
330
18
100
AcDbEntity
  8
0
 62
     0
100
AcDbLine
 10
16.950297
 20
6.884810000000001
 30
0.0
 11
16.950297
 21
6.884810000000001
 31
0.0
  0
LINE
  5
21B
330
18
100
AcDbEntity
  8
0
 62
     0
100
AcDbLine
 10
17.772604
 20
6.360943
 30
0.0
 11
17.772604
 21
6.360943
 31
0.0
  0
LINE
  5
21C
330
18
100
AcDbEntity
  8
0
 62
     0
100
AcDbLine
 10
16.262877
 20
7.719653999999999
 30
0.0
 11
16.262877
 21
7.719653999999999
 31
0.0
  0
LINE
  5
21D
330
18
100
AcDbEntity
  8
0
 62
     0
100
AcDbLine
 10
17.354015
 20
7.024522999999999
 30
0.0
 11
17.354015
 21
7.024522999999999
 31
0.0
  0
LINE
  5
21E
330
18
100
AcDbEntity
  8
0
 62
     0
100
AcDbLine
 10
17.617575
 20
6.856616000000001
 30
0.0
 11
17.617575
 21
6.856616000000001
 31
0.0
  0
LINE
  5
21F
330
18
100
AcDbEntity
  8
0
 62
     0
100
AcDbLine
 10
16.930155
 20
7.69146
 30
0.0
 11
16.930155
 21
7.69146
 31
0.0
  0
LINE
  5
220
330
18
100
AcDbEntity
  8
0
 62
     0
100
AcDbLine
 10
17.597433
 20
7.663266999999999
 30
0.0
 11
17.597433
 21
7.663266999999999
 31
0.0
  0
LINE
  5
221
330
18
100
AcDbEntity
  8
0
 62
     0
100
AcDbLine
 10
14.684903
 20
7.137297
 30
0.0
 11
14.684903
 21
7.137297
 31
0.0
  0
LINE
  5
222
330
18
100
AcDbEntity
  8
0
 62
     0
100
AcDbLine
 10
14.948463
 20
6.969391000000001
 30
0.0
 11
14.948463
 21
6.969391000000001
 31
0.0
  0
LINE
  5
223
330
18
100
AcDbEntity
  8
0
 62
     0
100
AcDbLine
 10
15.770769
 20
6.445524
 30
0.0
 11
15.770769
 21
6.445524
 31
0.0
  0
LINE
  5
224
330
18
100
AcDbEntity
  8
0
 62
     0
100
AcDbLine
 10
16.861907
 20
5.750392
 30
0.0
 11
16.861907
 21
5.750392
 31
0.0
  0
LINE
  5
225
330
18
100
AcDbEntity
  8
0
 62
     0
100
AcDbLine
 10
14.281185
 20
6.997584
 30
0.0
 11
14.281185
 21
6.997584
 31
0.0
  0
LINE
  5
226
330
18
100
AcDbEntity
  8
0
 62
     0
100
AcDbLine
 10
15.103491
 20
6.473717
 30
0.0
 11
15.103491
 21
6.473717
 31
0.0
  0
LINE
  5
227
330
18
100
AcDbEntity
  8
0
 62
     0
100
AcDbLine
 10
14.436213
 20
6.501911
 30
0.0
 11
14.436213
 21
6.501911
 31
0.0
  0
LINE
  5
228
330
18
100
AcDbEntity
  8
0
 62
     0
100
AcDbLine
 10
14.915945
 20
7.376347999999999
 30
0.0
 11
14.915945
 21
7.376347999999999
 31
0.0
  0
LINE
  5
229
330
18
100
AcDbEntity
  8
0
 62
     0
100
AcDbLine
 10
15.215463
 20
7.101889999999999
 30
0.0
 11
15.215463
 21
7.101889999999999
 31
0.0
  0
LINE
  5
22A
330
18
100
AcDbEntity
  8
0
 62
     0
100
AcDbLine
 10
15.692851
 20
6.664445
 30
0.0
 11
15.692851
 21
6.664445
 31
0.0
  0
LINE
  5
22B
330
18
100
AcDbEntity
  8
0
 62
     0
100
AcDbLine
 10
16.370224
 20
6.043747
 30
0.0
 11
16.370224
 21
6.043747
 31
0.0
  0
LINE
  5
22C
330
18
100
AcDbEntity
  8
0
 62
     0
100
AcDbLine
 10
16.669743
 20
5.769288
 30
0.0
 11
16.669743
 21
5.769288
 31
0.0
  0
LINE
  5
22D
330
18
100
AcDbEntity
  8
0
 62
     0
100
AcDbLine
 10
15.644927
 20
7.501479
 30
0.0
 11
15.644927
 21
7.501479
 31
0.0
  0
LINE
  5
22E
330
18
100
AcDbEntity
  8
0
 62
     0
100
AcDbLine
 10
15.944446
 20
7.227021000000001
 30
0.0
 11
15.944446
 21
7.227021000000001
 31
0.0
  0
LINE
  5
22F
330
18
100
AcDbEntity
  8
0
 62
     0
100
AcDbLine
 10
16.421833
 20
6.789575999999999
 30
0.0
 11
16.421833
 21
6.789575999999999
 31
0.0
  0
LINE
  5
230
330
18
100
AcDbEntity
  8
0
 62
     0
100
AcDbLine
 10
17.099207
 20
6.168878
 30
0.0
 11
17.099207
 21
6.168878
 31
0.0
  0
LINE
  5
231
330
18
100
AcDbEntity
  8
0
 62
     0
100
AcDbLine
 10
16.37391
 20
7.626611000000001
 30
0.0
 11
16.37391
 21
7.626611000000001
 31
0.0
  0
LINE
  5
232
330
18
100
AcDbEntity
  8
0
 62
     0
100
AcDbLine
 10
16.673429
 20
7.352152
 30
0.0
 11
16.673429
 21
7.352152
 31
0.0
  0
LINE
  5
233
330
18
100
AcDbEntity
  8
0
 62
     0
100
AcDbLine
 10
17.150816
 20
6.914707000000001
 30
0.0
 11
17.150816
 21
6.914707000000001
 31
0.0
  0
LINE
  5
234
330
18
100
AcDbEntity
  8
0
 62
     0
100
AcDbLine
 10
17.82819
 20
6.294009
 30
0.0
 11
17.82819
 21
6.294009
 31
0.0
  0
LINE
  5
235
330
18
100
AcDbEntity
  8
0
 62
     0
100
AcDbLine
 10
17.102893
 20
7.751742
 30
0.0
 11
17.102893
 21
7.751742
 31
0.0
  0
LINE
  5
236
330
18
100
AcDbEntity
  8
0
 62
     0
100
AcDbLine
 10
17.402412
 20
7.477283
 30
0.0
 11
17.402412
 21
7.477283
 31
0.0
  0
LINE
  5
237
330
18
100
AcDbEntity
  8
0
 62
     0
100
AcDbLine
 10
14.486481
 20
6.976758
 30
0.0
 11
14.486481
 21
6.976758
 31
0.0
  0
LINE
  5
238
330
18
100
AcDbEntity
  8
0
 62
     0
100
AcDbLine
 10
14.963868
 20
6.539314
 30
0.0
 11
14.963868
 21
6.539314
 31
0.0
  0
LINE
  5
239
330
18
100
AcDbEntity
  8
0
  6
HIDDEN
100
AcDbLine
 10
15.345217
 20
10.017159
 30
0.0
 11
15.345217
 21
8.618057
 31
0.0
  0
ENDSEC
  0
SECTION
  2
OBJECTS
  0
DICTIONARY
  5
C
330
0
100
AcDbDictionary
281
     1
  3
ACAD_COLOR
350
23F
  3
ACAD_GROUP
350
D
  3
ACAD_LAYOUT
350
15
  3
ACAD_MATERIAL
350
241
  3
ACAD_MLINESTYLE
350
12
  3
ACAD_PLOTSETTINGS
350
14
  3
ACAD_PLOTSTYLENAME
350
E
  3
ACDBHEADERROUNDTRIPXREC
350
23E
  0
DICTIONARY
  5
23F
102
{ACAD_REACTORS
330
C
102
}
330
C
100
AcDbDictionary
281
     1
  0
DICTIONARY
  5
D
102
{ACAD_REACTORS
330
C
102
}
330
C
100
AcDbDictionary
281
     1
  0
DICTIONARY
  5
15
102
{ACAD_REACTORS
330
C
102
}
330
C
100
AcDbDictionary
281
     1
  3
Layout1
350
17
  3
Model
350
19
  0
DICTIONARY
  5
241
102
{ACAD_REACTORS
330
C
102
}
330
C
100
AcDbDictionary
281
     1
  0
DICTIONARY
  5
12
102
{ACAD_REACTORS
330
C
102
}
330
C
100
AcDbDictionary
281
     1
  3
Standard
350
13
  0
DICTIONARY
  5
14
102
{ACAD_REACTORS
330
C
102
}
330
C
100
AcDbDictionary
281
     1
  0
ACDBDICTIONARYWDFLT
  5
E
102
{ACAD_REACTORS
330
C
102
}
330
C
100
AcDbDictionary
281
     1
  3
Normal
350
F
100
AcDbDictionaryWithDefault
340
F
  0
DICTIONARY
  5
23E
102
{ACAD_REACTORS
330
C
102
}
330
C
100
AcDbDictionary
281
     1
  3
COLORDICT
350
240
  3
MATERIALDICT
350
242
  0
LAYOUT
  5
17
102
{ACAD_REACTORS
330
15
102
}
102
{ACAD_XDICTIONARY
360
243
102
}
330
15
100
AcDbPlotSettings
  1

  2

  4

  6

 40
0.0
 41
0.0
 42
0.0
 43
0.0
 44
0.0
 45
0.0
 46
0.0
 47
0.0
 48
0.0
 49
0.0
140
0.0
141
0.0
142
1.0
143
1.0
 70
   688
 72
     0
 73
     0
 74
     5
  7

 75
    16
147
1.0
148
0.0
149
0.0
100
AcDbLayout
  1
Layout1
 70
     1
 71
     1
 10
0.0
 20
0.0
 11
12.0
 21
9.0
 12
0.0
 22
0.0
 32
0.0
 14
1.000000000000000E+20
 24
1.000000000000000E+20
 34
1.000000000000000E+20
 15
-1.000000000000000E+20
 25
-1.000000000000000E+20
 35
-1.000000000000000E+20
146
0.0
 13
0.0
 23
0.0
 33
0.0
 16
1.0
 26
0.0
 36
0.0
 17
0.0
 27
1.0
 37
0.0
 76
     0
330
16
  0
LAYOUT
  5
19
102
{ACAD_REACTORS
330
15
102
}
102
{ACAD_XDICTIONARY
360
245
102
}
330
15
100
AcDbPlotSettings
  1

  2

  4

  6

 40
0.0
 41
0.0
 42
0.0
 43
0.0
 44
0.0
 45
0.0
 46
0.0
 47
0.0
 48
0.0
 49
0.0
140
0.0
141
0.0
142
1.0
143
1.0
 70
  1712
 72
     0
 73
     0
 74
     0
  7

 75
     0
147
1.0
148
0.0
149
0.0
100
AcDbLayout
  1
Model
 70
     1
 71
     0
 10
0.0
 20
0.0
 11
0.0
 21
0.0
 12
0.0
 22
0.0
 32
0.0
 14
0.0
 24
0.0
 34
0.0
 15
0.0
 25
0.0
 35
0.0
146
0.0
 13
0.0
 23
0.0
 33
0.0
 16
1.0
 26
0.0
 36
0.0
 17
0.0
 27
1.0
 37
0.0
 76
     0
330
18
  0
MLINESTYLE
  5
13
102
{ACAD_REACTORS
330
12
102
}
330
12
100
AcDbMlineStyle
  2
Standard
 70
     0
  3

 62
   256
 51
90.0
 52
90.0
 71
     2
 49
0.5
 62
   256
  6
BYLAYER
 49
-0.5
 62
   256
  6
BYLAYER
  0
ACDBPLACEHOLDER
  5
F
102
{ACAD_REACTORS
330
E
102
}
330
E
  0
XRECORD
  5
240
102
{ACAD_REACTORS
330
23E
102
}
330
23E
100
AcDbXrecord
340
23F
  0
XRECORD
  5
242
102
{ACAD_REACTORS
330
23E
102
}
330
23E
100
AcDbXrecord
340
241
  0
DICTIONARY
  5
243
330
17
100
AcDbDictionary
280
     1
281
     1
  3
ACAD_XREC_ROUNDTRIP
360
244
  0
DICTIONARY
  5
245
330
19
100
AcDbDictionary
280
     1
281
     1
  3
ACAD_XREC_ROUNDTRIP
360
246
  0
XRECORD
  5
244
102
{ACAD_REACTORS
330
243
102
}
330
243
100
AcDbXrecord
102
SHADEPLOT
 70
     0
102
SHADEPLOTRESLEVEL
 70
     0
102
SHADEPLOTCUSTOMDPI
 70
     0
  0
XRECORD
  5
246
102
{ACAD_REACTORS
330
245
102
}
330
245
100
AcDbXrecord
102
SHADEPLOT
 70
     0
102
SHADEPLOTRESLEVEL
 70
     0
102
SHADEPLOTCUSTOMDPI
 70
     0
  0
ENDSEC
  0
EOF
