  0
SECTION
  2
HEADER
  9
$ACADVER
  1
AC1015
  9
$ACADMAINTVER
 70
     6
  9
$DWGCODEPAGE
  3
ANSI_1252
  9
$INSBASE
 10
0.0
 20
0.0
 30
0.0
  9
$EXTMIN
 10
0.302
 20
0.023
 30
0.0
  9
$EXTMAX
 10
6.308
 20
6.616000000000001
 30
0.0
  9
$LIMMIN
 10
0.0
 20
0.0
  9
$LIMMAX
 10
17.0
 20
11.0
  9
$ORTHOMODE
 70
     0
  9
$REGENMODE
 70
     0
  9
$FILLMODE
 70
     1
  9
$QTEXTMODE
 70
     0
  9
$MIRRTEXT
 70
     1
  9
$LTSCALE
 40
0.25
  9
$ATTMODE
 70
     1
  9
$TEXTSIZE
 40
0.125
  9
$TRACEWID
 40
0.05
  9
$TEXTSTYLE
  7
STANDARD
  9
$CLAYER
  8
0
  9
$CELTYPE
  6
ByLayer
  9
$CECOLOR
 62
   256
  9
$CELTSCALE
 40
1.0
  9
$DISPSILH
 70
     0
  9
$DIMSCALE
 40
1.0
  9
$DIMASZ
 40
0.125
  9
$DIMEXO
 40
0.063
  9
$DIMDLI
 40
0.38
  9
$DIMRND
 40
0.0
  9
$DIMDLE
 40
0.0
  9
$DIMEXE
 40
0.18
  9
$DIMTP
 40
0.0
  9
$DIMTM
 40
0.0
  9
$DIMTXT
 40
0.125
  9
$DIMCEN
 40
0.09
  9
$DIMTSZ
 40
0.0
  9
$DIMTOL
 70
     0
  9
$DIMLIM
 70
     0
  9
$DIMTIH
 70
     1
  9
$DIMTOH
 70
     1
  9
$DIMSE1
 70
     0
  9
$DIMSE2
 70
     0
  9
$DIMTAD
 70
     0
  9
$DIMZIN
 70
     0
  9
$DIMBLK
  1

  9
$DIMASO
 70
     0
  9
$DIMSHO
 70
     0
  9
$DIMPOST
  1

  9
$DIMAPOST
  1

  9
$DIMALT
 70
     0
  9
$DIMALTD
 70
     2
  9
$DIMALTF
 40
25.4
  9
$DIMLFAC
 40
1.0
  9
$DIMTOFL
 70
     0
  9
$DIMTVP
 40
0.0
  9
$DIMTIX
 70
     0
  9
$DIMSOXD
 70
     0
  9
$DIMSAH
 70
     0
  9
$DIMBLK1
  1

  9
$DIMBLK2
  1

  9
$DIMSTYLE
  2
Standard
  9
$DIMCLRD
 70
     0
  9
$DIMCLRE
 70
     0
  9
$DIMCLRT
 70
     0
  9
$DIMTFAC
 40
1.0
  9
$DIMGAP
 40
0.09
  9
$DIMJUST
 70
     0
  9
$DIMSD1
 70
     0
  9
$DIMSD2
 70
     0
  9
$DIMTOLJ
 70
     1
  9
$DIMTZIN
 70
     0
  9
$DIMALTZ
 70
     0
  9
$DIMALTTZ
 70
     0
  9
$DIMUPT
 70
     0
  9
$DIMDEC
 70
     4
  9
$DIMTDEC
 70
     4
  9
$DIMALTU
 70
     2
  9
$DIMALTTD
 70
     2
  9
$DIMTXSTY
  7
STANDARD
  9
$DIMAUNIT
 70
     0
  9
$DIMADEC
 70
     0
  9
$DIMALTRND
 40
0.0
  9
$DIMAZIN
 70
     0
  9
$DIMDSEP
 70
    46
  9
$DIMATFIT
 70
     3
  9
$DIMFRAC
 70
     0
  9
$DIMLDRBLK
  1

  9
$DIMLUNIT
 70
     2
  9
$DIMLWD
 70
    -2
  9
$DIMLWE
 70
    -2
  9
$DIMTMOVE
 70
     0
  9
$LUNITS
 70
     2
  9
$LUPREC
 70
     4
  9
$SKETCHINC
 40
0.1
  9
$FILLETRAD
 40
0.0
  9
$AUNITS
 70
     0
  9
$AUPREC
 70
     0
  9
$MENU
  1
acad
  9
$ELEVATION
 40
0.0
  9
$PELEVATION
 40
0.0
  9
$THICKNESS
 40
0.0
  9
$LIMCHECK
 70
     0
  9
$CHAMFERA
 40
0.0
  9
$CHAMFERB
 40
0.0
  9
$CHAMFERC
 40
1.0
  9
$CHAMFERD
 40
0.0
  9
$SKPOLY
 70
     0
  9
$TDCREATE
 40
2453955.562543889
  9
$TDUCREATE
 40
2453955.895877222
  9
$TDUPDATE
 40
2453955.604210567
  9
$TDUUPDATE
 40
2453955.895877234
  9
$TDINDWG
 40
0.0000000116
  9
$TDUSRTIMER
 40
0.0000000116
  9
$USRTIMER
 70
     1
  9
$ANGBASE
 50
0.0
  9
$ANGDIR
 70
     0
  9
$PDMODE
 70
     0
  9
$PDSIZE
 40
0.0
  9
$PLINEWID
 40
0.0
  9
$SPLFRAME
 70
     0
  9
$SPLINETYPE
 70
     6
  9
$SPLINESEGS
 70
     8
  9
$HANDSEED
  5
694
  9
$SURFTAB1
 70
     6
  9
$SURFTAB2
 70
     6
  9
$SURFTYPE
 70
     6
  9
$SURFU
 70
     6
  9
$SURFV
 70
     6
  9
$UCSBASE
  2

  9
$UCSNAME
  2

  9
$UCSORG
 10
0.0
 20
0.0
 30
0.0
  9
$UCSXDIR
 10
1.0
 20
0.0
 30
0.0
  9
$UCSYDIR
 10
0.0
 20
1.0
 30
0.0
  9
$UCSORTHOREF
  2

  9
$UCSORTHOVIEW
 70
     0
  9
$UCSORGTOP
 10
0.0
 20
0.0
 30
0.0
  9
$UCSORGBOTTOM
 10
0.0
 20
0.0
 30
0.0
  9
$UCSORGLEFT
 10
0.0
 20
0.0
 30
0.0
  9
$UCSORGRIGHT
 10
0.0
 20
0.0
 30
0.0
  9
$UCSORGFRONT
 10
0.0
 20
0.0
 30
0.0
  9
$UCSORGBACK
 10
0.0
 20
0.0
 30
0.0
  9
$PUCSBASE
  2

  9
$PUCSNAME
  2

  9
$PUCSORG
 10
0.0
 20
0.0
 30
0.0
  9
$PUCSXDIR
 10
1.0
 20
0.0
 30
0.0
  9
$PUCSYDIR
 10
0.0
 20
1.0
 30
0.0
  9
$PUCSORTHOREF
  2

  9
$PUCSORTHOVIEW
 70
     0
  9
$PUCSORGTOP
 10
0.0
 20
0.0
 30
0.0
  9
$PUCSORGBOTTOM
 10
0.0
 20
0.0
 30
0.0
  9
$PUCSORGLEFT
 10
0.0
 20
0.0
 30
0.0
  9
$PUCSORGRIGHT
 10
0.0
 20
0.0
 30
0.0
  9
$PUCSORGFRONT
 10
0.0
 20
0.0
 30
0.0
  9
$PUCSORGBACK
 10
0.0
 20
0.0
 30
0.0
  9
$USERI1
 70
     0
  9
$USERI2
 70
     0
  9
$USERI3
 70
     0
  9
$USERI4
 70
     0
  9
$USERI5
 70
     0
  9
$USERR1
 40
0.0
  9
$USERR2
 40
0.0
  9
$USERR3
 40
0.0
  9
$USERR4
 40
0.0
  9
$USERR5
 40
0.0
  9
$WORLDVIEW
 70
     1
  9
$SHADEDGE
 70
     3
  9
$SHADEDIF
 70
    70
  9
$TILEMODE
 70
     1
  9
$MAXACTVP
 70
    16
  9
$PINSBASE
 10
0.0
 20
0.0
 30
0.0
  9
$PLIMCHECK
 70
     0
  9
$PEXTMIN
 10
1.000000000000000E+20
 20
1.000000000000000E+20
 30
1.000000000000000E+20
  9
$PEXTMAX
 10
-1.000000000000000E+20
 20
-1.000000000000000E+20
 30
-1.000000000000000E+20
  9
$PLIMMIN
 10
0.0
 20
0.0
  9
$PLIMMAX
 10
12.0
 20
9.0
  9
$UNITMODE
 70
     0
  9
$VISRETAIN
 70
     0
  9
$PLINEGEN
 70
     0
  9
$PSLTSCALE
 70
     0
  9
$TREEDEPTH
 70
  3020
  9
$CMLSTYLE
  2
Standard
  9
$CMLJUST
 70
     0
  9
$CMLSCALE
 40
1.0
  9
$PROXYGRAPHICS
 70
     1
  9
$MEASUREMENT
 70
     0
  9
$CELWEIGHT
370
    -1
  9
$ENDCAPS
280
     0
  9
$JOINSTYLE
280
     0
  9
$LWDISPLAY
290
     0
  9
$INSUNITS
 70
     1
  9
$HYPERLINKBASE
  1

  9
$STYLESHEET
  1

  9
$XEDIT
290
     1
  9
$CEPSNTYPE
380
     0
  9
$PSTYLEMODE
290
     0
  9
$FINGERPRINTGUID
  2
{FAEB1C30-E019-11D5-929B-00C0DF256EC4}
  9
$VERSIONGUID
  2
{FAEB1C32-E019-11D5-929B-00C0DF256EC4}
  9
$EXTNAMES
290
     1
  9
$PSVPSCALE
 40
0.0
  9
$OLESTARTUP
290
     0
  0
ENDSEC
  0
SECTION
  2
CLASSES
  0
CLASS
  1
ACDBDICTIONARYWDFLT
  2
AcDbDictionaryWithDefault
  3
AutoCAD 2000
 90
        0
280
     0
281
     0
  0
CLASS
  1
ACDBPLACEHOLDER
  2
AcDbPlaceHolder
  3
ObjectDBX Classes
 90
        0
280
     0
281
     0
  0
CLASS
  1
LAYOUT
  2
AcDbLayout
  3
ObjectDBX Classes
 90
        0
280
     0
281
     0
  0
ENDSEC
  0
SECTION
  2
TABLES
  0
TABLE
  2
VPORT
  5
8
330
0
100
AcDbSymbolTable
 70
     2
  0
VPORT
  5
1F
330
8
100
AcDbSymbolTableRecord
100
AcDbViewportTableRecord
  2
*ACTIVE
 70
     0
 10
0.0
 20
0.0
 11
1.0
 21
1.0
 12
8.5
 22
6.12652705061082
 13
0.0
 23
0.0
 14
1.0
 24
1.0
 15
0.0
 25
0.0
 16
0.0
 26
0.0
 36
1.0
 17
0.0
 27
0.0
 37
0.0
 40
12.25305410122164
 41
0.7207678883071553
 42
50.0
 43
0.0
 44
0.0
 50
0.0
 51
0.0
 71
     0
 72
  2000
 73
     1
 74
     0
 75
     0
 76
     0
 77
     0
 78
     2
281
     0
 65
     1
110
0.0
120
0.0
130
0.0
111
1.0
121
0.0
131
0.0
112
0.0
122
1.0
132
0.0
 79
     0
146
0.0
  0
ENDTAB
  0
TABLE
  2
LTYPE
  5
5
330
0
100
AcDbSymbolTable
 70
     2
  0
LTYPE
  5
10
330
5
100
AcDbSymbolTableRecord
100
AcDbLinetypeTableRecord
  2
ByBlock
 70
     0
  3

 72
    65
 73
     0
 40
0.0
  0
LTYPE
  5
11
330
5
100
AcDbSymbolTableRecord
100
AcDbLinetypeTableRecord
  2
ByLayer
 70
     0
  3

 72
    65
 73
     0
 40
0.0
  0
LTYPE
  5
1B
330
5
100
AcDbSymbolTableRecord
100
AcDbLinetypeTableRecord
  2
CONTINUOUS
 70
     0
  3
Solid line
 72
    65
 73
     0
 40
0.0
  0
LTYPE
  5
1C
330
5
100
AcDbSymbolTableRecord
100
AcDbLinetypeTableRecord
  2
HIDDEN
 70
     0
  3
_ _ _ _ _ _ _ _ _ _ _ _ _ _ _ _ _ _ _ _ _ _ _
 72
    65
 73
     2
 40
0.375
 49
0.25
 74
     0
 49
-0.125
 74
     0
  0
ENDTAB
  0
TABLE
  2
LAYER
  5
2
330
0
100
AcDbSymbolTable
 70
     1
  0
LAYER
  5
1D
330
2
100
AcDbSymbolTableRecord
100
AcDbLayerTableRecord
  2
0
 70
     0
 62
     7
  6
CONTINUOUS
370
    -3
390
F
  0
ENDTAB
  0
TABLE
  2
STYLE
  5
3
330
0
100
AcDbSymbolTable
 70
     1
  0
STYLE
  5
21
330
3
100
AcDbSymbolTableRecord
100
AcDbTextStyleTableRecord
  2
STANDARD
 70
     0
 40
0.0
 41
1.0
 50
0.0
 71
     0
 42
0.125
  3
ROMANS
  4

  0
ENDTAB
  0
TABLE
  2
VIEW
  5
6
330
0
100
AcDbSymbolTable
 70
     0
  0
ENDTAB
  0
TABLE
  2
UCS
  5
7
330
0
100
AcDbSymbolTable
 70
     0
  0
ENDTAB
  0
TABLE
  2
APPID
  5
9
330
0
100
AcDbSymbolTable
 70
     1
  0
APPID
  5
20
330
9
100
AcDbSymbolTableRecord
100
AcDbRegAppTableRecord
  2
ACAD
 70
     0
  0
ENDTAB
  0
TABLE
  2
DIMSTYLE
  5
A
330
0
100
AcDbSymbolTable
 70
     1
100
AcDbDimStyleTable
  0
DIMSTYLE
105
22
330
A
100
AcDbSymbolTableRecord
100
AcDbDimStyleTableRecord
  2
Standard
 70
     0
  3

  4

340
21
  0
ENDTAB
  0
TABLE
  2
BLOCK_RECORD
  5
1
330
0
100
AcDbSymbolTable
 70
     0
  0
BLOCK_RECORD
  5
18
330
1
100
AcDbSymbolTableRecord
100
AcDbBlockTableRecord
  2
*Model_Space
340
19
  0
BLOCK_RECORD
  5
16
330
1
100
AcDbSymbolTableRecord
100
AcDbBlockTableRecord
  2
*Paper_Space
340
17
  0
ENDTAB
  0
ENDSEC
  0
SECTION
  2
BLOCKS
  0
BLOCK
  5
689
330
18
100
AcDbEntity
  8
0
100
AcDbBlockBegin
  2
*Model_Space
 70
     0
 10
0.0
 20
0.0
 30
0.0
  3
*Model_Space
  1

  4

  0
ENDBLK
  5
68A
330
18
100
AcDbEntity
  8
0
100
AcDbBlockEnd
  0
BLOCK
  5
687
330
16
100
AcDbEntity
 67
     1
  8
0
100
AcDbBlockBegin
  2
*Paper_Space
 70
     0
 10
0.0
 20
0.0
 30
0.0
  3
*Paper_Space
  1

  4

  0
ENDBLK
  5
688
330
16
100
AcDbEntity
 67
     1
  8
0
100
AcDbBlockEnd
  0
ENDSEC
  0
SECTION
  2
ENTITIES
  0
LINE
  5
23
330
18
100
AcDbEntity
  8
0
  6
HIDDEN
100
AcDbLine
 10
4.525
 20
2.075
 30
0.0
 11
4.725
 21
2.077
 31
0.0
  0
LINE
  5
24
330
18
100
AcDbEntity
  8
0
  6
HIDDEN
100
AcDbLine
 10
4.788
 20
2.101
 30
0.0
 11
4.813
 21
2.121
 31
0.0
  0
ARC
  5
25
330
18
100
AcDbEntity
  8
0
  6
HIDDEN
100
AcDbCircle
 10
4.724
 20
2.177
 30
0.0
 40
0.1
100
AcDbArc
 50
270.604
 51
310.074
  0
LINE
  5
26
330
18
100
AcDbEntity
  8
0
  6
HIDDEN
100
AcDbLine
 10
4.836
 20
2.141
 30
0.0
 11
4.858000000000001
 21
2.159
 31
0.0
  0
POINT
  5
27
330
18
100
AcDbEntity
  8
0
100
AcDbPoint
 10
6.211
 20
0.6659999999999999
 30
0.0
  0
POINT
  5
28
330
18
100
AcDbEntity
  8
0
100
AcDbPoint
 10
6.216
 20
0.667
 30
0.0
  0
POINT
  5
29
330
18
100
AcDbEntity
  8
0
100
AcDbPoint
 10
6.145
 20
0.7120000000000001
 30
0.0
  0
POINT
  5
2A
330
18
100
AcDbEntity
  8
0
100
AcDbPoint
 10
5.99
 20
0.706
 30
0.0
  0
POINT
  5
2B
330
18
100
AcDbEntity
  8
0
100
AcDbPoint
 10
6.047999999999999
 20
0.7040000000000001
 30
0.0
  0
POINT
  5
2C
330
18
100
AcDbEntity
  8
0
100
AcDbPoint
 10
5.962000000000001
 20
0.635
 30
0.0
  0
POINT
  5
2D
330
18
100
AcDbEntity
  8
0
100
AcDbPoint
 10
5.865
 20
0.643
 30
0.0
  0
POINT
  5
2E
330
18
100
AcDbEntity
  8
0
100
AcDbPoint
 10
5.727
 20
0.627
 30
0.0
  0
POINT
  5
2F
330
18
100
AcDbEntity
  8
0
100
AcDbPoint
 10
5.771
 20
0.652
 30
0.0
  0
POINT
  5
30
330
18
100
AcDbEntity
  8
0
100
AcDbPoint
 10
5.855
 20
0.6679999999999999
 30
0.0
  0
POINT
  5
31
330
18
100
AcDbEntity
  8
0
100
AcDbPoint
 10
5.927000000000001
 20
0.6579999999999999
 30
0.0
  0
POINT
  5
32
330
18
100
AcDbEntity
  8
0
100
AcDbPoint
 10
5.952000000000001
 20
0.63
 30
0.0
  0
LINE
  5
33
330
18
100
AcDbEntity
  8
0
100
AcDbLine
 10
6.147
 20
0.591
 30
0.0
 11
6.308
 21
0.643
 31
0.0
  0
LINE
  5
34
330
18
100
AcDbEntity
  8
0
100
AcDbLine
 10
5.462000000000001
 20
0.591
 30
0.0
 11
6.308
 21
0.866
 31
0.0
  0
LINE
  5
35
330
18
100
AcDbEntity
  8
0
100
AcDbLine
 10
1.704
 20
6.483
 30
0.0
 11
1.704
 21
4.597
 31
0.0
  0
LINE
  5
36
330
18
100
AcDbEntity
  8
0
100
AcDbLine
 10
3.867
 20
6.04
 30
0.0
 11
3.867
 21
5.37
 31
0.0
  0
LINE
  5
37
330
18
100
AcDbEntity
  8
0
100
AcDbLine
 10
3.118
 20
5.881
 30
0.0
 11
3.118
 21
5.197
 31
0.0
  0
LINE
  5
38
330
18
100
AcDbEntity
  8
0
100
AcDbLine
 10
6.308
 20
5.934
 30
0.0
 11
6.308
 21
0.591
 31
0.0
  0
LINE
  5
39
330
18
100
AcDbEntity
  8
0
100
AcDbLine
 10
0.302
 20
3.095
 30
0.0
 11
0.302
 21
0.591
 31
0.0
  0
LINE
  5
3A
330
18
100
AcDbEntity
  8
0
100
AcDbLine
 10
0.302
 20
0.591
 30
0.0
 11
6.308
 21
0.591
 31
0.0
  0
LINE
  5
3B
330
18
100
AcDbEntity
  8
0
100
AcDbLine
 10
1.704
 20
6.483
 30
0.0
 11
2.483
 21
6.616000000000001
 31
0.0
  0
LINE
  5
3C
330
18
100
AcDbEntity
  8
0
100
AcDbLine
 10
2.483
 20
6.616000000000001
 30
0.0
 11
2.737
 21
6.511
 31
0.0
  0
LINE
  5
3D
330
18
100
AcDbEntity
  8
0
100
AcDbLine
 10
3.867
 20
6.04
 30
0.0
 11
3.118
 21
5.881
 31
0.0
  0
LINE
  5
3E
330
18
100
AcDbEntity
  8
0
100
AcDbLine
 10
3.118
 20
5.881
 30
0.0
 11
2.559
 21
6.119
 31
0.0
  0
LINE
  5
3F
330
18
100
AcDbEntity
  8
0
100
AcDbLine
 10
6.308
 20
4.668
 30
0.0
 11
5.747999999999999
 21
4.521
 31
0.0
  0
LINE
  5
40
330
18
100
AcDbEntity
  8
0
100
AcDbLine
 10
2.064
 20
4.821000000000001
 30
0.0
 11
1.94
 21
4.925
 31
0.0
  0
LINE
  5
41
330
18
100
AcDbEntity
  8
0
100
AcDbLine
 10
6.308
 20
5.934
 30
0.0
 11
5.386
 21
5.721
 31
0.0
  0
LINE
  5
42
330
18
100
AcDbEntity
  8
0
100
AcDbLine
 10
1.94
 20
4.925
 30
0.0
 11
1.563
 21
4.402
 31
0.0
  0
LINE
  5
43
330
18
100
AcDbEntity
  8
0
100
AcDbLine
 10
6.308
 20
5.801
 30
0.0
 11
5.461
 21
5.601
 31
0.0
  0
LINE
  5
44
330
18
100
AcDbEntity
  8
0
100
AcDbLine
 10
2.064
 20
4.821000000000001
 30
0.0
 11
1.688
 21
4.297
 31
0.0
  0
LINE
  5
45
330
18
100
AcDbEntity
  8
0
100
AcDbLine
 10
1.688
 20
4.297
 30
0.0
 11
1.563
 21
4.402
 31
0.0
  0
LINE
  5
46
330
18
100
AcDbEntity
  8
0
100
AcDbLine
 10
1.335
 20
3.807
 30
0.0
 11
1.211
 21
3.911
 31
0.0
  0
LINE
  5
47
330
18
100
AcDbEntity
  8
0
100
AcDbLine
 10
1.335
 20
4.021
 30
0.0
 11
1.211
 21
4.125
 31
0.0
  0
LINE
  5
48
330
18
100
AcDbEntity
  8
0
100
AcDbLine
 10
1.798
 20
4.084
 30
0.0
 11
1.674
 21
4.188
 31
0.0
  0
LINE
  5
49
330
18
100
AcDbEntity
  8
0
100
AcDbLine
 10
1.688
 20
4.297
 30
0.0
 11
1.798
 21
4.084
 31
0.0
  0
LINE
  5
4A
330
18
100
AcDbEntity
  8
0
100
AcDbLine
 10
1.798
 20
4.084
 30
0.0
 11
1.335
 21
4.021
 31
0.0
  0
LINE
  5
4B
330
18
100
AcDbEntity
  8
0
100
AcDbLine
 10
1.335
 20
4.021
 30
0.0
 11
1.335
 21
3.807
 31
0.0
  0
LINE
  5
4C
330
18
100
AcDbEntity
  8
0
100
AcDbLine
 10
1.335
 20
3.807
 30
0.0
 11
0.945
 21
3.263
 31
0.0
  0
LINE
  5
4D
330
18
100
AcDbEntity
  8
0
100
AcDbLine
 10
1.211
 20
3.911
 30
0.0
 11
0.6990000000000001
 21
3.199
 31
0.0
  0
LINE
  5
4E
330
18
100
AcDbEntity
  8
0
100
AcDbLine
 10
1.211
 20
3.911
 30
0.0
 11
1.211
 21
4.125
 31
0.0
  0
LINE
  5
4F
330
18
100
AcDbEntity
  8
0
100
AcDbLine
 10
1.211
 20
4.125
 30
0.0
 11
1.674
 21
4.188
 31
0.0
  0
LINE
  5
50
330
18
100
AcDbEntity
  8
0
100
AcDbLine
 10
1.674
 20
4.188
 30
0.0
 11
1.563
 21
4.402
 31
0.0
  0
ARC
  5
51
330
18
100
AcDbEntity
  8
0
100
AcDbCircle
 10
1.482
 20
3.477
 30
0.0
 40
0.147
100
AcDbArc
 50
251.048
 51
346.168
  0
LINE
  5
52
330
18
100
AcDbEntity
  8
0
100
AcDbLine
 10
1.375
 20
3.376
 30
0.0
 11
0.302
 21
3.095
 31
0.0
  0
LINE
  5
53
330
18
100
AcDbEntity
  8
0
100
AcDbLine
 10
0.302
 20
1.675
 30
0.0
 11
2.817
 21
2.444
 31
0.0
  0
LINE
  5
54
330
18
100
AcDbEntity
  8
0
100
AcDbLine
 10
0.961
 20
0.591
 30
0.0
 11
2.817
 21
1.195
 31
0.0
  0
LINE
  5
55
330
18
100
AcDbEntity
  8
0
100
AcDbLine
 10
1.375
 20
3.376
 30
0.0
 11
2.817
 21
2.444
 31
0.0
  0
LINE
  5
56
330
18
100
AcDbEntity
  8
0
100
AcDbLine
 10
2.817
 20
2.444
 30
0.0
 11
2.817
 21
1.195
 31
0.0
  0
LINE
  5
57
330
18
100
AcDbEntity
  8
0
100
AcDbLine
 10
3.074
 20
2.522
 30
0.0
 11
3.074
 21
1.278
 31
0.0
  0
LINE
  5
58
330
18
100
AcDbEntity
  8
0
100
AcDbLine
 10
3.074
 20
2.522
 30
0.0
 11
1.625
 21
3.442
 31
0.0
  0
LINE
  5
59
330
18
100
AcDbEntity
  8
0
100
AcDbLine
 10
3.074
 20
1.278
 30
0.0
 11
6.308
 21
2.33
 31
0.0
  0
LINE
  5
5A
330
18
100
AcDbEntity
  8
0
100
AcDbLine
 10
1.673
 20
0.591
 30
0.0
 11
4.988
 21
1.675
 31
0.0
  0
LINE
  5
5B
330
18
100
AcDbEntity
  8
0
100
AcDbLine
 10
4.988
 20
1.675
 30
0.0
 11
4.988
 21
0.591
 31
0.0
  0
LINE
  5
5C
330
18
100
AcDbEntity
  8
0
100
AcDbLine
 10
5.244
 20
1.759
 30
0.0
 11
5.244
 21
0.591
 31
0.0
  0
LINE
  5
5D
330
18
100
AcDbEntity
  8
0
100
AcDbLine
 10
5.244
 20
1.759
 30
0.0
 11
6.308
 21
2.107
 31
0.0
  0
ARC
  5
5E
330
18
100
AcDbEntity
  8
0
100
AcDbCircle
 10
5.605
 20
4.556
 30
0.0
 40
0.147
100
AcDbArc
 50
251.048
 51
346.168
  0
LINE
  5
5F
330
18
100
AcDbEntity
  8
0
100
AcDbLine
 10
5.497999999999999
 20
4.456
 30
0.0
 11
6.308
 21
3.932
 31
0.0
  0
LINE
  5
60
330
18
100
AcDbEntity
  8
0
100
AcDbLine
 10
6.308
 20
4.166
 30
0.0
 11
5.747999999999999
 21
4.521
 31
0.0
  0
LINE
  5
61
330
18
100
AcDbEntity
  8
0
100
AcDbLine
 10
5.497999999999999
 20
4.456
 30
0.0
 11
1.625
 21
3.442
 31
0.0
  0
LINE
  5
62
330
18
100
AcDbEntity
  8
0
100
AcDbLine
 10
5.078
 20
5.507000000000001
 30
0.0
 11
4.914
 21
5.612
 31
0.0
  0
LINE
  5
63
330
18
100
AcDbEntity
  8
0
100
AcDbLine
 10
5.35
 20
5.763
 30
0.0
 11
5.187
 21
5.837999999999999
 31
0.0
  0
LINE
  5
64
330
18
100
AcDbEntity
  8
0
100
AcDbLine
 10
5.078
 20
5.507000000000001
 30
0.0
 11
5.196000000000001
 21
5.353
 31
0.0
  0
LINE
  5
65
330
18
100
AcDbEntity
  8
0
100
AcDbLine
 10
5.196000000000001
 20
5.353
 30
0.0
 11
5.35
 21
5.763
 31
0.0
  0
LINE
  5
66
330
18
100
AcDbEntity
  8
0
100
AcDbLine
 10
5.35
 20
5.763
 30
0.0
 11
5.461
 21
5.601
 31
0.0
  0
LINE
  5
67
330
18
100
AcDbEntity
  8
0
100
AcDbLine
 10
5.078
 20
5.507000000000001
 30
0.0
 11
5.187
 21
5.837999999999999
 31
0.0
  0
LINE
  5
68
330
18
100
AcDbEntity
  8
0
100
AcDbLine
 10
5.078
 20
5.507000000000001
 30
0.0
 11
2.064
 21
4.821000000000001
 31
0.0
  0
LINE
  5
69
330
18
100
AcDbEntity
  8
0
100
AcDbLine
 10
4.914
 20
5.612
 30
0.0
 11
1.94
 21
4.925
 31
0.0
  0
LINE
  5
6A
330
18
100
AcDbEntity
  8
0
100
AcDbLine
 10
2.559
 20
6.119
 30
0.0
 11
3.352
 21
6.255
 31
0.0
  0
LINE
  5
6B
330
18
100
AcDbEntity
  8
0
100
AcDbLine
 10
2.356
 20
6.445
 30
0.0
 11
3.135
 21
6.579
 31
0.0
  0
LINE
  5
6C
330
18
100
AcDbEntity
  8
0
100
AcDbLine
 10
2.235
 20
6.257000000000001
 30
0.0
 11
2.356
 21
6.445
 31
0.0
  0
LINE
  5
6D
330
18
100
AcDbEntity
  8
0
100
AcDbLine
 10
2.356
 20
6.445
 30
0.0
 11
2.451
 21
5.907
 31
0.0
  0
LINE
  5
6E
330
18
100
AcDbEntity
  8
0
100
AcDbLine
 10
2.451
 20
5.907
 30
0.0
 11
2.559
 21
6.119
 31
0.0
  0
LINE
  5
6F
330
18
100
AcDbEntity
  8
0
100
AcDbLine
 10
3.135
 20
6.579
 30
0.0
 11
3.197
 21
6.228
 31
0.0
  0
LINE
  5
70
330
18
100
AcDbEntity
  8
0
100
AcDbLine
 10
2.235
 20
6.257000000000001
 30
0.0
 11
1.704
 21
6.483
 31
0.0
  0
LINE
  5
71
330
18
100
AcDbEntity
  8
0
100
AcDbLine
 10
3.352
 20
6.255
 30
0.0
 11
3.867
 21
6.04
 31
0.0
  0
POINT
  5
72
330
18
100
AcDbEntity
  8
0
100
AcDbPoint
 10
1.14
 20
3.603
 30
0.0
  0
POINT
  5
73
330
18
100
AcDbEntity
  8
0
100
AcDbPoint
 10
1.103
 20
3.696
 30
0.0
  0
POINT
  5
74
330
18
100
AcDbEntity
  8
0
100
AcDbPoint
 10
1.026
 20
3.552
 30
0.0
  0
POINT
  5
75
330
18
100
AcDbEntity
  8
0
100
AcDbPoint
 10
1.035
 20
3.485
 30
0.0
  0
POINT
  5
76
330
18
100
AcDbEntity
  8
0
100
AcDbPoint
 10
1.116
 20
3.58
 30
0.0
  0
POINT
  5
77
330
18
100
AcDbEntity
  8
0
100
AcDbPoint
 10
1.088
 20
3.615
 30
0.0
  0
POINT
  5
78
330
18
100
AcDbEntity
  8
0
100
AcDbPoint
 10
1.066
 20
3.554
 30
0.0
  0
POINT
  5
79
330
18
100
AcDbEntity
  8
0
100
AcDbPoint
 10
1.002
 20
3.486
 30
0.0
  0
POINT
  5
7A
330
18
100
AcDbEntity
  8
0
100
AcDbPoint
 10
0.9670000000000001
 20
3.402
 30
0.0
  0
POINT
  5
7B
330
18
100
AcDbEntity
  8
0
100
AcDbPoint
 10
0.9570000000000001
 20
3.351
 30
0.0
  0
POINT
  5
7C
330
18
100
AcDbEntity
  8
0
100
AcDbPoint
 10
1.009
 20
3.436
 30
0.0
  0
POINT
  5
7D
330
18
100
AcDbEntity
  8
0
100
AcDbPoint
 10
0.987
 20
3.482
 30
0.0
  0
POINT
  5
7E
330
18
100
AcDbEntity
  8
0
100
AcDbPoint
 10
0.9340000000000001
 20
3.436
 30
0.0
  0
POINT
  5
7F
330
18
100
AcDbEntity
  8
0
100
AcDbPoint
 10
0.9890000000000001
 20
3.461
 30
0.0
  0
POINT
  5
80
330
18
100
AcDbEntity
  8
0
100
AcDbPoint
 10
0.9300000000000001
 20
3.376
 30
0.0
  0
POINT
  5
81
330
18
100
AcDbEntity
  8
0
100
AcDbPoint
 10
0.922
 20
3.333
 30
0.0
  0
POINT
  5
82
330
18
100
AcDbEntity
  8
0
100
AcDbPoint
 10
0.893
 20
3.355
 30
0.0
  0
POINT
  5
83
330
18
100
AcDbEntity
  8
0
100
AcDbPoint
 10
0.9300000000000001
 20
3.422
 30
0.0
  0
POINT
  5
84
330
18
100
AcDbEntity
  8
0
100
AcDbPoint
 10
0.97
 20
3.474
 30
0.0
  0
POINT
  5
85
330
18
100
AcDbEntity
  8
0
100
AcDbPoint
 10
0.9840000000000001
 20
3.525
 30
0.0
  0
POINT
  5
86
330
18
100
AcDbEntity
  8
0
100
AcDbPoint
 10
1.027
 20
3.586
 30
0.0
  0
POINT
  5
87
330
18
100
AcDbEntity
  8
0
100
AcDbPoint
 10
1.212
 20
3.74
 30
0.0
  0
POINT
  5
88
330
18
100
AcDbEntity
  8
0
100
AcDbPoint
 10
1.168
 20
3.698
 30
0.0
  0
POINT
  5
89
330
18
100
AcDbEntity
  8
0
100
AcDbPoint
 10
1.167
 20
3.66
 30
0.0
  0
POINT
  5
8A
330
18
100
AcDbEntity
  8
0
100
AcDbPoint
 10
1.139
 20
3.621
 30
0.0
  0
POINT
  5
8B
330
18
100
AcDbEntity
  8
0
100
AcDbPoint
 10
1.116
 20
3.672
 30
0.0
  0
POINT
  5
8C
330
18
100
AcDbEntity
  8
0
100
AcDbPoint
 10
1.074
 20
3.625
 30
0.0
  0
POINT
  5
8D
330
18
100
AcDbEntity
  8
0
100
AcDbPoint
 10
0.9370000000000001
 20
3.361
 30
0.0
  0
POINT
  5
8E
330
18
100
AcDbEntity
  8
0
100
AcDbPoint
 10
0.882
 20
3.291
 30
0.0
  0
POINT
  5
8F
330
18
100
AcDbEntity
  8
0
100
AcDbPoint
 10
0.843
 20
3.272
 30
0.0
  0
POINT
  5
90
330
18
100
AcDbEntity
  8
0
100
AcDbPoint
 10
0.784
 20
3.254
 30
0.0
  0
POINT
  5
91
330
18
100
AcDbEntity
  8
0
100
AcDbPoint
 10
0.816
 20
3.306
 30
0.0
  0
POINT
  5
92
330
18
100
AcDbEntity
  8
0
100
AcDbPoint
 10
0.893
 20
3.328
 30
0.0
  0
POINT
  5
93
330
18
100
AcDbEntity
  8
0
100
AcDbPoint
 10
0.8590000000000001
 20
3.324
 30
0.0
  0
POINT
  5
94
330
18
100
AcDbEntity
  8
0
100
AcDbPoint
 10
0.91
 20
3.394
 30
0.0
  0
POINT
  5
95
330
18
100
AcDbEntity
  8
0
100
AcDbPoint
 10
1.183
 20
3.798
 30
0.0
  0
POINT
  5
96
330
18
100
AcDbEntity
  8
0
100
AcDbPoint
 10
1.234
 20
3.792
 30
0.0
  0
POINT
  5
97
330
18
100
AcDbEntity
  8
0
100
AcDbPoint
 10
1.226
 20
3.833
 30
0.0
  0
POINT
  5
98
330
18
100
AcDbEntity
  8
0
100
AcDbPoint
 10
1.25
 20
3.753
 30
0.0
  0
POINT
  5
99
330
18
100
AcDbEntity
  8
0
100
AcDbPoint
 10
1.277
 20
3.793
 30
0.0
  0
POINT
  5
9A
330
18
100
AcDbEntity
  8
0
100
AcDbPoint
 10
1.199
 20
3.774
 30
0.0
  0
POINT
  5
9B
330
18
100
AcDbEntity
  8
0
100
AcDbPoint
 10
1.175
 20
3.749
 30
0.0
  0
POINT
  5
9C
330
18
100
AcDbEntity
  8
0
100
AcDbPoint
 10
1.176
 20
3.678
 30
0.0
  0
POINT
  5
9D
330
18
100
AcDbEntity
  8
0
100
AcDbPoint
 10
1.216
 20
3.691
 30
0.0
  0
POINT
  5
9E
330
18
100
AcDbEntity
  8
0
100
AcDbPoint
 10
1.128
 20
3.716
 30
0.0
  0
POINT
  5
9F
330
18
100
AcDbEntity
  8
0
100
AcDbPoint
 10
1.145
 20
3.768
 30
0.0
  0
POINT
  5
A0
330
18
100
AcDbEntity
  8
0
100
AcDbPoint
 10
1.231
 20
3.869
 30
0.0
  0
POINT
  5
A1
330
18
100
AcDbEntity
  8
0
100
AcDbPoint
 10
1.276
 20
3.826
 30
0.0
  0
POINT
  5
A2
330
18
100
AcDbEntity
  8
0
100
AcDbPoint
 10
1.087
 20
3.51
 30
0.0
  0
POINT
  5
A3
330
18
100
AcDbEntity
  8
0
100
AcDbPoint
 10
1.122
 20
3.542
 30
0.0
  0
POINT
  5
A4
330
18
100
AcDbEntity
  8
0
100
AcDbPoint
 10
1.08
 20
3.542
 30
0.0
  0
POINT
  5
A5
330
18
100
AcDbEntity
  8
0
100
AcDbPoint
 10
1.061
 20
3.48
 30
0.0
  0
POINT
  5
A6
330
18
100
AcDbEntity
  8
0
100
AcDbPoint
 10
1.055
 20
3.446
 30
0.0
  0
POINT
  5
A7
330
18
100
AcDbEntity
  8
0
100
AcDbPoint
 10
1.009
 20
3.387
 30
0.0
  0
POINT
  5
A8
330
18
100
AcDbEntity
  8
0
100
AcDbPoint
 10
1.053
 20
3.646
 30
0.0
  0
POINT
  5
A9
330
18
100
AcDbEntity
  8
0
100
AcDbPoint
 10
1.082
 20
3.697
 30
0.0
  0
POINT
  5
AA
330
18
100
AcDbEntity
  8
0
100
AcDbPoint
 10
1.137
 20
3.784
 30
0.0
  0
POINT
  5
AB
330
18
100
AcDbEntity
  8
0
100
AcDbPoint
 10
1.201
 20
3.842
 30
0.0
  0
POINT
  5
AC
330
18
100
AcDbEntity
  8
0
100
AcDbPoint
 10
0.87
 20
3.381
 30
0.0
  0
POINT
  5
AD
330
18
100
AcDbEntity
  8
0
100
AcDbPoint
 10
0.92
 20
3.437
 30
0.0
  0
POINT
  5
AE
330
18
100
AcDbEntity
  8
0
100
AcDbPoint
 10
0.95
 20
3.496
 30
0.0
  0
POINT
  5
AF
330
18
100
AcDbEntity
  8
0
100
AcDbPoint
 10
0.848
 20
3.346
 30
0.0
  0
POINT
  5
B0
330
18
100
AcDbEntity
  8
0
100
AcDbPoint
 10
0.821
 20
3.272
 30
0.0
  0
POINT
  5
B1
330
18
100
AcDbEntity
  8
0
100
AcDbPoint
 10
0.9420000000000001
 20
3.306
 30
0.0
  0
POINT
  5
B2
330
18
100
AcDbEntity
  8
0
100
AcDbPoint
 10
0.9990000000000001
 20
3.389
 30
0.0
  0
POINT
  5
B3
330
18
100
AcDbEntity
  8
0
100
AcDbPoint
 10
1.016
 20
3.438
 30
0.0
  0
POINT
  5
B4
330
18
100
AcDbEntity
  8
0
100
AcDbPoint
 10
1.016
 20
3.514
 30
0.0
  0
POINT
  5
B5
330
18
100
AcDbEntity
  8
0
100
AcDbPoint
 10
1.024
 20
3.59
 30
0.0
  0
POINT
  5
B6
330
18
100
AcDbEntity
  8
0
100
AcDbPoint
 10
1.07
 20
3.593
 30
0.0
  0
POINT
  5
B7
330
18
100
AcDbEntity
  8
0
100
AcDbPoint
 10
1.116
 20
3.655
 30
0.0
  0
POINT
  5
B8
330
18
100
AcDbEntity
  8
0
100
AcDbPoint
 10
1.856
 20
4.694
 30
0.0
  0
POINT
  5
B9
330
18
100
AcDbEntity
  8
0
100
AcDbPoint
 10
1.811
 20
4.631
 30
0.0
  0
POINT
  5
BA
330
18
100
AcDbEntity
  8
0
100
AcDbPoint
 10
1.764
 20
4.628
 30
0.0
  0
POINT
  5
BB
330
18
100
AcDbEntity
  8
0
100
AcDbPoint
 10
1.756
 20
4.552
 30
0.0
  0
POINT
  5
BC
330
18
100
AcDbEntity
  8
0
100
AcDbPoint
 10
1.756
 20
4.477
 30
0.0
  0
POINT
  5
BD
330
18
100
AcDbEntity
  8
0
100
AcDbPoint
 10
1.739
 20
4.428
 30
0.0
  0
POINT
  5
BE
330
18
100
AcDbEntity
  8
0
100
AcDbPoint
 10
1.588
 20
4.385
 30
0.0
  0
POINT
  5
BF
330
18
100
AcDbEntity
  8
0
100
AcDbPoint
 10
1.69
 20
4.535
 30
0.0
  0
POINT
  5
C0
330
18
100
AcDbEntity
  8
0
100
AcDbPoint
 10
1.66
 20
4.475
 30
0.0
  0
POINT
  5
C1
330
18
100
AcDbEntity
  8
0
100
AcDbPoint
 10
1.61
 20
4.42
 30
0.0
  0
POINT
  5
C2
330
18
100
AcDbEntity
  8
0
100
AcDbPoint
 10
1.878
 20
4.823
 30
0.0
  0
POINT
  5
C3
330
18
100
AcDbEntity
  8
0
100
AcDbPoint
 10
1.822
 20
4.736000000000001
 30
0.0
  0
POINT
  5
C4
330
18
100
AcDbEntity
  8
0
100
AcDbPoint
 10
1.793
 20
4.684
 30
0.0
  0
POINT
  5
C5
330
18
100
AcDbEntity
  8
0
100
AcDbPoint
 10
1.749
 20
4.425
 30
0.0
  0
POINT
  5
C6
330
18
100
AcDbEntity
  8
0
100
AcDbPoint
 10
1.795
 20
4.485
 30
0.0
  0
POINT
  5
C7
330
18
100
AcDbEntity
  8
0
100
AcDbPoint
 10
1.802
 20
4.518
 30
0.0
  0
POINT
  5
C8
330
18
100
AcDbEntity
  8
0
100
AcDbPoint
 10
1.82
 20
4.58
 30
0.0
  0
POINT
  5
C9
330
18
100
AcDbEntity
  8
0
100
AcDbPoint
 10
1.862
 20
4.58
 30
0.0
  0
POINT
  5
CA
330
18
100
AcDbEntity
  8
0
100
AcDbPoint
 10
1.827
 20
4.548
 30
0.0
  0
POINT
  5
CB
330
18
100
AcDbEntity
  8
0
100
AcDbPoint
 10
1.886
 20
4.807
 30
0.0
  0
POINT
  5
CC
330
18
100
AcDbEntity
  8
0
100
AcDbPoint
 10
1.868
 20
4.754
 30
0.0
  0
POINT
  5
CD
330
18
100
AcDbEntity
  8
0
100
AcDbPoint
 10
1.956
 20
4.73
 30
0.0
  0
POINT
  5
CE
330
18
100
AcDbEntity
  8
0
100
AcDbPoint
 10
1.916
 20
4.716
 30
0.0
  0
POINT
  5
CF
330
18
100
AcDbEntity
  8
0
100
AcDbPoint
 10
1.915
 20
4.788
 30
0.0
  0
POINT
  5
D0
330
18
100
AcDbEntity
  8
0
100
AcDbPoint
 10
1.939
 20
4.813
 30
0.0
  0
POINT
  5
D1
330
18
100
AcDbEntity
  8
0
100
AcDbPoint
 10
2.017
 20
4.831
 30
0.0
  0
POINT
  5
D2
330
18
100
AcDbEntity
  8
0
100
AcDbPoint
 10
1.99
 20
4.792
 30
0.0
  0
POINT
  5
D3
330
18
100
AcDbEntity
  8
0
100
AcDbPoint
 10
1.974
 20
4.831
 30
0.0
  0
POINT
  5
D4
330
18
100
AcDbEntity
  8
0
100
AcDbPoint
 10
1.923
 20
4.837
 30
0.0
  0
POINT
  5
D5
330
18
100
AcDbEntity
  8
0
100
AcDbPoint
 10
1.651
 20
4.432
 30
0.0
  0
POINT
  5
D6
330
18
100
AcDbEntity
  8
0
100
AcDbPoint
 10
1.633
 20
4.367
 30
0.0
  0
POINT
  5
D7
330
18
100
AcDbEntity
  8
0
100
AcDbPoint
 10
1.677
 20
4.4
 30
0.0
  0
POINT
  5
D8
330
18
100
AcDbEntity
  8
0
100
AcDbPoint
 10
1.814
 20
4.663
 30
0.0
  0
POINT
  5
D9
330
18
100
AcDbEntity
  8
0
100
AcDbPoint
 10
1.856
 20
4.71
 30
0.0
  0
POINT
  5
DA
330
18
100
AcDbEntity
  8
0
100
AcDbPoint
 10
1.879
 20
4.659
 30
0.0
  0
POINT
  5
DB
330
18
100
AcDbEntity
  8
0
100
AcDbPoint
 10
1.907
 20
4.699
 30
0.0
  0
POINT
  5
DC
330
18
100
AcDbEntity
  8
0
100
AcDbPoint
 10
1.908
 20
4.737
 30
0.0
  0
POINT
  5
DD
330
18
100
AcDbEntity
  8
0
100
AcDbPoint
 10
1.952
 20
4.779
 30
0.0
  0
POINT
  5
DE
330
18
100
AcDbEntity
  8
0
100
AcDbPoint
 10
1.768
 20
4.624
 30
0.0
  0
POINT
  5
DF
330
18
100
AcDbEntity
  8
0
100
AcDbPoint
 10
1.725
 20
4.563
 30
0.0
  0
POINT
  5
E0
330
18
100
AcDbEntity
  8
0
100
AcDbPoint
 10
1.71
 20
4.512
 30
0.0
  0
POINT
  5
E1
330
18
100
AcDbEntity
  8
0
100
AcDbPoint
 10
1.67
 20
4.46
 30
0.0
  0
POINT
  5
E2
330
18
100
AcDbEntity
  8
0
100
AcDbPoint
 10
1.633
 20
4.394
 30
0.0
  0
POINT
  5
E3
330
18
100
AcDbEntity
  8
0
100
AcDbPoint
 10
1.663
 20
4.372
 30
0.0
  0
POINT
  5
E4
330
18
100
AcDbEntity
  8
0
100
AcDbPoint
 10
1.671
 20
4.415
 30
0.0
  0
POINT
  5
E5
330
18
100
AcDbEntity
  8
0
100
AcDbPoint
 10
1.73
 20
4.5
 30
0.0
  0
POINT
  5
E6
330
18
100
AcDbEntity
  8
0
100
AcDbPoint
 10
1.674
 20
4.474
 30
0.0
  0
POINT
  5
E7
330
18
100
AcDbEntity
  8
0
100
AcDbPoint
 10
1.727
 20
4.521
 30
0.0
  0
POINT
  5
E8
330
18
100
AcDbEntity
  8
0
100
AcDbPoint
 10
1.749
 20
4.474
 30
0.0
  0
POINT
  5
E9
330
18
100
AcDbEntity
  8
0
100
AcDbPoint
 10
1.697
 20
4.39
 30
0.0
  0
POINT
  5
EA
330
18
100
AcDbEntity
  8
0
100
AcDbPoint
 10
1.708
 20
4.441
 30
0.0
  0
POINT
  5
EB
330
18
100
AcDbEntity
  8
0
100
AcDbPoint
 10
1.742
 20
4.524
 30
0.0
  0
POINT
  5
EC
330
18
100
AcDbEntity
  8
0
100
AcDbPoint
 10
1.806
 20
4.592
 30
0.0
  0
POINT
  5
ED
330
18
100
AcDbEntity
  8
0
100
AcDbPoint
 10
1.828
 20
4.653000000000001
 30
0.0
  0
POINT
  5
EE
330
18
100
AcDbEntity
  8
0
100
AcDbPoint
 10
1.856
 20
4.618
 30
0.0
  0
POINT
  5
EF
330
18
100
AcDbEntity
  8
0
100
AcDbPoint
 10
1.775
 20
4.523
 30
0.0
  0
POINT
  5
F0
330
18
100
AcDbEntity
  8
0
100
AcDbPoint
 10
1.767
 20
4.59
 30
0.0
  0
POINT
  5
F1
330
18
100
AcDbEntity
  8
0
100
AcDbPoint
 10
1.843
 20
4.734
 30
0.0
  0
POINT
  5
F2
330
18
100
AcDbEntity
  8
0
100
AcDbPoint
 10
1.88
 20
4.641
 30
0.0
  0
POINT
  5
F3
330
18
100
AcDbEntity
  8
0
100
AcDbPoint
 10
1.352
 20
4.079
 30
0.0
  0
POINT
  5
F4
330
18
100
AcDbEntity
  8
0
100
AcDbPoint
 10
1.365
 20
4.14
 30
0.0
  0
POINT
  5
F5
330
18
100
AcDbEntity
  8
0
100
AcDbPoint
 10
1.413
 20
4.102
 30
0.0
  0
POINT
  5
F6
330
18
100
AcDbEntity
  8
0
100
AcDbPoint
 10
1.352
 20
4.096
 30
0.0
  0
POINT
  5
F7
330
18
100
AcDbEntity
  8
0
100
AcDbPoint
 10
1.403
 20
4.084
 30
0.0
  0
POINT
  5
F8
330
18
100
AcDbEntity
  8
0
100
AcDbPoint
 10
1.405
 20
4.122
 30
0.0
  0
POINT
  5
F9
330
18
100
AcDbEntity
  8
0
100
AcDbPoint
 10
1.34
 20
4.12
 30
0.0
  0
POINT
  5
FA
330
18
100
AcDbEntity
  8
0
100
AcDbPoint
 10
1.46
 20
4.127
 30
0.0
  0
POINT
  5
FB
330
18
100
AcDbEntity
  8
0
100
AcDbPoint
 10
1.525
 20
4.13
 30
0.0
  0
POINT
  5
FC
330
18
100
AcDbEntity
  8
0
100
AcDbPoint
 10
1.524
 20
4.091
 30
0.0
  0
POINT
  5
FD
330
18
100
AcDbEntity
  8
0
100
AcDbPoint
 10
1.473
 20
4.103
 30
0.0
  0
POINT
  5
FE
330
18
100
AcDbEntity
  8
0
100
AcDbPoint
 10
1.533
 20
4.109
 30
0.0
  0
POINT
  5
FF
330
18
100
AcDbEntity
  8
0
100
AcDbPoint
 10
1.485
 20
4.147
 30
0.0
  0
POINT
  5
100
330
18
100
AcDbEntity
  8
0
100
AcDbPoint
 10
1.473
 20
4.086
 30
0.0
  0
POINT
  5
101
330
18
100
AcDbEntity
  8
0
100
AcDbPoint
 10
1.611
 20
4.093
 30
0.0
  0
POINT
  5
102
330
18
100
AcDbEntity
  8
0
100
AcDbPoint
 10
1.624
 20
4.153000000000001
 30
0.0
  0
POINT
  5
103
330
18
100
AcDbEntity
  8
0
100
AcDbPoint
 10
1.611
 20
4.109
 30
0.0
  0
POINT
  5
104
330
18
100
AcDbEntity
  8
0
100
AcDbPoint
 10
1.598
 20
4.133
 30
0.0
  0
POINT
  5
105
330
18
100
AcDbEntity
  8
0
100
AcDbPoint
 10
1.543
 20
4.129
 30
0.0
  0
POINT
  5
106
330
18
100
AcDbEntity
  8
0
100
AcDbPoint
 10
1.541
 20
4.09
 30
0.0
  0
POINT
  5
107
330
18
100
AcDbEntity
  8
0
100
AcDbPoint
 10
1.551
 20
4.108000000000001
 30
0.0
  0
POINT
  5
108
330
18
100
AcDbEntity
  8
0
100
AcDbPoint
 10
1.688
 20
4.122
 30
0.0
  0
POINT
  5
109
330
18
100
AcDbEntity
  8
0
100
AcDbPoint
 10
1.678
 20
4.104
 30
0.0
  0
POINT
  5
10A
330
18
100
AcDbEntity
  8
0
100
AcDbPoint
 10
1.68
 20
4.143
 30
0.0
  0
POINT
  5
10B
330
18
100
AcDbEntity
  8
0
100
AcDbPoint
 10
1.67
 20
4.123
 30
0.0
  0
POINT
  5
10C
330
18
100
AcDbEntity
  8
0
100
AcDbPoint
 10
1.661
 20
4.106
 30
0.0
  0
POINT
  5
10D
330
18
100
AcDbEntity
  8
0
100
AcDbPoint
 10
1.662
 20
4.144
 30
0.0
  0
POINT
  5
10E
330
18
100
AcDbEntity
  8
0
100
AcDbPoint
 10
1.33
 20
3.975
 30
0.0
  0
POINT
  5
10F
330
18
100
AcDbEntity
  8
0
100
AcDbPoint
 10
1.33
 20
3.992
 30
0.0
  0
POINT
  5
110
330
18
100
AcDbEntity
  8
0
100
AcDbPoint
 10
1.317
 20
4.016
 30
0.0
  0
POINT
  5
111
330
18
100
AcDbEntity
  8
0
100
AcDbPoint
 10
1.262
 20
4.011
 30
0.0
  0
POINT
  5
112
330
18
100
AcDbEntity
  8
0
100
AcDbPoint
 10
1.26
 20
3.973
 30
0.0
  0
POINT
  5
113
330
18
100
AcDbEntity
  8
0
100
AcDbPoint
 10
1.27
 20
3.99
 30
0.0
  0
POINT
  5
114
330
18
100
AcDbEntity
  8
0
100
AcDbPoint
 10
1.232
 20
4.06
 30
0.0
  0
POINT
  5
115
330
18
100
AcDbEntity
  8
0
100
AcDbPoint
 10
1.223
 20
4.043
 30
0.0
  0
POINT
  5
116
330
18
100
AcDbEntity
  8
0
100
AcDbPoint
 10
1.224
 20
4.081
 30
0.0
  0
POINT
  5
117
330
18
100
AcDbEntity
  8
0
100
AcDbPoint
 10
1.275
 20
3.955
 30
0.0
  0
POINT
  5
118
330
18
100
AcDbEntity
  8
0
100
AcDbPoint
 10
1.266
 20
3.938
 30
0.0
  0
POINT
  5
119
330
18
100
AcDbEntity
  8
0
100
AcDbPoint
 10
1.267
 20
3.976
 30
0.0
  0
POINT
  5
11A
330
18
100
AcDbEntity
  8
0
100
AcDbPoint
 10
1.316
 20
3.958
 30
0.0
  0
POINT
  5
11B
330
18
100
AcDbEntity
  8
0
100
AcDbPoint
 10
1.307
 20
3.94
 30
0.0
  0
POINT
  5
11C
330
18
100
AcDbEntity
  8
0
100
AcDbPoint
 10
1.308
 20
3.978
 30
0.0
  0
POINT
  5
11D
330
18
100
AcDbEntity
  8
0
100
AcDbPoint
 10
1.307
 20
3.922
 30
0.0
  0
POINT
  5
11E
330
18
100
AcDbEntity
  8
0
100
AcDbPoint
 10
1.297
 20
3.904
 30
0.0
  0
POINT
  5
11F
330
18
100
AcDbEntity
  8
0
100
AcDbPoint
 10
1.299
 20
3.942
 30
0.0
  0
POINT
  5
120
330
18
100
AcDbEntity
  8
0
100
AcDbPoint
 10
1.281
 20
3.915
 30
0.0
  0
POINT
  5
121
330
18
100
AcDbEntity
  8
0
100
AcDbPoint
 10
1.272
 20
3.897
 30
0.0
  0
POINT
  5
122
330
18
100
AcDbEntity
  8
0
100
AcDbPoint
 10
1.273
 20
3.936
 30
0.0
  0
POINT
  5
123
330
18
100
AcDbEntity
  8
0
100
AcDbPoint
 10
1.232
 20
3.938
 30
0.0
  0
POINT
  5
124
330
18
100
AcDbEntity
  8
0
100
AcDbPoint
 10
1.223
 20
3.92
 30
0.0
  0
POINT
  5
125
330
18
100
AcDbEntity
  8
0
100
AcDbPoint
 10
1.224
 20
3.959
 30
0.0
  0
POINT
  5
126
330
18
100
AcDbEntity
  8
0
100
AcDbPoint
 10
1.24
 20
4.015
 30
0.0
  0
POINT
  5
127
330
18
100
AcDbEntity
  8
0
100
AcDbPoint
 10
1.231
 20
3.997
 30
0.0
  0
POINT
  5
128
330
18
100
AcDbEntity
  8
0
100
AcDbPoint
 10
1.232
 20
4.035
 30
0.0
  0
POINT
  5
129
330
18
100
AcDbEntity
  8
0
100
AcDbPoint
 10
1.261
 20
3.985
 30
0.0
  0
POINT
  5
12A
330
18
100
AcDbEntity
  8
0
100
AcDbPoint
 10
1.252
 20
3.967
 30
0.0
  0
POINT
  5
12B
330
18
100
AcDbEntity
  8
0
100
AcDbPoint
 10
1.253
 20
4.005
 30
0.0
  0
POINT
  5
12C
330
18
100
AcDbEntity
  8
0
100
AcDbPoint
 10
1.279
 20
3.933
 30
0.0
  0
POINT
  5
12D
330
18
100
AcDbEntity
  8
0
100
AcDbPoint
 10
1.27
 20
3.916
 30
0.0
  0
POINT
  5
12E
330
18
100
AcDbEntity
  8
0
100
AcDbPoint
 10
1.271
 20
3.954
 30
0.0
  0
POINT
  5
12F
330
18
100
AcDbEntity
  8
0
100
AcDbPoint
 10
1.309
 20
3.897
 30
0.0
  0
POINT
  5
130
330
18
100
AcDbEntity
  8
0
100
AcDbPoint
 10
1.3
 20
3.88
 30
0.0
  0
POINT
  5
131
330
18
100
AcDbEntity
  8
0
100
AcDbPoint
 10
1.301
 20
3.918
 30
0.0
  0
POINT
  5
132
330
18
100
AcDbEntity
  8
0
100
AcDbPoint
 10
1.317
 20
3.879
 30
0.0
  0
POINT
  5
133
330
18
100
AcDbEntity
  8
0
100
AcDbPoint
 10
1.308
 20
3.861
 30
0.0
  0
POINT
  5
134
330
18
100
AcDbEntity
  8
0
100
AcDbPoint
 10
1.309
 20
3.9
 30
0.0
  0
POINT
  5
135
330
18
100
AcDbEntity
  8
0
100
AcDbPoint
 10
1.286
 20
4.013999999999999
 30
0.0
  0
POINT
  5
136
330
18
100
AcDbEntity
  8
0
100
AcDbPoint
 10
1.276
 20
3.996
 30
0.0
  0
POINT
  5
137
330
18
100
AcDbEntity
  8
0
100
AcDbPoint
 10
1.278
 20
4.034
 30
0.0
  0
POINT
  5
138
330
18
100
AcDbEntity
  8
0
100
AcDbPoint
 10
1.254
 20
4.045
 30
0.0
  0
POINT
  5
139
330
18
100
AcDbEntity
  8
0
100
AcDbPoint
 10
1.245
 20
4.028000000000001
 30
0.0
  0
POINT
  5
13A
330
18
100
AcDbEntity
  8
0
100
AcDbPoint
 10
1.246
 20
4.066
 30
0.0
  0
POINT
  5
13B
330
18
100
AcDbEntity
  8
0
100
AcDbPoint
 10
1.254
 20
3.915
 30
0.0
  0
POINT
  5
13C
330
18
100
AcDbEntity
  8
0
100
AcDbPoint
 10
1.245
 20
3.897
 30
0.0
  0
POINT
  5
13D
330
18
100
AcDbEntity
  8
0
100
AcDbPoint
 10
1.246
 20
3.935
 30
0.0
  0
POINT
  5
13E
330
18
100
AcDbEntity
  8
0
100
AcDbPoint
 10
1.195
 20
3.819
 30
0.0
  0
POINT
  5
13F
330
18
100
AcDbEntity
  8
0
100
AcDbPoint
 10
1.186
 20
3.802
 30
0.0
  0
POINT
  5
140
330
18
100
AcDbEntity
  8
0
100
AcDbPoint
 10
1.187
 20
3.84
 30
0.0
  0
POINT
  5
141
330
18
100
AcDbEntity
  8
0
100
AcDbPoint
 10
1.17
 20
3.657
 30
0.0
  0
POINT
  5
142
330
18
100
AcDbEntity
  8
0
100
AcDbPoint
 10
1.161
 20
3.639
 30
0.0
  0
POINT
  5
143
330
18
100
AcDbEntity
  8
0
100
AcDbPoint
 10
1.162
 20
3.677
 30
0.0
  0
POINT
  5
144
330
18
100
AcDbEntity
  8
0
100
AcDbPoint
 10
1.449
 20
4.051
 30
0.0
  0
POINT
  5
145
330
18
100
AcDbEntity
  8
0
100
AcDbPoint
 10
1.449
 20
4.068000000000001
 30
0.0
  0
POINT
  5
146
330
18
100
AcDbEntity
  8
0
100
AcDbPoint
 10
1.38
 20
4.049
 30
0.0
  0
POINT
  5
147
330
18
100
AcDbEntity
  8
0
100
AcDbPoint
 10
1.329
 20
4.061
 30
0.0
  0
POINT
  5
148
330
18
100
AcDbEntity
  8
0
100
AcDbPoint
 10
1.39
 20
4.067
 30
0.0
  0
POINT
  5
149
330
18
100
AcDbEntity
  8
0
100
AcDbPoint
 10
1.329
 20
4.044
 30
0.0
  0
POINT
  5
14A
330
18
100
AcDbEntity
  8
0
100
AcDbPoint
 10
1.565
 20
4.081
 30
0.0
  0
POINT
  5
14B
330
18
100
AcDbEntity
  8
0
100
AcDbPoint
 10
1.555
 20
4.063
 30
0.0
  0
POINT
  5
14C
330
18
100
AcDbEntity
  8
0
100
AcDbPoint
 10
1.625
 20
4.082
 30
0.0
  0
POINT
  5
14D
330
18
100
AcDbEntity
  8
0
100
AcDbPoint
 10
1.625
 20
4.066
 30
0.0
  0
POINT
  5
14E
330
18
100
AcDbEntity
  8
0
100
AcDbPoint
 10
1.648
 20
4.101
 30
0.0
  0
POINT
  5
14F
330
18
100
AcDbEntity
  8
0
100
AcDbPoint
 10
1.648
 20
4.117
 30
0.0
  0
POINT
  5
150
330
18
100
AcDbEntity
  8
0
100
AcDbPoint
 10
1.635
 20
4.142
 30
0.0
  0
POINT
  5
151
330
18
100
AcDbEntity
  8
0
100
AcDbPoint
 10
1.58
 20
4.137
 30
0.0
  0
POINT
  5
152
330
18
100
AcDbEntity
  8
0
100
AcDbPoint
 10
1.578
 20
4.098
 30
0.0
  0
POINT
  5
153
330
18
100
AcDbEntity
  8
0
100
AcDbPoint
 10
1.527
 20
4.11
 30
0.0
  0
POINT
  5
154
330
18
100
AcDbEntity
  8
0
100
AcDbPoint
 10
1.588
 20
4.116000000000001
 30
0.0
  0
POINT
  5
155
330
18
100
AcDbEntity
  8
0
100
AcDbPoint
 10
1.527
 20
4.093999999999999
 30
0.0
  0
POINT
  5
156
330
18
100
AcDbEntity
  8
0
100
AcDbPoint
 10
1.304
 20
4.086
 30
0.0
  0
POINT
  5
157
330
18
100
AcDbEntity
  8
0
100
AcDbPoint
 10
1.314
 20
4.103
 30
0.0
  0
POINT
  5
158
330
18
100
AcDbEntity
  8
0
100
AcDbPoint
 10
1.661
 20
4.248
 30
0.0
  0
POINT
  5
159
330
18
100
AcDbEntity
  8
0
100
AcDbPoint
 10
1.661
 20
4.265
 30
0.0
  0
POINT
  5
15A
330
18
100
AcDbEntity
  8
0
100
AcDbPoint
 10
1.712
 20
4.253
 30
0.0
  0
POINT
  5
15B
330
18
100
AcDbEntity
  8
0
100
AcDbPoint
 10
1.699
 20
4.236000000000001
 30
0.0
  0
POINT
  5
15C
330
18
100
AcDbEntity
  8
0
100
AcDbPoint
 10
1.685
 20
4.263
 30
0.0
  0
POINT
  5
15D
330
18
100
AcDbEntity
  8
0
100
AcDbPoint
 10
1.675
 20
4.245
 30
0.0
  0
POINT
  5
15E
330
18
100
AcDbEntity
  8
0
100
AcDbPoint
 10
1.667
 20
4.263999999999999
 30
0.0
  0
POINT
  5
15F
330
18
100
AcDbEntity
  8
0
100
AcDbPoint
 10
1.642
 20
4.322
 30
0.0
  0
POINT
  5
160
330
18
100
AcDbEntity
  8
0
100
AcDbPoint
 10
1.636
 20
4.323
 30
0.0
  0
POINT
  5
161
330
18
100
AcDbEntity
  8
0
100
AcDbPoint
 10
1.636
 20
4.306
 30
0.0
  0
POINT
  5
162
330
18
100
AcDbEntity
  8
0
100
AcDbPoint
 10
1.7
 20
4.185
 30
0.0
  0
POINT
  5
163
330
18
100
AcDbEntity
  8
0
100
AcDbPoint
 10
1.7
 20
4.202
 30
0.0
  0
POINT
  5
164
330
18
100
AcDbEntity
  8
0
100
AcDbPoint
 10
1.706
 20
4.201000000000001
 30
0.0
  0
POINT
  5
165
330
18
100
AcDbEntity
  8
0
100
AcDbPoint
 10
1.683
 20
4.227
 30
0.0
  0
POINT
  5
166
330
18
100
AcDbEntity
  8
0
100
AcDbPoint
 10
1.691
 20
4.208
 30
0.0
  0
POINT
  5
167
330
18
100
AcDbEntity
  8
0
100
AcDbPoint
 10
1.701
 20
4.226
 30
0.0
  0
POINT
  5
168
330
18
100
AcDbEntity
  8
0
100
AcDbPoint
 10
1.677
 20
4.228
 30
0.0
  0
POINT
  5
169
330
18
100
AcDbEntity
  8
0
100
AcDbPoint
 10
1.677
 20
4.211
 30
0.0
  0
POINT
  5
16A
330
18
100
AcDbEntity
  8
0
100
AcDbPoint
 10
1.662
 20
4.291
 30
0.0
  0
POINT
  5
16B
330
18
100
AcDbEntity
  8
0
100
AcDbPoint
 10
1.648
 20
4.294
 30
0.0
  0
POINT
  5
16C
330
18
100
AcDbEntity
  8
0
100
AcDbPoint
 10
1.653
 20
4.157
 30
0.0
  0
POINT
  5
16D
330
18
100
AcDbEntity
  8
0
100
AcDbPoint
 10
1.643
 20
4.138999999999999
 30
0.0
  0
POINT
  5
16E
330
18
100
AcDbEntity
  8
0
100
AcDbPoint
 10
1.616
 20
4.149
 30
0.0
  0
POINT
  5
16F
330
18
100
AcDbEntity
  8
0
100
AcDbPoint
 10
1.606
 20
4.131
 30
0.0
  0
POINT
  5
170
330
18
100
AcDbEntity
  8
0
100
AcDbPoint
 10
1.608
 20
4.169
 30
0.0
  0
POINT
  5
171
330
18
100
AcDbEntity
  8
0
100
AcDbPoint
 10
1.488
 20
4.084
 30
0.0
  0
POINT
  5
172
330
18
100
AcDbEntity
  8
0
100
AcDbPoint
 10
1.511
 20
4.103
 30
0.0
  0
POINT
  5
173
330
18
100
AcDbEntity
  8
0
100
AcDbPoint
 10
1.511
 20
4.119
 30
0.0
  0
POINT
  5
174
330
18
100
AcDbEntity
  8
0
100
AcDbPoint
 10
1.498
 20
4.143
 30
0.0
  0
POINT
  5
175
330
18
100
AcDbEntity
  8
0
100
AcDbPoint
 10
2.125
 20
4.869
 30
0.0
  0
POINT
  5
176
330
18
100
AcDbEntity
  8
0
100
AcDbPoint
 10
2.093
 20
4.87
 30
0.0
  0
POINT
  5
177
330
18
100
AcDbEntity
  8
0
100
AcDbPoint
 10
2.152
 20
4.864
 30
0.0
  0
POINT
  5
178
330
18
100
AcDbEntity
  8
0
100
AcDbPoint
 10
2.106
 20
4.898
 30
0.0
  0
POINT
  5
179
330
18
100
AcDbEntity
  8
0
100
AcDbPoint
 10
2.145
 20
4.935
 30
0.0
  0
POINT
  5
17A
330
18
100
AcDbEntity
  8
0
100
AcDbPoint
 10
2.191
 20
4.902
 30
0.0
  0
POINT
  5
17B
330
18
100
AcDbEntity
  8
0
100
AcDbPoint
 10
2.132
 20
4.907
 30
0.0
  0
POINT
  5
17C
330
18
100
AcDbEntity
  8
0
100
AcDbPoint
 10
2.164
 20
4.906000000000001
 30
0.0
  0
POINT
  5
17D
330
18
100
AcDbEntity
  8
0
100
AcDbPoint
 10
2.261
 20
4.964
 30
0.0
  0
POINT
  5
17E
330
18
100
AcDbEntity
  8
0
100
AcDbPoint
 10
2.229
 20
4.965
 30
0.0
  0
POINT
  5
17F
330
18
100
AcDbEntity
  8
0
100
AcDbPoint
 10
2.288
 20
4.959
 30
0.0
  0
POINT
  5
180
330
18
100
AcDbEntity
  8
0
100
AcDbPoint
 10
2.242
 20
4.993
 30
0.0
  0
POINT
  5
181
330
18
100
AcDbEntity
  8
0
100
AcDbPoint
 10
2.203
 20
4.955
 30
0.0
  0
POINT
  5
182
330
18
100
AcDbEntity
  8
0
100
AcDbPoint
 10
2.249
 20
4.922
 30
0.0
  0
POINT
  5
183
330
18
100
AcDbEntity
  8
0
100
AcDbPoint
 10
2.19
 20
4.927
 30
0.0
  0
POINT
  5
184
330
18
100
AcDbEntity
  8
0
100
AcDbPoint
 10
2.222
 20
4.926
 30
0.0
  0
POINT
  5
185
330
18
100
AcDbEntity
  8
0
100
AcDbPoint
 10
2.28
 20
4.924
 30
0.0
  0
POINT
  5
186
330
18
100
AcDbEntity
  8
0
100
AcDbPoint
 10
2.248
 20
4.925
 30
0.0
  0
POINT
  5
187
330
18
100
AcDbEntity
  8
0
100
AcDbPoint
 10
2.307
 20
4.919
 30
0.0
  0
POINT
  5
188
330
18
100
AcDbEntity
  8
0
100
AcDbPoint
 10
2.222
 20
4.916
 30
0.0
  0
POINT
  5
189
330
18
100
AcDbEntity
  8
0
100
AcDbPoint
 10
2.268
 20
4.882
 30
0.0
  0
POINT
  5
18A
330
18
100
AcDbEntity
  8
0
100
AcDbPoint
 10
2.209
 20
4.888
 30
0.0
  0
POINT
  5
18B
330
18
100
AcDbEntity
  8
0
100
AcDbPoint
 10
2.241
 20
4.887
 30
0.0
  0
POINT
  5
18C
330
18
100
AcDbEntity
  8
0
100
AcDbPoint
 10
2.459
 20
4.936
 30
0.0
  0
POINT
  5
18D
330
18
100
AcDbEntity
  8
0
100
AcDbPoint
 10
2.427
 20
4.937
 30
0.0
  0
POINT
  5
18E
330
18
100
AcDbEntity
  8
0
100
AcDbPoint
 10
2.44
 20
4.965
 30
0.0
  0
POINT
  5
18F
330
18
100
AcDbEntity
  8
0
100
AcDbPoint
 10
2.44
 20
4.976
 30
0.0
  0
POINT
  5
190
330
18
100
AcDbEntity
  8
0
100
AcDbPoint
 10
2.408
 20
4.977
 30
0.0
  0
POINT
  5
191
330
18
100
AcDbEntity
  8
0
100
AcDbPoint
 10
2.382
 20
4.956
 30
0.0
  0
POINT
  5
192
330
18
100
AcDbEntity
  8
0
100
AcDbPoint
 10
2.35
 20
4.957
 30
0.0
  0
POINT
  5
193
330
18
100
AcDbEntity
  8
0
100
AcDbPoint
 10
2.409
 20
4.951000000000001
 30
0.0
  0
POINT
  5
194
330
18
100
AcDbEntity
  8
0
100
AcDbPoint
 10
2.363
 20
4.985
 30
0.0
  0
POINT
  5
195
330
18
100
AcDbEntity
  8
0
100
AcDbPoint
 10
2.343
 20
4.919
 30
0.0
  0
POINT
  5
196
330
18
100
AcDbEntity
  8
0
100
AcDbPoint
 10
2.561
 20
4.976
 30
0.0
  0
POINT
  5
197
330
18
100
AcDbEntity
  8
0
100
AcDbPoint
 10
2.582
 20
5.042
 30
0.0
  0
POINT
  5
198
330
18
100
AcDbEntity
  8
0
100
AcDbPoint
 10
2.627
 20
5.008
 30
0.0
  0
POINT
  5
199
330
18
100
AcDbEntity
  8
0
100
AcDbPoint
 10
2.568
 20
5.013999999999999
 30
0.0
  0
POINT
  5
19A
330
18
100
AcDbEntity
  8
0
100
AcDbPoint
 10
2.601
 20
5.013
 30
0.0
  0
POINT
  5
19B
330
18
100
AcDbEntity
  8
0
100
AcDbPoint
 10
2.626
 20
5.034
 30
0.0
  0
POINT
  5
19C
330
18
100
AcDbEntity
  8
0
100
AcDbPoint
 10
2.659
 20
5.033
 30
0.0
  0
POINT
  5
19D
330
18
100
AcDbEntity
  8
0
100
AcDbPoint
 10
2.659
 20
5.022
 30
0.0
  0
POINT
  5
19E
330
18
100
AcDbEntity
  8
0
100
AcDbPoint
 10
2.645
 20
4.994
 30
0.0
  0
POINT
  5
19F
330
18
100
AcDbEntity
  8
0
100
AcDbPoint
 10
2.677
 20
4.993
 30
0.0
  0
POINT
  5
1A0
330
18
100
AcDbEntity
  8
0
100
AcDbPoint
 10
2.459
 20
4.943000000000001
 30
0.0
  0
POINT
  5
1A1
330
18
100
AcDbEntity
  8
0
100
AcDbPoint
 10
2.486
 20
4.939
 30
0.0
  0
POINT
  5
1A2
330
18
100
AcDbEntity
  8
0
100
AcDbPoint
 10
2.44
 20
4.972
 30
0.0
  0
POINT
  5
1A3
330
18
100
AcDbEntity
  8
0
100
AcDbPoint
 10
2.525
 20
4.976
 30
0.0
  0
POINT
  5
1A4
330
18
100
AcDbEntity
  8
0
100
AcDbPoint
 10
2.466
 20
4.982
 30
0.0
  0
POINT
  5
1A5
330
18
100
AcDbEntity
  8
0
100
AcDbPoint
 10
2.498
 20
4.981
 30
0.0
  0
POINT
  5
1A6
330
18
100
AcDbEntity
  8
0
100
AcDbPoint
 10
2.44
 20
4.983000000000001
 30
0.0
  0
POINT
  5
1A7
330
18
100
AcDbEntity
  8
0
100
AcDbPoint
 10
2.467
 20
4.978
 30
0.0
  0
POINT
  5
1A8
330
18
100
AcDbEntity
  8
0
100
AcDbPoint
 10
2.461
 20
5.049
 30
0.0
  0
POINT
  5
1A9
330
18
100
AcDbEntity
  8
0
100
AcDbPoint
 10
2.506
 20
5.016
 30
0.0
  0
POINT
  5
1AA
330
18
100
AcDbEntity
  8
0
100
AcDbPoint
 10
2.447
 20
5.021
 30
0.0
  0
POINT
  5
1AB
330
18
100
AcDbEntity
  8
0
100
AcDbPoint
 10
2.48
 20
5.02
 30
0.0
  0
POINT
  5
1AC
330
18
100
AcDbEntity
  8
0
100
AcDbPoint
 10
2.854
 20
5.035
 30
0.0
  0
POINT
  5
1AD
330
18
100
AcDbEntity
  8
0
100
AcDbPoint
 10
2.874
 20
5.102
 30
0.0
  0
POINT
  5
1AE
330
18
100
AcDbEntity
  8
0
100
AcDbPoint
 10
2.92
 20
5.068000000000001
 30
0.0
  0
POINT
  5
1AF
330
18
100
AcDbEntity
  8
0
100
AcDbPoint
 10
2.861
 20
5.074
 30
0.0
  0
POINT
  5
1B0
330
18
100
AcDbEntity
  8
0
100
AcDbPoint
 10
2.893
 20
5.073
 30
0.0
  0
POINT
  5
1B1
330
18
100
AcDbEntity
  8
0
100
AcDbPoint
 10
2.919
 20
5.093999999999999
 30
0.0
  0
POINT
  5
1B2
330
18
100
AcDbEntity
  8
0
100
AcDbPoint
 10
2.951
 20
5.093
 30
0.0
  0
POINT
  5
1B3
330
18
100
AcDbEntity
  8
0
100
AcDbPoint
 10
2.951
 20
5.082
 30
0.0
  0
POINT
  5
1B4
330
18
100
AcDbEntity
  8
0
100
AcDbPoint
 10
2.938
 20
5.053999999999999
 30
0.0
  0
POINT
  5
1B5
330
18
100
AcDbEntity
  8
0
100
AcDbPoint
 10
2.97
 20
5.053
 30
0.0
  0
POINT
  5
1B6
330
18
100
AcDbEntity
  8
0
100
AcDbPoint
 10
2.752
 20
5.003
 30
0.0
  0
POINT
  5
1B7
330
18
100
AcDbEntity
  8
0
100
AcDbPoint
 10
2.779
 20
4.998
 30
0.0
  0
POINT
  5
1B8
330
18
100
AcDbEntity
  8
0
100
AcDbPoint
 10
2.733
 20
5.032
 30
0.0
  0
POINT
  5
1B9
330
18
100
AcDbEntity
  8
0
100
AcDbPoint
 10
2.818
 20
5.035
 30
0.0
  0
POINT
  5
1BA
330
18
100
AcDbEntity
  8
0
100
AcDbPoint
 10
2.759
 20
5.041
 30
0.0
  0
POINT
  5
1BB
330
18
100
AcDbEntity
  8
0
100
AcDbPoint
 10
2.791
 20
5.04
 30
0.0
  0
POINT
  5
1BC
330
18
100
AcDbEntity
  8
0
100
AcDbPoint
 10
2.733
 20
5.043
 30
0.0
  0
POINT
  5
1BD
330
18
100
AcDbEntity
  8
0
100
AcDbPoint
 10
2.76
 20
5.038
 30
0.0
  0
POINT
  5
1BE
330
18
100
AcDbEntity
  8
0
100
AcDbPoint
 10
2.753
 20
5.109
 30
0.0
  0
POINT
  5
1BF
330
18
100
AcDbEntity
  8
0
100
AcDbPoint
 10
2.799
 20
5.075
 30
0.0
  0
POINT
  5
1C0
330
18
100
AcDbEntity
  8
0
100
AcDbPoint
 10
2.74
 20
5.081
 30
0.0
  0
POINT
  5
1C1
330
18
100
AcDbEntity
  8
0
100
AcDbPoint
 10
2.772
 20
5.08
 30
0.0
  0
POINT
  5
1C2
330
18
100
AcDbEntity
  8
0
100
AcDbPoint
 10
3.025
 20
5.078
 30
0.0
  0
POINT
  5
1C3
330
18
100
AcDbEntity
  8
0
100
AcDbPoint
 10
3.045
 20
5.144
 30
0.0
  0
POINT
  5
1C4
330
18
100
AcDbEntity
  8
0
100
AcDbPoint
 10
3.091
 20
5.11
 30
0.0
  0
POINT
  5
1C5
330
18
100
AcDbEntity
  8
0
100
AcDbPoint
 10
3.032
 20
5.116000000000001
 30
0.0
  0
POINT
  5
1C6
330
18
100
AcDbEntity
  8
0
100
AcDbPoint
 10
3.064
 20
5.115
 30
0.0
  0
POINT
  5
1C7
330
18
100
AcDbEntity
  8
0
100
AcDbPoint
 10
3.09
 20
5.136
 30
0.0
  0
POINT
  5
1C8
330
18
100
AcDbEntity
  8
0
100
AcDbPoint
 10
3.122
 20
5.135
 30
0.0
  0
POINT
  5
1C9
330
18
100
AcDbEntity
  8
0
100
AcDbPoint
 10
3.122
 20
5.124
 30
0.0
  0
POINT
  5
1CA
330
18
100
AcDbEntity
  8
0
100
AcDbPoint
 10
3.109
 20
5.096
 30
0.0
  0
POINT
  5
1CB
330
18
100
AcDbEntity
  8
0
100
AcDbPoint
 10
3.141
 20
5.095
 30
0.0
  0
POINT
  5
1CC
330
18
100
AcDbEntity
  8
0
100
AcDbPoint
 10
2.923
 20
5.045
 30
0.0
  0
POINT
  5
1CD
330
18
100
AcDbEntity
  8
0
100
AcDbPoint
 10
2.95
 20
5.04
 30
0.0
  0
POINT
  5
1CE
330
18
100
AcDbEntity
  8
0
100
AcDbPoint
 10
2.904
 20
5.074
 30
0.0
  0
POINT
  5
1CF
330
18
100
AcDbEntity
  8
0
100
AcDbPoint
 10
2.989
 20
5.078
 30
0.0
  0
POINT
  5
1D0
330
18
100
AcDbEntity
  8
0
100
AcDbPoint
 10
2.93
 20
5.083
 30
0.0
  0
POINT
  5
1D1
330
18
100
AcDbEntity
  8
0
100
AcDbPoint
 10
2.962
 20
5.082
 30
0.0
  0
POINT
  5
1D2
330
18
100
AcDbEntity
  8
0
100
AcDbPoint
 10
2.904
 20
5.085
 30
0.0
  0
POINT
  5
1D3
330
18
100
AcDbEntity
  8
0
100
AcDbPoint
 10
2.931
 20
5.08
 30
0.0
  0
POINT
  5
1D4
330
18
100
AcDbEntity
  8
0
100
AcDbPoint
 10
2.924
 20
5.151
 30
0.0
  0
POINT
  5
1D5
330
18
100
AcDbEntity
  8
0
100
AcDbPoint
 10
2.97
 20
5.117
 30
0.0
  0
POINT
  5
1D6
330
18
100
AcDbEntity
  8
0
100
AcDbPoint
 10
2.911
 20
5.122999999999999
 30
0.0
  0
POINT
  5
1D7
330
18
100
AcDbEntity
  8
0
100
AcDbPoint
 10
2.943
 20
5.122000000000001
 30
0.0
  0
POINT
  5
1D8
330
18
100
AcDbEntity
  8
0
100
AcDbPoint
 10
3.275
 20
5.126
 30
0.0
  0
POINT
  5
1D9
330
18
100
AcDbEntity
  8
0
100
AcDbPoint
 10
3.296
 20
5.192
 30
0.0
  0
POINT
  5
1DA
330
18
100
AcDbEntity
  8
0
100
AcDbPoint
 10
3.341
 20
5.158
 30
0.0
  0
POINT
  5
1DB
330
18
100
AcDbEntity
  8
0
100
AcDbPoint
 10
3.282
 20
5.164
 30
0.0
  0
POINT
  5
1DC
330
18
100
AcDbEntity
  8
0
100
AcDbPoint
 10
3.314
 20
5.162999999999999
 30
0.0
  0
POINT
  5
1DD
330
18
100
AcDbEntity
  8
0
100
AcDbPoint
 10
3.34
 20
5.184
 30
0.0
  0
POINT
  5
1DE
330
18
100
AcDbEntity
  8
0
100
AcDbPoint
 10
3.373
 20
5.183
 30
0.0
  0
POINT
  5
1DF
330
18
100
AcDbEntity
  8
0
100
AcDbPoint
 10
3.373
 20
5.172000000000001
 30
0.0
  0
POINT
  5
1E0
330
18
100
AcDbEntity
  8
0
100
AcDbPoint
 10
3.359
 20
5.144
 30
0.0
  0
POINT
  5
1E1
330
18
100
AcDbEntity
  8
0
100
AcDbPoint
 10
3.391
 20
5.143
 30
0.0
  0
POINT
  5
1E2
330
18
100
AcDbEntity
  8
0
100
AcDbPoint
 10
3.173
 20
5.093
 30
0.0
  0
POINT
  5
1E3
330
18
100
AcDbEntity
  8
0
100
AcDbPoint
 10
3.2
 20
5.089
 30
0.0
  0
POINT
  5
1E4
330
18
100
AcDbEntity
  8
0
100
AcDbPoint
 10
3.154
 20
5.122000000000001
 30
0.0
  0
POINT
  5
1E5
330
18
100
AcDbEntity
  8
0
100
AcDbPoint
 10
3.239
 20
5.126
 30
0.0
  0
POINT
  5
1E6
330
18
100
AcDbEntity
  8
0
100
AcDbPoint
 10
3.18
 20
5.132000000000001
 30
0.0
  0
POINT
  5
1E7
330
18
100
AcDbEntity
  8
0
100
AcDbPoint
 10
3.212
 20
5.131
 30
0.0
  0
POINT
  5
1E8
330
18
100
AcDbEntity
  8
0
100
AcDbPoint
 10
3.154
 20
5.132999999999999
 30
0.0
  0
POINT
  5
1E9
330
18
100
AcDbEntity
  8
0
100
AcDbPoint
 10
3.181
 20
5.127999999999999
 30
0.0
  0
POINT
  5
1EA
330
18
100
AcDbEntity
  8
0
100
AcDbPoint
 10
3.175
 20
5.199
 30
0.0
  0
POINT
  5
1EB
330
18
100
AcDbEntity
  8
0
100
AcDbPoint
 10
3.22
 20
5.166
 30
0.0
  0
POINT
  5
1EC
330
18
100
AcDbEntity
  8
0
100
AcDbPoint
 10
3.161
 20
5.171
 30
0.0
  0
POINT
  5
1ED
330
18
100
AcDbEntity
  8
0
100
AcDbPoint
 10
3.193
 20
5.17
 30
0.0
  0
POINT
  5
1EE
330
18
100
AcDbEntity
  8
0
100
AcDbPoint
 10
3.521
 20
5.193
 30
0.0
  0
POINT
  5
1EF
330
18
100
AcDbEntity
  8
0
100
AcDbPoint
 10
3.542
 20
5.26
 30
0.0
  0
POINT
  5
1F0
330
18
100
AcDbEntity
  8
0
100
AcDbPoint
 10
3.588
 20
5.226
 30
0.0
  0
POINT
  5
1F1
330
18
100
AcDbEntity
  8
0
100
AcDbPoint
 10
3.528
 20
5.232
 30
0.0
  0
POINT
  5
1F2
330
18
100
AcDbEntity
  8
0
100
AcDbPoint
 10
3.561
 20
5.231
 30
0.0
  0
POINT
  5
1F3
330
18
100
AcDbEntity
  8
0
100
AcDbPoint
 10
3.586
 20
5.252000000000001
 30
0.0
  0
POINT
  5
1F4
330
18
100
AcDbEntity
  8
0
100
AcDbPoint
 10
3.619
 20
5.251
 30
0.0
  0
POINT
  5
1F5
330
18
100
AcDbEntity
  8
0
100
AcDbPoint
 10
3.619
 20
5.24
 30
0.0
  0
POINT
  5
1F6
330
18
100
AcDbEntity
  8
0
100
AcDbPoint
 10
3.605
 20
5.212000000000001
 30
0.0
  0
POINT
  5
1F7
330
18
100
AcDbEntity
  8
0
100
AcDbPoint
 10
3.638
 20
5.211
 30
0.0
  0
POINT
  5
1F8
330
18
100
AcDbEntity
  8
0
100
AcDbPoint
 10
3.419
 20
5.161000000000001
 30
0.0
  0
POINT
  5
1F9
330
18
100
AcDbEntity
  8
0
100
AcDbPoint
 10
3.446
 20
5.156000000000001
 30
0.0
  0
POINT
  5
1FA
330
18
100
AcDbEntity
  8
0
100
AcDbPoint
 10
3.4
 20
5.19
 30
0.0
  0
POINT
  5
1FB
330
18
100
AcDbEntity
  8
0
100
AcDbPoint
 10
3.485
 20
5.193
 30
0.0
  0
POINT
  5
1FC
330
18
100
AcDbEntity
  8
0
100
AcDbPoint
 10
3.426
 20
5.199
 30
0.0
  0
POINT
  5
1FD
330
18
100
AcDbEntity
  8
0
100
AcDbPoint
 10
3.459
 20
5.198
 30
0.0
  0
POINT
  5
1FE
330
18
100
AcDbEntity
  8
0
100
AcDbPoint
 10
3.4
 20
5.201000000000001
 30
0.0
  0
POINT
  5
1FF
330
18
100
AcDbEntity
  8
0
100
AcDbPoint
 10
3.427
 20
5.196000000000001
 30
0.0
  0
POINT
  5
200
330
18
100
AcDbEntity
  8
0
100
AcDbPoint
 10
3.421
 20
5.267
 30
0.0
  0
POINT
  5
201
330
18
100
AcDbEntity
  8
0
100
AcDbPoint
 10
3.467
 20
5.233
 30
0.0
  0
POINT
  5
202
330
18
100
AcDbEntity
  8
0
100
AcDbPoint
 10
3.407
 20
5.239
 30
0.0
  0
POINT
  5
203
330
18
100
AcDbEntity
  8
0
100
AcDbPoint
 10
3.44
 20
5.238
 30
0.0
  0
POINT
  5
204
330
18
100
AcDbEntity
  8
0
100
AcDbPoint
 10
3.723
 20
5.247000000000001
 30
0.0
  0
POINT
  5
205
330
18
100
AcDbEntity
  8
0
100
AcDbPoint
 10
3.743
 20
5.313
 30
0.0
  0
POINT
  5
206
330
18
100
AcDbEntity
  8
0
100
AcDbPoint
 10
3.789
 20
5.279
 30
0.0
  0
POINT
  5
207
330
18
100
AcDbEntity
  8
0
100
AcDbPoint
 10
3.729
 20
5.285
 30
0.0
  0
POINT
  5
208
330
18
100
AcDbEntity
  8
0
100
AcDbPoint
 10
3.762
 20
5.284
 30
0.0
  0
POINT
  5
209
330
18
100
AcDbEntity
  8
0
100
AcDbPoint
 10
3.788
 20
5.305
 30
0.0
  0
POINT
  5
20A
330
18
100
AcDbEntity
  8
0
100
AcDbPoint
 10
3.82
 20
5.303999999999999
 30
0.0
  0
POINT
  5
20B
330
18
100
AcDbEntity
  8
0
100
AcDbPoint
 10
3.82
 20
5.292999999999999
 30
0.0
  0
POINT
  5
20C
330
18
100
AcDbEntity
  8
0
100
AcDbPoint
 10
3.806
 20
5.265
 30
0.0
  0
POINT
  5
20D
330
18
100
AcDbEntity
  8
0
100
AcDbPoint
 10
3.839
 20
5.263999999999999
 30
0.0
  0
POINT
  5
20E
330
18
100
AcDbEntity
  8
0
100
AcDbPoint
 10
3.62
 20
5.215
 30
0.0
  0
POINT
  5
20F
330
18
100
AcDbEntity
  8
0
100
AcDbPoint
 10
3.647
 20
5.21
 30
0.0
  0
POINT
  5
210
330
18
100
AcDbEntity
  8
0
100
AcDbPoint
 10
3.602
 20
5.244
 30
0.0
  0
POINT
  5
211
330
18
100
AcDbEntity
  8
0
100
AcDbPoint
 10
3.687
 20
5.247000000000001
 30
0.0
  0
POINT
  5
212
330
18
100
AcDbEntity
  8
0
100
AcDbPoint
 10
3.627
 20
5.252999999999999
 30
0.0
  0
POINT
  5
213
330
18
100
AcDbEntity
  8
0
100
AcDbPoint
 10
3.66
 20
5.252000000000001
 30
0.0
  0
POINT
  5
214
330
18
100
AcDbEntity
  8
0
100
AcDbPoint
 10
3.602
 20
5.254
 30
0.0
  0
POINT
  5
215
330
18
100
AcDbEntity
  8
0
100
AcDbPoint
 10
3.628
 20
5.249
 30
0.0
  0
POINT
  5
216
330
18
100
AcDbEntity
  8
0
100
AcDbPoint
 10
3.668
 20
5.287000000000001
 30
0.0
  0
POINT
  5
217
330
18
100
AcDbEntity
  8
0
100
AcDbPoint
 10
3.608
 20
5.292000000000001
 30
0.0
  0
POINT
  5
218
330
18
100
AcDbEntity
  8
0
100
AcDbPoint
 10
3.641
 20
5.291
 30
0.0
  0
POINT
  5
219
330
18
100
AcDbEntity
  8
0
100
AcDbPoint
 10
4.006
 20
5.29
 30
0.0
  0
POINT
  5
21A
330
18
100
AcDbEntity
  8
0
100
AcDbPoint
 10
4.026
 20
5.357
 30
0.0
  0
POINT
  5
21B
330
18
100
AcDbEntity
  8
0
100
AcDbPoint
 10
4.072
 20
5.323
 30
0.0
  0
POINT
  5
21C
330
18
100
AcDbEntity
  8
0
100
AcDbPoint
 10
4.013
 20
5.329
 30
0.0
  0
POINT
  5
21D
330
18
100
AcDbEntity
  8
0
100
AcDbPoint
 10
4.045
 20
5.327999999999999
 30
0.0
  0
POINT
  5
21E
330
18
100
AcDbEntity
  8
0
100
AcDbPoint
 10
4.071000000000001
 20
5.349
 30
0.0
  0
POINT
  5
21F
330
18
100
AcDbEntity
  8
0
100
AcDbPoint
 10
4.103
 20
5.347
 30
0.0
  0
POINT
  5
220
330
18
100
AcDbEntity
  8
0
100
AcDbPoint
 10
4.103
 20
5.337000000000001
 30
0.0
  0
POINT
  5
221
330
18
100
AcDbEntity
  8
0
100
AcDbPoint
 10
4.09
 20
5.309
 30
0.0
  0
POINT
  5
222
330
18
100
AcDbEntity
  8
0
100
AcDbPoint
 10
4.122
 20
5.308
 30
0.0
  0
POINT
  5
223
330
18
100
AcDbEntity
  8
0
100
AcDbPoint
 10
3.904
 20
5.257999999999999
 30
0.0
  0
POINT
  5
224
330
18
100
AcDbEntity
  8
0
100
AcDbPoint
 10
3.931
 20
5.252999999999999
 30
0.0
  0
POINT
  5
225
330
18
100
AcDbEntity
  8
0
100
AcDbPoint
 10
3.885
 20
5.287000000000001
 30
0.0
  0
POINT
  5
226
330
18
100
AcDbEntity
  8
0
100
AcDbPoint
 10
3.97
 20
5.29
 30
0.0
  0
POINT
  5
227
330
18
100
AcDbEntity
  8
0
100
AcDbPoint
 10
3.911
 20
5.296
 30
0.0
  0
POINT
  5
228
330
18
100
AcDbEntity
  8
0
100
AcDbPoint
 10
3.943
 20
5.295
 30
0.0
  0
POINT
  5
229
330
18
100
AcDbEntity
  8
0
100
AcDbPoint
 10
3.885
 20
5.297999999999999
 30
0.0
  0
POINT
  5
22A
330
18
100
AcDbEntity
  8
0
100
AcDbPoint
 10
3.912
 20
5.292999999999999
 30
0.0
  0
POINT
  5
22B
330
18
100
AcDbEntity
  8
0
100
AcDbPoint
 10
3.905
 20
5.364
 30
0.0
  0
POINT
  5
22C
330
18
100
AcDbEntity
  8
0
100
AcDbPoint
 10
3.951
 20
5.33
 30
0.0
  0
POINT
  5
22D
330
18
100
AcDbEntity
  8
0
100
AcDbPoint
 10
3.892
 20
5.336
 30
0.0
  0
POINT
  5
22E
330
18
100
AcDbEntity
  8
0
100
AcDbPoint
 10
3.924
 20
5.335
 30
0.0
  0
POINT
  5
22F
330
18
100
AcDbEntity
  8
0
100
AcDbPoint
 10
4.247
 20
5.357
 30
0.0
  0
POINT
  5
230
330
18
100
AcDbEntity
  8
0
100
AcDbPoint
 10
4.268
 20
5.424
 30
0.0
  0
POINT
  5
231
330
18
100
AcDbEntity
  8
0
100
AcDbPoint
 10
4.313
 20
5.39
 30
0.0
  0
POINT
  5
232
330
18
100
AcDbEntity
  8
0
100
AcDbPoint
 10
4.254
 20
5.396
 30
0.0
  0
POINT
  5
233
330
18
100
AcDbEntity
  8
0
100
AcDbPoint
 10
4.286000000000001
 20
5.395
 30
0.0
  0
POINT
  5
234
330
18
100
AcDbEntity
  8
0
100
AcDbPoint
 10
4.312
 20
5.416
 30
0.0
  0
POINT
  5
235
330
18
100
AcDbEntity
  8
0
100
AcDbPoint
 10
4.343999999999999
 20
5.415
 30
0.0
  0
POINT
  5
236
330
18
100
AcDbEntity
  8
0
100
AcDbPoint
 10
4.345
 20
5.404
 30
0.0
  0
POINT
  5
237
330
18
100
AcDbEntity
  8
0
100
AcDbPoint
 10
4.331
 20
5.376
 30
0.0
  0
POINT
  5
238
330
18
100
AcDbEntity
  8
0
100
AcDbPoint
 10
4.363
 20
5.375
 30
0.0
  0
POINT
  5
239
330
18
100
AcDbEntity
  8
0
100
AcDbPoint
 10
4.145
 20
5.325
 30
0.0
  0
POINT
  5
23A
330
18
100
AcDbEntity
  8
0
100
AcDbPoint
 10
4.172
 20
5.32
 30
0.0
  0
POINT
  5
23B
330
18
100
AcDbEntity
  8
0
100
AcDbPoint
 10
4.126
 20
5.354
 30
0.0
  0
POINT
  5
23C
330
18
100
AcDbEntity
  8
0
100
AcDbPoint
 10
4.211
 20
5.357
 30
0.0
  0
POINT
  5
23D
330
18
100
AcDbEntity
  8
0
100
AcDbPoint
 10
4.152
 20
5.363
 30
0.0
  0
POINT
  5
23E
330
18
100
AcDbEntity
  8
0
100
AcDbPoint
 10
4.184
 20
5.362
 30
0.0
  0
POINT
  5
23F
330
18
100
AcDbEntity
  8
0
100
AcDbPoint
 10
4.126
 20
5.365
 30
0.0
  0
POINT
  5
240
330
18
100
AcDbEntity
  8
0
100
AcDbPoint
 10
4.153000000000001
 20
5.36
 30
0.0
  0
POINT
  5
241
330
18
100
AcDbEntity
  8
0
100
AcDbPoint
 10
4.147
 20
5.431
 30
0.0
  0
POINT
  5
242
330
18
100
AcDbEntity
  8
0
100
AcDbPoint
 10
4.192
 20
5.397
 30
0.0
  0
POINT
  5
243
330
18
100
AcDbEntity
  8
0
100
AcDbPoint
 10
4.133
 20
5.403
 30
0.0
  0
POINT
  5
244
330
18
100
AcDbEntity
  8
0
100
AcDbPoint
 10
4.165
 20
5.402
 30
0.0
  0
POINT
  5
245
330
18
100
AcDbEntity
  8
0
100
AcDbPoint
 10
4.53
 20
5.417999999999999
 30
0.0
  0
POINT
  5
246
330
18
100
AcDbEntity
  8
0
100
AcDbPoint
 10
4.55
 20
5.484
 30
0.0
  0
POINT
  5
247
330
18
100
AcDbEntity
  8
0
100
AcDbPoint
 10
4.596
 20
5.45
 30
0.0
  0
POINT
  5
248
330
18
100
AcDbEntity
  8
0
100
AcDbPoint
 10
4.537
 20
5.456
 30
0.0
  0
POINT
  5
249
330
18
100
AcDbEntity
  8
0
100
AcDbPoint
 10
4.569
 20
5.455
 30
0.0
  0
POINT
  5
24A
330
18
100
AcDbEntity
  8
0
100
AcDbPoint
 10
4.595
 20
5.476
 30
0.0
  0
POINT
  5
24B
330
18
100
AcDbEntity
  8
0
100
AcDbPoint
 10
4.627
 20
5.475
 30
0.0
  0
POINT
  5
24C
330
18
100
AcDbEntity
  8
0
100
AcDbPoint
 10
4.627
 20
5.464
 30
0.0
  0
POINT
  5
24D
330
18
100
AcDbEntity
  8
0
100
AcDbPoint
 10
4.614
 20
5.436
 30
0.0
  0
POINT
  5
24E
330
18
100
AcDbEntity
  8
0
100
AcDbPoint
 10
4.646
 20
5.435
 30
0.0
  0
POINT
  5
24F
330
18
100
AcDbEntity
  8
0
100
AcDbPoint
 10
4.428
 20
5.386
 30
0.0
  0
POINT
  5
250
330
18
100
AcDbEntity
  8
0
100
AcDbPoint
 10
4.455
 20
5.381
 30
0.0
  0
POINT
  5
251
330
18
100
AcDbEntity
  8
0
100
AcDbPoint
 10
4.409
 20
5.415
 30
0.0
  0
POINT
  5
252
330
18
100
AcDbEntity
  8
0
100
AcDbPoint
 10
4.494
 20
5.417999999999999
 30
0.0
  0
POINT
  5
253
330
18
100
AcDbEntity
  8
0
100
AcDbPoint
 10
4.435
 20
5.424
 30
0.0
  0
POINT
  5
254
330
18
100
AcDbEntity
  8
0
100
AcDbPoint
 10
4.467
 20
5.422999999999999
 30
0.0
  0
POINT
  5
255
330
18
100
AcDbEntity
  8
0
100
AcDbPoint
 10
4.409
 20
5.425
 30
0.0
  0
POINT
  5
256
330
18
100
AcDbEntity
  8
0
100
AcDbPoint
 10
4.436
 20
5.421
 30
0.0
  0
POINT
  5
257
330
18
100
AcDbEntity
  8
0
100
AcDbPoint
 10
4.428999999999999
 20
5.492000000000001
 30
0.0
  0
POINT
  5
258
330
18
100
AcDbEntity
  8
0
100
AcDbPoint
 10
4.475
 20
5.457999999999999
 30
0.0
  0
POINT
  5
259
330
18
100
AcDbEntity
  8
0
100
AcDbPoint
 10
4.416
 20
5.464
 30
0.0
  0
POINT
  5
25A
330
18
100
AcDbEntity
  8
0
100
AcDbPoint
 10
4.448
 20
5.462999999999999
 30
0.0
  0
POINT
  5
25B
330
18
100
AcDbEntity
  8
0
100
AcDbPoint
 10
4.821000000000001
 20
5.487
 30
0.0
  0
POINT
  5
25C
330
18
100
AcDbEntity
  8
0
100
AcDbPoint
 10
4.842
 20
5.553
 30
0.0
  0
POINT
  5
25D
330
18
100
AcDbEntity
  8
0
100
AcDbPoint
 10
4.887
 20
5.52
 30
0.0
  0
POINT
  5
25E
330
18
100
AcDbEntity
  8
0
100
AcDbPoint
 10
4.828
 20
5.525
 30
0.0
  0
POINT
  5
25F
330
18
100
AcDbEntity
  8
0
100
AcDbPoint
 10
4.861000000000001
 20
5.524
 30
0.0
  0
POINT
  5
260
330
18
100
AcDbEntity
  8
0
100
AcDbPoint
 10
4.886
 20
5.545
 30
0.0
  0
POINT
  5
261
330
18
100
AcDbEntity
  8
0
100
AcDbPoint
 10
4.919
 20
5.544
 30
0.0
  0
POINT
  5
262
330
18
100
AcDbEntity
  8
0
100
AcDbPoint
 10
4.919
 20
5.534
 30
0.0
  0
POINT
  5
263
330
18
100
AcDbEntity
  8
0
100
AcDbPoint
 10
4.905
 20
5.506
 30
0.0
  0
POINT
  5
264
330
18
100
AcDbEntity
  8
0
100
AcDbPoint
 10
4.938
 20
5.505
 30
0.0
  0
POINT
  5
265
330
18
100
AcDbEntity
  8
0
100
AcDbPoint
 10
4.718999999999999
 20
5.455
 30
0.0
  0
POINT
  5
266
330
18
100
AcDbEntity
  8
0
100
AcDbPoint
 10
4.746
 20
5.45
 30
0.0
  0
POINT
  5
267
330
18
100
AcDbEntity
  8
0
100
AcDbPoint
 10
4.7
 20
5.484
 30
0.0
  0
POINT
  5
268
330
18
100
AcDbEntity
  8
0
100
AcDbPoint
 10
4.785
 20
5.487
 30
0.0
  0
POINT
  5
269
330
18
100
AcDbEntity
  8
0
100
AcDbPoint
 10
4.726
 20
5.492999999999999
 30
0.0
  0
POINT
  5
26A
330
18
100
AcDbEntity
  8
0
100
AcDbPoint
 10
4.758
 20
5.492000000000001
 30
0.0
  0
POINT
  5
26B
330
18
100
AcDbEntity
  8
0
100
AcDbPoint
 10
4.7
 20
5.495
 30
0.0
  0
POINT
  5
26C
330
18
100
AcDbEntity
  8
0
100
AcDbPoint
 10
4.727
 20
5.49
 30
0.0
  0
POINT
  5
26D
330
18
100
AcDbEntity
  8
0
100
AcDbPoint
 10
4.721
 20
5.561
 30
0.0
  0
POINT
  5
26E
330
18
100
AcDbEntity
  8
0
100
AcDbPoint
 10
4.766
 20
5.527
 30
0.0
  0
POINT
  5
26F
330
18
100
AcDbEntity
  8
0
100
AcDbPoint
 10
4.707
 20
5.533
 30
0.0
  0
POINT
  5
270
330
18
100
AcDbEntity
  8
0
100
AcDbPoint
 10
4.74
 20
5.532
 30
0.0
  0
POINT
  5
271
330
18
100
AcDbEntity
  8
0
100
AcDbPoint
 10
6.077000000000001
 20
5.851
 30
0.0
  0
POINT
  5
272
330
18
100
AcDbEntity
  8
0
100
AcDbPoint
 10
6.044
 20
5.853
 30
0.0
  0
POINT
  5
273
330
18
100
AcDbEntity
  8
0
100
AcDbPoint
 10
6.103
 20
5.847
 30
0.0
  0
POINT
  5
274
330
18
100
AcDbEntity
  8
0
100
AcDbPoint
 10
6.064
 20
5.81
 30
0.0
  0
POINT
  5
275
330
18
100
AcDbEntity
  8
0
100
AcDbPoint
 10
6.037000000000001
 20
5.814
 30
0.0
  0
POINT
  5
276
330
18
100
AcDbEntity
  8
0
100
AcDbPoint
 10
6.095
 20
5.812
 30
0.0
  0
POINT
  5
277
330
18
100
AcDbEntity
  8
0
100
AcDbPoint
 10
6.063
 20
5.813
 30
0.0
  0
POINT
  5
278
330
18
100
AcDbEntity
  8
0
100
AcDbPoint
 10
6.122000000000001
 20
5.807
 30
0.0
  0
POINT
  5
279
330
18
100
AcDbEntity
  8
0
100
AcDbPoint
 10
6.037000000000001
 20
5.803999999999999
 30
0.0
  0
POINT
  5
27A
330
18
100
AcDbEntity
  8
0
100
AcDbPoint
 10
6.082999999999999
 20
5.77
 30
0.0
  0
POINT
  5
27B
330
18
100
AcDbEntity
  8
0
100
AcDbPoint
 10
6.056
 20
5.775
 30
0.0
  0
POINT
  5
27C
330
18
100
AcDbEntity
  8
0
100
AcDbPoint
 10
6.275
 20
5.824
 30
0.0
  0
POINT
  5
27D
330
18
100
AcDbEntity
  8
0
100
AcDbPoint
 10
6.242000000000001
 20
5.825
 30
0.0
  0
POINT
  5
27E
330
18
100
AcDbEntity
  8
0
100
AcDbPoint
 10
6.256
 20
5.853
 30
0.0
  0
POINT
  5
27F
330
18
100
AcDbEntity
  8
0
100
AcDbPoint
 10
6.256
 20
5.864
 30
0.0
  0
POINT
  5
280
330
18
100
AcDbEntity
  8
0
100
AcDbPoint
 10
6.223
 20
5.865
 30
0.0
  0
POINT
  5
281
330
18
100
AcDbEntity
  8
0
100
AcDbPoint
 10
6.198
 20
5.843999999999999
 30
0.0
  0
POINT
  5
282
330
18
100
AcDbEntity
  8
0
100
AcDbPoint
 10
6.165
 20
5.845
 30
0.0
  0
POINT
  5
283
330
18
100
AcDbEntity
  8
0
100
AcDbPoint
 10
6.224
 20
5.839
 30
0.0
  0
POINT
  5
284
330
18
100
AcDbEntity
  8
0
100
AcDbPoint
 10
6.178999999999999
 20
5.872999999999999
 30
0.0
  0
POINT
  5
285
330
18
100
AcDbEntity
  8
0
100
AcDbPoint
 10
6.158
 20
5.807
 30
0.0
  0
POINT
  5
286
330
18
100
AcDbEntity
  8
0
100
AcDbPoint
 10
5.785
 20
5.782
 30
0.0
  0
POINT
  5
287
330
18
100
AcDbEntity
  8
0
100
AcDbPoint
 10
5.752999999999999
 20
5.783
 30
0.0
  0
POINT
  5
288
330
18
100
AcDbEntity
  8
0
100
AcDbPoint
 10
5.812
 20
5.777
 30
0.0
  0
POINT
  5
289
330
18
100
AcDbEntity
  8
0
100
AcDbPoint
 10
5.773
 20
5.74
 30
0.0
  0
POINT
  5
28A
330
18
100
AcDbEntity
  8
0
100
AcDbPoint
 10
5.746
 20
5.745
 30
0.0
  0
POINT
  5
28B
330
18
100
AcDbEntity
  8
0
100
AcDbPoint
 10
5.803999999999999
 20
5.742000000000001
 30
0.0
  0
POINT
  5
28C
330
18
100
AcDbEntity
  8
0
100
AcDbPoint
 10
5.772
 20
5.744
 30
0.0
  0
POINT
  5
28D
330
18
100
AcDbEntity
  8
0
100
AcDbPoint
 10
5.831
 20
5.738
 30
0.0
  0
POINT
  5
28E
330
18
100
AcDbEntity
  8
0
100
AcDbPoint
 10
5.746
 20
5.734
 30
0.0
  0
POINT
  5
28F
330
18
100
AcDbEntity
  8
0
100
AcDbPoint
 10
5.792000000000001
 20
5.701000000000001
 30
0.0
  0
POINT
  5
290
330
18
100
AcDbEntity
  8
0
100
AcDbPoint
 10
5.765
 20
5.705
 30
0.0
  0
POINT
  5
291
330
18
100
AcDbEntity
  8
0
100
AcDbPoint
 10
5.983
 20
5.755
 30
0.0
  0
POINT
  5
292
330
18
100
AcDbEntity
  8
0
100
AcDbPoint
 10
5.951000000000001
 20
5.756
 30
0.0
  0
POINT
  5
293
330
18
100
AcDbEntity
  8
0
100
AcDbPoint
 10
5.964
 20
5.784
 30
0.0
  0
POINT
  5
294
330
18
100
AcDbEntity
  8
0
100
AcDbPoint
 10
5.964
 20
5.795
 30
0.0
  0
POINT
  5
295
330
18
100
AcDbEntity
  8
0
100
AcDbPoint
 10
5.932
 20
5.796
 30
0.0
  0
POINT
  5
296
330
18
100
AcDbEntity
  8
0
100
AcDbPoint
 10
5.906000000000001
 20
5.775
 30
0.0
  0
POINT
  5
297
330
18
100
AcDbEntity
  8
0
100
AcDbPoint
 10
5.874
 20
5.776
 30
0.0
  0
POINT
  5
298
330
18
100
AcDbEntity
  8
0
100
AcDbPoint
 10
5.933
 20
5.77
 30
0.0
  0
POINT
  5
299
330
18
100
AcDbEntity
  8
0
100
AcDbPoint
 10
5.887000000000001
 20
5.803999999999999
 30
0.0
  0
POINT
  5
29A
330
18
100
AcDbEntity
  8
0
100
AcDbPoint
 10
5.867000000000001
 20
5.738
 30
0.0
  0
POINT
  5
29B
330
18
100
AcDbEntity
  8
0
100
AcDbPoint
 10
5.502000000000001
 20
5.722
 30
0.0
  0
POINT
  5
29C
330
18
100
AcDbEntity
  8
0
100
AcDbPoint
 10
5.47
 20
5.723
 30
0.0
  0
POINT
  5
29D
330
18
100
AcDbEntity
  8
0
100
AcDbPoint
 10
5.529
 20
5.717000000000001
 30
0.0
  0
POINT
  5
29E
330
18
100
AcDbEntity
  8
0
100
AcDbPoint
 10
5.49
 20
5.68
 30
0.0
  0
POINT
  5
29F
330
18
100
AcDbEntity
  8
0
100
AcDbPoint
 10
5.521
 20
5.682
 30
0.0
  0
POINT
  5
2A0
330
18
100
AcDbEntity
  8
0
100
AcDbPoint
 10
5.489
 20
5.683
 30
0.0
  0
POINT
  5
2A1
330
18
100
AcDbEntity
  8
0
100
AcDbPoint
 10
5.547999999999999
 20
5.677000000000001
 30
0.0
  0
POINT
  5
2A2
330
18
100
AcDbEntity
  8
0
100
AcDbPoint
 10
5.509
 20
5.64
 30
0.0
  0
POINT
  5
2A3
330
18
100
AcDbEntity
  8
0
100
AcDbPoint
 10
5.482
 20
5.645
 30
0.0
  0
POINT
  5
2A4
330
18
100
AcDbEntity
  8
0
100
AcDbPoint
 10
5.7
 20
5.694
 30
0.0
  0
POINT
  5
2A5
330
18
100
AcDbEntity
  8
0
100
AcDbPoint
 10
5.667999999999999
 20
5.695
 30
0.0
  0
POINT
  5
2A6
330
18
100
AcDbEntity
  8
0
100
AcDbPoint
 10
5.681
 20
5.723
 30
0.0
  0
POINT
  5
2A7
330
18
100
AcDbEntity
  8
0
100
AcDbPoint
 10
5.681
 20
5.734
 30
0.0
  0
POINT
  5
2A8
330
18
100
AcDbEntity
  8
0
100
AcDbPoint
 10
5.649
 20
5.735
 30
0.0
  0
POINT
  5
2A9
330
18
100
AcDbEntity
  8
0
100
AcDbPoint
 10
5.622999999999999
 20
5.714
 30
0.0
  0
POINT
  5
2AA
330
18
100
AcDbEntity
  8
0
100
AcDbPoint
 10
5.591
 20
5.715
 30
0.0
  0
POINT
  5
2AB
330
18
100
AcDbEntity
  8
0
100
AcDbPoint
 10
5.65
 20
5.709
 30
0.0
  0
POINT
  5
2AC
330
18
100
AcDbEntity
  8
0
100
AcDbPoint
 10
5.605
 20
5.742999999999999
 30
0.0
  0
POINT
  5
2AD
330
18
100
AcDbEntity
  8
0
100
AcDbPoint
 10
5.584
 20
5.677000000000001
 30
0.0
  0
POINT
  5
2AE
330
18
100
AcDbEntity
  8
0
100
AcDbPoint
 10
5.27
 20
5.672999999999999
 30
0.0
  0
POINT
  5
2AF
330
18
100
AcDbEntity
  8
0
100
AcDbPoint
 10
5.277
 20
5.712000000000001
 30
0.0
  0
POINT
  5
2B0
330
18
100
AcDbEntity
  8
0
100
AcDbPoint
 10
5.167999999999999
 20
5.641
 30
0.0
  0
POINT
  5
2B1
330
18
100
AcDbEntity
  8
0
100
AcDbPoint
 10
5.194
 20
5.636
 30
0.0
  0
POINT
  5
2B2
330
18
100
AcDbEntity
  8
0
100
AcDbPoint
 10
5.234
 20
5.672999999999999
 30
0.0
  0
POINT
  5
2B3
330
18
100
AcDbEntity
  8
0
100
AcDbPoint
 10
5.174
 20
5.678999999999999
 30
0.0
  0
POINT
  5
2B4
330
18
100
AcDbEntity
  8
0
100
AcDbPoint
 10
5.207000000000001
 20
5.678
 30
0.0
  0
POINT
  5
2B5
330
18
100
AcDbEntity
  8
0
100
AcDbPoint
 10
5.215
 20
5.712999999999999
 30
0.0
  0
POINT
  5
2B6
330
18
100
AcDbEntity
  8
0
100
AcDbPoint
 10
5.156000000000001
 20
5.718999999999999
 30
0.0
  0
POINT
  5
2B7
330
18
100
AcDbEntity
  8
0
100
AcDbPoint
 10
5.188
 20
5.718
 30
0.0
  0
POINT
  5
2B8
330
18
100
AcDbEntity
  8
0
100
AcDbPoint
 10
5.187
 20
5.555
 30
0.0
  0
POINT
  5
2B9
330
18
100
AcDbEntity
  8
0
100
AcDbPoint
 10
5.155
 20
5.556
 30
0.0
  0
POINT
  5
2BA
330
18
100
AcDbEntity
  8
0
100
AcDbPoint
 10
5.214
 20
5.55
 30
0.0
  0
POINT
  5
2BB
330
18
100
AcDbEntity
  8
0
100
AcDbPoint
 10
5.175
 20
5.513
 30
0.0
  0
POINT
  5
2BC
330
18
100
AcDbEntity
  8
0
100
AcDbPoint
 10
5.206
 20
5.515
 30
0.0
  0
POINT
  5
2BD
330
18
100
AcDbEntity
  8
0
100
AcDbPoint
 10
5.233
 20
5.51
 30
0.0
  0
POINT
  5
2BE
330
18
100
AcDbEntity
  8
0
100
AcDbPoint
 10
5.194
 20
5.473
 30
0.0
  0
POINT
  5
2BF
330
18
100
AcDbEntity
  8
0
100
AcDbPoint
 10
5.167000000000001
 20
5.478
 30
0.0
  0
POINT
  5
2C0
330
18
100
AcDbEntity
  8
0
100
AcDbPoint
 10
5.149
 20
5.484
 30
0.0
  0
POINT
  5
2C1
330
18
100
AcDbEntity
  8
0
100
AcDbPoint
 10
5.176
 20
5.48
 30
0.0
  0
POINT
  5
2C2
330
18
100
AcDbEntity
  8
0
100
AcDbPoint
 10
5.157
 20
5.519
 30
0.0
  0
POINT
  5
2C3
330
18
100
AcDbEntity
  8
0
100
AcDbPoint
 10
5.137000000000001
 20
5.562
 30
0.0
  0
POINT
  5
2C4
330
18
100
AcDbEntity
  8
0
100
AcDbPoint
 10
5.169
 20
5.561
 30
0.0
  0
POINT
  5
2C5
330
18
100
AcDbEntity
  8
0
100
AcDbPoint
 10
5.231
 20
5.664
 30
0.0
  0
POINT
  5
2C6
330
18
100
AcDbEntity
  8
0
100
AcDbPoint
 10
5.199
 20
5.665
 30
0.0
  0
POINT
  5
2C7
330
18
100
AcDbEntity
  8
0
100
AcDbPoint
 10
5.218999999999999
 20
5.622000000000001
 30
0.0
  0
POINT
  5
2C8
330
18
100
AcDbEntity
  8
0
100
AcDbPoint
 10
5.238
 20
5.582000000000001
 30
0.0
  0
POINT
  5
2C9
330
18
100
AcDbEntity
  8
0
100
AcDbPoint
 10
5.211
 20
5.587000000000001
 30
0.0
  0
POINT
  5
2CA
330
18
100
AcDbEntity
  8
0
100
AcDbPoint
 10
5.229
 20
5.58
 30
0.0
  0
POINT
  5
2CB
330
18
100
AcDbEntity
  8
0
100
AcDbPoint
 10
5.256
 20
5.576000000000001
 30
0.0
  0
POINT
  5
2CC
330
18
100
AcDbEntity
  8
0
100
AcDbPoint
 10
5.268
 20
5.617000000000001
 30
0.0
  0
POINT
  5
2CD
330
18
100
AcDbEntity
  8
0
100
AcDbPoint
 10
5.237
 20
5.615
 30
0.0
  0
POINT
  5
2CE
330
18
100
AcDbEntity
  8
0
100
AcDbPoint
 10
5.217000000000001
 20
5.658
 30
0.0
  0
POINT
  5
2CF
330
18
100
AcDbEntity
  8
0
100
AcDbPoint
 10
5.249
 20
5.657
 30
0.0
  0
POINT
  5
2D0
330
18
100
AcDbEntity
  8
0
100
AcDbPoint
 10
5.292000000000001
 20
5.732
 30
0.0
  0
POINT
  5
2D1
330
18
100
AcDbEntity
  8
0
100
AcDbPoint
 10
5.259
 20
5.733
 30
0.0
  0
POINT
  5
2D2
330
18
100
AcDbEntity
  8
0
100
AcDbPoint
 10
5.274
 20
5.738
 30
0.0
  0
POINT
  5
2D3
330
18
100
AcDbEntity
  8
0
100
AcDbPoint
 10
5.257000000000001
 20
5.787000000000001
 30
0.0
  0
POINT
  5
2D4
330
18
100
AcDbEntity
  8
0
100
AcDbPoint
 10
5.249
 20
5.752000000000001
 30
0.0
  0
POINT
  5
2D5
330
18
100
AcDbEntity
  8
0
100
AcDbPoint
 10
5.276
 20
5.747999999999999
 30
0.0
  0
POINT
  5
2D6
330
18
100
AcDbEntity
  8
0
100
AcDbPoint
 10
4.98
 20
5.507999999999999
 30
0.0
  0
POINT
  5
2D7
330
18
100
AcDbEntity
  8
0
100
AcDbPoint
 10
4.948
 20
5.509
 30
0.0
  0
POINT
  5
2D8
330
18
100
AcDbEntity
  8
0
100
AcDbPoint
 10
4.961
 20
5.537000000000001
 30
0.0
  0
POINT
  5
2D9
330
18
100
AcDbEntity
  8
0
100
AcDbPoint
 10
2.584
 20
4.472
 30
0.0
  0
POINT
  5
2DA
330
18
100
AcDbEntity
  8
0
100
AcDbPoint
 10
2.604
 20
4.463
 30
0.0
  0
POINT
  5
2DB
330
18
100
AcDbEntity
  8
0
100
AcDbPoint
 10
2.595
 20
4.426
 30
0.0
  0
POINT
  5
2DC
330
18
100
AcDbEntity
  8
0
100
AcDbPoint
 10
2.725
 20
4.579
 30
0.0
  0
POINT
  5
2DD
330
18
100
AcDbEntity
  8
0
100
AcDbPoint
 10
2.771
 20
4.613
 30
0.0
  0
POINT
  5
2DE
330
18
100
AcDbEntity
  8
0
100
AcDbPoint
 10
2.812
 20
4.647
 30
0.0
  0
POINT
  5
2DF
330
18
100
AcDbEntity
  8
0
100
AcDbPoint
 10
3.225
 20
4.609
 30
0.0
  0
POINT
  5
2E0
330
18
100
AcDbEntity
  8
0
100
AcDbPoint
 10
3.234
 20
4.556
 30
0.0
  0
POINT
  5
2E1
330
18
100
AcDbEntity
  8
0
100
AcDbPoint
 10
3.239
 20
4.5
 30
0.0
  0
POINT
  5
2E2
330
18
100
AcDbEntity
  8
0
100
AcDbPoint
 10
3.307
 20
4.31
 30
0.0
  0
POINT
  5
2E3
330
18
100
AcDbEntity
  8
0
100
AcDbPoint
 10
3.28
 20
4.337
 30
0.0
  0
POINT
  5
2E4
330
18
100
AcDbEntity
  8
0
100
AcDbPoint
 10
3.262
 20
4.324
 30
0.0
  0
POINT
  5
2E5
330
18
100
AcDbEntity
  8
0
100
AcDbPoint
 10
2.711
 20
4.243
 30
0.0
  0
POINT
  5
2E6
330
18
100
AcDbEntity
  8
0
100
AcDbPoint
 10
2.729
 20
4.256
 30
0.0
  0
POINT
  5
2E7
330
18
100
AcDbEntity
  8
0
100
AcDbPoint
 10
2.757
 20
4.229
 30
0.0
  0
POINT
  5
2E8
330
18
100
AcDbEntity
  8
0
100
AcDbPoint
 10
2.689
 20
4.419
 30
0.0
  0
POINT
  5
2E9
330
18
100
AcDbEntity
  8
0
100
AcDbPoint
 10
2.683
 20
4.475
 30
0.0
  0
POINT
  5
2EA
330
18
100
AcDbEntity
  8
0
100
AcDbPoint
 10
2.674
 20
4.528000000000001
 30
0.0
  0
POINT
  5
2EB
330
18
100
AcDbEntity
  8
0
100
AcDbPoint
 10
4.13
 20
4.715
 30
0.0
  0
POINT
  5
2EC
330
18
100
AcDbEntity
  8
0
100
AcDbPoint
 10
4.138999999999999
 20
4.663
 30
0.0
  0
POINT
  5
2ED
330
18
100
AcDbEntity
  8
0
100
AcDbPoint
 10
4.144
 20
4.606
 30
0.0
  0
POINT
  5
2EE
330
18
100
AcDbEntity
  8
0
100
AcDbPoint
 10
4.212
 20
4.417
 30
0.0
  0
POINT
  5
2EF
330
18
100
AcDbEntity
  8
0
100
AcDbPoint
 10
4.184
 20
4.443000000000001
 30
0.0
  0
POINT
  5
2F0
330
18
100
AcDbEntity
  8
0
100
AcDbPoint
 10
4.167
 20
4.431
 30
0.0
  0
POINT
  5
2F1
330
18
100
AcDbEntity
  8
0
100
AcDbPoint
 10
4.267
 20
4.834
 30
0.0
  0
POINT
  5
2F2
330
18
100
AcDbEntity
  8
0
100
AcDbPoint
 10
4.227
 20
4.8
 30
0.0
  0
POINT
  5
2F3
330
18
100
AcDbEntity
  8
0
100
AcDbPoint
 10
4.18
 20
4.767
 30
0.0
  0
POINT
  5
2F4
330
18
100
AcDbEntity
  8
0
100
AcDbPoint
 10
4.05
 20
4.613
 30
0.0
  0
POINT
  5
2F5
330
18
100
AcDbEntity
  8
0
100
AcDbPoint
 10
4.059
 20
4.65
 30
0.0
  0
POINT
  5
2F6
330
18
100
AcDbEntity
  8
0
100
AcDbPoint
 10
4.04
 20
4.66
 30
0.0
  0
LINE
  5
2F7
330
18
100
AcDbEntity
  8
0
100
AcDbLine
 10
3.376
 20
3.9
 30
0.0
 11
3.376
 21
4.05
 31
0.0
  0
LINE
  5
2F8
330
18
100
AcDbEntity
  8
0
100
AcDbLine
 10
3.808
 20
4.474
 30
0.0
 11
3.808
 21
4.291
 31
0.0
  0
LINE
  5
2F9
330
18
100
AcDbEntity
  8
0
100
AcDbLine
 10
3.376
 20
4.359
 30
0.0
 11
3.808
 21
4.474
 31
0.0
  0
LINE
  5
2FA
330
18
100
AcDbEntity
  8
0
100
AcDbLine
 10
3.347
 20
4.381
 30
0.0
 11
3.778
 21
4.496
 31
0.0
  0
LINE
  5
2FB
330
18
100
AcDbEntity
  8
0
100
AcDbLine
 10
3.347
 20
4.381
 30
0.0
 11
3.376
 21
4.359
 31
0.0
  0
LINE
  5
2FC
330
18
100
AcDbEntity
  8
0
100
AcDbLine
 10
3.778
 20
4.496
 30
0.0
 11
3.808
 21
4.474
 31
0.0
  0
LINE
  5
2FD
330
18
100
AcDbEntity
  8
0
100
AcDbLine
 10
3.376
 20
4.177
 30
0.0
 11
3.376
 21
4.359
 31
0.0
  0
ARC
  5
2FE
330
18
100
AcDbEntity
  8
0
100
AcDbCircle
 10
3.749
 20
4.228
 30
0.0
 40
0.086
100
AcDbArc
 50
312.87
 51
47.13000000000001
  0
LINE
  5
2FF
330
18
100
AcDbEntity
  8
0
100
AcDbLine
 10
3.808
 20
4.165
 30
0.0
 11
3.808
 21
4.013
 31
0.0
  0
LINE
  5
300
330
18
100
AcDbEntity
  8
0
100
AcDbLine
 10
3.347
 20
4.167
 30
0.0
 11
3.347
 21
4.381
 31
0.0
  0
LINE
  5
301
330
18
100
AcDbEntity
  8
0
100
AcDbLine
 10
3.347
 20
3.893
 30
0.0
 11
3.347
 21
4.061
 31
0.0
  0
ARC
  5
302
330
18
100
AcDbEntity
  8
0
100
AcDbCircle
 10
3.289
 20
4.114
 30
0.0
 40
0.108
100
AcDbArc
 50
324.124
 51
35.876
  0
ARC
  5
303
330
18
100
AcDbEntity
  8
0
100
AcDbCircle
 10
3.289
 20
4.114
 30
0.0
 40
0.079
100
AcDbArc
 50
317.765
 51
42.235
  0
ARC
  5
304
330
18
100
AcDbEntity
  8
0
100
AcDbCircle
 10
3.289
 20
3.837
 30
0.0
 40
0.108
100
AcDbArc
 50
324.124
 51
18.62
  0
ARC
  5
305
330
18
100
AcDbEntity
  8
0
  6
HIDDEN
100
AcDbCircle
 10
3.289
 20
3.528
 30
0.0
 40
0.108
100
AcDbArc
 50
324.124
 51
35.876
  0
LINE
  5
306
330
18
100
AcDbEntity
  8
0
  6
HIDDEN
100
AcDbLine
 10
3.376
 20
3.315
 30
0.0
 11
3.376
 21
3.465
 31
0.0
  0
ARC
  5
307
330
18
100
AcDbEntity
  8
0
  6
HIDDEN
100
AcDbCircle
 10
3.289
 20
3.252
 30
0.0
 40
0.108
100
AcDbArc
 50
324.124
 51
35.876
  0
LINE
  5
308
330
18
100
AcDbEntity
  8
0
  6
HIDDEN
100
AcDbLine
 10
3.376
 20
3.591
 30
0.0
 11
3.376
 21
3.774
 31
0.0
  0
ARC
  5
309
330
18
100
AcDbEntity
  8
0
  6
HIDDEN
100
AcDbCircle
 10
3.289
 20
2.975
 30
0.0
 40
0.108
100
AcDbArc
 50
324.124
 51
35.876
  0
LINE
  5
30A
330
18
100
AcDbEntity
  8
0
  6
HIDDEN
100
AcDbLine
 10
3.376
 20
3.038
 30
0.0
 11
3.376
 21
3.188
 31
0.0
  0
LINE
  5
30B
330
18
100
AcDbEntity
  8
0
  6
HIDDEN
100
AcDbLine
 10
3.376
 20
2.71
 30
0.0
 11
3.376
 21
2.912
 31
0.0
  0
LINE
  5
30C
330
18
100
AcDbEntity
  8
0
  6
HIDDEN
100
AcDbLine
 10
3.808
 20
2.838
 30
0.0
 11
3.808
 21
3.025
 31
0.0
  0
LINE
  5
30D
330
18
100
AcDbEntity
  8
0
  6
HIDDEN
100
AcDbLine
 10
3.808
 20
3.151
 30
0.0
 11
3.808
 21
3.301
 31
0.0
  0
ARC
  5
30E
330
18
100
AcDbEntity
  8
0
  6
HIDDEN
100
AcDbCircle
 10
3.72
 20
3.088
 30
0.0
 40
0.108
100
AcDbArc
 50
324.124
 51
35.876
  0
LINE
  5
30F
330
18
100
AcDbEntity
  8
0
  6
HIDDEN
100
AcDbLine
 10
3.808
 20
3.704
 30
0.0
 11
3.808
 21
3.887
 31
0.0
  0
ARC
  5
310
330
18
100
AcDbEntity
  8
0
  6
HIDDEN
100
AcDbCircle
 10
3.72
 20
3.365
 30
0.0
 40
0.108
100
AcDbArc
 50
324.124
 51
35.876
  0
LINE
  5
311
330
18
100
AcDbEntity
  8
0
  6
HIDDEN
100
AcDbLine
 10
3.808
 20
3.428
 30
0.0
 11
3.808
 21
3.578
 31
0.0
  0
ARC
  5
312
330
18
100
AcDbEntity
  8
0
  6
HIDDEN
100
AcDbCircle
 10
3.72
 20
3.641
 30
0.0
 40
0.108
100
AcDbArc
 50
324.124
 51
35.876
  0
ARC
  5
313
330
18
100
AcDbEntity
  8
0
100
AcDbCircle
 10
3.72
 20
3.95
 30
0.0
 40
0.108
100
AcDbArc
 50
324.124
 51
18.787
  0
LINE
  5
314
330
18
100
AcDbEntity
  8
0
  6
HIDDEN
100
AcDbLine
 10
4.299
 20
2.147
 30
0.0
 11
4.116000000000001
 21
2.256
 31
0.0
  0
LINE
  5
315
330
18
100
AcDbEntity
  8
0
  6
HIDDEN
100
AcDbLine
 10
4.008
 20
2.321
 30
0.0
 11
3.879
 21
2.399
 31
0.0
  0
ARC
  5
316
330
18
100
AcDbEntity
  8
0
  6
HIDDEN
100
AcDbCircle
 10
4.017
 20
2.214
 30
0.0
 40
0.108
100
AcDbArc
 50
23.237
 51
94.988
  0
LINE
  5
317
330
18
100
AcDbEntity
  8
0
  6
HIDDEN
100
AcDbLine
 10
3.533
 20
2.605
 30
0.0
 11
3.386
 21
2.693
 31
0.0
  0
ARC
  5
318
330
18
100
AcDbEntity
  8
0
  6
HIDDEN
100
AcDbCircle
 10
3.78
 20
2.356
 30
0.0
 40
0.108
100
AcDbArc
 50
23.237
 51
94.988
  0
LINE
  5
319
330
18
100
AcDbEntity
  8
0
  6
HIDDEN
100
AcDbLine
 10
3.77
 20
2.463
 30
0.0
 11
3.641
 21
2.541
 31
0.0
  0
ARC
  5
31A
330
18
100
AcDbEntity
  8
0
  6
HIDDEN
100
AcDbCircle
 10
3.542
 20
2.498
 30
0.0
 40
0.108
100
AcDbArc
 50
23.237
 51
94.988
  0
ARC
  5
31B
330
18
100
AcDbEntity
  8
0
  6
HIDDEN
100
AcDbCircle
 10
4.308
 20
2.04
 30
0.0
 40
0.108
100
AcDbArc
 50
23.237
 51
94.988
  0
LINE
  5
31C
330
18
100
AcDbEntity
  8
0
  6
HIDDEN
100
AcDbLine
 10
4.61
 20
1.961
 30
0.0
 11
4.407
 21
2.082
 31
0.0
  0
LINE
  5
31D
330
18
100
AcDbEntity
  8
0
  6
HIDDEN
100
AcDbLine
 10
4.61
 20
1.961
 30
0.0
 11
4.995
 21
2.116
 31
0.0
  0
LINE
  5
31E
330
18
100
AcDbEntity
  8
0
  6
HIDDEN
100
AcDbLine
 10
4.995
 20
2.116
 30
0.0
 11
4.838
 21
2.21
 31
0.0
  0
ARC
  5
31F
330
18
100
AcDbEntity
  8
0
  6
HIDDEN
100
AcDbCircle
 10
4.739
 20
2.167
 30
0.0
 40
0.108
100
AcDbArc
 50
23.237
 51
94.988
  0
ARC
  5
320
330
18
100
AcDbEntity
  8
0
  6
HIDDEN
100
AcDbCircle
 10
4.211
 20
2.483
 30
0.0
 40
0.108
100
AcDbArc
 50
23.237
 51
94.988
  0
ARC
  5
321
330
18
100
AcDbEntity
  8
0
  6
HIDDEN
100
AcDbCircle
 10
4.448
 20
2.341
 30
0.0
 40
0.108
100
AcDbArc
 50
23.237
 51
94.988
  0
LINE
  5
322
330
18
100
AcDbEntity
  8
0
  6
HIDDEN
100
AcDbLine
 10
4.439
 20
2.449
 30
0.0
 11
4.31
 21
2.526
 31
0.0
  0
LINE
  5
323
330
18
100
AcDbEntity
  8
0
  6
HIDDEN
100
AcDbLine
 10
4.73
 20
2.275
 30
0.0
 11
4.547
 21
2.384
 31
0.0
  0
ARC
  5
324
330
18
100
AcDbEntity
  8
0
  6
HIDDEN
100
AcDbCircle
 10
3.973
 20
2.625
 30
0.0
 40
0.108
100
AcDbArc
 50
23.237
 51
94.988
  0
LINE
  5
325
330
18
100
AcDbEntity
  8
0
  6
HIDDEN
100
AcDbLine
 10
4.201000000000001
 20
2.591
 30
0.0
 11
4.072
 21
2.668
 31
0.0
  0
LINE
  5
326
330
18
100
AcDbEntity
  8
0
  6
HIDDEN
100
AcDbLine
 10
3.964
 20
2.733
 30
0.0
 11
3.817
 21
2.821
 31
0.0
  0
ARC
  5
327
330
18
100
AcDbEntity
  8
0
  6
HIDDEN
100
AcDbCircle
 10
3.396
 20
2.71
 30
0.0
 40
0.02
100
AcDbArc
 50
180.0
 51
239.112
  0
ARC
  5
328
330
18
100
AcDbEntity
  8
0
  6
HIDDEN
100
AcDbCircle
 10
3.828
 20
2.838
 30
0.0
 40
0.02
100
AcDbArc
 50
180.0
 51
239.112
  0
LINE
  5
329
330
18
100
AcDbEntity
  8
0
  6
HIDDEN
100
AcDbLine
 10
3.477
 20
2.708
 30
0.0
 11
3.738
 21
2.789
 31
0.0
  0
LINE
  5
32A
330
18
100
AcDbEntity
  8
0
100
AcDbLine
 10
3.42
 20
4.196000000000001
 30
0.0
 11
3.586
 21
4.367
 31
0.0
  0
LINE
  5
32B
330
18
100
AcDbEntity
  8
0
100
AcDbLine
 10
3.608
 20
4.372
 30
0.0
 11
3.808
 21
4.291
 31
0.0
  0
ARC
  5
32C
330
18
100
AcDbEntity
  8
0
100
AcDbCircle
 10
3.6
 20
4.354
 30
0.0
 40
0.02
100
AcDbArc
 50
68.00399999999999
 51
135.944
  0
LINE
  5
32D
330
18
100
AcDbEntity
  8
0
100
AcDbLine
 10
3.42
 20
4.069
 30
0.0
 11
3.586
 21
4.241000000000001
 31
0.0
  0
ARC
  5
32E
330
18
100
AcDbEntity
  8
0
100
AcDbCircle
 10
3.6
 20
4.227
 30
0.0
 40
0.02
100
AcDbArc
 50
68.00399999999999
 51
135.944
  0
LINE
  5
32F
330
18
100
AcDbEntity
  8
0
100
AcDbLine
 10
3.608
 20
4.246
 30
0.0
 11
3.808
 21
4.165
 31
0.0
  0
LINE
  5
330
330
18
100
AcDbEntity
  8
0
100
AcDbLine
 10
3.608
 20
4.093999999999999
 30
0.0
 11
3.808
 21
4.013
 31
0.0
  0
ARC
  5
331
330
18
100
AcDbEntity
  8
0
100
AcDbCircle
 10
3.6
 20
4.075
 30
0.0
 40
0.02
100
AcDbArc
 50
68.00399999999999
 51
135.944
  0
LINE
  5
332
330
18
100
AcDbEntity
  8
0
100
AcDbLine
 10
3.42
 20
3.917
 30
0.0
 11
3.586
 21
4.089
 31
0.0
  0
LINE
  5
333
330
18
100
AcDbEntity
  8
0
  6
HIDDEN
100
AcDbLine
 10
3.42
 20
3.454
 30
0.0
 11
3.586
 21
3.626
 31
0.0
  0
ARC
  5
334
330
18
100
AcDbEntity
  8
0
  6
HIDDEN
100
AcDbCircle
 10
3.6
 20
3.612
 30
0.0
 40
0.02
100
AcDbArc
 50
68.00399999999999
 51
135.944
  0
LINE
  5
335
330
18
100
AcDbEntity
  8
0
  6
HIDDEN
100
AcDbLine
 10
3.608
 20
3.631
 30
0.0
 11
3.808
 21
3.55
 31
0.0
  0
LINE
  5
336
330
18
100
AcDbEntity
  8
0
  6
HIDDEN
100
AcDbLine
 10
3.42
 20
3.332
 30
0.0
 11
3.586
 21
3.504
 31
0.0
  0
ARC
  5
337
330
18
100
AcDbEntity
  8
0
  6
HIDDEN
100
AcDbCircle
 10
3.6
 20
3.49
 30
0.0
 40
0.02
100
AcDbArc
 50
68.00399999999999
 51
135.944
  0
LINE
  5
338
330
18
100
AcDbEntity
  8
0
  6
HIDDEN
100
AcDbLine
 10
3.608
 20
3.508
 30
0.0
 11
3.808
 21
3.428
 31
0.0
  0
LINE
  5
339
330
18
100
AcDbEntity
  8
0
  6
HIDDEN
100
AcDbLine
 10
3.42
 20
3.206
 30
0.0
 11
3.586
 21
3.377
 31
0.0
  0
ARC
  5
33A
330
18
100
AcDbEntity
  8
0
  6
HIDDEN
100
AcDbCircle
 10
3.6
 20
3.363
 30
0.0
 40
0.02
100
AcDbArc
 50
68.00399999999999
 51
135.944
  0
LINE
  5
33B
330
18
100
AcDbEntity
  8
0
  6
HIDDEN
100
AcDbLine
 10
3.608
 20
3.382
 30
0.0
 11
3.808
 21
3.301
 31
0.0
  0
LINE
  5
33C
330
18
100
AcDbEntity
  8
0
  6
HIDDEN
100
AcDbLine
 10
3.41
 20
3.05
 30
0.0
 11
3.586
 21
3.212
 31
0.0
  0
ARC
  5
33D
330
18
100
AcDbEntity
  8
0
  6
HIDDEN
100
AcDbCircle
 10
3.6
 20
3.198
 30
0.0
 40
0.02
100
AcDbArc
 50
68.00399999999999
 51
135.944
  0
LINE
  5
33E
330
18
100
AcDbEntity
  8
0
  6
HIDDEN
100
AcDbLine
 10
3.608
 20
3.217
 30
0.0
 11
3.798
 21
3.144
 31
0.0
  0
LINE
  5
33F
330
18
100
AcDbEntity
  8
0
  6
HIDDEN
100
AcDbLine
 10
3.42
 20
2.929
 30
0.0
 11
3.586
 21
3.101
 31
0.0
  0
ARC
  5
340
330
18
100
AcDbEntity
  8
0
  6
HIDDEN
100
AcDbCircle
 10
3.6
 20
3.087
 30
0.0
 40
0.02
100
AcDbArc
 50
68.00399999999999
 51
135.944
  0
LINE
  5
341
330
18
100
AcDbEntity
  8
0
  6
HIDDEN
100
AcDbLine
 10
3.608
 20
3.105
 30
0.0
 11
3.808
 21
3.025
 31
0.0
  0
LINE
  5
342
330
18
100
AcDbEntity
  8
0
  6
HIDDEN
100
AcDbLine
 10
3.376
 20
3.774
 30
0.0
 11
3.582
 21
3.938
 31
0.0
  0
LINE
  5
343
330
18
100
AcDbEntity
  8
0
  6
HIDDEN
100
AcDbLine
 10
3.6
 20
3.941
 30
0.0
 11
3.808
 21
3.887
 31
0.0
  0
ARC
  5
344
330
18
100
AcDbEntity
  8
0
  6
HIDDEN
100
AcDbCircle
 10
3.595
 20
3.922
 30
0.0
 40
0.02
100
AcDbArc
 50
73.711
 51
127.591
  0
ARC
  5
345
330
18
100
AcDbEntity
  8
0
  6
HIDDEN
100
AcDbCircle
 10
3.616
 20
3.842
 30
0.0
 40
0.07
100
AcDbArc
 50
115.042
 51
138.441
  0
ARC
  5
346
330
18
100
AcDbEntity
  8
0
  6
HIDDEN
100
AcDbCircle
 10
3.631
 20
3.833
 30
0.0
 40
0.087
100
AcDbArc
 50
159.835
 51
180.0
  0
ARC
  5
347
330
18
100
AcDbEntity
  8
0
  6
HIDDEN
100
AcDbCircle
 10
3.621
 20
3.83
 30
0.0
 40
0.077
100
AcDbArc
 50
200.165
 51
221.5590000000001
  0
ARC
  5
348
330
18
100
AcDbEntity
  8
0
  6
HIDDEN
100
AcDbCircle
 10
3.612
 20
3.817
 30
0.0
 40
0.061
100
AcDbArc
 50
244.958
 51
270.0
  0
ARC
  5
349
330
18
100
AcDbEntity
  8
0
  6
HIDDEN
100
AcDbCircle
 10
3.608
 20
3.825
 30
0.0
 40
0.07
100
AcDbArc
 50
295.042
 51
318.441
  0
ARC
  5
34A
330
18
100
AcDbEntity
  8
0
  6
HIDDEN
100
AcDbCircle
 10
3.594
 20
3.833
 30
0.0
 40
0.087
100
AcDbArc
 50
339.835
 51
0.0
  0
ARC
  5
34B
330
18
100
AcDbEntity
  8
0
  6
HIDDEN
100
AcDbCircle
 10
3.603
 20
3.837
 30
0.0
 40
0.077
100
AcDbArc
 50
20.165
 51
41.559
  0
ARC
  5
34C
330
18
100
AcDbEntity
  8
0
  6
HIDDEN
100
AcDbCircle
 10
3.612
 20
3.85
 30
0.0
 40
0.061
100
AcDbArc
 50
64.958
 51
90.0
  0
LINE
  5
34D
330
18
100
AcDbEntity
  8
0
  6
HIDDEN
100
AcDbLine
 10
3.42
 20
3.578
 30
0.0
 11
3.586
 21
3.75
 31
0.0
  0
LINE
  5
34E
330
18
100
AcDbEntity
  8
0
  6
HIDDEN
100
AcDbLine
 10
3.608
 20
3.754
 30
0.0
 11
3.808
 21
3.674
 31
0.0
  0
ARC
  5
34F
330
18
100
AcDbEntity
  8
0
  6
HIDDEN
100
AcDbCircle
 10
3.6
 20
3.736
 30
0.0
 40
0.02
100
AcDbArc
 50
68.00399999999999
 51
135.944
  0
ARC
  5
350
330
18
100
AcDbEntity
  8
0
  6
HIDDEN
100
AcDbCircle
 10
3.612
 20
3.313
 30
0.0
 40
0.061
100
AcDbArc
 50
64.958
 51
90.0
  0
ARC
  5
351
330
18
100
AcDbEntity
  8
0
  6
HIDDEN
100
AcDbCircle
 10
3.603
 20
3.3
 30
0.0
 40
0.077
100
AcDbArc
 50
20.165
 51
41.559
  0
ARC
  5
352
330
18
100
AcDbEntity
  8
0
  6
HIDDEN
100
AcDbCircle
 10
3.594
 20
3.296
 30
0.0
 40
0.087
100
AcDbArc
 50
339.835
 51
0.0
  0
ARC
  5
353
330
18
100
AcDbEntity
  8
0
  6
HIDDEN
100
AcDbCircle
 10
3.608
 20
3.288
 30
0.0
 40
0.07
100
AcDbArc
 50
295.042
 51
318.441
  0
ARC
  5
354
330
18
100
AcDbEntity
  8
0
  6
HIDDEN
100
AcDbCircle
 10
3.612
 20
3.28
 30
0.0
 40
0.061
100
AcDbArc
 50
244.958
 51
270.0
  0
ARC
  5
355
330
18
100
AcDbEntity
  8
0
  6
HIDDEN
100
AcDbCircle
 10
3.621
 20
3.293
 30
0.0
 40
0.077
100
AcDbArc
 50
200.165
 51
221.5590000000001
  0
ARC
  5
356
330
18
100
AcDbEntity
  8
0
  6
HIDDEN
100
AcDbCircle
 10
3.631
 20
3.296
 30
0.0
 40
0.087
100
AcDbArc
 50
159.835
 51
180.0
  0
ARC
  5
357
330
18
100
AcDbEntity
  8
0
  6
HIDDEN
100
AcDbCircle
 10
3.616
 20
3.305
 30
0.0
 40
0.07
100
AcDbArc
 50
115.042
 51
138.441
  0
LINE
  5
358
330
18
100
AcDbEntity
  8
0
  6
HIDDEN
100
AcDbLine
 10
3.745
 20
2.545
 30
0.0
 11
3.945
 21
2.547
 31
0.0
  0
LINE
  5
359
330
18
100
AcDbEntity
  8
0
  6
HIDDEN
100
AcDbLine
 10
4.008
 20
2.571
 30
0.0
 11
4.017
 21
2.579
 31
0.0
  0
ARC
  5
35A
330
18
100
AcDbEntity
  8
0
  6
HIDDEN
100
AcDbCircle
 10
3.944
 20
2.647
 30
0.0
 40
0.1
100
AcDbArc
 50
270.604
 51
310.074
  0
ARC
  5
35B
330
18
100
AcDbEntity
  8
0
  6
HIDDEN
100
AcDbCircle
 10
4.057
 20
2.578
 30
0.0
 40
0.1
100
AcDbArc
 50
270.604
 51
310.074
  0
LINE
  5
35C
330
18
100
AcDbEntity
  8
0
  6
HIDDEN
100
AcDbLine
 10
4.121
 20
2.501
 30
0.0
 11
4.134
 21
2.512
 31
0.0
  0
LINE
  5
35D
330
18
100
AcDbEntity
  8
0
  6
HIDDEN
100
AcDbLine
 10
3.858
 20
2.475
 30
0.0
 11
4.058
 21
2.478
 31
0.0
  0
LINE
  5
35E
330
18
100
AcDbEntity
  8
0
  6
HIDDEN
100
AcDbLine
 10
3.972
 20
2.401
 30
0.0
 11
4.171
 21
2.403
 31
0.0
  0
LINE
  5
35F
330
18
100
AcDbEntity
  8
0
  6
HIDDEN
100
AcDbLine
 10
4.235
 20
2.427
 30
0.0
 11
4.255
 21
2.444
 31
0.0
  0
ARC
  5
360
330
18
100
AcDbEntity
  8
0
  6
HIDDEN
100
AcDbCircle
 10
4.17
 20
2.503
 30
0.0
 40
0.1
100
AcDbArc
 50
270.604
 51
310.074
  0
LINE
  5
361
330
18
100
AcDbEntity
  8
0
  6
HIDDEN
100
AcDbLine
 10
4.095
 20
2.336
 30
0.0
 11
4.294
 21
2.338
 31
0.0
  0
LINE
  5
362
330
18
100
AcDbEntity
  8
0
  6
HIDDEN
100
AcDbLine
 10
4.358000000000001
 20
2.362
 30
0.0
 11
4.374
 21
2.376
 31
0.0
  0
ARC
  5
363
330
18
100
AcDbEntity
  8
0
  6
HIDDEN
100
AcDbCircle
 10
4.293
 20
2.438
 30
0.0
 40
0.1
100
AcDbArc
 50
270.604
 51
310.074
  0
LINE
  5
364
330
18
100
AcDbEntity
  8
0
  6
HIDDEN
100
AcDbLine
 10
4.206
 20
2.268
 30
0.0
 11
4.406000000000001
 21
2.27
 31
0.0
  0
LINE
  5
365
330
18
100
AcDbEntity
  8
0
  6
HIDDEN
100
AcDbLine
 10
4.468999999999999
 20
2.294
 30
0.0
 11
4.489
 21
2.31
 31
0.0
  0
ARC
  5
366
330
18
100
AcDbEntity
  8
0
  6
HIDDEN
100
AcDbCircle
 10
4.405
 20
2.37
 30
0.0
 40
0.1
100
AcDbArc
 50
270.604
 51
310.074
  0
LINE
  5
367
330
18
100
AcDbEntity
  8
0
  6
HIDDEN
100
AcDbLine
 10
4.319
 20
2.2
 30
0.0
 11
4.518
 21
2.202
 31
0.0
  0
LINE
  5
368
330
18
100
AcDbEntity
  8
0
  6
HIDDEN
100
AcDbLine
 10
4.582
 20
2.226
 30
0.0
 11
4.604
 21
2.245
 31
0.0
  0
ARC
  5
369
330
18
100
AcDbEntity
  8
0
  6
HIDDEN
100
AcDbCircle
 10
4.517
 20
2.302
 30
0.0
 40
0.1
100
AcDbArc
 50
270.604
 51
310.074
  0
LINE
  5
36A
330
18
100
AcDbEntity
  8
0
  6
HIDDEN
100
AcDbLine
 10
4.438
 20
2.137
 30
0.0
 11
4.637
 21
2.139
 31
0.0
  0
LINE
  5
36B
330
18
100
AcDbEntity
  8
0
  6
HIDDEN
100
AcDbLine
 10
4.701000000000001
 20
2.163
 30
0.0
 11
4.72
 21
2.179
 31
0.0
  0
ARC
  5
36C
330
18
100
AcDbEntity
  8
0
  6
HIDDEN
100
AcDbCircle
 10
4.636
 20
2.239
 30
0.0
 40
0.1
100
AcDbArc
 50
270.604
 51
310.074
  0
LINE
  5
36D
330
18
100
AcDbEntity
  8
0
  6
HIDDEN
100
AcDbLine
 10
4.041
 20
2.598
 30
0.0
 11
4.077
 21
2.629
 31
0.0
  0
LINE
  5
36E
330
18
100
AcDbEntity
  8
0
  6
HIDDEN
100
AcDbLine
 10
4.158
 20
2.532
 30
0.0
 11
4.19
 21
2.559
 31
0.0
  0
LINE
  5
36F
330
18
100
AcDbEntity
  8
0
  6
HIDDEN
100
AcDbLine
 10
4.278000000000001
 20
2.463
 30
0.0
 11
4.303999999999999
 21
2.485
 31
0.0
  0
LINE
  5
370
330
18
100
AcDbEntity
  8
0
  6
HIDDEN
100
AcDbLine
 10
4.398
 20
2.395
 30
0.0
 11
4.427
 21
2.42
 31
0.0
  0
LINE
  5
371
330
18
100
AcDbEntity
  8
0
  6
HIDDEN
100
AcDbLine
 10
4.513
 20
2.33
 30
0.0
 11
4.539
 21
2.352
 31
0.0
  0
LINE
  5
372
330
18
100
AcDbEntity
  8
0
  6
HIDDEN
100
AcDbLine
 10
4.628
 20
2.264
 30
0.0
 11
4.651
 21
2.284
 31
0.0
  0
LINE
  5
373
330
18
100
AcDbEntity
  8
0
  6
HIDDEN
100
AcDbLine
 10
4.743
 20
2.199
 30
0.0
 11
4.77
 21
2.221
 31
0.0
  0
POINT
  5
374
330
18
100
AcDbEntity
  8
0
100
AcDbPoint
 10
5.769
 20
5.339
 30
0.0
  0
POINT
  5
375
330
18
100
AcDbEntity
  8
0
100
AcDbPoint
 10
5.777
 20
5.287000000000001
 30
0.0
  0
POINT
  5
376
330
18
100
AcDbEntity
  8
0
100
AcDbPoint
 10
5.783
 20
5.23
 30
0.0
  0
POINT
  5
377
330
18
100
AcDbEntity
  8
0
100
AcDbPoint
 10
5.851
 20
5.041
 30
0.0
  0
POINT
  5
378
330
18
100
AcDbEntity
  8
0
100
AcDbPoint
 10
5.823
 20
5.067
 30
0.0
  0
POINT
  5
379
330
18
100
AcDbEntity
  8
0
100
AcDbPoint
 10
5.805
 20
5.055
 30
0.0
  0
POINT
  5
37A
330
18
100
AcDbEntity
  8
0
100
AcDbPoint
 10
5.906000000000001
 20
5.457999999999999
 30
0.0
  0
POINT
  5
37B
330
18
100
AcDbEntity
  8
0
100
AcDbPoint
 10
5.865
 20
5.424
 30
0.0
  0
POINT
  5
37C
330
18
100
AcDbEntity
  8
0
100
AcDbPoint
 10
5.819
 20
5.391
 30
0.0
  0
POINT
  5
37D
330
18
100
AcDbEntity
  8
0
100
AcDbPoint
 10
5.689
 20
5.237
 30
0.0
  0
POINT
  5
37E
330
18
100
AcDbEntity
  8
0
100
AcDbPoint
 10
5.698
 20
5.274
 30
0.0
  0
POINT
  5
37F
330
18
100
AcDbEntity
  8
0
100
AcDbPoint
 10
5.678
 20
5.284
 30
0.0
  0
POINT
  5
380
330
18
100
AcDbEntity
  8
0
100
AcDbPoint
 10
5.255
 20
5.083
 30
0.0
  0
POINT
  5
381
330
18
100
AcDbEntity
  8
0
100
AcDbPoint
 10
5.263999999999999
 20
5.031000000000001
 30
0.0
  0
POINT
  5
382
330
18
100
AcDbEntity
  8
0
100
AcDbPoint
 10
5.27
 20
4.974
 30
0.0
  0
POINT
  5
383
330
18
100
AcDbEntity
  8
0
100
AcDbPoint
 10
5.337999999999999
 20
4.785
 30
0.0
  0
POINT
  5
384
330
18
100
AcDbEntity
  8
0
100
AcDbPoint
 10
5.31
 20
4.811
 30
0.0
  0
POINT
  5
385
330
18
100
AcDbEntity
  8
0
100
AcDbPoint
 10
5.292000000000001
 20
4.799
 30
0.0
  0
POINT
  5
386
330
18
100
AcDbEntity
  8
0
100
AcDbPoint
 10
5.393
 20
5.202000000000001
 30
0.0
  0
POINT
  5
387
330
18
100
AcDbEntity
  8
0
100
AcDbPoint
 10
5.352
 20
5.167999999999999
 30
0.0
  0
POINT
  5
388
330
18
100
AcDbEntity
  8
0
100
AcDbPoint
 10
5.306
 20
5.135
 30
0.0
  0
POINT
  5
389
330
18
100
AcDbEntity
  8
0
100
AcDbPoint
 10
5.176
 20
4.981
 30
0.0
  0
POINT
  5
38A
330
18
100
AcDbEntity
  8
0
100
AcDbPoint
 10
5.185
 20
5.018
 30
0.0
  0
POINT
  5
38B
330
18
100
AcDbEntity
  8
0
100
AcDbPoint
 10
5.165
 20
5.027
 30
0.0
  0
POINT
  5
38C
330
18
100
AcDbEntity
  8
0
100
AcDbPoint
 10
3.464
 20
2.137
 30
0.0
  0
POINT
  5
38D
330
18
100
AcDbEntity
  8
0
100
AcDbPoint
 10
3.473
 20
2.085
 30
0.0
  0
POINT
  5
38E
330
18
100
AcDbEntity
  8
0
100
AcDbPoint
 10
3.479
 20
2.028
 30
0.0
  0
POINT
  5
38F
330
18
100
AcDbEntity
  8
0
100
AcDbPoint
 10
3.206
 20
1.229
 30
0.0
  0
POINT
  5
390
330
18
100
AcDbEntity
  8
0
100
AcDbPoint
 10
3.167
 20
1.229
 30
0.0
  0
POINT
  5
391
330
18
100
AcDbEntity
  8
0
100
AcDbPoint
 10
3.163
 20
1.208
 30
0.0
  0
POINT
  5
392
330
18
100
AcDbEntity
  8
0
100
AcDbPoint
 10
3.602
 20
2.256
 30
0.0
  0
POINT
  5
393
330
18
100
AcDbEntity
  8
0
100
AcDbPoint
 10
3.561
 20
2.222
 30
0.0
  0
POINT
  5
394
330
18
100
AcDbEntity
  8
0
100
AcDbPoint
 10
3.515
 20
2.189
 30
0.0
  0
POINT
  5
395
330
18
100
AcDbEntity
  8
0
100
AcDbPoint
 10
3.385
 20
2.035
 30
0.0
  0
POINT
  5
396
330
18
100
AcDbEntity
  8
0
100
AcDbPoint
 10
3.394
 20
2.073
 30
0.0
  0
POINT
  5
397
330
18
100
AcDbEntity
  8
0
100
AcDbPoint
 10
3.374
 20
2.082
 30
0.0
  0
POINT
  5
398
330
18
100
AcDbEntity
  8
0
100
AcDbPoint
 10
5.023
 20
2.763
 30
0.0
  0
POINT
  5
399
330
18
100
AcDbEntity
  8
0
100
AcDbPoint
 10
4.98
 20
2.731
 30
0.0
  0
POINT
  5
39A
330
18
100
AcDbEntity
  8
0
100
AcDbPoint
 10
4.932
 20
2.7
 30
0.0
  0
POINT
  5
39B
330
18
100
AcDbEntity
  8
0
100
AcDbPoint
 10
4.794
 20
2.554
 30
0.0
  0
POINT
  5
39C
330
18
100
AcDbEntity
  8
0
100
AcDbPoint
 10
4.805
 20
2.591
 30
0.0
  0
POINT
  5
39D
330
18
100
AcDbEntity
  8
0
100
AcDbPoint
 10
4.785
 20
2.601
 30
0.0
  0
POINT
  5
39E
330
18
100
AcDbEntity
  8
0
100
AcDbPoint
 10
5.191
 20
2.694
 30
0.0
  0
POINT
  5
39F
330
18
100
AcDbEntity
  8
0
100
AcDbPoint
 10
5.142
 20
2.715
 30
0.0
  0
POINT
  5
3A0
330
18
100
AcDbEntity
  8
0
100
AcDbPoint
 10
5.091
 20
2.741
 30
0.0
  0
POINT
  5
3A1
330
18
100
AcDbEntity
  8
0
100
AcDbPoint
 10
4.896
 20
2.787
 30
0.0
  0
POINT
  5
3A2
330
18
100
AcDbEntity
  8
0
100
AcDbPoint
 10
4.933
 20
2.796
 30
0.0
  0
POINT
  5
3A3
330
18
100
AcDbEntity
  8
0
100
AcDbPoint
 10
4.932
 20
2.818
 30
0.0
  0
POINT
  5
3A4
330
18
100
AcDbEntity
  8
0
100
AcDbPoint
 10
5.909
 20
2.943
 30
0.0
  0
POINT
  5
3A5
330
18
100
AcDbEntity
  8
0
100
AcDbPoint
 10
5.917999999999999
 20
2.89
 30
0.0
  0
POINT
  5
3A6
330
18
100
AcDbEntity
  8
0
100
AcDbPoint
 10
5.924
 20
2.834
 30
0.0
  0
POINT
  5
3A7
330
18
100
AcDbEntity
  8
0
100
AcDbPoint
 10
5.991000000000001
 20
2.644
 30
0.0
  0
POINT
  5
3A8
330
18
100
AcDbEntity
  8
0
100
AcDbPoint
 10
5.964
 20
2.671
 30
0.0
  0
POINT
  5
3A9
330
18
100
AcDbEntity
  8
0
100
AcDbPoint
 10
5.946000000000001
 20
2.658
 30
0.0
  0
POINT
  5
3AA
330
18
100
AcDbEntity
  8
0
100
AcDbPoint
 10
6.047000000000001
 20
3.061
 30
0.0
  0
POINT
  5
3AB
330
18
100
AcDbEntity
  8
0
100
AcDbPoint
 10
6.006
 20
3.028
 30
0.0
  0
POINT
  5
3AC
330
18
100
AcDbEntity
  8
0
100
AcDbPoint
 10
5.96
 20
2.994
 30
0.0
  0
POINT
  5
3AD
330
18
100
AcDbEntity
  8
0
100
AcDbPoint
 10
5.83
 20
2.841
 30
0.0
  0
POINT
  5
3AE
330
18
100
AcDbEntity
  8
0
100
AcDbPoint
 10
5.839
 20
2.878
 30
0.0
  0
POINT
  5
3AF
330
18
100
AcDbEntity
  8
0
100
AcDbPoint
 10
5.819
 20
2.887
 30
0.0
  0
POINT
  5
3B0
330
18
100
AcDbEntity
  8
0
100
AcDbPoint
 10
5.271
 20
2.983
 30
0.0
  0
POINT
  5
3B1
330
18
100
AcDbEntity
  8
0
100
AcDbPoint
 10
5.272
 20
2.962
 30
0.0
  0
POINT
  5
3B2
330
18
100
AcDbEntity
  8
0
100
AcDbPoint
 10
5.234
 20
2.953
 30
0.0
  0
POINT
  5
3B3
330
18
100
AcDbEntity
  8
0
100
AcDbPoint
 10
5.43
 20
2.906
 30
0.0
  0
POINT
  5
3B4
330
18
100
AcDbEntity
  8
0
100
AcDbPoint
 10
5.481
 20
2.88
 30
0.0
  0
POINT
  5
3B5
330
18
100
AcDbEntity
  8
0
100
AcDbPoint
 10
5.124
 20
2.767
 30
0.0
  0
POINT
  5
3B6
330
18
100
AcDbEntity
  8
0
100
AcDbPoint
 10
5.143
 20
2.756
 30
0.0
  0
POINT
  5
3B7
330
18
100
AcDbEntity
  8
0
100
AcDbPoint
 10
5.271
 20
2.866
 30
0.0
  0
POINT
  5
3B8
330
18
100
AcDbEntity
  8
0
100
AcDbPoint
 10
5.319
 20
2.897
 30
0.0
  0
POINT
  5
3B9
330
18
100
AcDbEntity
  8
0
100
AcDbPoint
 10
5.361000000000001
 20
2.928
 30
0.0
  0
POINT
  5
3BA
330
18
100
AcDbEntity
  8
0
100
AcDbPoint
 10
5.119
 20
2.877
 30
0.0
  0
POINT
  5
3BB
330
18
100
AcDbEntity
  8
0
100
AcDbPoint
 10
5.12
 20
2.855
 30
0.0
  0
POINT
  5
3BC
330
18
100
AcDbEntity
  8
0
100
AcDbPoint
 10
5.083
 20
2.847
 30
0.0
  0
POINT
  5
3BD
330
18
100
AcDbEntity
  8
0
100
AcDbPoint
 10
4.588
 20
1.363
 30
0.0
  0
POINT
  5
3BE
330
18
100
AcDbEntity
  8
0
100
AcDbPoint
 10
4.546
 20
1.331
 30
0.0
  0
POINT
  5
3BF
330
18
100
AcDbEntity
  8
0
100
AcDbPoint
 10
4.498
 20
1.3
 30
0.0
  0
POINT
  5
3C0
330
18
100
AcDbEntity
  8
0
100
AcDbPoint
 10
4.708
 20
1.315
 30
0.0
  0
POINT
  5
3C1
330
18
100
AcDbEntity
  8
0
100
AcDbPoint
 10
4.657
 20
1.341
 30
0.0
  0
POINT
  5
3C2
330
18
100
AcDbEntity
  8
0
100
AcDbPoint
 10
4.462
 20
1.387
 30
0.0
  0
POINT
  5
3C3
330
18
100
AcDbEntity
  8
0
100
AcDbPoint
 10
4.499
 20
1.396
 30
0.0
  0
POINT
  5
3C4
330
18
100
AcDbEntity
  8
0
100
AcDbPoint
 10
4.498
 20
1.418
 30
0.0
  0
POINT
  5
3C5
330
18
100
AcDbEntity
  8
0
100
AcDbPoint
 10
4.123
 20
1.222
 30
0.0
  0
POINT
  5
3C6
330
18
100
AcDbEntity
  8
0
100
AcDbPoint
 10
4.013
 20
1.036
 30
0.0
  0
POINT
  5
3C7
330
18
100
AcDbEntity
  8
0
100
AcDbPoint
 10
4.032
 20
1.025
 30
0.0
  0
POINT
  5
3C8
330
18
100
AcDbEntity
  8
0
100
AcDbPoint
 10
4.021
 20
0.9890000000000001
 30
0.0
  0
POINT
  5
3C9
330
18
100
AcDbEntity
  8
0
100
AcDbPoint
 10
2.318
 20
2.012
 30
0.0
  0
POINT
  5
3CA
330
18
100
AcDbEntity
  8
0
100
AcDbPoint
 10
2.275
 20
1.98
 30
0.0
  0
POINT
  5
3CB
330
18
100
AcDbEntity
  8
0
100
AcDbPoint
 10
2.227
 20
1.949
 30
0.0
  0
POINT
  5
3CC
330
18
100
AcDbEntity
  8
0
100
AcDbPoint
 10
2.089
 20
1.804
 30
0.0
  0
POINT
  5
3CD
330
18
100
AcDbEntity
  8
0
100
AcDbPoint
 10
2.1
 20
1.84
 30
0.0
  0
POINT
  5
3CE
330
18
100
AcDbEntity
  8
0
100
AcDbPoint
 10
2.08
 20
1.85
 30
0.0
  0
POINT
  5
3CF
330
18
100
AcDbEntity
  8
0
100
AcDbPoint
 10
2.486
 20
1.943
 30
0.0
  0
POINT
  5
3D0
330
18
100
AcDbEntity
  8
0
100
AcDbPoint
 10
2.437
 20
1.964
 30
0.0
  0
POINT
  5
3D1
330
18
100
AcDbEntity
  8
0
100
AcDbPoint
 10
2.386
 20
1.99
 30
0.0
  0
POINT
  5
3D2
330
18
100
AcDbEntity
  8
0
100
AcDbPoint
 10
2.191
 20
2.036
 30
0.0
  0
POINT
  5
3D3
330
18
100
AcDbEntity
  8
0
100
AcDbPoint
 10
2.228
 20
2.045
 30
0.0
  0
POINT
  5
3D4
330
18
100
AcDbEntity
  8
0
100
AcDbPoint
 10
2.227
 20
2.067
 30
0.0
  0
POINT
  5
3D5
330
18
100
AcDbEntity
  8
0
100
AcDbPoint
 10
2.566
 20
2.233
 30
0.0
  0
POINT
  5
3D6
330
18
100
AcDbEntity
  8
0
100
AcDbPoint
 10
2.567
 20
2.211
 30
0.0
  0
POINT
  5
3D7
330
18
100
AcDbEntity
  8
0
100
AcDbPoint
 10
2.529
 20
2.202
 30
0.0
  0
POINT
  5
3D8
330
18
100
AcDbEntity
  8
0
100
AcDbPoint
 10
2.725
 20
2.155
 30
0.0
  0
POINT
  5
3D9
330
18
100
AcDbEntity
  8
0
100
AcDbPoint
 10
2.861
 20
2.153
 30
0.0
  0
POINT
  5
3DA
330
18
100
AcDbEntity
  8
0
100
AcDbPoint
 10
2.419
 20
2.016
 30
0.0
  0
POINT
  5
3DB
330
18
100
AcDbEntity
  8
0
100
AcDbPoint
 10
2.438
 20
2.006
 30
0.0
  0
POINT
  5
3DC
330
18
100
AcDbEntity
  8
0
100
AcDbPoint
 10
2.566
 20
2.115
 30
0.0
  0
POINT
  5
3DD
330
18
100
AcDbEntity
  8
0
100
AcDbPoint
 10
2.614
 20
2.146
 30
0.0
  0
POINT
  5
3DE
330
18
100
AcDbEntity
  8
0
100
AcDbPoint
 10
2.656
 20
2.177
 30
0.0
  0
POINT
  5
3DF
330
18
100
AcDbEntity
  8
0
100
AcDbPoint
 10
2.414
 20
2.126
 30
0.0
  0
POINT
  5
3E0
330
18
100
AcDbEntity
  8
0
100
AcDbPoint
 10
2.415
 20
2.105
 30
0.0
  0
POINT
  5
3E1
330
18
100
AcDbEntity
  8
0
100
AcDbPoint
 10
2.378
 20
2.096
 30
0.0
  0
POINT
  5
3E2
330
18
100
AcDbEntity
  8
0
100
AcDbPoint
 10
0.993
 20
1.648
 30
0.0
  0
POINT
  5
3E3
330
18
100
AcDbEntity
  8
0
100
AcDbPoint
 10
1.03
 20
1.656
 30
0.0
  0
POINT
  5
3E4
330
18
100
AcDbEntity
  8
0
100
AcDbPoint
 10
1.03
 20
1.678
 30
0.0
  0
POINT
  5
3E5
330
18
100
AcDbEntity
  8
0
100
AcDbPoint
 10
1.272
 20
1.729
 30
0.0
  0
POINT
  5
3E6
330
18
100
AcDbEntity
  8
0
100
AcDbPoint
 10
1.229
 20
1.697
 30
0.0
  0
POINT
  5
3E7
330
18
100
AcDbEntity
  8
0
100
AcDbPoint
 10
1.181
 20
1.667
 30
0.0
  0
POINT
  5
3E8
330
18
100
AcDbEntity
  8
0
100
AcDbPoint
 10
1.054
 20
1.557
 30
0.0
  0
POINT
  5
3E9
330
18
100
AcDbEntity
  8
0
100
AcDbPoint
 10
1.034
 20
1.568
 30
0.0
  0
POINT
  5
3EA
330
18
100
AcDbEntity
  8
0
100
AcDbPoint
 10
1.391
 20
1.681
 30
0.0
  0
POINT
  5
3EB
330
18
100
AcDbEntity
  8
0
100
AcDbPoint
 10
1.34
 20
1.707
 30
0.0
  0
POINT
  5
3EC
330
18
100
AcDbEntity
  8
0
100
AcDbPoint
 10
1.145
 20
1.754
 30
0.0
  0
POINT
  5
3ED
330
18
100
AcDbEntity
  8
0
100
AcDbPoint
 10
1.182
 20
1.762
 30
0.0
  0
POINT
  5
3EE
330
18
100
AcDbEntity
  8
0
100
AcDbPoint
 10
1.181
 20
1.784
 30
0.0
  0
POINT
  5
3EF
330
18
100
AcDbEntity
  8
0
100
AcDbPoint
 10
0.8420000000000001
 20
1.619
 30
0.0
  0
POINT
  5
3F0
330
18
100
AcDbEntity
  8
0
100
AcDbPoint
 10
0.843
 20
1.597
 30
0.0
  0
POINT
  5
3F1
330
18
100
AcDbEntity
  8
0
100
AcDbPoint
 10
0.8059999999999999
 20
1.588
 30
0.0
  0
POINT
  5
3F2
330
18
100
AcDbEntity
  8
0
100
AcDbPoint
 10
1.002
 20
1.542
 30
0.0
  0
POINT
  5
3F3
330
18
100
AcDbEntity
  8
0
100
AcDbPoint
 10
1.052
 20
1.515
 30
0.0
  0
POINT
  5
3F4
330
18
100
AcDbEntity
  8
0
100
AcDbPoint
 10
1.101
 20
1.494
 30
0.0
  0
POINT
  5
3F5
330
18
100
AcDbEntity
  8
0
100
AcDbPoint
 10
0.696
 20
1.402
 30
0.0
  0
POINT
  5
3F6
330
18
100
AcDbEntity
  8
0
100
AcDbPoint
 10
0.715
 20
1.392
 30
0.0
  0
POINT
  5
3F7
330
18
100
AcDbEntity
  8
0
100
AcDbPoint
 10
0.645
 20
0.767
 30
0.0
  0
POINT
  5
3F8
330
18
100
AcDbEntity
  8
0
100
AcDbPoint
 10
0.8420000000000001
 20
1.501
 30
0.0
  0
POINT
  5
3F9
330
18
100
AcDbEntity
  8
0
100
AcDbPoint
 10
0.89
 20
1.532
 30
0.0
  0
POINT
  5
3FA
330
18
100
AcDbEntity
  8
0
100
AcDbPoint
 10
0.9329999999999999
 20
1.563
 30
0.0
  0
POINT
  5
3FB
330
18
100
AcDbEntity
  8
0
100
AcDbPoint
 10
3.493
 20
0.912
 30
0.0
  0
POINT
  5
3FC
330
18
100
AcDbEntity
  8
0
100
AcDbPoint
 10
3.45
 20
0.88
 30
0.0
  0
POINT
  5
3FD
330
18
100
AcDbEntity
  8
0
100
AcDbPoint
 10
3.402
 20
0.8490000000000001
 30
0.0
  0
POINT
  5
3FE
330
18
100
AcDbEntity
  8
0
100
AcDbPoint
 10
3.264
 20
0.703
 30
0.0
  0
POINT
  5
3FF
330
18
100
AcDbEntity
  8
0
100
AcDbPoint
 10
3.275
 20
0.74
 30
0.0
  0
POINT
  5
400
330
18
100
AcDbEntity
  8
0
100
AcDbPoint
 10
3.255
 20
0.75
 30
0.0
  0
POINT
  5
401
330
18
100
AcDbEntity
  8
0
100
AcDbPoint
 10
3.366
 20
0.9359999999999999
 30
0.0
  0
POINT
  5
402
330
18
100
AcDbEntity
  8
0
100
AcDbPoint
 10
3.403
 20
0.945
 30
0.0
  0
POINT
  5
403
330
18
100
AcDbEntity
  8
0
100
AcDbPoint
 10
3.402
 20
0.9670000000000001
 30
0.0
  0
POINT
  5
404
330
18
100
AcDbEntity
  8
0
100
AcDbPoint
 10
3.741
 20
1.132
 30
0.0
  0
POINT
  5
405
330
18
100
AcDbEntity
  8
0
100
AcDbPoint
 10
3.742
 20
1.11
 30
0.0
  0
POINT
  5
406
330
18
100
AcDbEntity
  8
0
100
AcDbPoint
 10
3.704
 20
1.102
 30
0.0
  0
POINT
  5
407
330
18
100
AcDbEntity
  8
0
100
AcDbPoint
 10
3.9
 20
1.055
 30
0.0
  0
POINT
  5
408
330
18
100
AcDbEntity
  8
0
100
AcDbPoint
 10
3.951
 20
1.029
 30
0.0
  0
POINT
  5
409
330
18
100
AcDbEntity
  8
0
100
AcDbPoint
 10
3.831
 20
1.077
 30
0.0
  0
POINT
  5
40A
330
18
100
AcDbEntity
  8
0
100
AcDbPoint
 10
5.448
 20
1.624
 30
0.0
  0
POINT
  5
40B
330
18
100
AcDbEntity
  8
0
100
AcDbPoint
 10
5.398
 20
1.65
 30
0.0
  0
POINT
  5
40C
330
18
100
AcDbEntity
  8
0
100
AcDbPoint
 10
5.747999999999999
 20
1.792
 30
0.0
  0
POINT
  5
40D
330
18
100
AcDbEntity
  8
0
100
AcDbPoint
 10
5.705
 20
1.76
 30
0.0
  0
POINT
  5
40E
330
18
100
AcDbEntity
  8
0
100
AcDbPoint
 10
5.657
 20
1.73
 30
0.0
  0
POINT
  5
40F
330
18
100
AcDbEntity
  8
0
100
AcDbPoint
 10
5.519
 20
1.584
 30
0.0
  0
POINT
  5
410
330
18
100
AcDbEntity
  8
0
100
AcDbPoint
 10
5.53
 20
1.62
 30
0.0
  0
POINT
  5
411
330
18
100
AcDbEntity
  8
0
100
AcDbPoint
 10
5.511
 20
1.63
 30
0.0
  0
POINT
  5
412
330
18
100
AcDbEntity
  8
0
100
AcDbPoint
 10
5.621
 20
1.817
 30
0.0
  0
POINT
  5
413
330
18
100
AcDbEntity
  8
0
100
AcDbPoint
 10
5.658
 20
1.825
 30
0.0
  0
POINT
  5
414
330
18
100
AcDbEntity
  8
0
100
AcDbPoint
 10
5.657
 20
1.847
 30
0.0
  0
POINT
  5
415
330
18
100
AcDbEntity
  8
0
100
AcDbPoint
 10
5.89
 20
1.707
 30
0.0
  0
POINT
  5
416
330
18
100
AcDbEntity
  8
0
100
AcDbPoint
 10
5.91
 20
1.696
 30
0.0
  0
POINT
  5
417
330
18
100
AcDbEntity
  8
0
100
AcDbPoint
 10
5.898
 20
1.66
 30
0.0
  0
POINT
  5
418
330
18
100
AcDbEntity
  8
0
100
AcDbPoint
 10
6.037000000000001
 20
1.806
 30
0.0
  0
POINT
  5
419
330
18
100
AcDbEntity
  8
0
100
AcDbPoint
 10
6.085
 20
1.837
 30
0.0
  0
POINT
  5
41A
330
18
100
AcDbEntity
  8
0
100
AcDbPoint
 10
5.827999999999999
 20
1.7
 30
0.0
  0
POINT
  5
41B
330
18
100
AcDbEntity
  8
0
100
AcDbPoint
 10
5.687
 20
0.958
 30
0.0
  0
POINT
  5
41C
330
18
100
AcDbEntity
  8
0
100
AcDbPoint
 10
5.757000000000001
 20
0.9179999999999999
 30
0.0
  0
POINT
  5
41D
330
18
100
AcDbEntity
  8
0
100
AcDbPoint
 10
5.768
 20
0.9540000000000001
 30
0.0
  0
POINT
  5
41E
330
18
100
AcDbEntity
  8
0
100
AcDbPoint
 10
5.749
 20
0.9640000000000001
 30
0.0
  0
POINT
  5
41F
330
18
100
AcDbEntity
  8
0
100
AcDbPoint
 10
5.369
 20
0.888
 30
0.0
  0
POINT
  5
420
330
18
100
AcDbEntity
  8
0
100
AcDbPoint
 10
5.388999999999999
 20
0.878
 30
0.0
  0
POINT
  5
421
330
18
100
AcDbEntity
  8
0
100
AcDbPoint
 10
5.377000000000001
 20
0.841
 30
0.0
  0
POINT
  5
422
330
18
100
AcDbEntity
  8
0
100
AcDbPoint
 10
5.307
 20
0.882
 30
0.0
  0
POINT
  5
423
330
18
100
AcDbEntity
  8
0
100
AcDbPoint
 10
1.561
 20
1.939
 30
0.0
  0
POINT
  5
424
330
18
100
AcDbEntity
  8
0
100
AcDbPoint
 10
1.518
 20
1.907
 30
0.0
  0
POINT
  5
425
330
18
100
AcDbEntity
  8
0
100
AcDbPoint
 10
1.729
 20
1.87
 30
0.0
  0
POINT
  5
426
330
18
100
AcDbEntity
  8
0
100
AcDbPoint
 10
1.68
 20
1.891
 30
0.0
  0
POINT
  5
427
330
18
100
AcDbEntity
  8
0
100
AcDbPoint
 10
1.63
 20
1.917
 30
0.0
  0
POINT
  5
428
330
18
100
AcDbEntity
  8
0
100
AcDbPoint
 10
1.662
 20
1.943
 30
0.0
  0
POINT
  5
429
330
18
100
AcDbEntity
  8
0
100
AcDbPoint
 10
1.682
 20
1.932
 30
0.0
  0
POINT
  5
42A
330
18
100
AcDbEntity
  8
0
100
AcDbPoint
 10
1.658
 20
2.053
 30
0.0
  0
POINT
  5
42B
330
18
100
AcDbEntity
  8
0
100
AcDbPoint
 10
1.658
 20
2.031
 30
0.0
  0
POINT
  5
42C
330
18
100
AcDbEntity
  8
0
100
AcDbPoint
 10
1.621
 20
2.023
 30
0.0
  0
LINE
  5
42D
330
18
100
AcDbEntity
  8
0
100
AcDbLine
 10
3.074
 20
2.522
 30
0.0
 11
6.308
 21
3.511
 31
0.0
  0
POINT
  5
42E
330
18
100
AcDbEntity
  8
0
100
AcDbPoint
 10
2.7
 20
2.661
 30
0.0
  0
POINT
  5
42F
330
18
100
AcDbEntity
  8
0
100
AcDbPoint
 10
2.737
 20
2.669
 30
0.0
  0
POINT
  5
430
330
18
100
AcDbEntity
  8
0
100
AcDbPoint
 10
2.769
 20
2.595
 30
0.0
  0
POINT
  5
431
330
18
100
AcDbEntity
  8
0
100
AcDbPoint
 10
2.769
 20
2.578
 30
0.0
  0
POINT
  5
432
330
18
100
AcDbEntity
  8
0
100
AcDbPoint
 10
2.785
 20
2.586
 30
0.0
  0
POINT
  5
433
330
18
100
AcDbEntity
  8
0
100
AcDbPoint
 10
2.801
 20
2.604
 30
0.0
  0
POINT
  5
434
330
18
100
AcDbEntity
  8
0
100
AcDbPoint
 10
2.791
 20
2.585
 30
0.0
  0
POINT
  5
435
330
18
100
AcDbEntity
  8
0
100
AcDbPoint
 10
2.713
 20
2.595
 30
0.0
  0
POINT
  5
436
330
18
100
AcDbEntity
  8
0
100
AcDbPoint
 10
2.711
 20
2.557
 30
0.0
  0
POINT
  5
437
330
18
100
AcDbEntity
  8
0
100
AcDbPoint
 10
2.846
 20
2.553
 30
0.0
  0
POINT
  5
438
330
18
100
AcDbEntity
  8
0
100
AcDbPoint
 10
2.864
 20
2.552
 30
0.0
  0
POINT
  5
439
330
18
100
AcDbEntity
  8
0
100
AcDbPoint
 10
2.901
 20
2.56
 30
0.0
  0
POINT
  5
43A
330
18
100
AcDbEntity
  8
0
100
AcDbPoint
 10
2.832
 20
2.543
 30
0.0
  0
POINT
  5
43B
330
18
100
AcDbEntity
  8
0
100
AcDbPoint
 10
2.949
 20
2.477
 30
0.0
  0
POINT
  5
43C
330
18
100
AcDbEntity
  8
0
100
AcDbPoint
 10
2.965
 20
2.495
 30
0.0
  0
POINT
  5
43D
330
18
100
AcDbEntity
  8
0
100
AcDbPoint
 10
2.955
 20
2.476
 30
0.0
  0
POINT
  5
43E
330
18
100
AcDbEntity
  8
0
100
AcDbPoint
 10
2.947
 20
2.496
 30
0.0
  0
POINT
  5
43F
330
18
100
AcDbEntity
  8
0
100
AcDbPoint
 10
5.939
 20
4.362
 30
0.0
  0
POINT
  5
440
330
18
100
AcDbEntity
  8
0
100
AcDbPoint
 10
5.948
 20
4.341
 30
0.0
  0
POINT
  5
441
330
18
100
AcDbEntity
  8
0
100
AcDbPoint
 10
5.957000000000001
 20
4.361000000000001
 30
0.0
  0
POINT
  5
442
330
18
100
AcDbEntity
  8
0
100
AcDbPoint
 10
5.942
 20
4.342
 30
0.0
  0
POINT
  5
443
330
18
100
AcDbEntity
  8
0
100
AcDbPoint
 10
6.103
 20
4.249
 30
0.0
  0
POINT
  5
444
330
18
100
AcDbEntity
  8
0
100
AcDbPoint
 10
6.111000000000001
 20
4.229
 30
0.0
  0
POINT
  5
445
330
18
100
AcDbEntity
  8
0
100
AcDbPoint
 10
6.12
 20
4.248
 30
0.0
  0
POINT
  5
446
330
18
100
AcDbEntity
  8
0
100
AcDbPoint
 10
6.105
 20
4.23
 30
0.0
  0
POINT
  5
447
330
18
100
AcDbEntity
  8
0
100
AcDbPoint
 10
6.087999999999999
 20
4.222
 30
0.0
  0
POINT
  5
448
330
18
100
AcDbEntity
  8
0
100
AcDbPoint
 10
6.087999999999999
 20
4.239
 30
0.0
  0
POINT
  5
449
330
18
100
AcDbEntity
  8
0
100
AcDbPoint
 10
5.987
 20
4.296
 30
0.0
  0
POINT
  5
44A
330
18
100
AcDbEntity
  8
0
100
AcDbPoint
 10
5.987
 20
4.279
 30
0.0
  0
POINT
  5
44B
330
18
100
AcDbEntity
  8
0
100
AcDbPoint
 10
6.004
 20
4.27
 30
0.0
  0
POINT
  5
44C
330
18
100
AcDbEntity
  8
0
100
AcDbPoint
 10
6.004
 20
4.287
 30
0.0
  0
POINT
  5
44D
330
18
100
AcDbEntity
  8
0
100
AcDbPoint
 10
6.055
 20
4.275
 30
0.0
  0
POINT
  5
44E
330
18
100
AcDbEntity
  8
0
100
AcDbPoint
 10
6.056
 20
4.313
 30
0.0
  0
POINT
  5
44F
330
18
100
AcDbEntity
  8
0
100
AcDbPoint
 10
6.027
 20
4.285
 30
0.0
  0
POINT
  5
450
330
18
100
AcDbEntity
  8
0
100
AcDbPoint
 10
6.018
 20
4.267
 30
0.0
  0
POINT
  5
451
330
18
100
AcDbEntity
  8
0
100
AcDbPoint
 10
6.019
 20
4.305
 30
0.0
  0
POINT
  5
452
330
18
100
AcDbEntity
  8
0
100
AcDbPoint
 10
6.009
 20
4.286000000000001
 30
0.0
  0
POINT
  5
453
330
18
100
AcDbEntity
  8
0
100
AcDbPoint
 10
6.0
 20
4.268
 30
0.0
  0
POINT
  5
454
330
18
100
AcDbEntity
  8
0
100
AcDbPoint
 10
6.001
 20
4.306
 30
0.0
  0
POINT
  5
455
330
18
100
AcDbEntity
  8
0
100
AcDbPoint
 10
6.14
 20
4.166
 30
0.0
  0
POINT
  5
456
330
18
100
AcDbEntity
  8
0
100
AcDbPoint
 10
6.058
 20
4.2
 30
0.0
  0
POINT
  5
457
330
18
100
AcDbEntity
  8
0
100
AcDbPoint
 10
5.957000000000001
 20
4.233000000000001
 30
0.0
  0
POINT
  5
458
330
18
100
AcDbEntity
  8
0
100
AcDbPoint
 10
5.957000000000001
 20
4.216
 30
0.0
  0
POINT
  5
459
330
18
100
AcDbEntity
  8
0
100
AcDbPoint
 10
5.974
 20
4.207
 30
0.0
  0
POINT
  5
45A
330
18
100
AcDbEntity
  8
0
100
AcDbPoint
 10
5.974
 20
4.224
 30
0.0
  0
POINT
  5
45B
330
18
100
AcDbEntity
  8
0
100
AcDbPoint
 10
5.988
 20
4.204
 30
0.0
  0
POINT
  5
45C
330
18
100
AcDbEntity
  8
0
100
AcDbPoint
 10
5.99
 20
4.242
 30
0.0
  0
POINT
  5
45D
330
18
100
AcDbEntity
  8
0
100
AcDbPoint
 10
5.98
 20
4.223
 30
0.0
  0
POINT
  5
45E
330
18
100
AcDbEntity
  8
0
100
AcDbPoint
 10
5.97
 20
4.205
 30
0.0
  0
POINT
  5
45F
330
18
100
AcDbEntity
  8
0
100
AcDbPoint
 10
5.972
 20
4.243
 30
0.0
  0
POINT
  5
460
330
18
100
AcDbEntity
  8
0
100
AcDbPoint
 10
5.823
 20
4.325
 30
0.0
  0
POINT
  5
461
330
18
100
AcDbEntity
  8
0
100
AcDbPoint
 10
5.832999999999999
 20
4.343999999999999
 30
0.0
  0
POINT
  5
462
330
18
100
AcDbEntity
  8
0
100
AcDbPoint
 10
5.817
 20
4.326000000000001
 30
0.0
  0
POINT
  5
463
330
18
100
AcDbEntity
  8
0
100
AcDbPoint
 10
5.801
 20
4.318000000000001
 30
0.0
  0
POINT
  5
464
330
18
100
AcDbEntity
  8
0
100
AcDbPoint
 10
5.801
 20
4.335
 30
0.0
  0
POINT
  5
465
330
18
100
AcDbEntity
  8
0
100
AcDbPoint
 10
5.7
 20
4.392
 30
0.0
  0
POINT
  5
466
330
18
100
AcDbEntity
  8
0
100
AcDbPoint
 10
5.7
 20
4.375
 30
0.0
  0
POINT
  5
467
330
18
100
AcDbEntity
  8
0
100
AcDbPoint
 10
5.716
 20
4.366000000000001
 30
0.0
  0
POINT
  5
468
330
18
100
AcDbEntity
  8
0
100
AcDbPoint
 10
5.716
 20
4.382
 30
0.0
  0
POINT
  5
469
330
18
100
AcDbEntity
  8
0
100
AcDbPoint
 10
5.767
 20
4.371
 30
0.0
  0
POINT
  5
46A
330
18
100
AcDbEntity
  8
0
100
AcDbPoint
 10
5.74
 20
4.38
 30
0.0
  0
POINT
  5
46B
330
18
100
AcDbEntity
  8
0
100
AcDbPoint
 10
5.73
 20
4.363
 30
0.0
  0
POINT
  5
46C
330
18
100
AcDbEntity
  8
0
100
AcDbPoint
 10
5.722
 20
4.381
 30
0.0
  0
POINT
  5
46D
330
18
100
AcDbEntity
  8
0
100
AcDbPoint
 10
5.712999999999999
 20
4.364
 30
0.0
  0
POINT
  5
46E
330
18
100
AcDbEntity
  8
0
100
AcDbPoint
 10
5.864
 20
4.397
 30
0.0
  0
POINT
  5
46F
330
18
100
AcDbEntity
  8
0
100
AcDbPoint
 10
5.854
 20
4.379
 30
0.0
  0
POINT
  5
470
330
18
100
AcDbEntity
  8
0
100
AcDbPoint
 10
5.837000000000001
 20
4.38
 30
0.0
  0
POINT
  5
471
330
18
100
AcDbEntity
  8
0
100
AcDbPoint
 10
5.806
 20
4.298
 30
0.0
  0
POINT
  5
472
330
18
100
AcDbEntity
  8
0
100
AcDbPoint
 10
5.818
 20
4.273
 30
0.0
  0
POINT
  5
473
330
18
100
AcDbEntity
  8
0
100
AcDbPoint
 10
5.818
 20
4.257
 30
0.0
  0
POINT
  5
474
330
18
100
AcDbEntity
  8
0
100
AcDbPoint
 10
5.872999999999999
 20
4.281000000000001
 30
0.0
  0
POINT
  5
475
330
18
100
AcDbEntity
  8
0
100
AcDbPoint
 10
5.872999999999999
 20
4.263999999999999
 30
0.0
  0
POINT
  5
476
330
18
100
AcDbEntity
  8
0
100
AcDbPoint
 10
5.856
 20
4.273
 30
0.0
  0
POINT
  5
477
330
18
100
AcDbEntity
  8
0
100
AcDbPoint
 10
5.856
 20
4.29
 30
0.0
  0
POINT
  5
478
330
18
100
AcDbEntity
  8
0
100
AcDbPoint
 10
5.843999999999999
 20
4.314
 30
0.0
  0
POINT
  5
479
330
18
100
AcDbEntity
  8
0
100
AcDbPoint
 10
6.202000000000001
 20
4.121
 30
0.0
  0
POINT
  5
47A
330
18
100
AcDbEntity
  8
0
100
AcDbPoint
 10
6.214
 20
4.097
 30
0.0
  0
POINT
  5
47B
330
18
100
AcDbEntity
  8
0
100
AcDbPoint
 10
6.214
 20
4.08
 30
0.0
  0
POINT
  5
47C
330
18
100
AcDbEntity
  8
0
100
AcDbPoint
 10
6.231
 20
4.071000000000001
 30
0.0
  0
POINT
  5
47D
330
18
100
AcDbEntity
  8
0
100
AcDbPoint
 10
6.231
 20
4.088
 30
0.0
  0
POINT
  5
47E
330
18
100
AcDbEntity
  8
0
100
AcDbPoint
 10
6.176
 20
4.064
 30
0.0
  0
POINT
  5
47F
330
18
100
AcDbEntity
  8
0
100
AcDbPoint
 10
6.176
 20
4.081
 30
0.0
  0
POINT
  5
480
330
18
100
AcDbEntity
  8
0
100
AcDbPoint
 10
6.164
 20
4.105
 30
0.0
  0
POINT
  5
481
330
18
100
AcDbEntity
  8
0
100
AcDbPoint
 10
6.159
 20
4.142
 30
0.0
  0
POINT
  5
482
330
18
100
AcDbEntity
  8
0
100
AcDbPoint
 10
6.159
 20
4.126
 30
0.0
  0
POINT
  5
483
330
18
100
AcDbEntity
  8
0
100
AcDbPoint
 10
6.175
 20
4.133
 30
0.0
  0
POINT
  5
484
330
18
100
AcDbEntity
  8
0
100
AcDbPoint
 10
6.191
 20
4.151
 30
0.0
  0
POINT
  5
485
330
18
100
AcDbEntity
  8
0
100
AcDbPoint
 10
6.181
 20
4.132
 30
0.0
  0
POINT
  5
486
330
18
100
AcDbEntity
  8
0
100
AcDbPoint
 10
3.343
 20
1.245
 30
0.0
  0
POINT
  5
487
330
18
100
AcDbEntity
  8
0
100
AcDbPoint
 10
3.238
 20
1.169
 30
0.0
  0
POINT
  5
488
330
18
100
AcDbEntity
  8
0
100
AcDbPoint
 10
3.441
 20
1.238
 30
0.0
  0
POINT
  5
489
330
18
100
AcDbEntity
  8
0
100
AcDbPoint
 10
3.47
 20
1.231
 30
0.0
  0
POINT
  5
48A
330
18
100
AcDbEntity
  8
0
100
AcDbPoint
 10
3.613
 20
1.358
 30
0.0
  0
POINT
  5
48B
330
18
100
AcDbEntity
  8
0
100
AcDbPoint
 10
3.697
 20
1.374
 30
0.0
  0
POINT
  5
48C
330
18
100
AcDbEntity
  8
0
100
AcDbPoint
 10
3.769
 20
1.365
 30
0.0
  0
POINT
  5
48D
330
18
100
AcDbEntity
  8
0
100
AcDbPoint
 10
3.794
 20
1.336
 30
0.0
  0
POINT
  5
48E
330
18
100
AcDbEntity
  8
0
100
AcDbPoint
 10
3.832
 20
1.412
 30
0.0
  0
POINT
  5
48F
330
18
100
AcDbEntity
  8
0
100
AcDbPoint
 10
3.89
 20
1.41
 30
0.0
  0
POINT
  5
490
330
18
100
AcDbEntity
  8
0
100
AcDbPoint
 10
3.928
 20
1.471
 30
0.0
  0
POINT
  5
491
330
18
100
AcDbEntity
  8
0
100
AcDbPoint
 10
4.838
 20
1.801
 30
0.0
  0
POINT
  5
492
330
18
100
AcDbEntity
  8
0
100
AcDbPoint
 10
4.8
 20
1.741
 30
0.0
  0
POINT
  5
493
330
18
100
AcDbEntity
  8
0
100
AcDbPoint
 10
4.742
 20
1.742
 30
0.0
  0
POINT
  5
494
330
18
100
AcDbEntity
  8
0
100
AcDbPoint
 10
4.704
 20
1.667
 30
0.0
  0
POINT
  5
495
330
18
100
AcDbEntity
  8
0
100
AcDbPoint
 10
4.678999999999999
 20
1.695
 30
0.0
  0
POINT
  5
496
330
18
100
AcDbEntity
  8
0
100
AcDbPoint
 10
4.607
 20
1.704
 30
0.0
  0
POINT
  5
497
330
18
100
AcDbEntity
  8
0
100
AcDbPoint
 10
4.523
 20
1.689
 30
0.0
  0
POINT
  5
498
330
18
100
AcDbEntity
  8
0
100
AcDbPoint
 10
4.38
 20
1.561
 30
0.0
  0
POINT
  5
499
330
18
100
AcDbEntity
  8
0
100
AcDbPoint
 10
4.351
 20
1.568
 30
0.0
  0
POINT
  5
49A
330
18
100
AcDbEntity
  8
0
100
AcDbPoint
 10
4.148
 20
1.5
 30
0.0
  0
POINT
  5
49B
330
18
100
AcDbEntity
  8
0
100
AcDbPoint
 10
4.253
 20
1.576
 30
0.0
  0
POINT
  5
49C
330
18
100
AcDbEntity
  8
0
100
AcDbPoint
 10
4.073
 20
1.538
 30
0.0
  0
POINT
  5
49D
330
18
100
AcDbEntity
  8
0
100
AcDbPoint
 10
4.077
 20
1.559
 30
0.0
  0
POINT
  5
49E
330
18
100
AcDbEntity
  8
0
100
AcDbPoint
 10
4.116000000000001
 20
1.56
 30
0.0
  0
POINT
  5
49F
330
18
100
AcDbEntity
  8
0
100
AcDbPoint
 10
5.408
 20
1.95
 30
0.0
  0
POINT
  5
4A0
330
18
100
AcDbEntity
  8
0
100
AcDbPoint
 10
5.37
 20
1.95
 30
0.0
  0
POINT
  5
4A1
330
18
100
AcDbEntity
  8
0
100
AcDbPoint
 10
5.366000000000001
 20
1.928
 30
0.0
  0
POINT
  5
4A2
330
18
100
AcDbEntity
  8
0
100
AcDbPoint
 10
5.44
 20
1.89
 30
0.0
  0
POINT
  5
4A3
330
18
100
AcDbEntity
  8
0
100
AcDbPoint
 10
5.251
 20
1.885
 30
0.0
  0
POINT
  5
4A4
330
18
100
AcDbEntity
  8
0
100
AcDbPoint
 10
5.212999999999999
 20
1.825
 30
0.0
  0
POINT
  5
4A5
330
18
100
AcDbEntity
  8
0
100
AcDbPoint
 10
5.155
 20
1.826
 30
0.0
  0
POINT
  5
4A6
330
18
100
AcDbEntity
  8
0
100
AcDbPoint
 10
5.117
 20
1.75
 30
0.0
  0
POINT
  5
4A7
330
18
100
AcDbEntity
  8
0
100
AcDbPoint
 10
5.092
 20
1.779
 30
0.0
  0
POINT
  5
4A8
330
18
100
AcDbEntity
  8
0
100
AcDbPoint
 10
5.02
 20
1.788
 30
0.0
  0
POINT
  5
4A9
330
18
100
AcDbEntity
  8
0
100
AcDbPoint
 10
2.635
 20
1.01
 30
0.0
  0
POINT
  5
4AA
330
18
100
AcDbEntity
  8
0
100
AcDbPoint
 10
2.707
 20
1.001
 30
0.0
  0
POINT
  5
4AB
330
18
100
AcDbEntity
  8
0
100
AcDbPoint
 10
1.995
 20
0.784
 30
0.0
  0
POINT
  5
4AC
330
18
100
AcDbEntity
  8
0
100
AcDbPoint
 10
2.138
 20
0.9109999999999999
 30
0.0
  0
POINT
  5
4AD
330
18
100
AcDbEntity
  8
0
100
AcDbPoint
 10
2.222
 20
0.9270000000000001
 30
0.0
  0
POINT
  5
4AE
330
18
100
AcDbEntity
  8
0
100
AcDbPoint
 10
2.294
 20
0.917
 30
0.0
  0
POINT
  5
4AF
330
18
100
AcDbEntity
  8
0
100
AcDbPoint
 10
2.319
 20
0.889
 30
0.0
  0
POINT
  5
4B0
330
18
100
AcDbEntity
  8
0
100
AcDbPoint
 10
2.357
 20
0.965
 30
0.0
  0
POINT
  5
4B1
330
18
100
AcDbEntity
  8
0
100
AcDbPoint
 10
2.415
 20
0.963
 30
0.0
  0
POINT
  5
4B2
330
18
100
AcDbEntity
  8
0
100
AcDbPoint
 10
2.453
 20
1.024
 30
0.0
  0
POINT
  5
4B3
330
18
100
AcDbEntity
  8
0
100
AcDbPoint
 10
3.132
 20
1.188
 30
0.0
  0
POINT
  5
4B4
330
18
100
AcDbEntity
  8
0
100
AcDbPoint
 10
3.204
 20
1.178
 30
0.0
  0
POINT
  5
4B5
330
18
100
AcDbEntity
  8
0
100
AcDbPoint
 10
2.493
 20
0.961
 30
0.0
  0
POINT
  5
4B6
330
18
100
AcDbEntity
  8
0
100
AcDbPoint
 10
2.635
 20
1.088
 30
0.0
  0
POINT
  5
4B7
330
18
100
AcDbEntity
  8
0
100
AcDbPoint
 10
2.719
 20
1.104
 30
0.0
  0
POINT
  5
4B8
330
18
100
AcDbEntity
  8
0
100
AcDbPoint
 10
2.791
 20
1.094
 30
0.0
  0
POINT
  5
4B9
330
18
100
AcDbEntity
  8
0
100
AcDbPoint
 10
2.817
 20
1.066
 30
0.0
  0
POINT
  5
4BA
330
18
100
AcDbEntity
  8
0
100
AcDbPoint
 10
2.854
 20
1.142
 30
0.0
  0
POINT
  5
4BB
330
18
100
AcDbEntity
  8
0
100
AcDbPoint
 10
2.913
 20
1.14
 30
0.0
  0
POINT
  5
4BC
330
18
100
AcDbEntity
  8
0
100
AcDbPoint
 10
2.95
 20
1.201
 30
0.0
  0
POINT
  5
4BD
330
18
100
AcDbEntity
  8
0
100
AcDbPoint
 10
2.198
 20
0.846
 30
0.0
  0
POINT
  5
4BE
330
18
100
AcDbEntity
  8
0
100
AcDbPoint
 10
2.27
 20
0.8370000000000001
 30
0.0
  0
POINT
  5
4BF
330
18
100
AcDbEntity
  8
0
100
AcDbPoint
 10
1.559
 20
0.619
 30
0.0
  0
POINT
  5
4C0
330
18
100
AcDbEntity
  8
0
100
AcDbPoint
 10
1.701
 20
0.746
 30
0.0
  0
POINT
  5
4C1
330
18
100
AcDbEntity
  8
0
100
AcDbPoint
 10
1.785
 20
0.762
 30
0.0
  0
POINT
  5
4C2
330
18
100
AcDbEntity
  8
0
100
AcDbPoint
 10
1.857
 20
0.753
 30
0.0
  0
POINT
  5
4C3
330
18
100
AcDbEntity
  8
0
100
AcDbPoint
 10
1.883
 20
0.7240000000000001
 30
0.0
  0
POINT
  5
4C4
330
18
100
AcDbEntity
  8
0
100
AcDbPoint
 10
1.921
 20
0.8
 30
0.0
  0
POINT
  5
4C5
330
18
100
AcDbEntity
  8
0
100
AcDbPoint
 10
1.979
 20
0.7979999999999999
 30
0.0
  0
POINT
  5
4C6
330
18
100
AcDbEntity
  8
0
100
AcDbPoint
 10
2.017
 20
0.8590000000000001
 30
0.0
  0
POINT
  5
4C7
330
18
100
AcDbEntity
  8
0
100
AcDbPoint
 10
6.09
 20
2.112
 30
0.0
  0
POINT
  5
4C8
330
18
100
AcDbEntity
  8
0
100
AcDbPoint
 10
6.162999999999999
 20
2.103
 30
0.0
  0
POINT
  5
4C9
330
18
100
AcDbEntity
  8
0
100
AcDbPoint
 10
5.421
 20
1.861
 30
0.0
  0
POINT
  5
4CA
330
18
100
AcDbEntity
  8
0
100
AcDbPoint
 10
5.593999999999999
 20
2.012
 30
0.0
  0
POINT
  5
4CB
330
18
100
AcDbEntity
  8
0
100
AcDbPoint
 10
5.678
 20
2.028
 30
0.0
  0
POINT
  5
4CC
330
18
100
AcDbEntity
  8
0
100
AcDbPoint
 10
5.75
 20
2.019
 30
0.0
  0
POINT
  5
4CD
330
18
100
AcDbEntity
  8
0
100
AcDbPoint
 10
5.775
 20
1.99
 30
0.0
  0
POINT
  5
4CE
330
18
100
AcDbEntity
  8
0
100
AcDbPoint
 10
5.813
 20
2.066
 30
0.0
  0
POINT
  5
4CF
330
18
100
AcDbEntity
  8
0
100
AcDbPoint
 10
5.871
 20
2.064
 30
0.0
  0
POINT
  5
4D0
330
18
100
AcDbEntity
  8
0
100
AcDbPoint
 10
5.909
 20
2.125
 30
0.0
  0
POINT
  5
4D1
330
18
100
AcDbEntity
  8
0
100
AcDbPoint
 10
2.842
 20
2.086
 30
0.0
  0
POINT
  5
4D2
330
18
100
AcDbEntity
  8
0
100
AcDbPoint
 10
2.899
 20
2.043
 30
0.0
  0
POINT
  5
4D3
330
18
100
AcDbEntity
  8
0
100
AcDbPoint
 10
2.891
 20
1.985
 30
0.0
  0
POINT
  5
4D4
330
18
100
AcDbEntity
  8
0
100
AcDbPoint
 10
2.963
 20
1.94
 30
0.0
  0
POINT
  5
4D5
330
18
100
AcDbEntity
  8
0
100
AcDbPoint
 10
2.933
 20
1.918
 30
0.0
  0
POINT
  5
4D6
330
18
100
AcDbEntity
  8
0
100
AcDbPoint
 10
2.916
 20
1.847
 30
0.0
  0
POINT
  5
4D7
330
18
100
AcDbEntity
  8
0
100
AcDbPoint
 10
2.839
 20
1.739
 30
0.0
  0
POINT
  5
4D8
330
18
100
AcDbEntity
  8
0
100
AcDbPoint
 10
2.952
 20
1.585
 30
0.0
  0
POINT
  5
4D9
330
18
100
AcDbEntity
  8
0
100
AcDbPoint
 10
2.885
 20
1.551
 30
0.0
  0
POINT
  5
4DA
330
18
100
AcDbEntity
  8
0
100
AcDbPoint
 10
2.942
 20
1.508
 30
0.0
  0
POINT
  5
4DB
330
18
100
AcDbEntity
  8
0
100
AcDbPoint
 10
2.935
 20
1.45
 30
0.0
  0
POINT
  5
4DC
330
18
100
AcDbEntity
  8
0
100
AcDbPoint
 10
3.007
 20
1.405
 30
0.0
  0
POINT
  5
4DD
330
18
100
AcDbEntity
  8
0
100
AcDbPoint
 10
2.976
 20
1.383
 30
0.0
  0
POINT
  5
4DE
330
18
100
AcDbEntity
  8
0
100
AcDbPoint
 10
2.96
 20
1.312
 30
0.0
  0
POINT
  5
4DF
330
18
100
AcDbEntity
  8
0
100
AcDbPoint
 10
3.017
 20
1.825
 30
0.0
  0
POINT
  5
4E0
330
18
100
AcDbEntity
  8
0
100
AcDbPoint
 10
2.916
 20
1.731
 30
0.0
  0
POINT
  5
4E1
330
18
100
AcDbEntity
  8
0
100
AcDbPoint
 10
2.922
 20
2.086
 30
0.0
  0
POINT
  5
4E2
330
18
100
AcDbEntity
  8
0
100
AcDbPoint
 10
3.024
 20
2.18
 30
0.0
  0
POINT
  5
4E3
330
18
100
AcDbEntity
  8
0
100
AcDbPoint
 10
2.966
 20
1.667
 30
0.0
  0
POINT
  5
4E4
330
18
100
AcDbEntity
  8
0
100
AcDbPoint
 10
2.982
 20
1.738
 30
0.0
  0
POINT
  5
4E5
330
18
100
AcDbEntity
  8
0
100
AcDbPoint
 10
3.013
 20
1.761
 30
0.0
  0
POINT
  5
4E6
330
18
100
AcDbEntity
  8
0
100
AcDbPoint
 10
2.941
 20
1.806
 30
0.0
  0
POINT
  5
4E7
330
18
100
AcDbEntity
  8
0
100
AcDbPoint
 10
2.949
 20
1.863
 30
0.0
  0
POINT
  5
4E8
330
18
100
AcDbEntity
  8
0
100
AcDbPoint
 10
2.892
 20
1.907
 30
0.0
  0
POINT
  5
4E9
330
18
100
AcDbEntity
  8
0
100
AcDbPoint
 10
2.958
 20
1.94
 30
0.0
  0
POINT
  5
4EA
330
18
100
AcDbEntity
  8
0
100
AcDbPoint
 10
2.845
 20
2.094
 30
0.0
  0
POINT
  5
4EB
330
18
100
AcDbEntity
  8
0
100
AcDbPoint
 10
2.923
 20
2.202
 30
0.0
  0
POINT
  5
4EC
330
18
100
AcDbEntity
  8
0
100
AcDbPoint
 10
2.97
 20
2.296
 30
0.0
  0
POINT
  5
4ED
330
18
100
AcDbEntity
  8
0
100
AcDbPoint
 10
2.994
 20
2.307
 30
0.0
  0
POINT
  5
4EE
330
18
100
AcDbEntity
  8
0
100
AcDbPoint
 10
2.928
 20
2.274
 30
0.0
  0
POINT
  5
4EF
330
18
100
AcDbEntity
  8
0
100
AcDbPoint
 10
2.985
 20
2.23
 30
0.0
  0
POINT
  5
4F0
330
18
100
AcDbEntity
  8
0
100
AcDbPoint
 10
2.977
 20
2.172
 30
0.0
  0
POINT
  5
4F1
330
18
100
AcDbEntity
  8
0
100
AcDbPoint
 10
3.049
 20
2.127
 30
0.0
  0
POINT
  5
4F2
330
18
100
AcDbEntity
  8
0
100
AcDbPoint
 10
3.018
 20
2.105
 30
0.0
  0
POINT
  5
4F3
330
18
100
AcDbEntity
  8
0
100
AcDbPoint
 10
3.002
 20
2.034
 30
0.0
  0
POINT
  5
4F4
330
18
100
AcDbEntity
  8
0
100
AcDbPoint
 10
2.952
 20
2.098
 30
0.0
  0
POINT
  5
4F5
330
18
100
AcDbEntity
  8
0
100
AcDbPoint
 10
3.053
 20
2.192
 30
0.0
  0
POINT
  5
4F6
330
18
100
AcDbEntity
  8
0
100
AcDbPoint
 10
2.952
 20
2.214
 30
0.0
  0
POINT
  5
4F7
330
18
100
AcDbEntity
  8
0
100
AcDbPoint
 10
2.969
 20
2.285
 30
0.0
  0
POINT
  5
4F8
330
18
100
AcDbEntity
  8
0
100
AcDbPoint
 10
2.999
 20
2.307
 30
0.0
  0
POINT
  5
4F9
330
18
100
AcDbEntity
  8
0
100
AcDbPoint
 10
2.927
 20
2.352
 30
0.0
  0
POINT
  5
4FA
330
18
100
AcDbEntity
  8
0
100
AcDbPoint
 10
2.935
 20
2.41
 30
0.0
  0
POINT
  5
4FB
330
18
100
AcDbEntity
  8
0
100
AcDbPoint
 10
5.134
 20
1.643
 30
0.0
  0
POINT
  5
4FC
330
18
100
AcDbEntity
  8
0
100
AcDbPoint
 10
5.067
 20
1.61
 30
0.0
  0
POINT
  5
4FD
330
18
100
AcDbEntity
  8
0
100
AcDbPoint
 10
5.124
 20
1.566
 30
0.0
  0
POINT
  5
4FE
330
18
100
AcDbEntity
  8
0
100
AcDbPoint
 10
5.117
 20
1.509
 30
0.0
  0
POINT
  5
4FF
330
18
100
AcDbEntity
  8
0
100
AcDbPoint
 10
5.189
 20
1.464
 30
0.0
  0
POINT
  5
500
330
18
100
AcDbEntity
  8
0
100
AcDbPoint
 10
5.158
 20
1.441
 30
0.0
  0
POINT
  5
501
330
18
100
AcDbEntity
  8
0
100
AcDbPoint
 10
5.142
 20
1.37
 30
0.0
  0
POINT
  5
502
330
18
100
AcDbEntity
  8
0
100
AcDbPoint
 10
5.092
 20
1.434
 30
0.0
  0
POINT
  5
503
330
18
100
AcDbEntity
  8
0
100
AcDbPoint
 10
5.193
 20
1.528
 30
0.0
  0
POINT
  5
504
330
18
100
AcDbEntity
  8
0
100
AcDbPoint
 10
5.092
 20
1.55
 30
0.0
  0
POINT
  5
505
330
18
100
AcDbEntity
  8
0
100
AcDbPoint
 10
5.108000000000001
 20
1.621
 30
0.0
  0
POINT
  5
506
330
18
100
AcDbEntity
  8
0
100
AcDbPoint
 10
5.138999999999999
 20
1.643
 30
0.0
  0
POINT
  5
507
330
18
100
AcDbEntity
  8
0
100
AcDbPoint
 10
5.067
 20
1.688
 30
0.0
  0
POINT
  5
508
330
18
100
AcDbEntity
  8
0
100
AcDbPoint
 10
5.075
 20
1.746
 30
0.0
  0
POINT
  5
509
330
18
100
AcDbEntity
  8
0
100
AcDbPoint
 10
5.105
 20
1.311
 30
0.0
  0
POINT
  5
50A
330
18
100
AcDbEntity
  8
0
100
AcDbPoint
 10
5.039
 20
1.277
 30
0.0
  0
POINT
  5
50B
330
18
100
AcDbEntity
  8
0
100
AcDbPoint
 10
5.096
 20
1.234
 30
0.0
  0
POINT
  5
50C
330
18
100
AcDbEntity
  8
0
100
AcDbPoint
 10
5.088
 20
1.176
 30
0.0
  0
POINT
  5
50D
330
18
100
AcDbEntity
  8
0
100
AcDbPoint
 10
5.16
 20
1.131
 30
0.0
  0
POINT
  5
50E
330
18
100
AcDbEntity
  8
0
100
AcDbPoint
 10
5.129
 20
1.109
 30
0.0
  0
POINT
  5
50F
330
18
100
AcDbEntity
  8
0
100
AcDbPoint
 10
5.113
 20
1.038
 30
0.0
  0
POINT
  5
510
330
18
100
AcDbEntity
  8
0
100
AcDbPoint
 10
5.063
 20
1.101
 30
0.0
  0
POINT
  5
511
330
18
100
AcDbEntity
  8
0
100
AcDbPoint
 10
5.164
 20
1.195
 30
0.0
  0
POINT
  5
512
330
18
100
AcDbEntity
  8
0
100
AcDbPoint
 10
5.063
 20
1.218
 30
0.0
  0
POINT
  5
513
330
18
100
AcDbEntity
  8
0
100
AcDbPoint
 10
5.08
 20
1.288
 30
0.0
  0
POINT
  5
514
330
18
100
AcDbEntity
  8
0
100
AcDbPoint
 10
5.11
 20
1.311
 30
0.0
  0
POINT
  5
515
330
18
100
AcDbEntity
  8
0
100
AcDbPoint
 10
5.039
 20
1.356
 30
0.0
  0
POINT
  5
516
330
18
100
AcDbEntity
  8
0
100
AcDbPoint
 10
5.046
 20
1.414
 30
0.0
  0
POINT
  5
517
330
18
100
AcDbEntity
  8
0
100
AcDbPoint
 10
5.134
 20
0.9229999999999999
 30
0.0
  0
POINT
  5
518
330
18
100
AcDbEntity
  8
0
100
AcDbPoint
 10
5.067
 20
0.89
 30
0.0
  0
POINT
  5
519
330
18
100
AcDbEntity
  8
0
100
AcDbPoint
 10
5.124
 20
0.846
 30
0.0
  0
POINT
  5
51A
330
18
100
AcDbEntity
  8
0
100
AcDbPoint
 10
5.117
 20
0.789
 30
0.0
  0
POINT
  5
51B
330
18
100
AcDbEntity
  8
0
100
AcDbPoint
 10
5.189
 20
0.7440000000000001
 30
0.0
  0
POINT
  5
51C
330
18
100
AcDbEntity
  8
0
100
AcDbPoint
 10
5.158
 20
0.721
 30
0.0
  0
POINT
  5
51D
330
18
100
AcDbEntity
  8
0
100
AcDbPoint
 10
5.142
 20
0.65
 30
0.0
  0
POINT
  5
51E
330
18
100
AcDbEntity
  8
0
100
AcDbPoint
 10
5.092
 20
0.7140000000000001
 30
0.0
  0
POINT
  5
51F
330
18
100
AcDbEntity
  8
0
100
AcDbPoint
 10
5.193
 20
0.8079999999999999
 30
0.0
  0
POINT
  5
520
330
18
100
AcDbEntity
  8
0
100
AcDbPoint
 10
5.092
 20
0.83
 30
0.0
  0
POINT
  5
521
330
18
100
AcDbEntity
  8
0
100
AcDbPoint
 10
5.108000000000001
 20
0.9009999999999999
 30
0.0
  0
POINT
  5
522
330
18
100
AcDbEntity
  8
0
100
AcDbPoint
 10
5.138999999999999
 20
0.9229999999999999
 30
0.0
  0
POINT
  5
523
330
18
100
AcDbEntity
  8
0
100
AcDbPoint
 10
5.067
 20
0.968
 30
0.0
  0
POINT
  5
524
330
18
100
AcDbEntity
  8
0
100
AcDbPoint
 10
5.075
 20
1.026
 30
0.0
  0
POINT
  5
525
330
18
100
AcDbEntity
  8
0
100
AcDbPoint
 10
2.559
 20
2.712
 30
0.0
  0
POINT
  5
526
330
18
100
AcDbEntity
  8
0
100
AcDbPoint
 10
2.591
 20
2.722
 30
0.0
  0
POINT
  5
527
330
18
100
AcDbEntity
  8
0
100
AcDbPoint
 10
2.574
 20
2.723
 30
0.0
  0
POINT
  5
528
330
18
100
AcDbEntity
  8
0
100
AcDbPoint
 10
2.439
 20
2.726
 30
0.0
  0
POINT
  5
529
330
18
100
AcDbEntity
  8
0
100
AcDbPoint
 10
2.44
 20
2.764
 30
0.0
  0
POINT
  5
52A
330
18
100
AcDbEntity
  8
0
100
AcDbPoint
 10
2.519
 20
2.754
 30
0.0
  0
POINT
  5
52B
330
18
100
AcDbEntity
  8
0
100
AcDbPoint
 10
2.528
 20
2.774
 30
0.0
  0
POINT
  5
52C
330
18
100
AcDbEntity
  8
0
100
AcDbPoint
 10
2.513
 20
2.755
 30
0.0
  0
POINT
  5
52D
330
18
100
AcDbEntity
  8
0
100
AcDbPoint
 10
2.496
 20
2.748
 30
0.0
  0
POINT
  5
52E
330
18
100
AcDbEntity
  8
0
100
AcDbPoint
 10
2.496
 20
2.764
 30
0.0
  0
POINT
  5
52F
330
18
100
AcDbEntity
  8
0
100
AcDbPoint
 10
2.464
 20
2.839
 30
0.0
  0
POINT
  5
530
330
18
100
AcDbEntity
  8
0
100
AcDbPoint
 10
2.427
 20
2.831
 30
0.0
  0
POINT
  5
531
330
18
100
AcDbEntity
  8
0
100
AcDbPoint
 10
2.034
 20
3.085
 30
0.0
  0
POINT
  5
532
330
18
100
AcDbEntity
  8
0
100
AcDbPoint
 10
2.034
 20
3.068
 30
0.0
  0
POINT
  5
533
330
18
100
AcDbEntity
  8
0
100
AcDbPoint
 10
2.05
 20
3.076
 30
0.0
  0
POINT
  5
534
330
18
100
AcDbEntity
  8
0
100
AcDbPoint
 10
2.066
 20
3.094
 30
0.0
  0
POINT
  5
535
330
18
100
AcDbEntity
  8
0
100
AcDbPoint
 10
2.056
 20
3.075
 30
0.0
  0
POINT
  5
536
330
18
100
AcDbEntity
  8
0
100
AcDbPoint
 10
1.978
 20
3.085
 30
0.0
  0
POINT
  5
537
330
18
100
AcDbEntity
  8
0
100
AcDbPoint
 10
1.976
 20
3.047
 30
0.0
  0
POINT
  5
538
330
18
100
AcDbEntity
  8
0
100
AcDbPoint
 10
2.111
 20
3.043
 30
0.0
  0
POINT
  5
539
330
18
100
AcDbEntity
  8
0
100
AcDbPoint
 10
2.129
 20
3.042
 30
0.0
  0
POINT
  5
53A
330
18
100
AcDbEntity
  8
0
100
AcDbPoint
 10
2.097
 20
3.033
 30
0.0
  0
POINT
  5
53B
330
18
100
AcDbEntity
  8
0
100
AcDbPoint
 10
2.274
 20
2.989
 30
0.0
  0
POINT
  5
53C
330
18
100
AcDbEntity
  8
0
100
AcDbPoint
 10
2.237
 20
2.981
 30
0.0
  0
POINT
  5
53D
330
18
100
AcDbEntity
  8
0
100
AcDbPoint
 10
1.945
 20
3.159
 30
0.0
  0
POINT
  5
53E
330
18
100
AcDbEntity
  8
0
100
AcDbPoint
 10
1.982
 20
3.168
 30
0.0
  0
POINT
  5
53F
330
18
100
AcDbEntity
  8
0
100
AcDbPoint
 10
1.805
 20
3.211
 30
0.0
  0
POINT
  5
540
330
18
100
AcDbEntity
  8
0
100
AcDbPoint
 10
1.837
 20
3.22
 30
0.0
  0
POINT
  5
541
330
18
100
AcDbEntity
  8
0
100
AcDbPoint
 10
1.819
 20
3.221
 30
0.0
  0
POINT
  5
542
330
18
100
AcDbEntity
  8
0
100
AcDbPoint
 10
2.135
 20
3.009
 30
0.0
  0
POINT
  5
543
330
18
100
AcDbEntity
  8
0
100
AcDbPoint
 10
2.172
 20
3.017
 30
0.0
  0
POINT
  5
544
330
18
100
AcDbEntity
  8
0
100
AcDbPoint
 10
2.148
 20
2.942
 30
0.0
  0
POINT
  5
545
330
18
100
AcDbEntity
  8
0
100
AcDbPoint
 10
2.146
 20
2.904
 30
0.0
  0
POINT
  5
546
330
18
100
AcDbEntity
  8
0
100
AcDbPoint
 10
2.002
 20
3.075
 30
0.0
  0
POINT
  5
547
330
18
100
AcDbEntity
  8
0
100
AcDbPoint
 10
2.019
 20
3.074
 30
0.0
  0
POINT
  5
548
330
18
100
AcDbEntity
  8
0
100
AcDbPoint
 10
1.987
 20
3.064
 30
0.0
  0
POINT
  5
549
330
18
100
AcDbEntity
  8
0
100
AcDbPoint
 10
2.259
 20
2.895
 30
0.0
  0
POINT
  5
54A
330
18
100
AcDbEntity
  8
0
100
AcDbPoint
 10
2.329
 20
2.912
 30
0.0
  0
POINT
  5
54B
330
18
100
AcDbEntity
  8
0
100
AcDbPoint
 10
2.292
 20
2.904
 30
0.0
  0
POINT
  5
54C
330
18
100
AcDbEntity
  8
0
100
AcDbPoint
 10
2.274
 20
2.905
 30
0.0
  0
POINT
  5
54D
330
18
100
AcDbEntity
  8
0
100
AcDbPoint
 10
2.139
 20
2.909
 30
0.0
  0
POINT
  5
54E
330
18
100
AcDbEntity
  8
0
100
AcDbPoint
 10
2.14
 20
2.947
 30
0.0
  0
POINT
  5
54F
330
18
100
AcDbEntity
  8
0
100
AcDbPoint
 10
2.219
 20
2.937
 30
0.0
  0
POINT
  5
550
330
18
100
AcDbEntity
  8
0
100
AcDbPoint
 10
2.229
 20
2.956
 30
0.0
  0
POINT
  5
551
330
18
100
AcDbEntity
  8
0
100
AcDbPoint
 10
2.213
 20
2.938
 30
0.0
  0
POINT
  5
552
330
18
100
AcDbEntity
  8
0
100
AcDbPoint
 10
2.196
 20
2.93
 30
0.0
  0
POINT
  5
553
330
18
100
AcDbEntity
  8
0
100
AcDbPoint
 10
2.196
 20
2.947
 30
0.0
  0
POINT
  5
554
330
18
100
AcDbEntity
  8
0
100
AcDbPoint
 10
2.165
 20
3.021
 30
0.0
  0
POINT
  5
555
330
18
100
AcDbEntity
  8
0
100
AcDbPoint
 10
2.127
 20
3.013
 30
0.0
  0
POINT
  5
556
330
18
100
AcDbEntity
  8
0
100
AcDbPoint
 10
1.807
 20
3.189
 30
0.0
  0
POINT
  5
557
330
18
100
AcDbEntity
  8
0
100
AcDbPoint
 10
1.839
 20
3.199
 30
0.0
  0
POINT
  5
558
330
18
100
AcDbEntity
  8
0
100
AcDbPoint
 10
1.821
 20
3.2
 30
0.0
  0
POINT
  5
559
330
18
100
AcDbEntity
  8
0
100
AcDbPoint
 10
1.639
 20
3.346
 30
0.0
  0
POINT
  5
55A
330
18
100
AcDbEntity
  8
0
100
AcDbPoint
 10
1.656
 20
3.345
 30
0.0
  0
POINT
  5
55B
330
18
100
AcDbEntity
  8
0
100
AcDbPoint
 10
1.624
 20
3.336
 30
0.0
  0
POINT
  5
55C
330
18
100
AcDbEntity
  8
0
100
AcDbPoint
 10
1.802
 20
3.293
 30
0.0
  0
POINT
  5
55D
330
18
100
AcDbEntity
  8
0
100
AcDbPoint
 10
1.765
 20
3.285
 30
0.0
  0
POINT
  5
55E
330
18
100
AcDbEntity
  8
0
100
AcDbPoint
 10
1.916
 20
3.158
 30
0.0
  0
POINT
  5
55F
330
18
100
AcDbEntity
  8
0
100
AcDbPoint
 10
1.796
 20
3.172
 30
0.0
  0
POINT
  5
560
330
18
100
AcDbEntity
  8
0
100
AcDbPoint
 10
1.798
 20
3.21
 30
0.0
  0
POINT
  5
561
330
18
100
AcDbEntity
  8
0
100
AcDbPoint
 10
1.876
 20
3.2
 30
0.0
  0
POINT
  5
562
330
18
100
AcDbEntity
  8
0
100
AcDbPoint
 10
1.886
 20
3.219
 30
0.0
  0
POINT
  5
563
330
18
100
AcDbEntity
  8
0
100
AcDbPoint
 10
1.87
 20
3.201
 30
0.0
  0
POINT
  5
564
330
18
100
AcDbEntity
  8
0
100
AcDbPoint
 10
1.853
 20
3.193
 30
0.0
  0
POINT
  5
565
330
18
100
AcDbEntity
  8
0
100
AcDbPoint
 10
1.853
 20
3.21
 30
0.0
  0
POINT
  5
566
330
18
100
AcDbEntity
  8
0
100
AcDbPoint
 10
2.293
 20
2.873
 30
0.0
  0
POINT
  5
567
330
18
100
AcDbEntity
  8
0
100
AcDbPoint
 10
2.33
 20
2.881
 30
0.0
  0
POINT
  5
568
330
18
100
AcDbEntity
  8
0
100
AcDbPoint
 10
2.401
 20
2.851
 30
0.0
  0
POINT
  5
569
330
18
100
AcDbEntity
  8
0
100
AcDbPoint
 10
2.401
 20
2.835
 30
0.0
  0
POINT
  5
56A
330
18
100
AcDbEntity
  8
0
100
AcDbPoint
 10
2.378
 20
2.798
 30
0.0
  0
POINT
  5
56B
330
18
100
AcDbEntity
  8
0
100
AcDbPoint
 10
2.394
 20
2.816
 30
0.0
  0
POINT
  5
56C
330
18
100
AcDbEntity
  8
0
100
AcDbPoint
 10
2.384
 20
2.797
 30
0.0
  0
POINT
  5
56D
330
18
100
AcDbEntity
  8
0
100
AcDbPoint
 10
2.345
 20
2.851
 30
0.0
  0
POINT
  5
56E
330
18
100
AcDbEntity
  8
0
100
AcDbPoint
 10
2.343
 20
2.813
 30
0.0
  0
POINT
  5
56F
330
18
100
AcDbEntity
  8
0
100
AcDbPoint
 10
2.439
 20
2.765
 30
0.0
  0
POINT
  5
570
330
18
100
AcDbEntity
  8
0
100
AcDbPoint
 10
2.457
 20
2.764
 30
0.0
  0
POINT
  5
571
330
18
100
AcDbEntity
  8
0
100
AcDbPoint
 10
2.494
 20
2.773
 30
0.0
  0
POINT
  5
572
330
18
100
AcDbEntity
  8
0
100
AcDbPoint
 10
2.425
 20
2.755
 30
0.0
  0
POINT
  5
573
330
18
100
AcDbEntity
  8
0
100
AcDbPoint
 10
2.351
 20
2.809
 30
0.0
  0
POINT
  5
574
330
18
100
AcDbEntity
  8
0
100
AcDbPoint
 10
2.352
 20
2.847
 30
0.0
  0
POINT
  5
575
330
18
100
AcDbEntity
  8
0
100
AcDbPoint
 10
2.337
 20
2.877
 30
0.0
  0
POINT
  5
576
330
18
100
AcDbEntity
  8
0
100
AcDbPoint
 10
2.3
 20
2.869
 30
0.0
  0
POINT
  5
577
330
18
100
AcDbEntity
  8
0
100
AcDbPoint
 10
2.402
 20
2.842
 30
0.0
  0
POINT
  5
578
330
18
100
AcDbEntity
  8
0
100
AcDbPoint
 10
2.44
 20
2.85
 30
0.0
  0
POINT
  5
579
330
18
100
AcDbEntity
  8
0
100
AcDbPoint
 10
2.262
 20
2.893
 30
0.0
  0
POINT
  5
57A
330
18
100
AcDbEntity
  8
0
100
AcDbPoint
 10
2.294
 20
2.902
 30
0.0
  0
POINT
  5
57B
330
18
100
AcDbEntity
  8
0
100
AcDbPoint
 10
2.277
 20
2.903
 30
0.0
  0
POINT
  5
57C
330
18
100
AcDbEntity
  8
0
100
AcDbPoint
 10
2.222
 20
2.935
 30
0.0
  0
POINT
  5
57D
330
18
100
AcDbEntity
  8
0
100
AcDbPoint
 10
2.231
 20
2.954
 30
0.0
  0
POINT
  5
57E
330
18
100
AcDbEntity
  8
0
100
AcDbPoint
 10
2.216
 20
2.936
 30
0.0
  0
POINT
  5
57F
330
18
100
AcDbEntity
  8
0
100
AcDbPoint
 10
2.593
 20
2.691
 30
0.0
  0
POINT
  5
580
330
18
100
AcDbEntity
  8
0
100
AcDbPoint
 10
2.63
 20
2.699
 30
0.0
  0
POINT
  5
581
330
18
100
AcDbEntity
  8
0
100
AcDbPoint
 10
2.661
 20
2.625
 30
0.0
  0
POINT
  5
582
330
18
100
AcDbEntity
  8
0
100
AcDbPoint
 10
2.661
 20
2.608
 30
0.0
  0
POINT
  5
583
330
18
100
AcDbEntity
  8
0
100
AcDbPoint
 10
2.678
 20
2.616
 30
0.0
  0
POINT
  5
584
330
18
100
AcDbEntity
  8
0
100
AcDbPoint
 10
2.694
 20
2.634
 30
0.0
  0
POINT
  5
585
330
18
100
AcDbEntity
  8
0
100
AcDbPoint
 10
2.684
 20
2.615
 30
0.0
  0
POINT
  5
586
330
18
100
AcDbEntity
  8
0
100
AcDbPoint
 10
2.606
 20
2.625
 30
0.0
  0
POINT
  5
587
330
18
100
AcDbEntity
  8
0
100
AcDbPoint
 10
2.604
 20
2.587
 30
0.0
  0
POINT
  5
588
330
18
100
AcDbEntity
  8
0
100
AcDbPoint
 10
2.739
 20
2.583
 30
0.0
  0
POINT
  5
589
330
18
100
AcDbEntity
  8
0
100
AcDbPoint
 10
2.757
 20
2.582
 30
0.0
  0
POINT
  5
58A
330
18
100
AcDbEntity
  8
0
100
AcDbPoint
 10
2.724
 20
2.573
 30
0.0
  0
POINT
  5
58B
330
18
100
AcDbEntity
  8
0
100
AcDbPoint
 10
4.479
 20
1.663
 30
0.0
  0
POINT
  5
58C
330
18
100
AcDbEntity
  8
0
100
AcDbPoint
 10
4.441
 20
1.663
 30
0.0
  0
POINT
  5
58D
330
18
100
AcDbEntity
  8
0
100
AcDbPoint
 10
4.437
 20
1.642
 30
0.0
  0
POINT
  5
58E
330
18
100
AcDbEntity
  8
0
100
AcDbPoint
 10
4.617
 20
1.679
 30
0.0
  0
POINT
  5
58F
330
18
100
AcDbEntity
  8
0
100
AcDbPoint
 10
4.511
 20
1.603
 30
0.0
  0
POINT
  5
590
330
18
100
AcDbEntity
  8
0
100
AcDbPoint
 10
4.714
 20
1.672
 30
0.0
  0
POINT
  5
591
330
18
100
AcDbEntity
  8
0
100
AcDbPoint
 10
4.744
 20
1.665
 30
0.0
  0
POINT
  5
592
330
18
100
AcDbEntity
  8
0
100
AcDbPoint
 10
4.291
 20
1.575
 30
0.0
  0
POINT
  5
593
330
18
100
AcDbEntity
  8
0
100
AcDbPoint
 10
4.254
 20
1.514
 30
0.0
  0
POINT
  5
594
330
18
100
AcDbEntity
  8
0
100
AcDbPoint
 10
4.196000000000001
 20
1.516
 30
0.0
  0
POINT
  5
595
330
18
100
AcDbEntity
  8
0
100
AcDbPoint
 10
4.158
 20
1.44
 30
0.0
  0
POINT
  5
596
330
18
100
AcDbEntity
  8
0
100
AcDbPoint
 10
4.132
 20
1.468
 30
0.0
  0
POINT
  5
597
330
18
100
AcDbEntity
  8
0
100
AcDbPoint
 10
4.904
 20
1.806
 30
0.0
  0
POINT
  5
598
330
18
100
AcDbEntity
  8
0
100
AcDbPoint
 10
4.897
 20
1.748
 30
0.0
  0
POINT
  5
599
330
18
100
AcDbEntity
  8
0
100
AcDbPoint
 10
4.968
 20
1.703
 30
0.0
  0
POINT
  5
59A
330
18
100
AcDbEntity
  8
0
100
AcDbPoint
 10
4.938
 20
1.681
 30
0.0
  0
POINT
  5
59B
330
18
100
AcDbEntity
  8
0
100
AcDbPoint
 10
4.963
 20
1.703
 30
0.0
  0
POINT
  5
59C
330
18
100
AcDbEntity
  8
0
100
AcDbPoint
 10
4.947
 20
1.81
 30
0.0
  0
POINT
  5
59D
330
18
100
AcDbEntity
  8
0
100
AcDbPoint
 10
5.412999999999999
 20
1.976
 30
0.0
  0
POINT
  5
59E
330
18
100
AcDbEntity
  8
0
100
AcDbPoint
 10
5.43
 20
1.869
 30
0.0
  0
POINT
  5
59F
330
18
100
AcDbEntity
  8
0
100
AcDbPoint
 10
5.435
 20
1.871
 30
0.0
  0
POINT
  5
5A0
330
18
100
AcDbEntity
  8
0
100
AcDbPoint
 10
5.435
 20
1.869
 30
0.0
  0
POINT
  5
5A1
330
18
100
AcDbEntity
  8
0
100
AcDbPoint
 10
5.363
 20
1.914
 30
0.0
  0
POINT
  5
5A2
330
18
100
AcDbEntity
  8
0
100
AcDbPoint
 10
5.371
 20
1.972
 30
0.0
  0
POINT
  5
5A3
330
18
100
AcDbEntity
  8
0
100
AcDbPoint
 10
5.572
 20
1.936
 30
0.0
  0
POINT
  5
5A4
330
18
100
AcDbEntity
  8
0
100
AcDbPoint
 10
5.564
 20
1.878
 30
0.0
  0
POINT
  5
5A5
330
18
100
AcDbEntity
  8
0
100
AcDbPoint
 10
5.486000000000001
 20
1.954
 30
0.0
  0
POINT
  5
5A6
330
18
100
AcDbEntity
  8
0
100
AcDbPoint
 10
5.589
 20
1.969
 30
0.0
  0
POINT
  5
5A7
330
18
100
AcDbEntity
  8
0
100
AcDbPoint
 10
5.614
 20
1.94
 30
0.0
  0
POINT
  5
5A8
330
18
100
AcDbEntity
  8
0
100
AcDbPoint
 10
5.652
 20
2.016
 30
0.0
  0
POINT
  5
5A9
330
18
100
AcDbEntity
  8
0
100
AcDbPoint
 10
5.71
 20
2.015
 30
0.0
  0
POINT
  5
5AA
330
18
100
AcDbEntity
  8
0
100
AcDbPoint
 10
5.267
 20
1.906
 30
0.0
  0
POINT
  5
5AB
330
18
100
AcDbEntity
  8
0
100
AcDbPoint
 10
5.305
 20
1.967
 30
0.0
  0
POINT
  5
5AC
330
18
100
AcDbEntity
  8
0
100
AcDbPoint
 10
1.655
 20
0.747
 30
0.0
  0
POINT
  5
5AD
330
18
100
AcDbEntity
  8
0
100
AcDbPoint
 10
1.618
 20
0.6859999999999999
 30
0.0
  0
POINT
  5
5AE
330
18
100
AcDbEntity
  8
0
100
AcDbPoint
 10
1.56
 20
0.6879999999999999
 30
0.0
  0
POINT
  5
5AF
330
18
100
AcDbEntity
  8
0
100
AcDbPoint
 10
1.522
 20
0.612
 30
0.0
  0
POINT
  5
5B0
330
18
100
AcDbEntity
  8
0
100
AcDbPoint
 10
1.496
 20
0.64
 30
0.0
  0
POINT
  5
5B1
330
18
100
AcDbEntity
  8
0
100
AcDbPoint
 10
1.424
 20
0.649
 30
0.0
  0
POINT
  5
5B2
330
18
100
AcDbEntity
  8
0
100
AcDbPoint
 10
1.34
 20
0.634
 30
0.0
  0
POINT
  5
5B3
330
18
100
AcDbEntity
  8
0
100
AcDbPoint
 10
1.634
 20
0.6709999999999999
 30
0.0
  0
POINT
  5
5B4
330
18
100
AcDbEntity
  8
0
100
AcDbPoint
 10
2.891
 20
4.39
 30
0.0
  0
POINT
  5
5B5
330
18
100
AcDbEntity
  8
0
100
AcDbPoint
 10
2.897
 20
4.333
 30
0.0
  0
POINT
  5
5B6
330
18
100
AcDbEntity
  8
0
100
AcDbPoint
 10
2.964
 20
4.144
 30
0.0
  0
POINT
  5
5B7
330
18
100
AcDbEntity
  8
0
100
AcDbPoint
 10
2.937
 20
4.17
 30
0.0
  0
POINT
  5
5B8
330
18
100
AcDbEntity
  8
0
100
AcDbPoint
 10
2.919
 20
4.157
 30
0.0
  0
POINT
  5
5B9
330
18
100
AcDbEntity
  8
0
100
AcDbPoint
 10
2.803
 20
4.34
 30
0.0
  0
POINT
  5
5BA
330
18
100
AcDbEntity
  8
0
100
AcDbPoint
 10
2.812
 20
4.377
 30
0.0
  0
POINT
  5
5BB
330
18
100
AcDbEntity
  8
0
100
AcDbPoint
 10
2.792
 20
4.386
 30
0.0
  0
POINT
  5
5BC
330
18
100
AcDbEntity
  8
0
100
AcDbPoint
 10
2.246
 20
4.491000000000001
 30
0.0
  0
POINT
  5
5BD
330
18
100
AcDbEntity
  8
0
100
AcDbPoint
 10
2.266
 20
4.482
 30
0.0
  0
POINT
  5
5BE
330
18
100
AcDbEntity
  8
0
100
AcDbPoint
 10
2.257
 20
4.445
 30
0.0
  0
POINT
  5
5BF
330
18
100
AcDbEntity
  8
0
100
AcDbPoint
 10
2.373
 20
4.263
 30
0.0
  0
POINT
  5
5C0
330
18
100
AcDbEntity
  8
0
100
AcDbPoint
 10
2.391
 20
4.275
 30
0.0
  0
POINT
  5
5C1
330
18
100
AcDbEntity
  8
0
100
AcDbPoint
 10
2.351
 20
4.438
 30
0.0
  0
POINT
  5
5C2
330
18
100
AcDbEntity
  8
0
100
AcDbPoint
 10
2.345
 20
4.495
 30
0.0
  0
POINT
  5
5C3
330
18
100
AcDbEntity
  8
0
100
AcDbPoint
 10
2.129
 20
4.633
 30
0.0
  0
POINT
  5
5C4
330
18
100
AcDbEntity
  8
0
100
AcDbPoint
 10
2.138
 20
4.581
 30
0.0
  0
POINT
  5
5C5
330
18
100
AcDbEntity
  8
0
100
AcDbPoint
 10
2.143
 20
4.524
 30
0.0
  0
POINT
  5
5C6
330
18
100
AcDbEntity
  8
0
100
AcDbPoint
 10
2.211
 20
4.335
 30
0.0
  0
POINT
  5
5C7
330
18
100
AcDbEntity
  8
0
100
AcDbPoint
 10
2.184
 20
4.361000000000001
 30
0.0
  0
POINT
  5
5C8
330
18
100
AcDbEntity
  8
0
100
AcDbPoint
 10
2.166
 20
4.348
 30
0.0
  0
POINT
  5
5C9
330
18
100
AcDbEntity
  8
0
100
AcDbPoint
 10
2.049
 20
4.531000000000001
 30
0.0
  0
POINT
  5
5CA
330
18
100
AcDbEntity
  8
0
100
AcDbPoint
 10
2.059
 20
4.568000000000001
 30
0.0
  0
POINT
  5
5CB
330
18
100
AcDbEntity
  8
0
100
AcDbPoint
 10
2.039
 20
4.577
 30
0.0
  0
POINT
  5
5CC
330
18
100
AcDbEntity
  8
0
100
AcDbPoint
 10
1.895
 20
3.913
 30
0.0
  0
POINT
  5
5CD
330
18
100
AcDbEntity
  8
0
100
AcDbPoint
 10
1.913
 20
3.926
 30
0.0
  0
POINT
  5
5CE
330
18
100
AcDbEntity
  8
0
100
AcDbPoint
 10
1.94
 20
3.9
 30
0.0
  0
POINT
  5
5CF
330
18
100
AcDbEntity
  8
0
100
AcDbPoint
 10
1.873
 20
4.089
 30
0.0
  0
POINT
  5
5D0
330
18
100
AcDbEntity
  8
0
100
AcDbPoint
 10
2.074
 20
4.06
 30
0.0
  0
POINT
  5
5D1
330
18
100
AcDbEntity
  8
0
100
AcDbPoint
 10
2.08
 20
4.003
 30
0.0
  0
POINT
  5
5D2
330
18
100
AcDbEntity
  8
0
100
AcDbPoint
 10
2.12
 20
3.84
 30
0.0
  0
POINT
  5
5D3
330
18
100
AcDbEntity
  8
0
100
AcDbPoint
 10
2.102
 20
3.828
 30
0.0
  0
POINT
  5
5D4
330
18
100
AcDbEntity
  8
0
100
AcDbPoint
 10
1.986
 20
4.01
 30
0.0
  0
POINT
  5
5D5
330
18
100
AcDbEntity
  8
0
100
AcDbPoint
 10
1.995
 20
4.047
 30
0.0
  0
POINT
  5
5D6
330
18
100
AcDbEntity
  8
0
100
AcDbPoint
 10
1.975
 20
4.057
 30
0.0
  0
POINT
  5
5D7
330
18
100
AcDbEntity
  8
0
100
AcDbPoint
 10
2.324
 20
3.991
 30
0.0
  0
POINT
  5
5D8
330
18
100
AcDbEntity
  8
0
100
AcDbPoint
 10
2.333
 20
4.028000000000001
 30
0.0
  0
POINT
  5
5D9
330
18
100
AcDbEntity
  8
0
100
AcDbPoint
 10
2.313
 20
4.037
 30
0.0
  0
POINT
  5
5DA
330
18
100
AcDbEntity
  8
0
100
AcDbPoint
 10
4.571000000000001
 20
5.104
 30
0.0
  0
POINT
  5
5DB
330
18
100
AcDbEntity
  8
0
100
AcDbPoint
 10
4.577
 20
5.047
 30
0.0
  0
POINT
  5
5DC
330
18
100
AcDbEntity
  8
0
100
AcDbPoint
 10
4.617
 20
4.884
 30
0.0
  0
POINT
  5
5DD
330
18
100
AcDbEntity
  8
0
100
AcDbPoint
 10
4.599
 20
4.872
 30
0.0
  0
POINT
  5
5DE
330
18
100
AcDbEntity
  8
0
100
AcDbPoint
 10
5.018
 20
4.995
 30
0.0
  0
POINT
  5
5DF
330
18
100
AcDbEntity
  8
0
100
AcDbPoint
 10
5.029
 20
4.949
 30
0.0
  0
POINT
  5
5E0
330
18
100
AcDbEntity
  8
0
100
AcDbPoint
 10
4.9
 20
5.137000000000001
 30
0.0
  0
POINT
  5
5E1
330
18
100
AcDbEntity
  8
0
100
AcDbPoint
 10
4.909
 20
5.085
 30
0.0
  0
POINT
  5
5E2
330
18
100
AcDbEntity
  8
0
100
AcDbPoint
 10
4.915
 20
5.028000000000001
 30
0.0
  0
POINT
  5
5E3
330
18
100
AcDbEntity
  8
0
100
AcDbPoint
 10
4.983000000000001
 20
4.839
 30
0.0
  0
POINT
  5
5E4
330
18
100
AcDbEntity
  8
0
100
AcDbPoint
 10
4.955
 20
4.865
 30
0.0
  0
POINT
  5
5E5
330
18
100
AcDbEntity
  8
0
100
AcDbPoint
 10
4.937
 20
4.852
 30
0.0
  0
POINT
  5
5E6
330
18
100
AcDbEntity
  8
0
100
AcDbPoint
 10
4.997
 20
5.222
 30
0.0
  0
POINT
  5
5E7
330
18
100
AcDbEntity
  8
0
100
AcDbPoint
 10
4.951000000000001
 20
5.188
 30
0.0
  0
POINT
  5
5E8
330
18
100
AcDbEntity
  8
0
100
AcDbPoint
 10
4.821000000000001
 20
5.035
 30
0.0
  0
POINT
  5
5E9
330
18
100
AcDbEntity
  8
0
100
AcDbPoint
 10
4.83
 20
5.072
 30
0.0
  0
POINT
  5
5EA
330
18
100
AcDbEntity
  8
0
100
AcDbPoint
 10
4.81
 20
5.081
 30
0.0
  0
POINT
  5
5EB
330
18
100
AcDbEntity
  8
0
100
AcDbPoint
 10
4.192
 20
4.54
 30
0.0
  0
POINT
  5
5EC
330
18
100
AcDbEntity
  8
0
100
AcDbPoint
 10
4.212
 20
4.531000000000001
 30
0.0
  0
POINT
  5
5ED
330
18
100
AcDbEntity
  8
0
100
AcDbPoint
 10
4.203
 20
4.494
 30
0.0
  0
POINT
  5
5EE
330
18
100
AcDbEntity
  8
0
100
AcDbPoint
 10
4.333
 20
4.647
 30
0.0
  0
POINT
  5
5EF
330
18
100
AcDbEntity
  8
0
100
AcDbPoint
 10
4.379
 20
4.681
 30
0.0
  0
POINT
  5
5F0
330
18
100
AcDbEntity
  8
0
100
AcDbPoint
 10
4.32
 20
4.311
 30
0.0
  0
POINT
  5
5F1
330
18
100
AcDbEntity
  8
0
100
AcDbPoint
 10
4.337
 20
4.324
 30
0.0
  0
POINT
  5
5F2
330
18
100
AcDbEntity
  8
0
100
AcDbPoint
 10
4.365
 20
4.297
 30
0.0
  0
POINT
  5
5F3
330
18
100
AcDbEntity
  8
0
100
AcDbPoint
 10
4.297
 20
4.487
 30
0.0
  0
POINT
  5
5F4
330
18
100
AcDbEntity
  8
0
100
AcDbPoint
 10
4.292
 20
4.543
 30
0.0
  0
POINT
  5
5F5
330
18
100
AcDbEntity
  8
0
100
AcDbPoint
 10
4.283
 20
4.596
 30
0.0
  0
POINT
  5
5F6
330
18
100
AcDbEntity
  8
0
100
AcDbPoint
 10
4.411000000000001
 20
4.408
 30
0.0
  0
POINT
  5
5F7
330
18
100
AcDbEntity
  8
0
100
AcDbPoint
 10
4.4
 20
4.454
 30
0.0
  0
POINT
  5
5F8
330
18
100
AcDbEntity
  8
0
100
AcDbPoint
 10
3.982
 20
4.33
 30
0.0
  0
POINT
  5
5F9
330
18
100
AcDbEntity
  8
0
100
AcDbPoint
 10
4.0
 20
4.343
 30
0.0
  0
POINT
  5
5FA
330
18
100
AcDbEntity
  8
0
100
AcDbPoint
 10
3.96
 20
4.506
 30
0.0
  0
POINT
  5
5FB
330
18
100
AcDbEntity
  8
0
100
AcDbPoint
 10
3.954
 20
4.563
 30
0.0
  0
POINT
  5
5FC
330
18
100
AcDbEntity
  8
0
100
AcDbPoint
 10
5.671
 20
4.894
 30
0.0
  0
POINT
  5
5FD
330
18
100
AcDbEntity
  8
0
100
AcDbPoint
 10
5.553999999999999
 20
5.035
 30
0.0
  0
POINT
  5
5FE
330
18
100
AcDbEntity
  8
0
100
AcDbPoint
 10
5.563
 20
4.983000000000001
 30
0.0
  0
POINT
  5
5FF
330
18
100
AcDbEntity
  8
0
100
AcDbPoint
 10
5.569
 20
4.926
 30
0.0
  0
POINT
  5
600
330
18
100
AcDbEntity
  8
0
100
AcDbPoint
 10
5.651
 20
5.12
 30
0.0
  0
POINT
  5
601
330
18
100
AcDbEntity
  8
0
100
AcDbPoint
 10
5.604
 20
5.087
 30
0.0
  0
POINT
  5
602
330
18
100
AcDbEntity
  8
0
100
AcDbPoint
 10
5.475
 20
4.933
 30
0.0
  0
POINT
  5
603
330
18
100
AcDbEntity
  8
0
100
AcDbPoint
 10
5.484
 20
4.97
 30
0.0
  0
POINT
  5
604
330
18
100
AcDbEntity
  8
0
100
AcDbPoint
 10
5.464
 20
4.979
 30
0.0
  0
POINT
  5
605
330
18
100
AcDbEntity
  8
0
100
AcDbPoint
 10
5.311
 20
5.099
 30
0.0
  0
POINT
  5
606
330
18
100
AcDbEntity
  8
0
100
AcDbPoint
 10
5.331
 20
5.09
 30
0.0
  0
POINT
  5
607
330
18
100
AcDbEntity
  8
0
100
AcDbPoint
 10
5.322
 20
5.053
 30
0.0
  0
POINT
  5
608
330
18
100
AcDbEntity
  8
0
100
AcDbPoint
 10
5.452000000000001
 20
5.206
 30
0.0
  0
POINT
  5
609
330
18
100
AcDbEntity
  8
0
100
AcDbPoint
 10
5.497999999999999
 20
5.24
 30
0.0
  0
POINT
  5
60A
330
18
100
AcDbEntity
  8
0
100
AcDbPoint
 10
5.539
 20
5.274
 30
0.0
  0
POINT
  5
60B
330
18
100
AcDbEntity
  8
0
100
AcDbPoint
 10
5.416
 20
5.046
 30
0.0
  0
POINT
  5
60C
330
18
100
AcDbEntity
  8
0
100
AcDbPoint
 10
5.41
 20
5.103
 30
0.0
  0
POINT
  5
60D
330
18
100
AcDbEntity
  8
0
100
AcDbPoint
 10
5.401
 20
5.155
 30
0.0
  0
POINT
  5
60E
330
18
100
AcDbEntity
  8
0
100
AcDbPoint
 10
4.376
 20
4.971
 30
0.0
  0
POINT
  5
60F
330
18
100
AcDbEntity
  8
0
100
AcDbPoint
 10
4.177
 20
5.057
 30
0.0
  0
POINT
  5
610
330
18
100
AcDbEntity
  8
0
100
AcDbPoint
 10
4.223
 20
5.091
 30
0.0
  0
POINT
  5
611
330
18
100
AcDbEntity
  8
0
100
AcDbPoint
 10
4.263999999999999
 20
5.125
 30
0.0
  0
LINE
  5
612
330
18
100
AcDbEntity
  8
0
100
AcDbLine
 10
2.672
 20
6.497999999999999
 30
0.0
 11
2.661
 21
6.542999999999999
 31
0.0
  0
LINE
  5
613
330
18
100
AcDbEntity
  8
0
100
AcDbLine
 10
2.781
 20
6.024
 30
0.0
 11
2.781
 21
6.045
 31
0.0
  0
LINE
  5
614
330
18
100
AcDbEntity
  8
0
100
AcDbLine
 10
2.781
 20
6.045
 30
0.0
 11
2.779
 21
6.103
 31
0.0
  0
LINE
  5
615
330
18
100
AcDbEntity
  8
0
100
AcDbLine
 10
2.779
 20
6.103
 30
0.0
 11
2.792
 21
6.156000000000001
 31
0.0
  0
LINE
  5
616
330
18
100
AcDbEntity
  8
0
100
AcDbLine
 10
3.782
 20
6.022
 30
0.0
 11
3.783
 21
6.028
 31
0.0
  0
LINE
  5
617
330
18
100
AcDbEntity
  8
0
100
AcDbLine
 10
3.783
 20
6.028
 30
0.0
 11
3.781
 21
6.076000000000001
 31
0.0
  0
LINE
  5
618
330
18
100
AcDbEntity
  8
0
100
AcDbLine
 10
3.641
 20
5.992000000000001
 30
0.0
 11
3.647
 21
6.007999999999999
 31
0.0
  0
LINE
  5
619
330
18
100
AcDbEntity
  8
0
100
AcDbLine
 10
3.647
 20
6.007999999999999
 30
0.0
 11
3.652
 21
6.124
 31
0.0
  0
LINE
  5
61A
330
18
100
AcDbEntity
  8
0
100
AcDbLine
 10
3.652
 20
6.124
 30
0.0
 11
3.652
 21
6.129
 31
0.0
  0
LINE
  5
61B
330
18
100
AcDbEntity
  8
0
100
AcDbLine
 10
3.456
 20
5.952999999999999
 30
0.0
 11
3.464
 21
5.978
 31
0.0
  0
LINE
  5
61C
330
18
100
AcDbEntity
  8
0
100
AcDbLine
 10
3.464
 20
5.978
 30
0.0
 11
3.475
 21
6.08
 31
0.0
  0
LINE
  5
61D
330
18
100
AcDbEntity
  8
0
100
AcDbLine
 10
3.475
 20
6.08
 30
0.0
 11
3.481
 21
6.176
 31
0.0
  0
LINE
  5
61E
330
18
100
AcDbEntity
  8
0
100
AcDbLine
 10
3.481
 20
6.176
 30
0.0
 11
3.482
 21
6.2
 31
0.0
  0
LINE
  5
61F
330
18
100
AcDbEntity
  8
0
100
AcDbLine
 10
3.305
 20
5.92
 30
0.0
 11
3.35
 21
6.075
 31
0.0
  0
LINE
  5
620
330
18
100
AcDbEntity
  8
0
100
AcDbLine
 10
3.35
 20
6.075
 30
0.0
 11
3.343
 21
6.162000000000001
 31
0.0
  0
LINE
  5
621
330
18
100
AcDbEntity
  8
0
100
AcDbLine
 10
3.343
 20
6.162000000000001
 30
0.0
 11
3.335
 21
6.252000000000001
 31
0.0
  0
LINE
  5
622
330
18
100
AcDbEntity
  8
0
100
AcDbLine
 10
3.181
 20
5.894
 30
0.0
 11
3.193
 21
5.97
 31
0.0
  0
LINE
  5
623
330
18
100
AcDbEntity
  8
0
100
AcDbLine
 10
3.193
 20
5.97
 30
0.0
 11
3.2
 21
6.052000000000001
 31
0.0
  0
LINE
  5
624
330
18
100
AcDbEntity
  8
0
100
AcDbLine
 10
3.2
 20
6.052000000000001
 30
0.0
 11
3.197
 21
6.169
 31
0.0
  0
LINE
  5
625
330
18
100
AcDbEntity
  8
0
100
AcDbLine
 10
3.197
 20
6.169
 30
0.0
 11
3.194
 21
6.228
 31
0.0
  0
LINE
  5
626
330
18
100
AcDbEntity
  8
0
100
AcDbLine
 10
3.031
 20
5.917999999999999
 30
0.0
 11
3.038
 21
5.94
 31
0.0
  0
LINE
  5
627
330
18
100
AcDbEntity
  8
0
100
AcDbLine
 10
3.038
 20
5.94
 30
0.0
 11
3.045
 21
6.028
 31
0.0
  0
LINE
  5
628
330
18
100
AcDbEntity
  8
0
100
AcDbLine
 10
3.045
 20
6.028
 30
0.0
 11
3.044
 21
6.122000000000001
 31
0.0
  0
LINE
  5
629
330
18
100
AcDbEntity
  8
0
100
AcDbLine
 10
3.044
 20
6.122000000000001
 30
0.0
 11
3.051
 21
6.202999999999999
 31
0.0
  0
LINE
  5
62A
330
18
100
AcDbEntity
  8
0
100
AcDbLine
 10
2.901
 20
5.973
 30
0.0
 11
2.905
 21
5.992999999999999
 31
0.0
  0
LINE
  5
62B
330
18
100
AcDbEntity
  8
0
100
AcDbLine
 10
2.905
 20
5.992999999999999
 30
0.0
 11
2.912
 21
6.062
 31
0.0
  0
LINE
  5
62C
330
18
100
AcDbEntity
  8
0
100
AcDbLine
 10
2.912
 20
6.062
 30
0.0
 11
2.913
 21
6.12
 31
0.0
  0
LINE
  5
62D
330
18
100
AcDbEntity
  8
0
100
AcDbLine
 10
2.913
 20
6.12
 30
0.0
 11
2.919
 21
6.18
 31
0.0
  0
LINE
  5
62E
330
18
100
AcDbEntity
  8
0
100
AcDbLine
 10
2.658
 20
6.077000000000001
 30
0.0
 11
2.676
 21
6.126
 31
0.0
  0
LINE
  5
62F
330
18
100
AcDbEntity
  8
0
100
AcDbLine
 10
2.676
 20
6.126
 30
0.0
 11
2.678
 21
6.138999999999999
 31
0.0
  0
LINE
  5
630
330
18
100
AcDbEntity
  8
0
100
AcDbLine
 10
3.039
 20
6.562
 30
0.0
 11
3.061
 21
6.525
 31
0.0
  0
LINE
  5
631
330
18
100
AcDbEntity
  8
0
100
AcDbLine
 10
3.061
 20
6.525
 30
0.0
 11
3.11
 21
6.433
 31
0.0
  0
LINE
  5
632
330
18
100
AcDbEntity
  8
0
100
AcDbLine
 10
3.11
 20
6.433
 30
0.0
 11
3.15
 21
6.357
 31
0.0
  0
LINE
  5
633
330
18
100
AcDbEntity
  8
0
100
AcDbLine
 10
3.15
 20
6.357
 30
0.0
 11
3.182
 21
6.31
 31
0.0
  0
LINE
  5
634
330
18
100
AcDbEntity
  8
0
100
AcDbLine
 10
2.942
 20
6.546
 30
0.0
 11
2.991
 21
6.462000000000001
 31
0.0
  0
LINE
  5
635
330
18
100
AcDbEntity
  8
0
100
AcDbLine
 10
2.991
 20
6.462000000000001
 30
0.0
 11
3.031
 21
6.393
 31
0.0
  0
LINE
  5
636
330
18
100
AcDbEntity
  8
0
100
AcDbLine
 10
3.031
 20
6.393
 30
0.0
 11
3.056
 21
6.308
 31
0.0
  0
LINE
  5
637
330
18
100
AcDbEntity
  8
0
100
AcDbLine
 10
3.056
 20
6.308
 30
0.0
 11
3.075
 21
6.216
 31
0.0
  0
LINE
  5
638
330
18
100
AcDbEntity
  8
0
100
AcDbLine
 10
3.075
 20
6.216
 30
0.0
 11
3.077
 21
6.207999999999999
 31
0.0
  0
LINE
  5
639
330
18
100
AcDbEntity
  8
0
100
AcDbLine
 10
2.782
 20
6.518
 30
0.0
 11
2.893
 21
6.426
 31
0.0
  0
LINE
  5
63A
330
18
100
AcDbEntity
  8
0
100
AcDbLine
 10
2.893
 20
6.426
 30
0.0
 11
2.927
 21
6.337999999999999
 31
0.0
  0
LINE
  5
63B
330
18
100
AcDbEntity
  8
0
100
AcDbLine
 10
2.927
 20
6.337999999999999
 30
0.0
 11
2.958
 21
6.232
 31
0.0
  0
LINE
  5
63C
330
18
100
AcDbEntity
  8
0
100
AcDbLine
 10
2.958
 20
6.232
 30
0.0
 11
2.964
 21
6.188
 31
0.0
  0
LINE
  5
63D
330
18
100
AcDbEntity
  8
0
100
AcDbLine
 10
2.632
 20
6.492999999999999
 30
0.0
 11
2.737
 21
6.372000000000001
 31
0.0
  0
LINE
  5
63E
330
18
100
AcDbEntity
  8
0
100
AcDbLine
 10
2.737
 20
6.372000000000001
 30
0.0
 11
2.795
 21
6.268
 31
0.0
  0
LINE
  5
63F
330
18
100
AcDbEntity
  8
0
100
AcDbLine
 10
2.795
 20
6.268
 30
0.0
 11
2.819
 21
6.202999999999999
 31
0.0
  0
LINE
  5
640
330
18
100
AcDbEntity
  8
0
100
AcDbLine
 10
2.819
 20
6.202999999999999
 30
0.0
 11
2.832
 21
6.165
 31
0.0
  0
LINE
  5
641
330
18
100
AcDbEntity
  8
0
100
AcDbLine
 10
2.442
 20
6.46
 30
0.0
 11
2.472
 21
6.441
 31
0.0
  0
LINE
  5
642
330
18
100
AcDbEntity
  8
0
100
AcDbLine
 10
2.472
 20
6.441
 30
0.0
 11
2.558
 21
6.374
 31
0.0
  0
LINE
  5
643
330
18
100
AcDbEntity
  8
0
100
AcDbLine
 10
2.558
 20
6.374
 30
0.0
 11
2.623
 21
6.306
 31
0.0
  0
LINE
  5
644
330
18
100
AcDbEntity
  8
0
100
AcDbLine
 10
2.623
 20
6.306
 30
0.0
 11
2.693
 21
6.212999999999999
 31
0.0
  0
LINE
  5
645
330
18
100
AcDbEntity
  8
0
100
AcDbLine
 10
2.693
 20
6.212999999999999
 30
0.0
 11
2.725
 21
6.147
 31
0.0
  0
LINE
  5
646
330
18
100
AcDbEntity
  8
0
100
AcDbLine
 10
2.362
 20
6.409
 30
0.0
 11
2.422
 21
6.357
 31
0.0
  0
LINE
  5
647
330
18
100
AcDbEntity
  8
0
100
AcDbLine
 10
2.422
 20
6.357
 30
0.0
 11
2.484
 21
6.282
 31
0.0
  0
LINE
  5
648
330
18
100
AcDbEntity
  8
0
100
AcDbLine
 10
2.484
 20
6.282
 30
0.0
 11
2.531
 21
6.218
 31
0.0
  0
LINE
  5
649
330
18
100
AcDbEntity
  8
0
100
AcDbLine
 10
2.531
 20
6.218
 30
0.0
 11
2.585
 21
6.145
 31
0.0
  0
LINE
  5
64A
330
18
100
AcDbEntity
  8
0
100
AcDbLine
 10
2.585
 20
6.145
 30
0.0
 11
2.598
 21
6.125
 31
0.0
  0
LINE
  5
64B
330
18
100
AcDbEntity
  8
0
100
AcDbLine
 10
2.402
 20
6.187
 30
0.0
 11
2.416
 21
6.172000000000001
 31
0.0
  0
LINE
  5
64C
330
18
100
AcDbEntity
  8
0
100
AcDbLine
 10
2.416
 20
6.172000000000001
 30
0.0
 11
2.475
 21
6.101
 31
0.0
  0
LINE
  5
64D
330
18
100
AcDbEntity
  8
0
100
AcDbLine
 10
2.475
 20
6.101
 30
0.0
 11
2.52
 21
6.042999999999999
 31
0.0
  0
LINE
  5
64E
330
18
100
AcDbEntity
  8
0
100
AcDbLine
 10
1.798
 20
6.443
 30
0.0
 11
1.796
 21
6.499
 31
0.0
  0
LINE
  5
64F
330
18
100
AcDbEntity
  8
0
100
AcDbLine
 10
1.901
 20
6.399
 30
0.0
 11
1.912
 21
6.445
 31
0.0
  0
LINE
  5
650
330
18
100
AcDbEntity
  8
0
100
AcDbLine
 10
1.912
 20
6.445
 30
0.0
 11
1.91
 21
6.495
 31
0.0
  0
LINE
  5
651
330
18
100
AcDbEntity
  8
0
100
AcDbLine
 10
1.91
 20
6.495
 30
0.0
 11
1.901
 21
6.517
 31
0.0
  0
LINE
  5
652
330
18
100
AcDbEntity
  8
0
100
AcDbLine
 10
1.99
 20
6.361000000000001
 30
0.0
 11
2.009
 21
6.431
 31
0.0
  0
LINE
  5
653
330
18
100
AcDbEntity
  8
0
100
AcDbLine
 10
2.009
 20
6.431
 30
0.0
 11
1.999
 21
6.534
 31
0.0
  0
LINE
  5
654
330
18
100
AcDbEntity
  8
0
100
AcDbLine
 10
2.115
 20
6.308
 30
0.0
 11
2.13
 21
6.391
 31
0.0
  0
LINE
  5
655
330
18
100
AcDbEntity
  8
0
100
AcDbLine
 10
2.13
 20
6.391
 30
0.0
 11
2.113
 21
6.504
 31
0.0
  0
LINE
  5
656
330
18
100
AcDbEntity
  8
0
100
AcDbLine
 10
2.113
 20
6.504
 30
0.0
 11
2.105
 21
6.552000000000001
 31
0.0
  0
LINE
  5
657
330
18
100
AcDbEntity
  8
0
100
AcDbLine
 10
2.237
 20
6.261
 30
0.0
 11
2.273
 21
6.419
 31
0.0
  0
LINE
  5
658
330
18
100
AcDbEntity
  8
0
100
AcDbLine
 10
2.273
 20
6.419
 30
0.0
 11
2.248
 21
6.547000000000001
 31
0.0
  0
LINE
  5
659
330
18
100
AcDbEntity
  8
0
100
AcDbLine
 10
2.248
 20
6.547000000000001
 30
0.0
 11
2.244
 21
6.576000000000001
 31
0.0
  0
LINE
  5
65A
330
18
100
AcDbEntity
  8
0
100
AcDbLine
 10
2.522
 20
6.474
 30
0.0
 11
2.531
 21
6.54
 31
0.0
  0
LINE
  5
65B
330
18
100
AcDbEntity
  8
0
100
AcDbLine
 10
2.531
 20
6.54
 30
0.0
 11
2.53
 21
6.597
 31
0.0
  0
LINE
  5
65C
330
18
100
AcDbEntity
  8
0
100
AcDbLine
 10
2.414
 20
6.455
 30
0.0
 11
2.431
 21
6.513
 31
0.0
  0
LINE
  5
65D
330
18
100
AcDbEntity
  8
0
100
AcDbLine
 10
2.431
 20
6.513
 30
0.0
 11
2.41
 21
6.587999999999999
 31
0.0
  0
LINE
  5
65E
330
18
100
AcDbEntity
  8
0
100
AcDbLine
 10
2.41
 20
6.587999999999999
 30
0.0
 11
2.408
 21
6.604
 31
0.0
  0
LWPOLYLINE
  5
65F
330
18
100
AcDbEntity
  8
0
100
AcDbPolyline
 90
       16
 70
     1
 43
0.0
 10
3.639
 20
4.875
 42
0.12
 10
3.616
 20
4.874
 42
0.105
 10
3.592
 20
4.861000000000001
 42
0.089
 10
3.575
 20
4.84
 42
0.08
 10
3.564
 20
4.811
 42
0.08
 10
3.564
 20
4.781000000000001
 42
0.089
 10
3.572
 20
4.755
 42
0.105
 10
3.589
 20
4.734
 42
0.12
 10
3.611
 20
4.724
 42
0.12
 10
3.634
 20
4.726
 42
0.105
 10
3.658
 20
4.738
 42
0.089
 10
3.675
 20
4.76
 42
0.08
 10
3.685
 20
4.788
 42
0.08
 10
3.686
 20
4.819
 42
0.089
 10
3.678
 20
4.845
 42
0.105
 10
3.661
 20
4.865
 42
0.12
  0
LWPOLYLINE
  5
672
330
18
100
AcDbEntity
  8
0
100
AcDbPolyline
 90
       10
 70
     0
 43
0.0
 10
3.611
 20
4.887
 42
0.12
 10
3.588
 20
4.886
 42
0.105
 10
3.564
 20
4.873
 42
0.089
 10
3.547
 20
4.851
 42
0.08
 10
3.537
 20
4.823
 42
0.08
 10
3.536
 20
4.792
 42
0.089
 10
3.544
 20
4.766
 42
0.105
 10
3.561
 20
4.746
 42
0.12
 10
3.583
 20
4.736000000000001
 42
0.024
 10
3.588
 20
4.735
 42
0.105
  0
LWPOLYLINE
  5
67F
330
18
100
AcDbEntity
  8
0
100
AcDbPolyline
 90
        3
 70
     0
 43
0.0
 10
3.634
 20
4.876
 42
0.009
 10
3.633
 20
4.877
 42
0.12
 10
3.611
 20
4.887
 42
0.12
  0
TEXT
  5
685
330
18
100
AcDbEntity
  8
0
100
AcDbText
 10
2.469
 20
0.023
 30
0.0
 40
0.125
  1
BT
100
AcDbText
  0
TEXT
  5
686
330
18
100
AcDbEntity
  8
0
100
AcDbText
 10
2.469
 20
0.21
 30
0.0
 40
0.125
  1
Simpson Strong-Tie
100
AcDbText
  0
ENDSEC
  0
SECTION
  2
OBJECTS
  0
DICTIONARY
  5
C
330
0
100
AcDbDictionary
281
     1
  3
ACAD_COLOR
350
68C
  3
ACAD_GROUP
350
D
  3
ACAD_LAYOUT
350
15
  3
ACAD_MATERIAL
350
68E
  3
ACAD_MLINESTYLE
350
12
  3
ACAD_PLOTSETTINGS
350
14
  3
ACAD_PLOTSTYLENAME
350
E
  3
ACDBHEADERROUNDTRIPXREC
350
68B
  0
DICTIONARY
  5
68C
102
{ACAD_REACTORS
330
C
102
}
330
C
100
AcDbDictionary
281
     1
  0
DICTIONARY
  5
D
102
{ACAD_REACTORS
330
C
102
}
330
C
100
AcDbDictionary
281
     1
  0
DICTIONARY
  5
15
102
{ACAD_REACTORS
330
C
102
}
330
C
100
AcDbDictionary
281
     1
  3
Layout1
350
17
  3
Model
350
19
  0
DICTIONARY
  5
68E
102
{ACAD_REACTORS
330
C
102
}
330
C
100
AcDbDictionary
281
     1
  0
DICTIONARY
  5
12
102
{ACAD_REACTORS
330
C
102
}
330
C
100
AcDbDictionary
281
     1
  3
Standard
350
13
  0
DICTIONARY
  5
14
102
{ACAD_REACTORS
330
C
102
}
330
C
100
AcDbDictionary
281
     1
  0
ACDBDICTIONARYWDFLT
  5
E
102
{ACAD_REACTORS
330
C
102
}
330
C
100
AcDbDictionary
281
     1
  3
Normal
350
F
100
AcDbDictionaryWithDefault
340
F
  0
DICTIONARY
  5
68B
102
{ACAD_REACTORS
330
C
102
}
330
C
100
AcDbDictionary
281
     1
  3
COLORDICT
350
68D
  3
MATERIALDICT
350
68F
  0
LAYOUT
  5
17
102
{ACAD_REACTORS
330
15
102
}
102
{ACAD_XDICTIONARY
360
690
102
}
330
15
100
AcDbPlotSettings
  1

  2

  4

  6

 40
0.0
 41
0.0
 42
0.0
 43
0.0
 44
0.0
 45
0.0
 46
0.0
 47
0.0
 48
0.0
 49
0.0
140
0.0
141
0.0
142
1.0
143
1.0
 70
   688
 72
     0
 73
     0
 74
     5
  7

 75
    16
147
1.0
148
0.0
149
0.0
100
AcDbLayout
  1
Layout1
 70
     1
 71
     1
 10
0.0
 20
0.0
 11
12.0
 21
9.0
 12
0.0
 22
0.0
 32
0.0
 14
1.000000000000000E+20
 24
1.000000000000000E+20
 34
1.000000000000000E+20
 15
-1.000000000000000E+20
 25
-1.000000000000000E+20
 35
-1.000000000000000E+20
146
0.0
 13
0.0
 23
0.0
 33
0.0
 16
1.0
 26
0.0
 36
0.0
 17
0.0
 27
1.0
 37
0.0
 76
     0
330
16
  0
LAYOUT
  5
19
102
{ACAD_REACTORS
330
15
102
}
102
{ACAD_XDICTIONARY
360
692
102
}
330
15
100
AcDbPlotSettings
  1

  2

  4

  6

 40
0.0
 41
0.0
 42
0.0
 43
0.0
 44
0.0
 45
0.0
 46
0.0
 47
0.0
 48
0.0
 49
0.0
140
0.0
141
0.0
142
1.0
143
1.0
 70
  1712
 72
     0
 73
     0
 74
     0
  7

 75
     0
147
1.0
148
0.0
149
0.0
100
AcDbLayout
  1
Model
 70
     1
 71
     0
 10
0.0
 20
0.0
 11
0.0
 21
0.0
 12
0.0
 22
0.0
 32
0.0
 14
0.0
 24
0.0
 34
0.0
 15
0.0
 25
0.0
 35
0.0
146
0.0
 13
0.0
 23
0.0
 33
0.0
 16
1.0
 26
0.0
 36
0.0
 17
0.0
 27
1.0
 37
0.0
 76
     0
330
18
  0
MLINESTYLE
  5
13
102
{ACAD_REACTORS
330
12
102
}
330
12
100
AcDbMlineStyle
  2
Standard
 70
     0
  3

 62
   256
 51
90.0
 52
90.0
 71
     2
 49
0.5
 62
   256
  6
BYLAYER
 49
-0.5
 62
   256
  6
BYLAYER
  0
ACDBPLACEHOLDER
  5
F
102
{ACAD_REACTORS
330
E
102
}
330
E
  0
XRECORD
  5
68D
102
{ACAD_REACTORS
330
68B
102
}
330
68B
100
AcDbXrecord
340
68C
  0
XRECORD
  5
68F
102
{ACAD_REACTORS
330
68B
102
}
330
68B
100
AcDbXrecord
340
68E
  0
DICTIONARY
  5
690
330
17
100
AcDbDictionary
280
     1
281
     1
  3
ACAD_XREC_ROUNDTRIP
360
691
  0
DICTIONARY
  5
692
330
19
100
AcDbDictionary
280
     1
281
     1
  3
ACAD_XREC_ROUNDTRIP
360
693
  0
XRECORD
  5
691
102
{ACAD_REACTORS
330
690
102
}
330
690
100
AcDbXrecord
102
SHADEPLOT
 70
     0
102
SHADEPLOTRESLEVEL
 70
     0
102
SHADEPLOTCUSTOMDPI
 70
     0
  0
XRECORD
  5
693
102
{ACAD_REACTORS
330
692
102
}
330
692
100
AcDbXrecord
102
SHADEPLOT
 70
     0
102
SHADEPLOTRESLEVEL
 70
     0
102
SHADEPLOTCUSTOMDPI
 70
     0
  0
ENDSEC
  0
EOF
