  0
SECTION
  2
HEADER
  9
$ACADVER
  1
AC1015
  9
$ACADMAINTVER
 70
     6
  9
$DWGCODEPAGE
  3
ASCII
  9
$INSBASE
 10
0.0
 20
0.0
 30
0.0
  9
$EXTMIN
 10
1.09592
 20
0.1614149999999998
 30
0.0
  9
$EXTMAX
 10
7.764879000000004
 20
9.322286999999999
 30
0.0
  9
$LIMMIN
 10
0.0
 20
0.0
  9
$LIMMAX
 10
8.5
 20
11.0
  9
$ORTHOMODE
 70
     1
  9
$REGENMODE
 70
     0
  9
$FILLMODE
 70
     1
  9
$QTEXTMODE
 70
     0
  9
$MIRRTEXT
 70
     1
  9
$LTSCALE
 40
1.0
  9
$ATTMODE
 70
     1
  9
$TEXTSIZE
 40
0.25
  9
$TRACEWID
 40
0.05
  9
$TEXTSTYLE
  7
STANDARD
  9
$CLAYER
  8
0
  9
$CELTYPE
  6
ByLayer
  9
$CECOLOR
 62
   256
  9
$CELTSCALE
 40
1.0
  9
$DISPSILH
 70
     0
  9
$DIMSCALE
 40
1.0
  9
$DIMASZ
 40
0.1
  9
$DIMEXO
 40
0.0625
  9
$DIMDLI
 40
0.38
  9
$DIMRND
 40
0.0
  9
$DIMDLE
 40
0.0
  9
$DIMEXE
 40
0.075
  9
$DIMTP
 40
0.0
  9
$DIMTM
 40
0.0
  9
$DIMTXT
 40
0.1
  9
$DIMCEN
 40
0.09
  9
$DIMTSZ
 40
0.0
  9
$DIMTOL
 70
     0
  9
$DIMLIM
 70
     0
  9
$DIMTIH
 70
     0
  9
$DIMTOH
 70
     0
  9
$DIMSE1
 70
     0
  9
$DIMSE2
 70
     0
  9
$DIMTAD
 70
     1
  9
$DIMZIN
 70
     0
  9
$DIMBLK
  1

  9
$DIMASO
 70
     0
  9
$DIMSHO
 70
     1
  9
$DIMPOST
  1

  9
$DIMAPOST
  1

  9
$DIMALT
 70
     0
  9
$DIMALTD
 70
     2
  9
$DIMALTF
 40
25.4
  9
$DIMLFAC
 40
1.0
  9
$DIMTOFL
 70
     0
  9
$DIMTVP
 40
0.0
  9
$DIMTIX
 70
     0
  9
$DIMSOXD
 70
     0
  9
$DIMSAH
 70
     0
  9
$DIMBLK1
  1

  9
$DIMBLK2
  1

  9
$DIMSTYLE
  2
Standard
  9
$DIMCLRD
 70
     0
  9
$DIMCLRE
 70
     0
  9
$DIMCLRT
 70
     0
  9
$DIMTFAC
 40
1.0
  9
$DIMGAP
 40
0.09
  9
$DIMJUST
 70
     0
  9
$DIMSD1
 70
     0
  9
$DIMSD2
 70
     0
  9
$DIMTOLJ
 70
     1
  9
$DIMTZIN
 70
     0
  9
$DIMALTZ
 70
     0
  9
$DIMALTTZ
 70
     0
  9
$DIMUPT
 70
     0
  9
$DIMDEC
 70
     4
  9
$DIMTDEC
 70
     4
  9
$DIMALTU
 70
     2
  9
$DIMALTTD
 70
     2
  9
$DIMTXSTY
  7
STANDARD
  9
$DIMAUNIT
 70
     0
  9
$DIMADEC
 70
     0
  9
$DIMALTRND
 40
0.0
  9
$DIMAZIN
 70
     0
  9
$DIMDSEP
 70
    46
  9
$DIMATFIT
 70
     3
  9
$DIMFRAC
 70
     0
  9
$DIMLDRBLK
  1

  9
$DIMLUNIT
 70
     2
  9
$DIMLWD
 70
    -2
  9
$DIMLWE
 70
    -2
  9
$DIMTMOVE
 70
     0
  9
$LUNITS
 70
     2
  9
$LUPREC
 70
     4
  9
$SKETCHINC
 40
0.1
  9
$FILLETRAD
 40
0.104485
  9
$AUNITS
 70
     0
  9
$AUPREC
 70
     0
  9
$MENU
  1
acad
  9
$ELEVATION
 40
0.0
  9
$PELEVATION
 40
0.0
  9
$THICKNESS
 40
0.0
  9
$LIMCHECK
 70
     0
  9
$CHAMFERA
 40
0.0
  9
$CHAMFERB
 40
0.0
  9
$CHAMFERC
 40
1.0
  9
$CHAMFERD
 40
0.0
  9
$SKPOLY
 70
     0
  9
$TDCREATE
 40
2453955.562567211
  9
$TDUCREATE
 40
2453955.895900544
  9
$TDUPDATE
 40
2453955.604233889
  9
$TDUUPDATE
 40
2453955.895900555
  9
$TDINDWG
 40
0.0000000116
  9
$TDUSRTIMER
 40
0.0000000116
  9
$USRTIMER
 70
     1
  9
$ANGBASE
 50
0.0
  9
$ANGDIR
 70
     0
  9
$PDMODE
 70
     0
  9
$PDSIZE
 40
0.0
  9
$PLINEWID
 40
0.0
  9
$SPLFRAME
 70
     0
  9
$SPLINETYPE
 70
     6
  9
$SPLINESEGS
 70
     8
  9
$HANDSEED
  5
643
  9
$SURFTAB1
 70
     6
  9
$SURFTAB2
 70
     6
  9
$SURFTYPE
 70
     6
  9
$SURFU
 70
     6
  9
$SURFV
 70
     6
  9
$UCSBASE
  2

  9
$UCSNAME
  2

  9
$UCSORG
 10
0.0
 20
0.0
 30
0.0
  9
$UCSXDIR
 10
1.0
 20
0.0
 30
0.0
  9
$UCSYDIR
 10
0.0
 20
1.0
 30
0.0
  9
$UCSORTHOREF
  2

  9
$UCSORTHOVIEW
 70
     0
  9
$UCSORGTOP
 10
0.0
 20
0.0
 30
0.0
  9
$UCSORGBOTTOM
 10
0.0
 20
0.0
 30
0.0
  9
$UCSORGLEFT
 10
0.0
 20
0.0
 30
0.0
  9
$UCSORGRIGHT
 10
0.0
 20
0.0
 30
0.0
  9
$UCSORGFRONT
 10
0.0
 20
0.0
 30
0.0
  9
$UCSORGBACK
 10
0.0
 20
0.0
 30
0.0
  9
$PUCSBASE
  2

  9
$PUCSNAME
  2

  9
$PUCSORG
 10
0.0
 20
0.0
 30
0.0
  9
$PUCSXDIR
 10
1.0
 20
0.0
 30
0.0
  9
$PUCSYDIR
 10
0.0
 20
1.0
 30
0.0
  9
$PUCSORTHOREF
  2

  9
$PUCSORTHOVIEW
 70
     0
  9
$PUCSORGTOP
 10
0.0
 20
0.0
 30
0.0
  9
$PUCSORGBOTTOM
 10
0.0
 20
0.0
 30
0.0
  9
$PUCSORGLEFT
 10
0.0
 20
0.0
 30
0.0
  9
$PUCSORGRIGHT
 10
0.0
 20
0.0
 30
0.0
  9
$PUCSORGFRONT
 10
0.0
 20
0.0
 30
0.0
  9
$PUCSORGBACK
 10
0.0
 20
0.0
 30
0.0
  9
$USERI1
 70
     0
  9
$USERI2
 70
     0
  9
$USERI3
 70
     0
  9
$USERI4
 70
     0
  9
$USERI5
 70
     0
  9
$USERR1
 40
0.0
  9
$USERR2
 40
0.0
  9
$USERR3
 40
0.0
  9
$USERR4
 40
0.0
  9
$USERR5
 40
0.0
  9
$WORLDVIEW
 70
     1
  9
$SHADEDGE
 70
     3
  9
$SHADEDIF
 70
    70
  9
$TILEMODE
 70
     1
  9
$MAXACTVP
 70
    16
  9
$PINSBASE
 10
0.0
 20
0.0
 30
0.0
  9
$PLIMCHECK
 70
     0
  9
$PEXTMIN
 10
1.000000000000000E+20
 20
1.000000000000000E+20
 30
1.000000000000000E+20
  9
$PEXTMAX
 10
-1.000000000000000E+20
 20
-1.000000000000000E+20
 30
-1.000000000000000E+20
  9
$PLIMMIN
 10
0.0
 20
0.0
  9
$PLIMMAX
 10
12.0
 20
9.0
  9
$UNITMODE
 70
     0
  9
$VISRETAIN
 70
     0
  9
$PLINEGEN
 70
     0
  9
$PSLTSCALE
 70
     1
  9
$TREEDEPTH
 70
  3020
  9
$CMLSTYLE
  2
Standard
  9
$CMLJUST
 70
     0
  9
$CMLSCALE
 40
1.0
  9
$PROXYGRAPHICS
 70
     1
  9
$MEASUREMENT
 70
     0
  9
$CELWEIGHT
370
    -1
  9
$ENDCAPS
280
     0
  9
$JOINSTYLE
280
     0
  9
$LWDISPLAY
290
     0
  9
$INSUNITS
 70
     1
  9
$HYPERLINKBASE
  1

  9
$STYLESHEET
  1

  9
$XEDIT
290
     1
  9
$CEPSNTYPE
380
     0
  9
$PSTYLEMODE
290
     0
  9
$FINGERPRINTGUID
  2
{FAEB1C30-E019-11D5-929B-00C0DF256EC4}
  9
$VERSIONGUID
  2
{FAEB1C32-E019-11D5-929B-00C0DF256EC4}
  9
$EXTNAMES
290
     1
  9
$PSVPSCALE
 40
0.0
  9
$OLESTARTUP
290
     0
  0
ENDSEC
  0
SECTION
  2
CLASSES
  0
CLASS
  1
ACDBDICTIONARYWDFLT
  2
AcDbDictionaryWithDefault
  3
AutoCAD 2000
 90
        0
280
     0
281
     0
  0
CLASS
  1
ACDBPLACEHOLDER
  2
AcDbPlaceHolder
  3
ObjectDBX Classes
 90
        0
280
     0
281
     0
  0
CLASS
  1
LAYOUT
  2
AcDbLayout
  3
ObjectDBX Classes
 90
        0
280
     0
281
     0
  0
ENDSEC
  0
SECTION
  2
TABLES
  0
TABLE
  2
VPORT
  5
8
330
0
100
AcDbSymbolTable
 70
     2
  0
VPORT
  5
1F
330
8
100
AcDbSymbolTableRecord
100
AcDbViewportTableRecord
  2
*ACTIVE
 70
     0
 10
0.0
 20
0.0
 11
1.0
 21
1.0
 12
7.630750605326877
 22
5.5
 13
0.0
 23
0.0
 14
1.0
 24
1.0
 15
0.0
 25
0.0
 16
0.0
 26
0.0
 36
1.0
 17
0.0
 27
0.0
 37
0.0
 40
11.0
 41
0.7207678883071553
 42
50.0
 43
0.0
 44
0.0
 50
0.0
 51
0.0
 71
     0
 72
  2000
 73
     1
 74
     0
 75
     0
 76
     0
 77
     0
 78
     0
281
     0
 65
     1
110
0.0
120
0.0
130
0.0
111
1.0
121
0.0
131
0.0
112
0.0
122
1.0
132
0.0
 79
     0
146
0.0
  0
ENDTAB
  0
TABLE
  2
LTYPE
  5
5
330
0
100
AcDbSymbolTable
 70
     1
  0
LTYPE
  5
10
330
5
100
AcDbSymbolTableRecord
100
AcDbLinetypeTableRecord
  2
ByBlock
 70
     0
  3

 72
    65
 73
     0
 40
0.0
  0
LTYPE
  5
11
330
5
100
AcDbSymbolTableRecord
100
AcDbLinetypeTableRecord
  2
ByLayer
 70
     0
  3

 72
    65
 73
     0
 40
0.0
  0
LTYPE
  5
1B
330
5
100
AcDbSymbolTableRecord
100
AcDbLinetypeTableRecord
  2
CONTINUOUS
 70
     0
  3
Solid line
 72
    65
 73
     0
 40
0.0
  0
ENDTAB
  0
TABLE
  2
LAYER
  5
2
330
0
100
AcDbSymbolTable
 70
     2
  0
LAYER
  5
1C
330
2
100
AcDbSymbolTableRecord
100
AcDbLayerTableRecord
  2
0
 70
     0
 62
     7
  6
CONTINUOUS
370
    -3
390
F
  0
LAYER
  5
1D
330
2
100
AcDbSymbolTableRecord
100
AcDbLayerTableRecord
  2
TEXT
 70
     0
 62
     7
  6
CONTINUOUS
370
    -3
390
0
  0
ENDTAB
  0
TABLE
  2
STYLE
  5
3
330
0
100
AcDbSymbolTable
 70
     1
  0
STYLE
  5
22
330
3
100
AcDbSymbolTableRecord
100
AcDbTextStyleTableRecord
  2
STANDARD
 70
     0
 40
0.0
 41
1.0
 50
0.0
 71
     0
 42
0.25
  3
ROMANS.shx
  4

  0
ENDTAB
  0
TABLE
  2
VIEW
  5
6
330
0
100
AcDbSymbolTable
 70
     1
  0
VIEW
  5
21
330
6
100
AcDbSymbolTableRecord
100
AcDbViewTableRecord
  2
1
 70
     0
 40
11.0
 10
7.225941000000001
 20
5.5
 41
14.451883
 11
0.0
 21
0.0
 31
1.0
 12
0.0
 22
0.0
 32
0.0
 42
50.0
 43
0.0
 44
0.0
 50
0.0
 71
     0
281
     0
 72
     0
  0
ENDTAB
  0
TABLE
  2
UCS
  5
7
330
0
100
AcDbSymbolTable
 70
     0
  0
ENDTAB
  0
TABLE
  2
APPID
  5
9
330
0
100
AcDbSymbolTable
 70
     1
  0
APPID
  5
20
330
9
100
AcDbSymbolTableRecord
100
AcDbRegAppTableRecord
  2
ACAD
 70
     0
  0
ENDTAB
  0
TABLE
  2
DIMSTYLE
  5
A
330
0
100
AcDbSymbolTable
 70
     1
100
AcDbDimStyleTable
  0
DIMSTYLE
105
23
330
A
100
AcDbSymbolTableRecord
100
AcDbDimStyleTableRecord
  2
Standard
 70
     0
  3

  4

340
22
  0
ENDTAB
  0
TABLE
  2
BLOCK_RECORD
  5
1
330
0
100
AcDbSymbolTable
 70
     0
  0
BLOCK_RECORD
  5
18
330
1
100
AcDbSymbolTableRecord
100
AcDbBlockTableRecord
  2
*Model_Space
340
19
  0
BLOCK_RECORD
  5
16
330
1
100
AcDbSymbolTableRecord
100
AcDbBlockTableRecord
  2
*Paper_Space
340
17
  0
ENDTAB
  0
ENDSEC
  0
SECTION
  2
BLOCKS
  0
BLOCK
  5
638
330
18
100
AcDbEntity
  8
0
100
AcDbBlockBegin
  2
*Model_Space
 70
     0
 10
0.0
 20
0.0
 30
0.0
  3
*Model_Space
  1

  4

  0
ENDBLK
  5
639
330
18
100
AcDbEntity
  8
0
100
AcDbBlockEnd
  0
BLOCK
  5
636
330
16
100
AcDbEntity
 67
     1
  8
0
100
AcDbBlockBegin
  2
*Paper_Space
 70
     0
 10
0.0
 20
0.0
 30
0.0
  3
*Paper_Space
  1

  4

  0
ENDBLK
  5
637
330
16
100
AcDbEntity
 67
     1
  8
0
100
AcDbBlockEnd
  0
ENDSEC
  0
SECTION
  2
ENTITIES
  0
LINE
  5
24
330
18
100
AcDbEntity
  8
0
100
AcDbLine
 10
2.893285
 20
2.42418
 30
0.0
 11
1.156833
 21
4.0583
 31
0.0
  0
LINE
  5
25
330
18
100
AcDbEntity
  8
0
100
AcDbLine
 10
1.156833
 20
4.0583
 30
0.0
 11
1.156833
 21
4.356948
 31
0.0
  0
LINE
  5
26
330
18
100
AcDbEntity
  8
0
100
AcDbLine
 10
1.821865
 20
6.55805
 30
0.0
 11
1.821865
 21
4.013142
 31
0.0
  0
LINE
  5
27
330
18
100
AcDbEntity
  8
0
100
AcDbLine
 10
1.156833
 20
4.356948
 30
0.0
 11
1.802582
 21
4.7247
 31
0.0
  0
LINE
  5
28
330
18
100
AcDbEntity
  8
0
100
AcDbLine
 10
1.156833
 20
4.356948
 30
0.0
 11
1.703732
 21
3.95349
 31
0.0
  0
LINE
  5
29
330
18
100
AcDbEntity
  8
0
100
AcDbLine
 10
2.893285
 20
2.42418
 30
0.0
 11
2.893285
 21
2.765401
 31
0.0
  0
LINE
  5
2A
330
18
100
AcDbEntity
  8
0
100
AcDbLine
 10
2.893285
 20
2.765401
 30
0.0
 11
2.247436
 21
3.475066
 31
0.0
  0
LINE
  5
2B
330
18
100
AcDbEntity
  8
0
100
AcDbLine
 10
2.093001
 20
3.874209
 30
0.0
 11
2.093001
 21
6.573452000000001
 31
0.0
  0
ARC
  5
2C
330
18
100
AcDbEntity
  8
0
100
AcDbCircle
 10
2.686018
 20
3.874209
 30
0.0
 40
0.593017
100
AcDbArc
 50
180.0
 51
222.304535
  0
ARC
  5
2D
330
18
100
AcDbEntity
  8
0
100
AcDbCircle
 10
1.747738
 20
4.013142
 30
0.0
 40
0.074127
100
AcDbArc
 50
233.583058
 51
0.0
  0
LINE
  5
2E
330
18
100
AcDbEntity
  8
0
100
AcDbLine
 10
2.893285
 20
2.765401
 30
0.0
 11
4.317211
 21
3.678745
 31
0.0
  0
LINE
  5
2F
330
18
100
AcDbEntity
  8
0
100
AcDbLine
 10
2.893285
 20
2.42418
 30
0.0
 11
4.409888
 21
3.39697
 31
0.0
  0
LINE
  5
30
330
18
100
AcDbEntity
  8
0
100
AcDbLine
 10
1.09592
 20
7.710762
 30
0.0
 11
2.806911
 21
6.632961
 31
0.0
  0
LINE
  5
31
330
18
100
AcDbEntity
  8
0
100
AcDbLine
 10
1.09592
 20
7.710762
 30
0.0
 11
1.09592
 21
7.449650999999999
 31
0.0
  0
LINE
  5
32
330
18
100
AcDbEntity
  8
0
100
AcDbLine
 10
1.09592
 20
7.449650999999999
 30
0.0
 11
1.613073
 21
7.009758000000001
 31
0.0
  0
LINE
  5
33
330
18
100
AcDbEntity
  8
0
100
AcDbLine
 10
2.203603
 20
6.637983999999999
 30
0.0
 11
2.806911
 21
6.296981
 31
0.0
  0
LINE
  5
34
330
18
100
AcDbEntity
  8
0
100
AcDbLine
 10
2.806911
 20
6.632961
 30
0.0
 11
2.806911
 21
6.296981
 31
0.0
  0
ARC
  5
35
330
18
100
AcDbEntity
  8
0
100
AcDbCircle
 10
2.167128
 20
6.573452000000001
 30
0.0
 40
0.074127
100
AcDbArc
 50
60.523929
 51
180.0
  0
ARC
  5
36
330
18
100
AcDbEntity
  8
0
100
AcDbCircle
 10
1.228849
 20
6.55805
 30
0.0
 40
0.593017
100
AcDbArc
 50
0.0
 51
49.615347
  0
LINE
  5
37
330
18
100
AcDbEntity
  8
0
100
AcDbLine
 10
1.09592
 20
7.710762
 30
0.0
 11
5.459817
 21
9.322286999999999
 31
0.0
  0
LINE
  5
38
330
18
100
AcDbEntity
  8
0
100
AcDbLine
 10
2.806911
 20
6.632961
 30
0.0
 11
3.409594
 21
6.896845
 31
0.0
  0
LINE
  5
39
330
18
100
AcDbEntity
  8
0
100
AcDbLine
 10
5.459817
 20
9.322286999999999
 30
0.0
 11
6.242948
 21
9.024722000000001
 31
0.0
  0
LINE
  5
3A
330
18
100
AcDbEntity
  8
0
100
AcDbLine
 10
2.806911
 20
6.296981
 30
0.0
 11
3.495464
 21
6.598463000000001
 31
0.0
  0
LINE
  5
3B
330
18
100
AcDbEntity
  8
0
100
AcDbLine
 10
7.327906
 20
8.612472
 30
0.0
 11
7.327906
 21
8.276491999999999
 31
0.0
  0
LINE
  5
3C
330
18
100
AcDbEntity
  8
0
100
AcDbLine
 10
3.409594
 20
6.896845
 30
0.0
 11
4.333264
 21
3.687297
 31
0.0
  0
LINE
  5
3D
330
18
100
AcDbEntity
  8
0
100
AcDbLine
 10
4.333264
 20
3.687297
 30
0.0
 11
4.362473000000001
 21
3.650609
 31
0.0
  0
LINE
  5
3E
330
18
100
AcDbEntity
  8
0
100
AcDbLine
 10
4.385216000000001
 20
3.58553
 30
0.0
 11
4.385216000000001
 21
3.430648
 31
0.0
  0
LINE
  5
3F
330
18
100
AcDbEntity
  8
0
100
AcDbLine
 10
4.330721
 20
3.510113
 30
0.0
 11
4.385216000000001
 21
3.468124
 31
0.0
  0
LINE
  5
40
330
18
100
AcDbEntity
  8
0
100
AcDbLine
 10
6.5414
 20
5.998146
 30
0.0
 11
6.567454
 21
4.292065
 31
0.0
  0
LINE
  5
41
330
18
100
AcDbEntity
  8
0
100
AcDbLine
 10
7.293432000000001
 20
2.21254
 30
0.0
 11
6.629385000000001
 21
1.75017
 31
0.0
  0
ARC
  5
42
330
18
100
AcDbEntity
  8
0
100
AcDbCircle
 10
6.620914
 20
1.762337
 30
0.0
 40
0.014825
100
AcDbArc
 50
180.874918
 51
304.849143
  0
LINE
  5
43
330
18
100
AcDbEntity
  8
0
100
AcDbLine
 10
7.239481
 20
6.369332
 30
0.0
 11
7.264315
 21
4.662602
 31
0.0
  0
ARC
  5
44
330
18
100
AcDbEntity
  8
0
100
AcDbCircle
 10
7.284961
 20
2.224707
 30
0.0
 40
0.014825
100
AcDbArc
 50
304.849143
 51
0.833628
  0
LINE
  5
45
330
18
100
AcDbEntity
  8
0
100
AcDbLine
 10
6.549033000000001
 20
6.011337
 30
0.0
 11
7.217466
 21
6.382080999999999
 31
0.0
  0
ARC
  5
46
330
18
100
AcDbEntity
  8
0
100
AcDbCircle
 10
6.556224
 20
5.998372
 30
0.0
 40
0.014825
100
AcDbArc
 50
119.014784
 51
180.874918
  0
ARC
  5
47
330
18
100
AcDbEntity
  8
0
100
AcDbCircle
 10
7.224657000000001
 20
6.369117
 30
0.0
 40
0.014825
100
AcDbArc
 50
0.833628
 51
119.014784
  0
ARC
  5
48
330
18
100
AcDbEntity
  8
0
100
AcDbCircle
 10
6.556224
 20
5.998372
 30
0.0
 40
0.014825
100
AcDbArc
 50
119.014784
 51
180.874918
  0
LINE
  5
49
330
18
100
AcDbEntity
  8
0
100
AcDbLine
 10
4.290195
 20
7.241853
 30
0.0
 11
6.543392
 21
6.005797
 31
0.0
  0
LINE
  5
4A
330
18
100
AcDbEntity
  8
0
100
AcDbLine
 10
4.921355
 20
7.531728
 30
0.0
 11
7.232087
 21
6.381946
 31
0.0
  0
LINE
  5
4B
330
18
100
AcDbEntity
  8
0
100
AcDbLine
 10
4.269228
 20
7.242105000000001
 30
0.0
 11
4.273342
 21
6.936634
 31
0.0
  0
LINE
  5
4C
330
18
100
AcDbEntity
  8
0
100
AcDbLine
 10
4.278106
 20
7.255885
 30
0.0
 11
4.908805
 21
7.532036
 31
0.0
  0
ARC
  5
4D
330
18
100
AcDbEntity
  8
0
100
AcDbCircle
 10
4.914751
 20
7.518455
 30
0.0
 40
0.014825
100
AcDbArc
 50
63.54581500000001
 51
113.646142
  0
LINE
  5
4E
330
18
100
AcDbEntity
  8
0
100
AcDbLine
 10
5.573462
 20
7.508311999999999
 30
0.0
 11
7.327906
 21
8.276491999999999
 31
0.0
  0
ARC
  5
4F
330
18
100
AcDbEntity
  8
0
100
AcDbCircle
 10
4.284052
 20
7.242305
 30
0.0
 40
0.014825
100
AcDbArc
 50
113.646142
 51
180.771469
  0
LINE
  5
50
330
18
100
AcDbEntity
  8
0
100
AcDbLine
 10
3.658688
 20
7.589991
 30
0.0
 11
4.204422
 21
7.248023
 31
0.0
  0
LINE
  5
51
330
18
100
AcDbEntity
  8
0
100
AcDbLine
 10
2.906985
 20
7.276021000000001
 30
0.0
 11
3.423269
 21
6.9508
 31
0.0
  0
LINE
  5
52
330
18
100
AcDbEntity
  8
0
100
AcDbLine
 10
2.906985
 20
7.276021000000001
 30
0.0
 11
3.658688
 21
7.589991
 31
0.0
  0
ARC
  5
53
330
18
100
AcDbEntity
  8
0
100
AcDbCircle
 10
2.855249
 20
7.302171
 30
0.0
 40
0.057969
100
AcDbArc
 50
270.352058
 51
333.186362
  0
LINE
  5
54
330
18
100
AcDbEntity
  8
0
100
AcDbLine
 10
3.43596
 20
6.933911999999999
 30
0.0
 11
4.356503
 21
3.735227
 31
0.0
  0
ARC
  5
55
330
18
100
AcDbEntity
  8
0
100
AcDbCircle
 10
2.886528
 20
7.282467
 30
0.0
 40
0.057969
100
AcDbArc
 50
270.352058
 51
333.186362
  0
ARC
  5
56
330
18
100
AcDbEntity
  8
0
100
AcDbCircle
 10
2.917807
 20
7.262764
 30
0.0
 40
0.057969
100
AcDbArc
 50
270.352058
 51
333.186362
  0
ARC
  5
57
330
18
100
AcDbEntity
  8
0
100
AcDbCircle
 10
2.949085
 20
7.243061
 30
0.0
 40
0.057969
100
AcDbArc
 50
270.352058
 51
333.186362
  0
ARC
  5
58
330
18
100
AcDbEntity
  8
0
100
AcDbCircle
 10
2.980364
 20
7.223357000000001
 30
0.0
 40
0.057969
100
AcDbArc
 50
270.352058
 51
333.186362
  0
ARC
  5
59
330
18
100
AcDbEntity
  8
0
100
AcDbCircle
 10
3.011643
 20
7.203653999999999
 30
0.0
 40
0.057969
100
AcDbArc
 50
270.352058
 51
333.186362
  0
ARC
  5
5A
330
18
100
AcDbEntity
  8
0
100
AcDbCircle
 10
3.042921
 20
7.183951
 30
0.0
 40
0.057969
100
AcDbArc
 50
270.352058
 51
333.186362
  0
ARC
  5
5B
330
18
100
AcDbEntity
  8
0
100
AcDbCircle
 10
3.0742
 20
7.164247000000001
 30
0.0
 40
0.057969
100
AcDbArc
 50
270.352058
 51
333.186362
  0
ARC
  5
5C
330
18
100
AcDbEntity
  8
0
100
AcDbCircle
 10
3.105479
 20
7.144544000000001
 30
0.0
 40
0.057969
100
AcDbArc
 50
270.352058
 51
333.186362
  0
ARC
  5
5D
330
18
100
AcDbEntity
  8
0
100
AcDbCircle
 10
3.136757
 20
7.124841
 30
0.0
 40
0.057969
100
AcDbArc
 50
270.352058
 51
333.186362
  0
ARC
  5
5E
330
18
100
AcDbEntity
  8
0
100
AcDbCircle
 10
3.168036
 20
7.105138
 30
0.0
 40
0.057969
100
AcDbArc
 50
270.352058
 51
333.186362
  0
ARC
  5
5F
330
18
100
AcDbEntity
  8
0
100
AcDbCircle
 10
3.199315
 20
7.085433999999999
 30
0.0
 40
0.057969
100
AcDbArc
 50
270.352058
 51
333.186362
  0
ARC
  5
60
330
18
100
AcDbEntity
  8
0
100
AcDbCircle
 10
3.230593
 20
7.065731
 30
0.0
 40
0.057969
100
AcDbArc
 50
270.352058
 51
333.186362
  0
ARC
  5
61
330
18
100
AcDbEntity
  8
0
100
AcDbCircle
 10
3.261872
 20
7.046028
 30
0.0
 40
0.057969
100
AcDbArc
 50
270.352058
 51
333.186362
  0
ARC
  5
62
330
18
100
AcDbEntity
  8
0
100
AcDbCircle
 10
3.293151
 20
7.026324000000001
 30
0.0
 40
0.057969
100
AcDbArc
 50
270.352058
 51
333.186362
  0
ARC
  5
63
330
18
100
AcDbEntity
  8
0
100
AcDbCircle
 10
3.324429
 20
7.006621000000001
 30
0.0
 40
0.057969
100
AcDbArc
 50
270.352058
 51
333.186362
  0
ARC
  5
64
330
18
100
AcDbEntity
  8
0
100
AcDbCircle
 10
3.355708
 20
6.986917999999999
 30
0.0
 40
0.057969
100
AcDbArc
 50
270.352058
 51
333.186362
  0
LINE
  5
65
330
18
100
AcDbEntity
  8
0
100
AcDbLine
 10
3.409594
 20
6.896845
 30
0.0
 11
3.394871
 21
6.912837
 31
0.0
  0
ARC
  5
66
330
18
100
AcDbEntity
  8
0
100
AcDbCircle
 10
3.363982
 20
6.976128999999999
 30
0.0
 40
0.070427
100
AcDbArc
 50
296.014438
 51
335.569929
  0
ARC
  5
67
330
18
100
AcDbEntity
  8
0
100
AcDbCircle
 10
3.407465
 20
6.925712
 30
0.0
 40
0.029651
100
AcDbArc
 50
16.055194
 51
57.79203100000001
  0
ARC
  5
68
330
18
100
AcDbEntity
  8
0
100
AcDbCircle
 10
4.348819000000001
 20
3.533601
 30
0.0
 40
0.029651
100
AcDbArc
 50
180.771469
 51
232.384861
  0
LINE
  5
69
330
18
100
AcDbEntity
  8
0
100
AcDbLine
 10
4.396769
 20
3.407161
 30
0.0
 11
5.008797
 21
2.931771
 31
0.0
  0
ARC
  5
6A
330
18
100
AcDbEntity
  8
0
100
AcDbCircle
 10
4.414867
 20
3.430648
 30
0.0
 40
0.029651
100
AcDbArc
 50
180.0
 51
232.384861
  0
LINE
  5
6B
330
18
100
AcDbEntity
  8
0
100
AcDbLine
 10
4.217755
 20
7.228434
 30
0.0
 11
5.028497
 21
2.97246
 31
0.0
  0
LINE
  5
6C
330
18
100
AcDbEntity
  8
0
100
AcDbLine
 10
4.250132
 20
6.864983000000001
 30
0.0
 11
4.996375
 21
2.950763
 31
0.0
  0
LINE
  5
6D
330
18
100
AcDbEntity
  8
0
100
AcDbLine
 10
5.076251999999999
 20
2.935664
 30
0.0
 11
5.03101
 21
2.927125
 31
0.0
  0
ARC
  5
6E
330
18
100
AcDbEntity
  8
0
100
AcDbCircle
 10
5.025511
 20
2.956262
 30
0.0
 40
0.029651
100
AcDbArc
 50
190.687808
 51
280.687808
  0
LINE
  5
6F
330
18
100
AcDbEntity
  8
0
100
AcDbLine
 10
5.028497
 20
2.97246
 30
0.0
 11
6.607675
 21
1.755664
 31
0.0
  0
ARC
  5
70
330
18
100
AcDbEntity
  8
0
100
AcDbCircle
 10
4.188619
 20
7.222935000000001
 30
0.0
 40
0.029651
100
AcDbArc
 50
10.687808
 51
57.79203100000001
  0
ARC
  5
71
330
18
100
AcDbEntity
  8
0
100
AcDbCircle
 10
5.885701999999999
 20
7.084355
 30
0.0
 40
1.650215
100
AcDbArc
 50
178.380513
 51
187.639231
  0
LINE
  5
72
330
18
100
AcDbEntity
  8
0
100
AcDbLine
 10
4.316301999999999
 20
3.746235
 30
0.0
 11
4.31917
 21
3.533202
 31
0.0
  0
LINE
  5
73
330
18
100
AcDbEntity
  8
0
100
AcDbLine
 10
4.317309
 20
6.314668
 30
0.0
 11
4.348392
 21
4.006355999999999
 31
0.0
  0
LINE
  5
74
330
18
100
AcDbEntity
  8
0
100
AcDbLine
 10
4.278238
 20
6.572977000000001
 30
0.0
 11
4.310265
 21
4.194537
 31
0.0
  0
LINE
  5
75
330
18
100
AcDbEntity
  8
0
100
AcDbLine
 10
4.207172
 20
7.246063
 30
0.0
 11
4.902096
 21
7.550335000000001
 31
0.0
  0
LWPOLYLINE
  5
76
330
18
100
AcDbEntity
  8
0
100
AcDbPolyline
 90
       16
 70
     1
 43
0.0
 10
3.068025
 20
7.250033
 42
0.170318
 10
3.071479
 20
7.244571000000001
 42
0.104954
 10
3.080711
 20
7.239994
 42
0.066717
 10
3.091753
 20
7.238686
 42
0.05286
 10
3.105662
 20
7.240376
 42
0.05286
 10
3.118908
 20
7.244945
 42
0.066717
 10
3.128263
 20
7.250955
 42
0.104954
 10
3.134559
 20
7.259111999999999
 42
0.170318
 10
3.135274
 20
7.265535000000001
 42
0.170318
 10
3.13182
 20
7.270997
 42
0.104954
 10
3.122588
 20
7.275574000000001
 42
0.066717
 10
3.111546
 20
7.276882000000001
 42
0.05286
 10
3.097637
 20
7.275192
 42
0.05286
 10
3.084391
 20
7.270622
 42
0.066717
 10
3.075036
 20
7.264612
 42
0.104954
 10
3.06874
 20
7.256456
 42
0.170318
  0
LWPOLYLINE
  5
89
330
18
100
AcDbEntity
  8
0
100
AcDbPolyline
 90
       16
 70
     1
 43
0.0
 10
3.694168
 20
7.392367999999999
 42
0.170318
 10
3.697622
 20
7.386906
 42
0.104954
 10
3.706854
 20
7.382329
 42
0.066717
 10
3.717896
 20
7.38102
 42
0.05286
 10
3.731805000000001
 20
7.382711000000001
 42
0.05286
 10
3.745051
 20
7.387280000000001
 42
0.066717
 10
3.754406
 20
7.39329
 42
0.104954
 10
3.760702
 20
7.401447
 42
0.170318
 10
3.761417
 20
7.407869
 42
0.170318
 10
3.757963
 20
7.413330999999999
 42
0.104954
 10
3.748731
 20
7.417908000000001
 42
0.066717
 10
3.737689
 20
7.419217
 42
0.05286
 10
3.72378
 20
7.417526
 42
0.05286
 10
3.710534
 20
7.412957000000001
 42
0.066717
 10
3.701179
 20
7.406947
 42
0.104954
 10
3.694883
 20
7.398789999999999
 42
0.170318
  0
LWPOLYLINE
  5
9C
330
18
100
AcDbEntity
  8
0
100
AcDbPolyline
 90
       16
 70
     1
 43
0.0
 10
3.633248000000001
 20
6.628866
 42
0.135896
 10
3.625662
 20
6.624567999999999
 42
0.106941
 10
3.619706
 20
6.615316
 42
0.081623
 10
3.617457
 20
6.603992999999999
 42
0.069765
 10
3.618885
 20
6.590586999999999
 42
0.069765
 10
3.623944
 20
6.57809
 42
0.081623
 10
3.631265
 20
6.569164
 42
0.106941
 10
3.640879
 20
6.563813000000001
 42
0.135896
 10
3.649595
 20
6.563597
 42
0.135896
 10
3.657181
 20
6.567896000000001
 42
0.106941
 10
3.663137
 20
6.577147
 42
0.081623
 10
3.665386
 20
6.58847
 42
0.069765
 10
3.663958
 20
6.601876
 42
0.069765
 10
3.658899
 20
6.614373
 42
0.081623
 10
3.651578
 20
6.623299
 42
0.106941
 10
3.641964
 20
6.628651
 42
0.135896
  0
LWPOLYLINE
  5
AF
330
18
100
AcDbEntity
  8
0
100
AcDbPolyline
 90
        5
 70
     0
 43
0.0
 10
3.629937
 20
6.570392999999999
 42
0.058698
 10
3.631185
 20
6.578627
 42
0.069765
 10
3.629757
 20
6.592034
 42
0.069765
 10
3.624698
 20
6.604530000000001
 42
0.068841
 10
3.618705
 20
6.612228
 42
0.106941
  0
LWPOLYLINE
  5
B7
330
18
100
AcDbEntity
  8
0
100
AcDbPolyline
 90
       16
 70
     1
 43
0.0
 10
3.711866000000001
 20
6.355686
 42
0.135896
 10
3.70428
 20
6.351388
 42
0.106941
 10
3.698324
 20
6.342137
 42
0.081623
 10
3.696075
 20
6.330814
 42
0.069765
 10
3.697503
 20
6.317407
 42
0.069765
 10
3.702562
 20
6.30491
 42
0.081623
 10
3.709883
 20
6.295984
 42
0.106941
 10
3.719497
 20
6.290633000000001
 42
0.135896
 10
3.728213
 20
6.290417
 42
0.135896
 10
3.735799
 20
6.294716
 42
0.106941
 10
3.741755
 20
6.303967
 42
0.081623
 10
3.744004
 20
6.31529
 42
0.069765
 10
3.742576
 20
6.328696
 42
0.069765
 10
3.737517
 20
6.341193
 42
0.081623
 10
3.730196
 20
6.350119
 42
0.106941
 10
3.720582
 20
6.355471
 42
0.135896
  0
LWPOLYLINE
  5
CA
330
18
100
AcDbEntity
  8
0
100
AcDbPolyline
 90
        5
 70
     0
 43
0.0
 10
3.708555000000001
 20
6.297213
 42
0.058698
 10
3.709803
 20
6.305447
 42
0.069765
 10
3.708375
 20
6.318854
 42
0.069765
 10
3.703316000000001
 20
6.33135
 42
0.068841
 10
3.697323
 20
6.339048
 42
0.106941
  0
LWPOLYLINE
  5
D2
330
18
100
AcDbEntity
  8
0
100
AcDbPolyline
 90
       16
 70
     1
 43
0.0
 10
4.738248000000001
 20
3.742363
 42
0.176388
 10
4.748261
 20
3.746008
 42
0.103889
 10
4.75921
 20
3.75996
 42
0.064278
 10
4.765434
 20
3.778132
 42
0.050442
 10
4.767893
 20
3.802446
 42
0.050442
 10
4.765434
 20
3.826759
 42
0.064278
 10
4.75921
 20
3.844931
 42
0.103889
 10
4.748261
 20
3.858883
 42
0.176388
 10
4.738248000000001
 20
3.862529
 42
0.176388
 10
4.728235
 20
3.858883
 42
0.103889
 10
4.717285
 20
3.844931
 42
0.064278
 10
4.711061
 20
3.826759
 42
0.050442
 10
4.708602
 20
3.802446
 42
0.050442
 10
4.711061
 20
3.778132
 42
0.064278
 10
4.717285
 20
3.75996
 42
0.103889
 10
4.728235
 20
3.746008
 42
0.176388
  0
LWPOLYLINE
  5
E5
330
18
100
AcDbEntity
  8
0
100
AcDbPolyline
 90
        7
 70
     0
 43
0.0
 10
4.753480000000001
 20
3.85368
 42
0.013508
 10
4.752392
 20
3.851619
 42
0.064278
 10
4.746168
 20
3.833447
 42
0.050442
 10
4.743709
 20
3.809133
 42
0.050442
 10
4.746168
 20
3.78482
 42
0.064278
 10
4.752392
 20
3.766648
 42
0.060834
 10
4.758123
 20
3.757899
 42
0.176388
  0
LINE
  5
EF
330
18
100
AcDbEntity
  8
0
100
AcDbLine
 10
3.49219
 20
6.910678999999999
 30
0.0
 11
4.149278
 21
7.195802000000001
 31
0.0
  0
LINE
  5
F0
330
18
100
AcDbEntity
  8
0
100
AcDbLine
 10
3.571551
 20
6.992033999999999
 30
0.0
 11
4.100775
 21
7.223754
 31
0.0
  0
LINE
  5
F1
330
18
100
AcDbEntity
  8
0
100
AcDbLine
 10
4.986173
 20
7.570104
 30
0.0
 11
5.580592
 21
7.828034
 31
0.0
  0
LINE
  5
F2
330
18
100
AcDbEntity
  8
0
100
AcDbLine
 10
5.046257
 20
7.632165
 30
0.0
 11
5.52723
 21
7.842758
 31
0.0
  0
LINE
  5
F3
330
18
100
AcDbEntity
  8
0
100
AcDbLine
 10
5.041965
 20
8.141205000000001
 30
0.0
 11
5.606409999999999
 21
7.868849000000001
 31
0.0
  0
LINE
  5
F4
330
18
100
AcDbEntity
  8
0
100
AcDbLine
 10
4.432893
 20
7.875628
 30
0.0
 11
5.041965
 21
8.141205000000001
 31
0.0
  0
LWPOLYLINE
  5
F5
330
18
100
AcDbEntity
  8
0
100
AcDbPolyline
 90
       16
 70
     1
 43
0.0
 10
5.023484
 20
8.036886000000001
 42
0.170318
 10
5.026939
 20
8.031425000000001
 42
0.104954
 10
5.036169999999999
 20
8.026847
 42
0.066717
 10
5.047213
 20
8.025539
 42
0.05286
 10
5.061122
 20
8.027229999999999
 42
0.05286
 10
5.074367
 20
8.031799000000001
 42
0.066717
 10
5.083723
 20
8.037808999999999
 42
0.104954
 10
5.090019
 20
8.045964999999999
 42
0.170318
 10
5.090733999999999
 20
8.052388000000001
 42
0.170318
 10
5.087279
 20
8.05785
 42
0.104954
 10
5.078048
 20
8.062427
 42
0.066717
 10
5.067005
 20
8.063735000000001
 42
0.05286
 10
5.053096
 20
8.062045
 42
0.05286
 10
5.039851000000001
 20
8.057475999999999
 42
0.066717
 10
5.030494999999999
 20
8.051466
 42
0.104954
 10
5.024198999999999
 20
8.043308999999999
 42
0.170318
  0
LINE
  5
108
330
18
100
AcDbEntity
  8
0
100
AcDbLine
 10
4.432893
 20
7.875628
 30
0.0
 11
4.915772000000001
 21
7.60429
 31
0.0
  0
ARC
  5
109
330
18
100
AcDbEntity
  8
0
100
AcDbCircle
 10
4.427523000000001
 20
7.872394
 30
0.0
 40
0.057969
100
AcDbArc
 50
273.22764
 51
336.061944
  0
ARC
  5
10A
330
18
100
AcDbEntity
  8
0
100
AcDbCircle
 10
4.404595
 20
7.885278
 30
0.0
 40
0.057969
100
AcDbArc
 50
273.22764
 51
336.061944
  0
ARC
  5
10B
330
18
100
AcDbEntity
  8
0
100
AcDbCircle
 10
4.524206
 20
7.818066
 30
0.0
 40
0.057969
100
AcDbArc
 50
273.22764
 51
336.061944
  0
ARC
  5
10C
330
18
100
AcDbEntity
  8
0
100
AcDbCircle
 10
4.491978
 20
7.836175999999999
 30
0.0
 40
0.057969
100
AcDbArc
 50
273.22764
 51
336.061944
  0
ARC
  5
10D
330
18
100
AcDbEntity
  8
0
100
AcDbCircle
 10
4.782028
 20
7.673192
 30
0.0
 40
0.057969
100
AcDbArc
 50
273.22764
 51
336.061944
  0
ARC
  5
10E
330
18
100
AcDbEntity
  8
0
100
AcDbCircle
 10
4.7498
 20
7.691300999999999
 30
0.0
 40
0.057969
100
AcDbArc
 50
273.22764
 51
336.061944
  0
ARC
  5
10F
330
18
100
AcDbEntity
  8
0
100
AcDbCircle
 10
4.620889
 20
7.763738
 30
0.0
 40
0.057969
100
AcDbArc
 50
273.22764
 51
336.061944
  0
ARC
  5
110
330
18
100
AcDbEntity
  8
0
100
AcDbCircle
 10
4.588662
 20
7.781847999999999
 30
0.0
 40
0.057969
100
AcDbArc
 50
273.22764
 51
336.061944
  0
ARC
  5
111
330
18
100
AcDbEntity
  8
0
100
AcDbCircle
 10
4.556433999999999
 20
7.799957000000001
 30
0.0
 40
0.057969
100
AcDbArc
 50
273.22764
 51
336.061944
  0
ARC
  5
112
330
18
100
AcDbEntity
  8
0
100
AcDbCircle
 10
4.717573000000001
 20
7.709410000000001
 30
0.0
 40
0.057969
100
AcDbArc
 50
273.22764
 51
336.061944
  0
ARC
  5
113
330
18
100
AcDbEntity
  8
0
100
AcDbCircle
 10
4.685345
 20
7.727519999999999
 30
0.0
 40
0.057969
100
AcDbArc
 50
273.22764
 51
336.061944
  0
ARC
  5
114
330
18
100
AcDbEntity
  8
0
100
AcDbCircle
 10
4.653117
 20
7.745628999999999
 30
0.0
 40
0.057969
100
AcDbArc
 50
273.22764
 51
336.061944
  0
ARC
  5
115
330
18
100
AcDbEntity
  8
0
100
AcDbCircle
 10
4.856485
 20
7.629619
 30
0.0
 40
0.070427
100
AcDbArc
 50
296.014438
 51
335.569929
  0
ARC
  5
116
330
18
100
AcDbEntity
  8
0
100
AcDbCircle
 10
4.899968
 20
7.579202
 30
0.0
 40
0.029651
100
AcDbArc
 50
16.055194
 51
57.79203100000001
  0
LINE
  5
117
330
18
100
AcDbEntity
  8
0
100
AcDbLine
 10
4.902096
 20
7.550335000000001
 30
0.0
 11
4.887373999999999
 21
7.566327
 31
0.0
  0
ARC
  5
118
330
18
100
AcDbEntity
  8
0
100
AcDbCircle
 10
4.846483999999999
 20
7.636972999999999
 30
0.0
 40
0.057969
100
AcDbArc
 50
273.22764
 51
336.061944
  0
ARC
  5
119
330
18
100
AcDbEntity
  8
0
100
AcDbCircle
 10
4.814255999999999
 20
7.655082000000001
 30
0.0
 40
0.057969
100
AcDbArc
 50
273.22764
 51
336.061944
  0
LWPOLYLINE
  5
11A
330
18
100
AcDbEntity
  8
0
100
AcDbPolyline
 90
       16
 70
     1
 43
0.0
 10
4.720798
 20
7.793810000000001
 42
0.170318
 10
4.724252
 20
7.788347999999999
 42
0.104954
 10
4.733484
 20
7.783771000000001
 42
0.066717
 10
4.744526000000001
 20
7.782463000000001
 42
0.05286
 10
4.758435
 20
7.784153
 42
0.05286
 10
4.77168
 20
7.788722
 42
0.066717
 10
4.781036
 20
7.794732000000001
 42
0.104954
 10
4.787332
 20
7.802889
 42
0.170318
 10
4.788047
 20
7.809311999999999
 42
0.170318
 10
4.784592
 20
7.814773
 42
0.104954
 10
4.775361
 20
7.819350999999999
 42
0.066717
 10
4.764319
 20
7.820659
 42
0.05286
 10
4.75041
 20
7.818967999999999
 42
0.05286
 10
4.737164
 20
7.814399000000001
 42
0.066717
 10
4.727809
 20
7.808389
 42
0.104954
 10
4.721513
 20
7.800233
 42
0.170318
  0
ARC
  5
12D
330
18
100
AcDbEntity
  8
0
100
AcDbCircle
 10
4.459751
 20
7.854285000000001
 30
0.0
 40
0.057969
100
AcDbArc
 50
273.22764
 51
336.061944
  0
LINE
  5
12E
330
18
100
AcDbEntity
  8
0
100
AcDbLine
 10
5.622848
 20
7.837749000000001
 30
0.0
 11
5.531464
 21
7.228148
 31
0.0
  0
ARC
  5
12F
330
18
100
AcDbEntity
  8
0
100
AcDbCircle
 10
5.593524
 20
7.842144
 30
0.0
 40
0.029651
100
AcDbArc
 50
351.474419
 51
64.241749
  0
ARC
  5
130
330
18
100
AcDbEntity
  8
0
100
AcDbCircle
 10
4.37991
 20
7.899149
 30
0.0
 40
0.057969
100
AcDbArc
 50
273.22764
 51
336.061944
  0
LINE
  5
131
330
18
100
AcDbEntity
  8
0
100
AcDbLine
 10
4.902096
 20
7.550335000000001
 30
0.0
 11
4.907222
 21
7.538828
 31
0.0
  0
LINE
  5
132
330
18
100
AcDbEntity
  8
0
100
AcDbLine
 10
4.907222
 20
7.538828
 30
0.0
 11
4.910913
 21
7.532775
 31
0.0
  0
LINE
  5
133
330
18
100
AcDbEntity
  8
0
100
AcDbLine
 10
5.615073000000001
 20
7.862511000000001
 30
0.0
 11
7.327906
 21
8.612472
 31
0.0
  0
LINE
  5
134
330
18
100
AcDbEntity
  8
0
100
AcDbLine
 10
4.928462000000001
 20
7.587402
 30
0.0
 11
4.933919
 21
7.555158000000001
 31
0.0
  0
LINE
  5
135
330
18
100
AcDbEntity
  8
0
100
AcDbLine
 10
4.933919
 20
7.555158000000001
 30
0.0
 11
4.937487
 21
7.523700999999999
 31
0.0
  0
LWPOLYLINE
  5
136
330
18
100
AcDbEntity
  8
0
100
AcDbPolyline
 90
       16
 70
     1
 43
0.0
 10
5.463332
 20
7.445491000000001
 42
0.16728
 10
5.457277
 20
7.443805
 42
0.105417
 10
5.450536000000001
 20
7.436678999999999
 42
0.06796
 10
5.446307
 20
7.426997
 42
0.054122
 10
5.444092
 20
7.413939999999999
 42
0.054122
 10
5.444731
 20
7.400711
 42
0.06796
 10
5.447773000000001
 20
7.390592999999999
 42
0.105417
 10
5.453614
 20
7.382713000000001
 42
0.16728
 10
5.459423999999999
 20
7.380315
 42
0.16728
 10
5.465478
 20
7.382001
 42
0.105417
 10
5.472219
 20
7.389127
 42
0.06796
 10
5.476448
 20
7.398809
 42
0.054122
 10
5.478663
 20
7.411867
 42
0.054122
 10
5.478025
 20
7.425096000000001
 42
0.06796
 10
5.474982
 20
7.435213
 42
0.105417
 10
5.469141000000001
 20
7.443094
 42
0.16728
  0
LWPOLYLINE
  5
149
330
18
100
AcDbEntity
  8
0
100
AcDbPolyline
 90
        6
 70
     0
 43
0.0
 10
5.448576
 20
7.388995
 42
0.047054
 10
5.451229
 20
7.395830999999999
 42
0.054122
 10
5.453444
 20
7.408889
 42
0.054122
 10
5.452806
 20
7.422117999999999
 42
0.06796
 10
5.449763
 20
7.432235
 42
0.019017
 10
5.44896
 20
7.433833
 42
0.16728
  0
LINE
  5
152
330
18
100
AcDbEntity
  8
0
100
AcDbLine
 10
2.21318
 20
3.913367
 30
0.0
 11
3.988405
 21
4.885603
 31
0.0
  0
LINE
  5
153
330
18
100
AcDbEntity
  8
0
100
AcDbLine
 10
2.29785
 20
3.662685
 30
0.0
 11
4.062254
 21
4.628994000000001
 31
0.0
  0
LINE
  5
154
330
18
100
AcDbEntity
  8
0
100
AcDbLine
 10
6.569188000000001
 20
7.944288
 30
0.0
 11
6.557052000000001
 21
7.28711
 31
0.0
  0
LINE
  5
155
330
18
100
AcDbEntity
  8
0
100
AcDbLine
 10
6.557052000000001
 20
7.28711
 30
0.0
 11
6.395423
 21
7.061766
 31
0.0
  0
LINE
  5
156
330
18
100
AcDbEntity
  8
0
100
AcDbLine
 10
6.395423
 20
7.061766
 30
0.0
 11
6.610534
 21
7.067792999999999
 31
0.0
  0
LINE
  5
157
330
18
100
AcDbEntity
  8
0
100
AcDbLine
 10
6.610534
 20
7.067792999999999
 30
0.0
 11
6.550642
 21
6.93997
 31
0.0
  0
LINE
  5
158
330
18
100
AcDbEntity
  8
0
100
AcDbLine
 10
6.550642
 20
6.93997
 30
0.0
 11
6.546635
 21
6.723014999999999
 31
0.0
  0
LINE
  5
159
330
18
100
AcDbEntity
  8
0
100
AcDbLine
 10
6.610534
 20
7.067792999999999
 30
0.0
 11
6.443581
 21
7.128908999999999
 31
0.0
  0
LINE
  5
15A
330
18
100
AcDbEntity
  8
0
100
AcDbLine
 10
6.242948
 20
9.024722000000001
 30
0.0
 11
6.523613
 21
9.019196000000001
 31
0.0
  0
LINE
  5
15B
330
18
100
AcDbEntity
  8
0
100
AcDbLine
 10
6.523613
 20
9.019196000000001
 30
0.0
 11
6.367928
 21
8.899867
 31
0.0
  0
LINE
  5
15C
330
18
100
AcDbEntity
  8
0
100
AcDbLine
 10
6.367928
 20
8.899867
 30
0.0
 11
6.523613
 21
8.918078
 31
0.0
  0
LINE
  5
15D
330
18
100
AcDbEntity
  8
0
100
AcDbLine
 10
6.523613
 20
8.918078
 30
0.0
 11
7.327906
 21
8.612472
 31
0.0
  0
LINE
  5
15E
330
18
100
AcDbEntity
  8
0
100
AcDbLine
 10
6.523613
 20
9.019196000000001
 30
0.0
 11
6.523613
 21
8.918078
 31
0.0
  0
LINE
  5
15F
330
18
100
AcDbEntity
  8
0
100
AcDbLine
 10
6.567454
 20
4.292065
 30
0.0
 11
6.669708
 21
4.010232
 31
0.0
  0
LINE
  5
160
330
18
100
AcDbEntity
  8
0
100
AcDbLine
 10
6.669708
 20
4.010232
 30
0.0
 11
6.45461
 21
3.973051
 31
0.0
  0
LINE
  5
161
330
18
100
AcDbEntity
  8
0
100
AcDbLine
 10
6.45461
 20
3.973051
 30
0.0
 11
6.575385000000001
 21
3.772744
 31
0.0
  0
LINE
  5
162
330
18
100
AcDbEntity
  8
0
100
AcDbLine
 10
7.265535000000001
 20
4.663251
 30
0.0
 11
7.367789
 21
4.381418
 31
0.0
  0
LINE
  5
163
330
18
100
AcDbEntity
  8
0
100
AcDbLine
 10
7.187935
 20
4.285785
 30
0.0
 11
7.273466
 21
4.14393
 31
0.0
  0
LINE
  5
164
330
18
100
AcDbEntity
  8
0
100
AcDbLine
 10
6.567454
 20
4.292065
 30
0.0
 11
7.265535000000001
 21
4.663251
 31
0.0
  0
LINE
  5
165
330
18
100
AcDbEntity
  8
0
100
AcDbLine
 10
6.575385000000001
 20
3.772744
 30
0.0
 11
7.273466
 21
4.14393
 31
0.0
  0
LINE
  5
166
330
18
100
AcDbEntity
  8
0
100
AcDbLine
 10
6.669708
 20
4.010232
 30
0.0
 11
7.367789
 21
4.381418
 31
0.0
  0
LINE
  5
167
330
18
100
AcDbEntity
  8
0
100
AcDbLine
 10
6.575385000000001
 20
3.772744
 30
0.0
 11
6.606089999999999
 21
1.762111
 31
0.0
  0
LINE
  5
168
330
18
100
AcDbEntity
  8
0
100
AcDbLine
 10
7.271874
 20
4.143083
 30
0.0
 11
7.299784
 21
2.224923
 31
0.0
  0
TEXT
  5
169
330
18
100
AcDbEntity
  8
TEXT
100
AcDbText
 10
1.104164714285716
 20
1.196551
 30
0.0
 40
0.25
  1
B HANGER WELDED ON 8"X14" STEEL I-BEAM
 41
0.75
 72
     1
 11
4.452379000000001
 21
1.196551
 31
0.0
100
AcDbText
  0
LWPOLYLINE
  5
16A
330
18
100
AcDbEntity
  8
0
100
AcDbPolyline
 90
        7
 70
     0
 43
0.0
 10
7.126844
 20
6.331818
 10
7.127814
 20
6.306601000000001
 10
7.149399000000001
 20
6.175082
 10
7.167474
 20
6.074629
 10
7.188772999999999
 20
5.959417
 10
7.203388
 20
5.887067
 10
7.248900999999999
 20
5.721943
  0
LWPOLYLINE
  5
174
330
18
100
AcDbEntity
  8
0
100
AcDbPolyline
 90
        8
 70
     0
 43
0.0
 10
7.044731
 20
6.286274
 10
7.061310000000001
 20
6.041157
 10
7.116833
 20
5.75021
 10
7.141226
 20
5.627651
 10
7.175085
 20
5.472671
 10
7.204186
 20
5.335384
 10
7.225693
 20
5.208312
 10
7.258933
 20
5.032454
  0
LWPOLYLINE
  5
17F
330
18
100
AcDbEntity
  8
0
100
AcDbPolyline
 90
       12
 70
     0
 43
0.0
 10
6.920286
 20
6.217251
 10
6.965521000000001
 20
6.007912
 10
7.01306
 20
5.749418
 10
7.042812
 20
5.575069
 10
7.094067999999999
 20
5.358182
 10
7.131542
 20
5.166205000000001
 10
7.153492999999999
 20
5.01393
 10
7.175155999999999
 20
4.877962999999999
 10
7.187276
 20
4.778864
 10
7.192530000000001
 20
4.733004
 10
7.224685000000001
 20
4.64153
 10
7.346862
 20
4.439099
  0
LWPOLYLINE
  5
18E
330
18
100
AcDbEntity
  8
0
100
AcDbPolyline
 90
       15
 70
     0
 43
0.0
 10
6.824547999999999
 20
6.16415
 10
6.849500999999999
 20
6.029097
 10
6.898936
 20
5.83145
 10
6.948580000000001
 20
5.621944
 10
7.000902000000001
 20
5.428808999999999
 10
7.041575
 20
5.223555
 10
7.072547999999999
 20
5.064063
 10
7.094472000000001
 20
4.913271
 10
7.110025
 20
4.787551000000001
 10
7.124822999999999
 20
4.704824
 10
7.146650999999999
 20
4.600037
 10
7.188739999999999
 20
4.526775
 10
7.237286999999999
 20
4.464067
 10
7.261678
 20
4.426042
 10
7.305374000000001
 20
4.34823
  0
LWPOLYLINE
  5
1A0
330
18
100
AcDbEntity
  8
0
100
AcDbPolyline
 90
       11
 70
     0
 43
0.0
 10
6.722932000000001
 20
6.107790000000001
 10
6.765597000000001
 20
5.910095
 10
6.827332000000001
 20
5.687506
 10
6.886233
 20
5.457439
 10
6.949372
 20
5.239330000000001
 10
6.998834
 20
5.040201000000001
 10
7.033291999999999
 20
4.851124
 10
7.051914
 20
4.719539
 10
7.06203
 20
4.650057
 10
7.081017
 20
4.565138
 10
7.244396000000001
 20
4.315807
  0
LWPOLYLINE
  5
1AE
330
18
100
AcDbEntity
  8
0
100
AcDbPolyline
 90
       11
 70
     0
 43
0.0
 10
6.635763000000001
 20
6.059442
 10
6.672616000000001
 20
5.885811
 10
6.731725999999999
 20
5.643884
 10
6.797594
 20
5.439182
 10
6.849864
 20
5.249012000000001
 10
6.896309
 20
5.052783
 10
6.931911
 20
4.883011
 10
6.960907000000001
 20
4.751654
 10
6.975056
 20
4.621454
 10
6.99593
 20
4.519896
 10
7.163469
 20
4.272776
  0
LWPOLYLINE
  5
1BC
330
18
100
AcDbEntity
  8
0
100
AcDbPolyline
 90
       12
 70
     0
 43
0.0
 10
6.541461
 20
5.994166000000001
 10
6.608289999999999
 20
5.833976
 10
6.657155
 20
5.584409
 10
6.708046
 20
5.388277
 10
6.764504
 20
5.128495
 10
6.827383
 20
4.925211
 10
6.863946
 20
4.785122
 10
6.895697
 20
4.665689
 10
6.911716999999999
 20
4.59782
 10
6.922899
 20
4.55209
 10
6.939092
 20
4.489674
 10
7.097221
 20
4.23755
  0
LWPOLYLINE
  5
1CB
330
18
100
AcDbEntity
  8
0
100
AcDbPolyline
 90
       10
 70
     0
 43
0.0
 10
6.547484
 20
5.599779
 10
6.593378
 20
5.416907
 10
6.650641
 20
5.195703
 10
6.684708000000001
 20
5.028862999999999
 10
6.721688
 20
4.865054
 10
6.755
 20
4.741207
 10
6.777781
 20
4.626027
 10
6.792110000000001
 20
4.569985
 10
6.829458
 20
4.431379
 10
7.000464999999999
 20
4.186103
  0
LWPOLYLINE
  5
1D8
330
18
100
AcDbEntity
  8
0
100
AcDbPolyline
 90
        8
 70
     0
 43
0.0
 10
6.554797
 20
5.120907
 10
6.612167
 20
4.938289
 10
6.651459
 20
4.811607
 10
6.689660000000001
 20
4.662655
 10
6.713819
 20
4.553437000000001
 10
6.728747
 20
4.463298
 10
6.740310000000001
 20
4.383976000000001
 10
6.908958999999999
 20
4.137447
  0
LWPOLYLINE
  5
1E3
330
18
100
AcDbEntity
  8
0
100
AcDbPolyline
 90
        8
 70
     0
 43
0.0
 10
6.56134
 20
4.692431
 10
6.608304
 20
4.567438
 10
6.621516000000001
 20
4.490608
 10
6.637664999999999
 20
4.415326
 10
6.655817
 20
4.339049
 10
6.734032000000001
 20
4.246886
 10
6.785882000000001
 20
4.164971
 10
6.823356
 20
4.091930000000001
  0
LWPOLYLINE
  5
1EE
330
18
100
AcDbEntity
  8
0
100
AcDbPolyline
 90
        4
 70
     0
 43
0.0
 10
6.576184
 20
4.268004
 10
6.652025
 20
4.188731
 10
6.708087
 20
4.120256
 10
6.744766
 20
4.050142
  0
LWPOLYLINE
  5
1F5
330
18
100
AcDbEntity
  8
0
100
AcDbPolyline
 90
        6
 70
     0
 43
0.0
 10
6.596410000000001
 20
2.395956
 10
6.618517
 20
2.29857
 10
6.641299000000001
 20
2.183391
 10
6.657603999999999
 20
2.099213
 10
6.677395
 20
1.985451
 10
6.711678
 20
1.80747
  0
LWPOLYLINE
  5
1FE
330
18
100
AcDbEntity
  8
0
100
AcDbPolyline
 90
        8
 70
     0
 43
0.0
 10
6.587105
 20
3.005263
 10
6.625831
 20
2.894923
 10
6.66913
 20
2.709006
 10
6.697555
 20
2.525729
 10
6.727749
 20
2.326177
 10
6.744006
 20
2.16043
 10
6.758050999999999
 20
2.036161
 10
6.784711
 20
1.858322
  0
LWPOLYLINE
  5
209
330
18
100
AcDbEntity
  8
0
100
AcDbPolyline
 90
        9
 70
     0
 43
0.0
 10
6.576689999999999
 20
3.687264
 10
6.607794999999999
 20
3.415084
 10
6.653719000000001
 20
3.248504
 10
6.699933000000001
 20
2.981083
 10
6.752178999999999
 20
2.707861
 10
6.798392
 20
2.440439
 10
6.831942
 20
2.218715
 10
6.858312
 20
2.068021
 10
6.890875
 20
1.932243
  0
LWPOLYLINE
  5
215
330
18
100
AcDbEntity
  8
0
100
AcDbPolyline
 90
       13
 70
     0
 43
0.0
 10
6.518425
 20
3.984081
 10
6.654358
 20
3.814735
 10
6.703735000000001
 20
3.608503
 10
6.755172999999999
 20
3.381239
 10
6.803648
 20
3.15391
 10
6.845985000000001
 20
2.93831
 10
6.884942
 20
2.746366
 10
6.919503999999999
 20
2.551359
 10
6.948865
 20
2.399247
 10
6.967252
 20
2.281005
 10
6.98517
 20
2.189448
 10
6.993517999999999
 20
2.13624
 10
7.017661
 20
2.020524
  0
LWPOLYLINE
  5
225
330
18
100
AcDbEntity
  8
0
100
AcDbPolyline
 90
       11
 70
     0
 43
0.0
 10
6.606663
 20
3.999334
 10
6.747567999999999
 20
3.864298
 10
6.809247
 20
3.679038
 10
6.898369000000001
 20
3.247937
 10
6.953266
 20
2.99257
 10
6.998568
 20
2.777036
 10
7.038903
 20
2.591054
 10
7.070032
 20
2.422667
 10
7.091539999999999
 20
2.295595
 10
7.101864999999999
 20
2.214252
 10
7.130602000000001
 20
2.099163
  0
LWPOLYLINE
  5
233
330
18
100
AcDbEntity
  8
0
100
AcDbPolyline
 90
       12
 70
     0
 43
0.0
 10
6.757089
 20
4.056694
 10
6.874814
 20
3.931957
 10
6.889171000000001
 20
3.855792
 10
6.916711
 20
3.72292
 10
6.938557
 20
3.576575
 10
6.971924000000001
 20
3.365229
 10
7.040033
 20
3.033032
 10
7.090510000000001
 20
2.776086
 10
7.13334
 20
2.616853
 10
7.170292999999999
 20
2.454526
 10
7.189746
 20
2.360037
 10
7.235753
 20
2.172378
  0
LWPOLYLINE
  5
242
330
18
100
AcDbEntity
  8
0
100
AcDbPolyline
 90
       11
 70
     0
 43
0.0
 10
6.812777000000001
 20
4.086305
 10
6.893299000000001
 20
4.042749
 10
6.972223
 20
3.983752
 10
7.021861
 20
3.729675
 10
7.043214999999999
 20
3.526963
 10
7.065035000000001
 20
3.382101
 10
7.120503
 20
3.178654
 10
7.159511999999999
 20
2.983745
 10
7.196622000000001
 20
2.812523
 10
7.216491
 20
2.694313
 10
7.297008
 20
2.415768
  0
LWPOLYLINE
  5
250
330
18
100
AcDbEntity
  8
0
100
AcDbPolyline
 90
        2
 70
     0
 43
0.0
 10
7.138863000000001
 20
4.259693
 10
7.251558999999999
 20
4.180264
  0
LWPOLYLINE
  5
255
330
18
100
AcDbEntity
  8
0
100
AcDbPolyline
 90
        4
 70
     0
 43
0.0
 10
7.062075999999999
 20
4.218863
 10
7.147513000000001
 20
4.172901
 10
7.228437
 20
4.119987
 10
7.275219
 20
3.91322
  0
LWPOLYLINE
  5
25C
330
18
100
AcDbEntity
  8
0
100
AcDbPolyline
 90
        5
 70
     0
 43
0.0
 10
6.992838000000001
 20
4.182047
 10
7.156880999999999
 20
4.081939
 10
7.183303
 20
3.823682
 10
7.217917
 20
3.62571
 10
7.283805
 20
3.32315
  0
LWPOLYLINE
  5
264
330
18
100
AcDbEntity
  8
0
100
AcDbPolyline
 90
        6
 70
     0
 43
0.0
 10
6.934772
 20
4.151173
 10
7.08247
 20
4.042373
 10
7.110861999999999
 20
3.811712
 10
7.16147
 20
3.547353
 10
7.204433
 20
3.296174
 10
7.289327
 20
2.943603
  0
SOLID
  5
26D
330
18
100
AcDbEntity
  8
0
100
AcDbTrace
 10
6.367928
 20
8.899867
 30
0.0
 11
6.523613
 21
8.918078
 31
0.0
 12
6.523613
 22
9.019196000000001
 32
0.0
 13
6.523613
 23
9.019196000000001
 33
0.0
  0
ARC
  5
26E
330
18
100
AcDbEntity
  8
0
100
AcDbCircle
 10
4.280730999999999
 20
3.58553
 30
0.0
 40
0.104485
100
AcDbArc
 50
0.0
 51
38.525308
  0
SOLID
  5
26F
330
18
100
AcDbEntity
  8
0
100
AcDbTrace
 10
6.395423
 20
7.061766
 30
0.0
 11
6.610534
 21
7.067792999999999
 31
0.0
 12
6.443581
 22
7.128908999999999
 32
0.0
 13
6.443581
 23
7.128908999999999
 33
0.0
  0
TEXT
  5
270
330
18
100
AcDbEntity
  8
TEXT
100
AcDbText
 10
3.780692
 20
0.566176
 30
0.0
 40
0.25
  1
Simpson Strong-Tie
100
AcDbText
  0
TEXT
  5
271
330
18
100
AcDbEntity
  8
TEXT
100
AcDbText
 10
3.780692
 20
0.161415
 30
0.0
 40
0.25
  1
B
100
AcDbText
  0
LINE
  5
272
330
18
100
AcDbEntity
  8
0
 62
     0
100
AcDbLine
 10
6.066117
 20
8.060000000000001
 30
0.0
 11
6.833461
 21
8.060000000000001
 31
0.0
  0
LINE
  5
273
330
18
100
AcDbEntity
  8
0
 62
     0
100
AcDbLine
 10
6.088956
 20
8.07
 30
0.0
 11
6.8563
 21
8.07
 31
0.0
  0
LINE
  5
274
330
18
100
AcDbEntity
  8
0
 62
     0
100
AcDbLine
 10
6.111795
 20
8.08
 30
0.0
 11
6.879138
 21
8.08
 31
0.0
  0
LINE
  5
275
330
18
100
AcDbEntity
  8
0
 62
     0
100
AcDbLine
 10
6.134633999999999
 20
8.09
 30
0.0
 11
6.901977000000001
 21
8.09
 31
0.0
  0
LINE
  5
276
330
18
100
AcDbEntity
  8
0
 62
     0
100
AcDbLine
 10
6.157473
 20
8.1
 30
0.0
 11
6.924816000000001
 21
8.1
 31
0.0
  0
LINE
  5
277
330
18
100
AcDbEntity
  8
0
 62
     0
100
AcDbLine
 10
6.180312000000001
 20
8.109999999999999
 30
0.0
 11
6.947655
 21
8.109999999999999
 31
0.0
  0
LINE
  5
278
330
18
100
AcDbEntity
  8
0
 62
     0
100
AcDbLine
 10
6.203151
 20
8.119999999999999
 30
0.0
 11
6.970494
 21
8.119999999999999
 31
0.0
  0
LINE
  5
279
330
18
100
AcDbEntity
  8
0
 62
     0
100
AcDbLine
 10
6.22599
 20
8.130000000000001
 30
0.0
 11
6.993333
 21
8.130000000000001
 31
0.0
  0
LINE
  5
27A
330
18
100
AcDbEntity
  8
0
 62
     0
100
AcDbLine
 10
6.248829
 20
8.140000000000001
 30
0.0
 11
7.016172
 21
8.140000000000001
 31
0.0
  0
LINE
  5
27B
330
18
100
AcDbEntity
  8
0
 62
     0
100
AcDbLine
 10
6.271668
 20
8.15
 30
0.0
 11
7.039011
 21
8.15
 31
0.0
  0
LINE
  5
27C
330
18
100
AcDbEntity
  8
0
 62
     0
100
AcDbLine
 10
6.294507
 20
8.16
 30
0.0
 11
7.06185
 21
8.16
 31
0.0
  0
LINE
  5
27D
330
18
100
AcDbEntity
  8
0
 62
     0
100
AcDbLine
 10
6.317346
 20
8.17
 30
0.0
 11
7.084689
 21
8.17
 31
0.0
  0
LINE
  5
27E
330
18
100
AcDbEntity
  8
0
 62
     0
100
AcDbLine
 10
6.340185
 20
8.18
 30
0.0
 11
7.107528
 21
8.18
 31
0.0
  0
LINE
  5
27F
330
18
100
AcDbEntity
  8
0
 62
     0
100
AcDbLine
 10
6.363023
 20
8.19
 30
0.0
 11
7.130367
 21
8.19
 31
0.0
  0
LINE
  5
280
330
18
100
AcDbEntity
  8
0
 62
     0
100
AcDbLine
 10
6.385862
 20
8.199999999999999
 30
0.0
 11
7.153206
 21
8.199999999999999
 31
0.0
  0
LINE
  5
281
330
18
100
AcDbEntity
  8
0
 62
     0
100
AcDbLine
 10
6.408701000000001
 20
8.210000000000001
 30
0.0
 11
7.176044999999999
 21
8.210000000000001
 31
0.0
  0
LINE
  5
282
330
18
100
AcDbEntity
  8
0
 62
     0
100
AcDbLine
 10
6.43154
 20
8.220000000000001
 30
0.0
 11
7.198884
 21
8.220000000000001
 31
0.0
  0
LINE
  5
283
330
18
100
AcDbEntity
  8
0
 62
     0
100
AcDbLine
 10
6.454379
 20
8.23
 30
0.0
 11
7.221723
 21
8.23
 31
0.0
  0
LINE
  5
284
330
18
100
AcDbEntity
  8
0
 62
     0
100
AcDbLine
 10
6.477218
 20
8.24
 30
0.0
 11
7.244561999999999
 21
8.24
 31
0.0
  0
LINE
  5
285
330
18
100
AcDbEntity
  8
0
 62
     0
100
AcDbLine
 10
6.500057
 20
8.25
 30
0.0
 11
7.2674
 21
8.25
 31
0.0
  0
LINE
  5
286
330
18
100
AcDbEntity
  8
0
 62
     0
100
AcDbLine
 10
6.522896
 20
8.26
 30
0.0
 11
7.290239
 21
8.26
 31
0.0
  0
LINE
  5
287
330
18
100
AcDbEntity
  8
0
 62
     0
100
AcDbLine
 10
6.545735
 20
8.27
 30
0.0
 11
7.313078
 21
8.27
 31
0.0
  0
LINE
  5
288
330
18
100
AcDbEntity
  8
0
 62
     0
100
AcDbLine
 10
6.568574000000001
 20
8.279999999999999
 30
0.0
 11
7.327906
 21
8.279999999999999
 31
0.0
  0
LINE
  5
289
330
18
100
AcDbEntity
  8
0
 62
     0
100
AcDbLine
 10
6.591413
 20
8.289999999999999
 30
0.0
 11
7.327906
 21
8.289999999999999
 31
0.0
  0
LINE
  5
28A
330
18
100
AcDbEntity
  8
0
 62
     0
100
AcDbLine
 10
6.614252000000001
 20
8.300000000000001
 30
0.0
 11
7.327906
 21
8.300000000000001
 31
0.0
  0
LINE
  5
28B
330
18
100
AcDbEntity
  8
0
 62
     0
100
AcDbLine
 10
6.637091000000001
 20
8.310000000000001
 30
0.0
 11
7.327906
 21
8.310000000000001
 31
0.0
  0
LINE
  5
28C
330
18
100
AcDbEntity
  8
0
 62
     0
100
AcDbLine
 10
6.65993
 20
8.32
 30
0.0
 11
7.327906
 21
8.32
 31
0.0
  0
LINE
  5
28D
330
18
100
AcDbEntity
  8
0
 62
     0
100
AcDbLine
 10
6.682769
 20
8.33
 30
0.0
 11
7.327906
 21
8.33
 31
0.0
  0
LINE
  5
28E
330
18
100
AcDbEntity
  8
0
 62
     0
100
AcDbLine
 10
6.705608
 20
8.34
 30
0.0
 11
7.327906
 21
8.34
 31
0.0
  0
LINE
  5
28F
330
18
100
AcDbEntity
  8
0
 62
     0
100
AcDbLine
 10
6.728447
 20
8.35
 30
0.0
 11
7.327906
 21
8.35
 31
0.0
  0
LINE
  5
290
330
18
100
AcDbEntity
  8
0
 62
     0
100
AcDbLine
 10
6.751285
 20
8.359999999999999
 30
0.0
 11
7.327906
 21
8.359999999999999
 31
0.0
  0
LINE
  5
291
330
18
100
AcDbEntity
  8
0
 62
     0
100
AcDbLine
 10
6.774124000000001
 20
8.369999999999999
 30
0.0
 11
7.327906
 21
8.369999999999999
 31
0.0
  0
LINE
  5
292
330
18
100
AcDbEntity
  8
0
 62
     0
100
AcDbLine
 10
6.796963000000001
 20
8.380000000000001
 30
0.0
 11
7.327906
 21
8.380000000000001
 31
0.0
  0
LINE
  5
293
330
18
100
AcDbEntity
  8
0
 62
     0
100
AcDbLine
 10
6.819802
 20
8.390000000000001
 30
0.0
 11
7.327906
 21
8.390000000000001
 31
0.0
  0
LINE
  5
294
330
18
100
AcDbEntity
  8
0
 62
     0
100
AcDbLine
 10
6.842641
 20
8.4
 30
0.0
 11
7.327906
 21
8.4
 31
0.0
  0
LINE
  5
295
330
18
100
AcDbEntity
  8
0
 62
     0
100
AcDbLine
 10
6.865480000000001
 20
8.41
 30
0.0
 11
7.327906
 21
8.41
 31
0.0
  0
LINE
  5
296
330
18
100
AcDbEntity
  8
0
 62
     0
100
AcDbLine
 10
6.888319
 20
8.42
 30
0.0
 11
7.327906
 21
8.42
 31
0.0
  0
LINE
  5
297
330
18
100
AcDbEntity
  8
0
 62
     0
100
AcDbLine
 10
6.911158
 20
8.43
 30
0.0
 11
7.327906
 21
8.43
 31
0.0
  0
LINE
  5
298
330
18
100
AcDbEntity
  8
0
 62
     0
100
AcDbLine
 10
6.933997
 20
8.44
 30
0.0
 11
7.327906
 21
8.44
 31
0.0
  0
LINE
  5
299
330
18
100
AcDbEntity
  8
0
 62
     0
100
AcDbLine
 10
6.956836
 20
8.449999999999999
 30
0.0
 11
7.327906
 21
8.449999999999999
 31
0.0
  0
LINE
  5
29A
330
18
100
AcDbEntity
  8
0
 62
     0
100
AcDbLine
 10
6.979675
 20
8.460000000000001
 30
0.0
 11
7.327906
 21
8.460000000000001
 31
0.0
  0
LINE
  5
29B
330
18
100
AcDbEntity
  8
0
 62
     0
100
AcDbLine
 10
7.002514
 20
8.470000000000001
 30
0.0
 11
7.327906
 21
8.470000000000001
 31
0.0
  0
LINE
  5
29C
330
18
100
AcDbEntity
  8
0
 62
     0
100
AcDbLine
 10
7.025353
 20
8.48
 30
0.0
 11
7.327906
 21
8.48
 31
0.0
  0
LINE
  5
29D
330
18
100
AcDbEntity
  8
0
 62
     0
100
AcDbLine
 10
7.048192
 20
8.49
 30
0.0
 11
7.327906
 21
8.49
 31
0.0
  0
LINE
  5
29E
330
18
100
AcDbEntity
  8
0
 62
     0
100
AcDbLine
 10
7.071031
 20
8.5
 30
0.0
 11
7.327906
 21
8.5
 31
0.0
  0
LINE
  5
29F
330
18
100
AcDbEntity
  8
0
 62
     0
100
AcDbLine
 10
7.09387
 20
8.51
 30
0.0
 11
7.327906
 21
8.51
 31
0.0
  0
LINE
  5
2A0
330
18
100
AcDbEntity
  8
0
 62
     0
100
AcDbLine
 10
7.116708999999999
 20
8.52
 30
0.0
 11
7.327906
 21
8.52
 31
0.0
  0
LINE
  5
2A1
330
18
100
AcDbEntity
  8
0
 62
     0
100
AcDbLine
 10
7.139548
 20
8.529999999999999
 30
0.0
 11
7.327906
 21
8.529999999999999
 31
0.0
  0
LINE
  5
2A2
330
18
100
AcDbEntity
  8
0
 62
     0
100
AcDbLine
 10
7.162386
 20
8.539999999999999
 30
0.0
 11
7.327906
 21
8.539999999999999
 31
0.0
  0
LINE
  5
2A3
330
18
100
AcDbEntity
  8
0
 62
     0
100
AcDbLine
 10
7.185225
 20
8.550000000000001
 30
0.0
 11
7.327906
 21
8.550000000000001
 31
0.0
  0
LINE
  5
2A4
330
18
100
AcDbEntity
  8
0
 62
     0
100
AcDbLine
 10
7.208064
 20
8.560000000000001
 30
0.0
 11
7.327906
 21
8.560000000000001
 31
0.0
  0
LINE
  5
2A5
330
18
100
AcDbEntity
  8
0
 62
     0
100
AcDbLine
 10
7.230903
 20
8.57
 30
0.0
 11
7.327906
 21
8.57
 31
0.0
  0
LINE
  5
2A6
330
18
100
AcDbEntity
  8
0
 62
     0
100
AcDbLine
 10
7.253742
 20
8.58
 30
0.0
 11
7.327906
 21
8.58
 31
0.0
  0
LINE
  5
2A7
330
18
100
AcDbEntity
  8
0
 62
     0
100
AcDbLine
 10
7.276581
 20
8.59
 30
0.0
 11
7.327906
 21
8.59
 31
0.0
  0
LINE
  5
2A8
330
18
100
AcDbEntity
  8
0
 62
     0
100
AcDbLine
 10
7.29942
 20
8.6
 30
0.0
 11
7.327906
 21
8.6
 31
0.0
  0
LINE
  5
2A9
330
18
100
AcDbEntity
  8
0
 62
     0
100
AcDbLine
 10
7.322259
 20
8.609999999999999
 30
0.0
 11
7.327906
 21
8.609999999999999
 31
0.0
  0
LINE
  5
2AA
330
18
100
AcDbEntity
  8
0
 62
     0
100
AcDbLine
 10
6.043278
 20
8.050000000000001
 30
0.0
 11
6.810622
 21
8.050000000000001
 31
0.0
  0
LINE
  5
2AB
330
18
100
AcDbEntity
  8
0
 62
     0
100
AcDbLine
 10
6.020439
 20
8.039999999999999
 30
0.0
 11
6.787783
 21
8.039999999999999
 31
0.0
  0
LINE
  5
2AC
330
18
100
AcDbEntity
  8
0
 62
     0
100
AcDbLine
 10
5.9976
 20
8.029999999999999
 30
0.0
 11
6.764944
 21
8.029999999999999
 31
0.0
  0
LINE
  5
2AD
330
18
100
AcDbEntity
  8
0
 62
     0
100
AcDbLine
 10
5.974761
 20
8.02
 30
0.0
 11
6.742105000000001
 21
8.02
 31
0.0
  0
LINE
  5
2AE
330
18
100
AcDbEntity
  8
0
 62
     0
100
AcDbLine
 10
5.951922
 20
8.01
 30
0.0
 11
6.719266
 21
8.01
 31
0.0
  0
LINE
  5
2AF
330
18
100
AcDbEntity
  8
0
 62
     0
100
AcDbLine
 10
5.929084
 20
8.0
 30
0.0
 11
6.696427000000001
 21
8.0
 31
0.0
  0
LINE
  5
2B0
330
18
100
AcDbEntity
  8
0
 62
     0
100
AcDbLine
 10
5.906244999999999
 20
7.99
 30
0.0
 11
6.673588000000001
 21
7.99
 31
0.0
  0
LINE
  5
2B1
330
18
100
AcDbEntity
  8
0
 62
     0
100
AcDbLine
 10
5.883406
 20
7.98
 30
0.0
 11
6.650749
 21
7.98
 31
0.0
  0
LINE
  5
2B2
330
18
100
AcDbEntity
  8
0
 62
     0
100
AcDbLine
 10
5.860567
 20
7.97
 30
0.0
 11
6.627910000000001
 21
7.97
 31
0.0
  0
LINE
  5
2B3
330
18
100
AcDbEntity
  8
0
 62
     0
100
AcDbLine
 10
5.837728
 20
7.96
 30
0.0
 11
6.605071000000001
 21
7.96
 31
0.0
  0
LINE
  5
2B4
330
18
100
AcDbEntity
  8
0
 62
     0
100
AcDbLine
 10
5.814889
 20
7.95
 30
0.0
 11
6.582232
 21
7.95
 31
0.0
  0
LINE
  5
2B5
330
18
100
AcDbEntity
  8
0
 62
     0
100
AcDbLine
 10
5.79205
 20
7.94
 30
0.0
 11
6.559392999999999
 21
7.94
 31
0.0
  0
LINE
  5
2B6
330
18
100
AcDbEntity
  8
0
 62
     0
100
AcDbLine
 10
5.769211
 20
7.93
 30
0.0
 11
6.536554
 21
7.93
 31
0.0
  0
LINE
  5
2B7
330
18
100
AcDbEntity
  8
0
 62
     0
100
AcDbLine
 10
5.746372
 20
7.92
 30
0.0
 11
6.513715
 21
7.92
 31
0.0
  0
LINE
  5
2B8
330
18
100
AcDbEntity
  8
0
 62
     0
100
AcDbLine
 10
5.723533
 20
7.91
 30
0.0
 11
6.490876
 21
7.91
 31
0.0
  0
LINE
  5
2B9
330
18
100
AcDbEntity
  8
0
 62
     0
100
AcDbLine
 10
5.700694
 20
7.9
 30
0.0
 11
6.468037000000001
 21
7.9
 31
0.0
  0
LINE
  5
2BA
330
18
100
AcDbEntity
  8
0
 62
     0
100
AcDbLine
 10
5.677855
 20
7.89
 30
0.0
 11
6.445199
 21
7.89
 31
0.0
  0
LINE
  5
2BB
330
18
100
AcDbEntity
  8
0
 62
     0
100
AcDbLine
 10
5.655016000000001
 20
7.88
 30
0.0
 11
6.42236
 21
7.88
 31
0.0
  0
LINE
  5
2BC
330
18
100
AcDbEntity
  8
0
 62
     0
100
AcDbLine
 10
5.632177
 20
7.87
 30
0.0
 11
6.399521
 21
7.87
 31
0.0
  0
LINE
  5
2BD
330
18
100
AcDbEntity
  8
0
 62
     0
100
AcDbLine
 10
5.617196
 20
7.86
 30
0.0
 11
6.376682
 21
7.86
 31
0.0
  0
LINE
  5
2BE
330
18
100
AcDbEntity
  8
0
 62
     0
100
AcDbLine
 10
5.622116
 20
7.85
 30
0.0
 11
6.353843
 21
7.85
 31
0.0
  0
LINE
  5
2BF
330
18
100
AcDbEntity
  8
0
 62
     0
100
AcDbLine
 10
5.623098000000001
 20
7.84
 30
0.0
 11
6.331004
 21
7.84
 31
0.0
  0
LINE
  5
2C0
330
18
100
AcDbEntity
  8
0
 62
     0
100
AcDbLine
 10
5.621686
 20
7.83
 30
0.0
 11
6.308165
 21
7.83
 31
0.0
  0
LINE
  5
2C1
330
18
100
AcDbEntity
  8
0
 62
     0
100
AcDbLine
 10
5.620187000000001
 20
7.82
 30
0.0
 11
6.285326
 21
7.82
 31
0.0
  0
LINE
  5
2C2
330
18
100
AcDbEntity
  8
0
 62
     0
100
AcDbLine
 10
5.618688
 20
7.81
 30
0.0
 11
6.262487
 21
7.81
 31
0.0
  0
LINE
  5
2C3
330
18
100
AcDbEntity
  8
0
 62
     0
100
AcDbLine
 10
5.617189
 20
7.8
 30
0.0
 11
6.239648000000001
 21
7.8
 31
0.0
  0
LINE
  5
2C4
330
18
100
AcDbEntity
  8
0
 62
     0
100
AcDbLine
 10
5.61569
 20
7.79
 30
0.0
 11
6.216809
 21
7.79
 31
0.0
  0
LINE
  5
2C5
330
18
100
AcDbEntity
  8
0
 62
     0
100
AcDbLine
 10
5.614191
 20
7.78
 30
0.0
 11
6.193969999999999
 21
7.78
 31
0.0
  0
LINE
  5
2C6
330
18
100
AcDbEntity
  8
0
 62
     0
100
AcDbLine
 10
5.612691000000001
 20
7.77
 30
0.0
 11
6.171131
 21
7.77
 31
0.0
  0
LINE
  5
2C7
330
18
100
AcDbEntity
  8
0
 62
     0
100
AcDbLine
 10
5.611192
 20
7.76
 30
0.0
 11
6.148292
 21
7.76
 31
0.0
  0
LINE
  5
2C8
330
18
100
AcDbEntity
  8
0
 62
     0
100
AcDbLine
 10
5.609693
 20
7.75
 30
0.0
 11
6.125453
 21
7.75
 31
0.0
  0
LINE
  5
2C9
330
18
100
AcDbEntity
  8
0
 62
     0
100
AcDbLine
 10
5.608194
 20
7.74
 30
0.0
 11
6.102614
 21
7.74
 31
0.0
  0
LINE
  5
2CA
330
18
100
AcDbEntity
  8
0
 62
     0
100
AcDbLine
 10
5.606694999999999
 20
7.73
 30
0.0
 11
6.079775
 21
7.73
 31
0.0
  0
LINE
  5
2CB
330
18
100
AcDbEntity
  8
0
 62
     0
100
AcDbLine
 10
5.605196
 20
7.72
 30
0.0
 11
6.056937000000001
 21
7.72
 31
0.0
  0
LINE
  5
2CC
330
18
100
AcDbEntity
  8
0
 62
     0
100
AcDbLine
 10
5.603697
 20
7.71
 30
0.0
 11
6.034098
 21
7.71
 31
0.0
  0
LINE
  5
2CD
330
18
100
AcDbEntity
  8
0
 62
     0
100
AcDbLine
 10
5.602198000000001
 20
7.7
 30
0.0
 11
6.011259
 21
7.7
 31
0.0
  0
LINE
  5
2CE
330
18
100
AcDbEntity
  8
0
 62
     0
100
AcDbLine
 10
5.600699
 20
7.69
 30
0.0
 11
5.98842
 21
7.69
 31
0.0
  0
LINE
  5
2CF
330
18
100
AcDbEntity
  8
0
 62
     0
100
AcDbLine
 10
5.5992
 20
7.68
 30
0.0
 11
5.965580999999999
 21
7.68
 31
0.0
  0
LINE
  5
2D0
330
18
100
AcDbEntity
  8
0
 62
     0
100
AcDbLine
 10
5.597701
 20
7.67
 30
0.0
 11
5.942742
 21
7.67
 31
0.0
  0
LINE
  5
2D1
330
18
100
AcDbEntity
  8
0
 62
     0
100
AcDbLine
 10
5.596202
 20
7.66
 30
0.0
 11
5.919903
 21
7.66
 31
0.0
  0
LINE
  5
2D2
330
18
100
AcDbEntity
  8
0
 62
     0
100
AcDbLine
 10
5.594703
 20
7.65
 30
0.0
 11
5.897064
 21
7.65
 31
0.0
  0
LINE
  5
2D3
330
18
100
AcDbEntity
  8
0
 62
     0
100
AcDbLine
 10
5.593204
 20
7.64
 30
0.0
 11
5.874225
 21
7.64
 31
0.0
  0
LINE
  5
2D4
330
18
100
AcDbEntity
  8
0
 62
     0
100
AcDbLine
 10
5.591704
 20
7.63
 30
0.0
 11
5.851386
 21
7.63
 31
0.0
  0
LINE
  5
2D5
330
18
100
AcDbEntity
  8
0
 62
     0
100
AcDbLine
 10
5.590205
 20
7.62
 30
0.0
 11
5.828547
 21
7.62
 31
0.0
  0
LINE
  5
2D6
330
18
100
AcDbEntity
  8
0
 62
     0
100
AcDbLine
 10
5.588706
 20
7.61
 30
0.0
 11
5.805708
 21
7.61
 31
0.0
  0
LINE
  5
2D7
330
18
100
AcDbEntity
  8
0
 62
     0
100
AcDbLine
 10
5.587207
 20
7.6
 30
0.0
 11
5.782869
 21
7.6
 31
0.0
  0
LINE
  5
2D8
330
18
100
AcDbEntity
  8
0
 62
     0
100
AcDbLine
 10
5.585708
 20
7.59
 30
0.0
 11
5.76003
 21
7.59
 31
0.0
  0
LINE
  5
2D9
330
18
100
AcDbEntity
  8
0
 62
     0
100
AcDbLine
 10
5.584209
 20
7.58
 30
0.0
 11
5.737191
 21
7.58
 31
0.0
  0
LINE
  5
2DA
330
18
100
AcDbEntity
  8
0
 62
     0
100
AcDbLine
 10
5.58271
 20
7.57
 30
0.0
 11
5.714352
 21
7.57
 31
0.0
  0
LINE
  5
2DB
330
18
100
AcDbEntity
  8
0
 62
     0
100
AcDbLine
 10
5.581211
 20
7.56
 30
0.0
 11
5.691513
 21
7.56
 31
0.0
  0
LINE
  5
2DC
330
18
100
AcDbEntity
  8
0
 62
     0
100
AcDbLine
 10
5.579712000000001
 20
7.55
 30
0.0
 11
5.668674
 21
7.55
 31
0.0
  0
LINE
  5
2DD
330
18
100
AcDbEntity
  8
0
 62
     0
100
AcDbLine
 10
5.578213
 20
7.54
 30
0.0
 11
5.645836
 21
7.54
 31
0.0
  0
LINE
  5
2DE
330
18
100
AcDbEntity
  8
0
 62
     0
100
AcDbLine
 10
5.576714
 20
7.53
 30
0.0
 11
5.622997
 21
7.53
 31
0.0
  0
LINE
  5
2DF
330
18
100
AcDbEntity
  8
0
 62
     0
100
AcDbLine
 10
5.575215
 20
7.52
 30
0.0
 11
5.600158
 21
7.52
 31
0.0
  0
LINE
  5
2E0
330
18
100
AcDbEntity
  8
0
 62
     0
100
AcDbLine
 10
5.573716
 20
7.51
 30
0.0
 11
5.577319
 21
7.51
 31
0.0
  0
LINE
  5
2E1
330
18
100
AcDbEntity
  8
0
 62
     0
100
AcDbLine
 10
1.821865
 20
5.06
 30
0.0
 11
2.093001
 21
5.06
 31
0.0
  0
LINE
  5
2E2
330
18
100
AcDbEntity
  8
0
 62
     0
100
AcDbLine
 10
1.821865
 20
5.07
 30
0.0
 11
2.093001
 21
5.07
 31
0.0
  0
LINE
  5
2E3
330
18
100
AcDbEntity
  8
0
 62
     0
100
AcDbLine
 10
1.821865
 20
5.08
 30
0.0
 11
2.093001
 21
5.08
 31
0.0
  0
LINE
  5
2E4
330
18
100
AcDbEntity
  8
0
 62
     0
100
AcDbLine
 10
1.821865
 20
5.09
 30
0.0
 11
2.093001
 21
5.09
 31
0.0
  0
LINE
  5
2E5
330
18
100
AcDbEntity
  8
0
 62
     0
100
AcDbLine
 10
1.821865
 20
5.1
 30
0.0
 11
2.093001
 21
5.1
 31
0.0
  0
LINE
  5
2E6
330
18
100
AcDbEntity
  8
0
 62
     0
100
AcDbLine
 10
1.821865
 20
5.11
 30
0.0
 11
2.093001
 21
5.11
 31
0.0
  0
LINE
  5
2E7
330
18
100
AcDbEntity
  8
0
 62
     0
100
AcDbLine
 10
1.821865
 20
5.12
 30
0.0
 11
2.093001
 21
5.12
 31
0.0
  0
LINE
  5
2E8
330
18
100
AcDbEntity
  8
0
 62
     0
100
AcDbLine
 10
1.821865
 20
5.13
 30
0.0
 11
2.093001
 21
5.13
 31
0.0
  0
LINE
  5
2E9
330
18
100
AcDbEntity
  8
0
 62
     0
100
AcDbLine
 10
1.821865
 20
5.14
 30
0.0
 11
2.093001
 21
5.14
 31
0.0
  0
LINE
  5
2EA
330
18
100
AcDbEntity
  8
0
 62
     0
100
AcDbLine
 10
1.821865
 20
5.15
 30
0.0
 11
2.093001
 21
5.15
 31
0.0
  0
LINE
  5
2EB
330
18
100
AcDbEntity
  8
0
 62
     0
100
AcDbLine
 10
1.821865
 20
5.16
 30
0.0
 11
2.093001
 21
5.16
 31
0.0
  0
LINE
  5
2EC
330
18
100
AcDbEntity
  8
0
 62
     0
100
AcDbLine
 10
1.821865
 20
5.17
 30
0.0
 11
2.093001
 21
5.17
 31
0.0
  0
LINE
  5
2ED
330
18
100
AcDbEntity
  8
0
 62
     0
100
AcDbLine
 10
1.821865
 20
5.18
 30
0.0
 11
2.093001
 21
5.18
 31
0.0
  0
LINE
  5
2EE
330
18
100
AcDbEntity
  8
0
 62
     0
100
AcDbLine
 10
1.821865
 20
5.19
 30
0.0
 11
2.093001
 21
5.19
 31
0.0
  0
LINE
  5
2EF
330
18
100
AcDbEntity
  8
0
 62
     0
100
AcDbLine
 10
1.821865
 20
5.2
 30
0.0
 11
2.093001
 21
5.2
 31
0.0
  0
LINE
  5
2F0
330
18
100
AcDbEntity
  8
0
 62
     0
100
AcDbLine
 10
1.821865
 20
5.21
 30
0.0
 11
2.093001
 21
5.21
 31
0.0
  0
LINE
  5
2F1
330
18
100
AcDbEntity
  8
0
 62
     0
100
AcDbLine
 10
1.821865
 20
5.22
 30
0.0
 11
2.093001
 21
5.22
 31
0.0
  0
LINE
  5
2F2
330
18
100
AcDbEntity
  8
0
 62
     0
100
AcDbLine
 10
1.821865
 20
5.23
 30
0.0
 11
2.093001
 21
5.23
 31
0.0
  0
LINE
  5
2F3
330
18
100
AcDbEntity
  8
0
 62
     0
100
AcDbLine
 10
1.821865
 20
5.24
 30
0.0
 11
2.093001
 21
5.24
 31
0.0
  0
LINE
  5
2F4
330
18
100
AcDbEntity
  8
0
 62
     0
100
AcDbLine
 10
1.821865
 20
5.25
 30
0.0
 11
2.093001
 21
5.25
 31
0.0
  0
LINE
  5
2F5
330
18
100
AcDbEntity
  8
0
 62
     0
100
AcDbLine
 10
1.821865
 20
5.26
 30
0.0
 11
2.093001
 21
5.26
 31
0.0
  0
LINE
  5
2F6
330
18
100
AcDbEntity
  8
0
 62
     0
100
AcDbLine
 10
1.821865
 20
5.27
 30
0.0
 11
2.093001
 21
5.27
 31
0.0
  0
LINE
  5
2F7
330
18
100
AcDbEntity
  8
0
 62
     0
100
AcDbLine
 10
1.821865
 20
5.28
 30
0.0
 11
2.093001
 21
5.28
 31
0.0
  0
LINE
  5
2F8
330
18
100
AcDbEntity
  8
0
 62
     0
100
AcDbLine
 10
1.821865
 20
5.29
 30
0.0
 11
2.093001
 21
5.29
 31
0.0
  0
LINE
  5
2F9
330
18
100
AcDbEntity
  8
0
 62
     0
100
AcDbLine
 10
1.821865
 20
5.3
 30
0.0
 11
2.093001
 21
5.3
 31
0.0
  0
LINE
  5
2FA
330
18
100
AcDbEntity
  8
0
 62
     0
100
AcDbLine
 10
1.821865
 20
5.31
 30
0.0
 11
2.093001
 21
5.31
 31
0.0
  0
LINE
  5
2FB
330
18
100
AcDbEntity
  8
0
 62
     0
100
AcDbLine
 10
1.821865
 20
5.32
 30
0.0
 11
2.093001
 21
5.32
 31
0.0
  0
LINE
  5
2FC
330
18
100
AcDbEntity
  8
0
 62
     0
100
AcDbLine
 10
1.821865
 20
5.33
 30
0.0
 11
2.093001
 21
5.33
 31
0.0
  0
LINE
  5
2FD
330
18
100
AcDbEntity
  8
0
 62
     0
100
AcDbLine
 10
1.821865
 20
5.34
 30
0.0
 11
2.093001
 21
5.34
 31
0.0
  0
LINE
  5
2FE
330
18
100
AcDbEntity
  8
0
 62
     0
100
AcDbLine
 10
1.821865
 20
5.35
 30
0.0
 11
2.093001
 21
5.35
 31
0.0
  0
LINE
  5
2FF
330
18
100
AcDbEntity
  8
0
 62
     0
100
AcDbLine
 10
1.821865
 20
5.36
 30
0.0
 11
2.093001
 21
5.36
 31
0.0
  0
LINE
  5
300
330
18
100
AcDbEntity
  8
0
 62
     0
100
AcDbLine
 10
1.821865
 20
5.37
 30
0.0
 11
2.093001
 21
5.37
 31
0.0
  0
LINE
  5
301
330
18
100
AcDbEntity
  8
0
 62
     0
100
AcDbLine
 10
1.821865
 20
5.38
 30
0.0
 11
2.093001
 21
5.38
 31
0.0
  0
LINE
  5
302
330
18
100
AcDbEntity
  8
0
 62
     0
100
AcDbLine
 10
1.821865
 20
5.39
 30
0.0
 11
2.093001
 21
5.39
 31
0.0
  0
LINE
  5
303
330
18
100
AcDbEntity
  8
0
 62
     0
100
AcDbLine
 10
1.821865
 20
5.4
 30
0.0
 11
2.093001
 21
5.4
 31
0.0
  0
LINE
  5
304
330
18
100
AcDbEntity
  8
0
 62
     0
100
AcDbLine
 10
1.821865
 20
5.41
 30
0.0
 11
2.093001
 21
5.41
 31
0.0
  0
LINE
  5
305
330
18
100
AcDbEntity
  8
0
 62
     0
100
AcDbLine
 10
1.821865
 20
5.42
 30
0.0
 11
2.093001
 21
5.42
 31
0.0
  0
LINE
  5
306
330
18
100
AcDbEntity
  8
0
 62
     0
100
AcDbLine
 10
1.821865
 20
5.43
 30
0.0
 11
2.093001
 21
5.43
 31
0.0
  0
LINE
  5
307
330
18
100
AcDbEntity
  8
0
 62
     0
100
AcDbLine
 10
1.821865
 20
5.44
 30
0.0
 11
2.093001
 21
5.44
 31
0.0
  0
LINE
  5
308
330
18
100
AcDbEntity
  8
0
 62
     0
100
AcDbLine
 10
1.821865
 20
5.45
 30
0.0
 11
2.093001
 21
5.45
 31
0.0
  0
LINE
  5
309
330
18
100
AcDbEntity
  8
0
 62
     0
100
AcDbLine
 10
1.821865
 20
5.46
 30
0.0
 11
2.093001
 21
5.46
 31
0.0
  0
LINE
  5
30A
330
18
100
AcDbEntity
  8
0
 62
     0
100
AcDbLine
 10
1.821865
 20
5.47
 30
0.0
 11
2.093001
 21
5.47
 31
0.0
  0
LINE
  5
30B
330
18
100
AcDbEntity
  8
0
 62
     0
100
AcDbLine
 10
1.821865
 20
5.48
 30
0.0
 11
2.093001
 21
5.48
 31
0.0
  0
LINE
  5
30C
330
18
100
AcDbEntity
  8
0
 62
     0
100
AcDbLine
 10
1.821865
 20
5.49
 30
0.0
 11
2.093001
 21
5.49
 31
0.0
  0
LINE
  5
30D
330
18
100
AcDbEntity
  8
0
 62
     0
100
AcDbLine
 10
1.821865
 20
5.5
 30
0.0
 11
2.093001
 21
5.5
 31
0.0
  0
LINE
  5
30E
330
18
100
AcDbEntity
  8
0
 62
     0
100
AcDbLine
 10
1.821865
 20
5.51
 30
0.0
 11
2.093001
 21
5.51
 31
0.0
  0
LINE
  5
30F
330
18
100
AcDbEntity
  8
0
 62
     0
100
AcDbLine
 10
1.821865
 20
5.52
 30
0.0
 11
2.093001
 21
5.52
 31
0.0
  0
LINE
  5
310
330
18
100
AcDbEntity
  8
0
 62
     0
100
AcDbLine
 10
1.821865
 20
5.53
 30
0.0
 11
2.093001
 21
5.53
 31
0.0
  0
LINE
  5
311
330
18
100
AcDbEntity
  8
0
 62
     0
100
AcDbLine
 10
1.821865
 20
5.54
 30
0.0
 11
2.093001
 21
5.54
 31
0.0
  0
LINE
  5
312
330
18
100
AcDbEntity
  8
0
 62
     0
100
AcDbLine
 10
1.821865
 20
5.55
 30
0.0
 11
2.093001
 21
5.55
 31
0.0
  0
LINE
  5
313
330
18
100
AcDbEntity
  8
0
 62
     0
100
AcDbLine
 10
1.821865
 20
5.56
 30
0.0
 11
2.093001
 21
5.56
 31
0.0
  0
LINE
  5
314
330
18
100
AcDbEntity
  8
0
 62
     0
100
AcDbLine
 10
1.821865
 20
5.57
 30
0.0
 11
2.093001
 21
5.57
 31
0.0
  0
LINE
  5
315
330
18
100
AcDbEntity
  8
0
 62
     0
100
AcDbLine
 10
1.821865
 20
5.58
 30
0.0
 11
2.093001
 21
5.58
 31
0.0
  0
LINE
  5
316
330
18
100
AcDbEntity
  8
0
 62
     0
100
AcDbLine
 10
1.821865
 20
5.59
 30
0.0
 11
2.093001
 21
5.59
 31
0.0
  0
LINE
  5
317
330
18
100
AcDbEntity
  8
0
 62
     0
100
AcDbLine
 10
1.821865
 20
5.6
 30
0.0
 11
2.093001
 21
5.6
 31
0.0
  0
LINE
  5
318
330
18
100
AcDbEntity
  8
0
 62
     0
100
AcDbLine
 10
1.821865
 20
5.61
 30
0.0
 11
2.093001
 21
5.61
 31
0.0
  0
LINE
  5
319
330
18
100
AcDbEntity
  8
0
 62
     0
100
AcDbLine
 10
1.821865
 20
5.62
 30
0.0
 11
2.093001
 21
5.62
 31
0.0
  0
LINE
  5
31A
330
18
100
AcDbEntity
  8
0
 62
     0
100
AcDbLine
 10
1.821865
 20
5.63
 30
0.0
 11
2.093001
 21
5.63
 31
0.0
  0
LINE
  5
31B
330
18
100
AcDbEntity
  8
0
 62
     0
100
AcDbLine
 10
1.821865
 20
5.64
 30
0.0
 11
2.093001
 21
5.64
 31
0.0
  0
LINE
  5
31C
330
18
100
AcDbEntity
  8
0
 62
     0
100
AcDbLine
 10
1.821865
 20
5.65
 30
0.0
 11
2.093001
 21
5.65
 31
0.0
  0
LINE
  5
31D
330
18
100
AcDbEntity
  8
0
 62
     0
100
AcDbLine
 10
1.821865
 20
5.66
 30
0.0
 11
2.093001
 21
5.66
 31
0.0
  0
LINE
  5
31E
330
18
100
AcDbEntity
  8
0
 62
     0
100
AcDbLine
 10
1.821865
 20
5.67
 30
0.0
 11
2.093001
 21
5.67
 31
0.0
  0
LINE
  5
31F
330
18
100
AcDbEntity
  8
0
 62
     0
100
AcDbLine
 10
1.821865
 20
5.68
 30
0.0
 11
2.093001
 21
5.68
 31
0.0
  0
LINE
  5
320
330
18
100
AcDbEntity
  8
0
 62
     0
100
AcDbLine
 10
1.821865
 20
5.69
 30
0.0
 11
2.093001
 21
5.69
 31
0.0
  0
LINE
  5
321
330
18
100
AcDbEntity
  8
0
 62
     0
100
AcDbLine
 10
1.821865
 20
5.7
 30
0.0
 11
2.093001
 21
5.7
 31
0.0
  0
LINE
  5
322
330
18
100
AcDbEntity
  8
0
 62
     0
100
AcDbLine
 10
1.821865
 20
5.71
 30
0.0
 11
2.093001
 21
5.71
 31
0.0
  0
LINE
  5
323
330
18
100
AcDbEntity
  8
0
 62
     0
100
AcDbLine
 10
1.821865
 20
5.72
 30
0.0
 11
2.093001
 21
5.72
 31
0.0
  0
LINE
  5
324
330
18
100
AcDbEntity
  8
0
 62
     0
100
AcDbLine
 10
1.821865
 20
5.73
 30
0.0
 11
2.093001
 21
5.73
 31
0.0
  0
LINE
  5
325
330
18
100
AcDbEntity
  8
0
 62
     0
100
AcDbLine
 10
1.821865
 20
5.74
 30
0.0
 11
2.093001
 21
5.74
 31
0.0
  0
LINE
  5
326
330
18
100
AcDbEntity
  8
0
 62
     0
100
AcDbLine
 10
1.821865
 20
5.75
 30
0.0
 11
2.093001
 21
5.75
 31
0.0
  0
LINE
  5
327
330
18
100
AcDbEntity
  8
0
 62
     0
100
AcDbLine
 10
1.821865
 20
5.76
 30
0.0
 11
2.093001
 21
5.76
 31
0.0
  0
LINE
  5
328
330
18
100
AcDbEntity
  8
0
 62
     0
100
AcDbLine
 10
1.821865
 20
5.77
 30
0.0
 11
2.093001
 21
5.77
 31
0.0
  0
LINE
  5
329
330
18
100
AcDbEntity
  8
0
 62
     0
100
AcDbLine
 10
1.821865
 20
5.78
 30
0.0
 11
2.093001
 21
5.78
 31
0.0
  0
LINE
  5
32A
330
18
100
AcDbEntity
  8
0
 62
     0
100
AcDbLine
 10
1.821865
 20
5.79
 30
0.0
 11
2.093001
 21
5.79
 31
0.0
  0
LINE
  5
32B
330
18
100
AcDbEntity
  8
0
 62
     0
100
AcDbLine
 10
1.821865
 20
5.8
 30
0.0
 11
2.093001
 21
5.8
 31
0.0
  0
LINE
  5
32C
330
18
100
AcDbEntity
  8
0
 62
     0
100
AcDbLine
 10
1.821865
 20
5.81
 30
0.0
 11
2.093001
 21
5.81
 31
0.0
  0
LINE
  5
32D
330
18
100
AcDbEntity
  8
0
 62
     0
100
AcDbLine
 10
1.821865
 20
5.82
 30
0.0
 11
2.093001
 21
5.82
 31
0.0
  0
LINE
  5
32E
330
18
100
AcDbEntity
  8
0
 62
     0
100
AcDbLine
 10
1.821865
 20
5.83
 30
0.0
 11
2.093001
 21
5.83
 31
0.0
  0
LINE
  5
32F
330
18
100
AcDbEntity
  8
0
 62
     0
100
AcDbLine
 10
1.821865
 20
5.84
 30
0.0
 11
2.093001
 21
5.84
 31
0.0
  0
LINE
  5
330
330
18
100
AcDbEntity
  8
0
 62
     0
100
AcDbLine
 10
1.821865
 20
5.85
 30
0.0
 11
2.093001
 21
5.85
 31
0.0
  0
LINE
  5
331
330
18
100
AcDbEntity
  8
0
 62
     0
100
AcDbLine
 10
1.821865
 20
5.86
 30
0.0
 11
2.093001
 21
5.86
 31
0.0
  0
LINE
  5
332
330
18
100
AcDbEntity
  8
0
 62
     0
100
AcDbLine
 10
1.821865
 20
5.87
 30
0.0
 11
2.093001
 21
5.87
 31
0.0
  0
LINE
  5
333
330
18
100
AcDbEntity
  8
0
 62
     0
100
AcDbLine
 10
1.821865
 20
5.88
 30
0.0
 11
2.093001
 21
5.88
 31
0.0
  0
LINE
  5
334
330
18
100
AcDbEntity
  8
0
 62
     0
100
AcDbLine
 10
1.821865
 20
5.89
 30
0.0
 11
2.093001
 21
5.89
 31
0.0
  0
LINE
  5
335
330
18
100
AcDbEntity
  8
0
 62
     0
100
AcDbLine
 10
1.821865
 20
5.9
 30
0.0
 11
2.093001
 21
5.9
 31
0.0
  0
LINE
  5
336
330
18
100
AcDbEntity
  8
0
 62
     0
100
AcDbLine
 10
1.821865
 20
5.91
 30
0.0
 11
2.093001
 21
5.91
 31
0.0
  0
LINE
  5
337
330
18
100
AcDbEntity
  8
0
 62
     0
100
AcDbLine
 10
1.821865
 20
5.92
 30
0.0
 11
2.093001
 21
5.92
 31
0.0
  0
LINE
  5
338
330
18
100
AcDbEntity
  8
0
 62
     0
100
AcDbLine
 10
1.821865
 20
5.93
 30
0.0
 11
2.093001
 21
5.93
 31
0.0
  0
LINE
  5
339
330
18
100
AcDbEntity
  8
0
 62
     0
100
AcDbLine
 10
1.821865
 20
5.94
 30
0.0
 11
2.093001
 21
5.94
 31
0.0
  0
LINE
  5
33A
330
18
100
AcDbEntity
  8
0
 62
     0
100
AcDbLine
 10
1.821865
 20
5.95
 30
0.0
 11
2.093001
 21
5.95
 31
0.0
  0
LINE
  5
33B
330
18
100
AcDbEntity
  8
0
 62
     0
100
AcDbLine
 10
1.821865
 20
5.96
 30
0.0
 11
2.093001
 21
5.96
 31
0.0
  0
LINE
  5
33C
330
18
100
AcDbEntity
  8
0
 62
     0
100
AcDbLine
 10
1.821865
 20
5.97
 30
0.0
 11
2.093001
 21
5.97
 31
0.0
  0
LINE
  5
33D
330
18
100
AcDbEntity
  8
0
 62
     0
100
AcDbLine
 10
1.821865
 20
5.98
 30
0.0
 11
2.093001
 21
5.98
 31
0.0
  0
LINE
  5
33E
330
18
100
AcDbEntity
  8
0
 62
     0
100
AcDbLine
 10
1.821865
 20
5.99
 30
0.0
 11
2.093001
 21
5.99
 31
0.0
  0
LINE
  5
33F
330
18
100
AcDbEntity
  8
0
 62
     0
100
AcDbLine
 10
1.821865
 20
6.0
 30
0.0
 11
2.093001
 21
6.0
 31
0.0
  0
LINE
  5
340
330
18
100
AcDbEntity
  8
0
 62
     0
100
AcDbLine
 10
1.821865
 20
6.01
 30
0.0
 11
2.093001
 21
6.01
 31
0.0
  0
LINE
  5
341
330
18
100
AcDbEntity
  8
0
 62
     0
100
AcDbLine
 10
1.821865
 20
6.02
 30
0.0
 11
2.093001
 21
6.02
 31
0.0
  0
LINE
  5
342
330
18
100
AcDbEntity
  8
0
 62
     0
100
AcDbLine
 10
1.821865
 20
6.03
 30
0.0
 11
2.093001
 21
6.03
 31
0.0
  0
LINE
  5
343
330
18
100
AcDbEntity
  8
0
 62
     0
100
AcDbLine
 10
1.821865
 20
6.04
 30
0.0
 11
2.093001
 21
6.04
 31
0.0
  0
LINE
  5
344
330
18
100
AcDbEntity
  8
0
 62
     0
100
AcDbLine
 10
1.821865
 20
6.05
 30
0.0
 11
2.093001
 21
6.05
 31
0.0
  0
LINE
  5
345
330
18
100
AcDbEntity
  8
0
 62
     0
100
AcDbLine
 10
1.821865
 20
6.06
 30
0.0
 11
2.093001
 21
6.06
 31
0.0
  0
LINE
  5
346
330
18
100
AcDbEntity
  8
0
 62
     0
100
AcDbLine
 10
1.821865
 20
6.07
 30
0.0
 11
2.093001
 21
6.07
 31
0.0
  0
LINE
  5
347
330
18
100
AcDbEntity
  8
0
 62
     0
100
AcDbLine
 10
1.821865
 20
6.08
 30
0.0
 11
2.093001
 21
6.08
 31
0.0
  0
LINE
  5
348
330
18
100
AcDbEntity
  8
0
 62
     0
100
AcDbLine
 10
1.821865
 20
6.09
 30
0.0
 11
2.093001
 21
6.09
 31
0.0
  0
LINE
  5
349
330
18
100
AcDbEntity
  8
0
 62
     0
100
AcDbLine
 10
1.821865
 20
6.1
 30
0.0
 11
2.093001
 21
6.1
 31
0.0
  0
LINE
  5
34A
330
18
100
AcDbEntity
  8
0
 62
     0
100
AcDbLine
 10
1.821865
 20
6.11
 30
0.0
 11
2.093001
 21
6.11
 31
0.0
  0
LINE
  5
34B
330
18
100
AcDbEntity
  8
0
 62
     0
100
AcDbLine
 10
1.821865
 20
6.12
 30
0.0
 11
2.093001
 21
6.12
 31
0.0
  0
LINE
  5
34C
330
18
100
AcDbEntity
  8
0
 62
     0
100
AcDbLine
 10
1.821865
 20
6.13
 30
0.0
 11
2.093001
 21
6.13
 31
0.0
  0
LINE
  5
34D
330
18
100
AcDbEntity
  8
0
 62
     0
100
AcDbLine
 10
1.821865
 20
6.14
 30
0.0
 11
2.093001
 21
6.14
 31
0.0
  0
LINE
  5
34E
330
18
100
AcDbEntity
  8
0
 62
     0
100
AcDbLine
 10
1.821865
 20
6.15
 30
0.0
 11
2.093001
 21
6.15
 31
0.0
  0
LINE
  5
34F
330
18
100
AcDbEntity
  8
0
 62
     0
100
AcDbLine
 10
1.821865
 20
6.16
 30
0.0
 11
2.093001
 21
6.16
 31
0.0
  0
LINE
  5
350
330
18
100
AcDbEntity
  8
0
 62
     0
100
AcDbLine
 10
1.821865
 20
6.17
 30
0.0
 11
2.093001
 21
6.17
 31
0.0
  0
LINE
  5
351
330
18
100
AcDbEntity
  8
0
 62
     0
100
AcDbLine
 10
1.821865
 20
6.18
 30
0.0
 11
2.093001
 21
6.18
 31
0.0
  0
LINE
  5
352
330
18
100
AcDbEntity
  8
0
 62
     0
100
AcDbLine
 10
1.821865
 20
6.19
 30
0.0
 11
2.093001
 21
6.19
 31
0.0
  0
LINE
  5
353
330
18
100
AcDbEntity
  8
0
 62
     0
100
AcDbLine
 10
1.821865
 20
6.2
 30
0.0
 11
2.093001
 21
6.2
 31
0.0
  0
LINE
  5
354
330
18
100
AcDbEntity
  8
0
 62
     0
100
AcDbLine
 10
1.821865
 20
6.21
 30
0.0
 11
2.093001
 21
6.21
 31
0.0
  0
LINE
  5
355
330
18
100
AcDbEntity
  8
0
 62
     0
100
AcDbLine
 10
1.821865
 20
6.22
 30
0.0
 11
2.093001
 21
6.22
 31
0.0
  0
LINE
  5
356
330
18
100
AcDbEntity
  8
0
 62
     0
100
AcDbLine
 10
1.821865
 20
6.23
 30
0.0
 11
2.093001
 21
6.23
 31
0.0
  0
LINE
  5
357
330
18
100
AcDbEntity
  8
0
 62
     0
100
AcDbLine
 10
1.821865
 20
6.24
 30
0.0
 11
2.093001
 21
6.24
 31
0.0
  0
LINE
  5
358
330
18
100
AcDbEntity
  8
0
 62
     0
100
AcDbLine
 10
1.821865
 20
6.25
 30
0.0
 11
2.093001
 21
6.25
 31
0.0
  0
LINE
  5
359
330
18
100
AcDbEntity
  8
0
 62
     0
100
AcDbLine
 10
1.821865
 20
6.26
 30
0.0
 11
2.093001
 21
6.26
 31
0.0
  0
LINE
  5
35A
330
18
100
AcDbEntity
  8
0
 62
     0
100
AcDbLine
 10
1.821865
 20
6.27
 30
0.0
 11
2.093001
 21
6.27
 31
0.0
  0
LINE
  5
35B
330
18
100
AcDbEntity
  8
0
 62
     0
100
AcDbLine
 10
1.821865
 20
6.28
 30
0.0
 11
2.093001
 21
6.28
 31
0.0
  0
LINE
  5
35C
330
18
100
AcDbEntity
  8
0
 62
     0
100
AcDbLine
 10
1.821865
 20
6.29
 30
0.0
 11
2.093001
 21
6.29
 31
0.0
  0
LINE
  5
35D
330
18
100
AcDbEntity
  8
0
 62
     0
100
AcDbLine
 10
1.821865
 20
6.3
 30
0.0
 11
2.093001
 21
6.3
 31
0.0
  0
LINE
  5
35E
330
18
100
AcDbEntity
  8
0
 62
     0
100
AcDbLine
 10
2.80157
 20
6.3
 30
0.0
 11
2.806911
 21
6.3
 31
0.0
  0
LINE
  5
35F
330
18
100
AcDbEntity
  8
0
 62
     0
100
AcDbLine
 10
1.821865
 20
6.31
 30
0.0
 11
2.093001
 21
6.31
 31
0.0
  0
LINE
  5
360
330
18
100
AcDbEntity
  8
0
 62
     0
100
AcDbLine
 10
2.783878
 20
6.31
 30
0.0
 11
2.806911
 21
6.31
 31
0.0
  0
LINE
  5
361
330
18
100
AcDbEntity
  8
0
 62
     0
100
AcDbLine
 10
1.821865
 20
6.32
 30
0.0
 11
2.093001
 21
6.32
 31
0.0
  0
LINE
  5
362
330
18
100
AcDbEntity
  8
0
 62
     0
100
AcDbLine
 10
2.766186
 20
6.32
 30
0.0
 11
2.806911
 21
6.32
 31
0.0
  0
LINE
  5
363
330
18
100
AcDbEntity
  8
0
 62
     0
100
AcDbLine
 10
1.821865
 20
6.33
 30
0.0
 11
2.093001
 21
6.33
 31
0.0
  0
LINE
  5
364
330
18
100
AcDbEntity
  8
0
 62
     0
100
AcDbLine
 10
2.748494
 20
6.33
 30
0.0
 11
2.806911
 21
6.33
 31
0.0
  0
LINE
  5
365
330
18
100
AcDbEntity
  8
0
 62
     0
100
AcDbLine
 10
1.821865
 20
6.34
 30
0.0
 11
2.093001
 21
6.34
 31
0.0
  0
LINE
  5
366
330
18
100
AcDbEntity
  8
0
 62
     0
100
AcDbLine
 10
2.730801
 20
6.34
 30
0.0
 11
2.806911
 21
6.34
 31
0.0
  0
LINE
  5
367
330
18
100
AcDbEntity
  8
0
 62
     0
100
AcDbLine
 10
1.821865
 20
6.35
 30
0.0
 11
2.093001
 21
6.35
 31
0.0
  0
LINE
  5
368
330
18
100
AcDbEntity
  8
0
 62
     0
100
AcDbLine
 10
2.713109
 20
6.35
 30
0.0
 11
2.806911
 21
6.35
 31
0.0
  0
LINE
  5
369
330
18
100
AcDbEntity
  8
0
 62
     0
100
AcDbLine
 10
1.821865
 20
6.36
 30
0.0
 11
2.093001
 21
6.36
 31
0.0
  0
LINE
  5
36A
330
18
100
AcDbEntity
  8
0
 62
     0
100
AcDbLine
 10
2.695417
 20
6.36
 30
0.0
 11
2.806911
 21
6.36
 31
0.0
  0
LINE
  5
36B
330
18
100
AcDbEntity
  8
0
 62
     0
100
AcDbLine
 10
1.821865
 20
6.37
 30
0.0
 11
2.093001
 21
6.37
 31
0.0
  0
LINE
  5
36C
330
18
100
AcDbEntity
  8
0
 62
     0
100
AcDbLine
 10
2.677725
 20
6.37
 30
0.0
 11
2.806911
 21
6.37
 31
0.0
  0
LINE
  5
36D
330
18
100
AcDbEntity
  8
0
 62
     0
100
AcDbLine
 10
1.821865
 20
6.38
 30
0.0
 11
2.093001
 21
6.38
 31
0.0
  0
LINE
  5
36E
330
18
100
AcDbEntity
  8
0
 62
     0
100
AcDbLine
 10
2.660033
 20
6.38
 30
0.0
 11
2.806911
 21
6.38
 31
0.0
  0
LINE
  5
36F
330
18
100
AcDbEntity
  8
0
 62
     0
100
AcDbLine
 10
1.821865
 20
6.39
 30
0.0
 11
2.093001
 21
6.39
 31
0.0
  0
LINE
  5
370
330
18
100
AcDbEntity
  8
0
 62
     0
100
AcDbLine
 10
2.642341
 20
6.39
 30
0.0
 11
2.806911
 21
6.39
 31
0.0
  0
LINE
  5
371
330
18
100
AcDbEntity
  8
0
 62
     0
100
AcDbLine
 10
1.821865
 20
6.4
 30
0.0
 11
2.093001
 21
6.4
 31
0.0
  0
LINE
  5
372
330
18
100
AcDbEntity
  8
0
 62
     0
100
AcDbLine
 10
2.624648
 20
6.4
 30
0.0
 11
2.806911
 21
6.4
 31
0.0
  0
LINE
  5
373
330
18
100
AcDbEntity
  8
0
 62
     0
100
AcDbLine
 10
1.821865
 20
6.41
 30
0.0
 11
2.093001
 21
6.41
 31
0.0
  0
LINE
  5
374
330
18
100
AcDbEntity
  8
0
 62
     0
100
AcDbLine
 10
2.606956
 20
6.41
 30
0.0
 11
2.806911
 21
6.41
 31
0.0
  0
LINE
  5
375
330
18
100
AcDbEntity
  8
0
 62
     0
100
AcDbLine
 10
1.821865
 20
6.42
 30
0.0
 11
2.093001
 21
6.42
 31
0.0
  0
LINE
  5
376
330
18
100
AcDbEntity
  8
0
 62
     0
100
AcDbLine
 10
2.589264
 20
6.42
 30
0.0
 11
2.806911
 21
6.42
 31
0.0
  0
LINE
  5
377
330
18
100
AcDbEntity
  8
0
 62
     0
100
AcDbLine
 10
1.821865
 20
6.43
 30
0.0
 11
2.093001
 21
6.43
 31
0.0
  0
LINE
  5
378
330
18
100
AcDbEntity
  8
0
 62
     0
100
AcDbLine
 10
2.571572
 20
6.43
 30
0.0
 11
2.806911
 21
6.43
 31
0.0
  0
LINE
  5
379
330
18
100
AcDbEntity
  8
0
 62
     0
100
AcDbLine
 10
1.821865
 20
6.44
 30
0.0
 11
2.093001
 21
6.44
 31
0.0
  0
LINE
  5
37A
330
18
100
AcDbEntity
  8
0
 62
     0
100
AcDbLine
 10
2.55388
 20
6.44
 30
0.0
 11
2.806911
 21
6.44
 31
0.0
  0
LINE
  5
37B
330
18
100
AcDbEntity
  8
0
 62
     0
100
AcDbLine
 10
1.821865
 20
6.45
 30
0.0
 11
2.093001
 21
6.45
 31
0.0
  0
LINE
  5
37C
330
18
100
AcDbEntity
  8
0
 62
     0
100
AcDbLine
 10
2.536187
 20
6.45
 30
0.0
 11
2.806911
 21
6.45
 31
0.0
  0
LINE
  5
37D
330
18
100
AcDbEntity
  8
0
 62
     0
100
AcDbLine
 10
1.821865
 20
6.46
 30
0.0
 11
2.093001
 21
6.46
 31
0.0
  0
LINE
  5
37E
330
18
100
AcDbEntity
  8
0
 62
     0
100
AcDbLine
 10
2.518495
 20
6.46
 30
0.0
 11
2.806911
 21
6.46
 31
0.0
  0
LINE
  5
37F
330
18
100
AcDbEntity
  8
0
 62
     0
100
AcDbLine
 10
1.821865
 20
6.47
 30
0.0
 11
2.093001
 21
6.47
 31
0.0
  0
LINE
  5
380
330
18
100
AcDbEntity
  8
0
 62
     0
100
AcDbLine
 10
2.500803
 20
6.47
 30
0.0
 11
2.806911
 21
6.47
 31
0.0
  0
LINE
  5
381
330
18
100
AcDbEntity
  8
0
 62
     0
100
AcDbLine
 10
1.821865
 20
6.48
 30
0.0
 11
2.093001
 21
6.48
 31
0.0
  0
LINE
  5
382
330
18
100
AcDbEntity
  8
0
 62
     0
100
AcDbLine
 10
2.483111
 20
6.48
 30
0.0
 11
2.806911
 21
6.48
 31
0.0
  0
LINE
  5
383
330
18
100
AcDbEntity
  8
0
 62
     0
100
AcDbLine
 10
1.821865
 20
6.49
 30
0.0
 11
2.093001
 21
6.49
 31
0.0
  0
LINE
  5
384
330
18
100
AcDbEntity
  8
0
 62
     0
100
AcDbLine
 10
2.465419
 20
6.49
 30
0.0
 11
2.806911
 21
6.49
 31
0.0
  0
LINE
  5
385
330
18
100
AcDbEntity
  8
0
 62
     0
100
AcDbLine
 10
1.821865
 20
6.5
 30
0.0
 11
2.093001
 21
6.5
 31
0.0
  0
LINE
  5
386
330
18
100
AcDbEntity
  8
0
 62
     0
100
AcDbLine
 10
2.447727
 20
6.5
 30
0.0
 11
2.806911
 21
6.5
 31
0.0
  0
LINE
  5
387
330
18
100
AcDbEntity
  8
0
 62
     0
100
AcDbLine
 10
1.821865
 20
6.51
 30
0.0
 11
2.093001
 21
6.51
 31
0.0
  0
LINE
  5
388
330
18
100
AcDbEntity
  8
0
 62
     0
100
AcDbLine
 10
2.430034
 20
6.51
 30
0.0
 11
2.806911
 21
6.51
 31
0.0
  0
LINE
  5
389
330
18
100
AcDbEntity
  8
0
 62
     0
100
AcDbLine
 10
1.821865
 20
6.52
 30
0.0
 11
2.093001
 21
6.52
 31
0.0
  0
LINE
  5
38A
330
18
100
AcDbEntity
  8
0
 62
     0
100
AcDbLine
 10
2.412342
 20
6.52
 30
0.0
 11
2.806911
 21
6.52
 31
0.0
  0
LINE
  5
38B
330
18
100
AcDbEntity
  8
0
 62
     0
100
AcDbLine
 10
1.821865
 20
6.53
 30
0.0
 11
2.093001
 21
6.53
 31
0.0
  0
LINE
  5
38C
330
18
100
AcDbEntity
  8
0
 62
     0
100
AcDbLine
 10
2.39465
 20
6.53
 30
0.0
 11
2.806911
 21
6.53
 31
0.0
  0
LINE
  5
38D
330
18
100
AcDbEntity
  8
0
 62
     0
100
AcDbLine
 10
1.821865
 20
6.54
 30
0.0
 11
2.093001
 21
6.54
 31
0.0
  0
LINE
  5
38E
330
18
100
AcDbEntity
  8
0
 62
     0
100
AcDbLine
 10
2.376958
 20
6.54
 30
0.0
 11
2.806911
 21
6.54
 31
0.0
  0
LINE
  5
38F
330
18
100
AcDbEntity
  8
0
 62
     0
100
AcDbLine
 10
1.821865
 20
6.55
 30
0.0
 11
2.093001
 21
6.55
 31
0.0
  0
LINE
  5
390
330
18
100
AcDbEntity
  8
0
 62
     0
100
AcDbLine
 10
2.359266
 20
6.55
 30
0.0
 11
2.806911
 21
6.55
 31
0.0
  0
LINE
  5
391
330
18
100
AcDbEntity
  8
0
 62
     0
100
AcDbLine
 10
1.821862
 20
6.56
 30
0.0
 11
2.093001
 21
6.56
 31
0.0
  0
LINE
  5
392
330
18
100
AcDbEntity
  8
0
 62
     0
100
AcDbLine
 10
2.341574
 20
6.56
 30
0.0
 11
2.806911
 21
6.56
 31
0.0
  0
LINE
  5
393
330
18
100
AcDbEntity
  8
0
 62
     0
100
AcDbLine
 10
1.821745
 20
6.57
 30
0.0
 11
2.093001
 21
6.57
 31
0.0
  0
LINE
  5
394
330
18
100
AcDbEntity
  8
0
 62
     0
100
AcDbLine
 10
2.323881
 20
6.57
 30
0.0
 11
2.806911
 21
6.57
 31
0.0
  0
LINE
  5
395
330
18
100
AcDbEntity
  8
0
 62
     0
100
AcDbLine
 10
1.821459
 20
6.58
 30
0.0
 11
2.093291
 21
6.58
 31
0.0
  0
LINE
  5
396
330
18
100
AcDbEntity
  8
0
 62
     0
100
AcDbLine
 10
2.306189
 20
6.58
 30
0.0
 11
2.806911
 21
6.58
 31
0.0
  0
LINE
  5
397
330
18
100
AcDbEntity
  8
0
 62
     0
100
AcDbLine
 10
1.821004
 20
6.59
 30
0.0
 11
2.094872
 21
6.59
 31
0.0
  0
LINE
  5
398
330
18
100
AcDbEntity
  8
0
 62
     0
100
AcDbLine
 10
2.288497
 20
6.59
 30
0.0
 11
2.806911
 21
6.59
 31
0.0
  0
LINE
  5
399
330
18
100
AcDbEntity
  8
0
 62
     0
100
AcDbLine
 10
1.820379
 20
6.6
 30
0.0
 11
2.097919
 21
6.6
 31
0.0
  0
LINE
  5
39A
330
18
100
AcDbEntity
  8
0
 62
     0
100
AcDbLine
 10
2.270805
 20
6.6
 30
0.0
 11
2.806911
 21
6.6
 31
0.0
  0
LINE
  5
39B
330
18
100
AcDbEntity
  8
0
 62
     0
100
AcDbLine
 10
1.819585
 20
6.61
 30
0.0
 11
2.102638
 21
6.61
 31
0.0
  0
LINE
  5
39C
330
18
100
AcDbEntity
  8
0
 62
     0
100
AcDbLine
 10
2.253113
 20
6.61
 30
0.0
 11
2.806911
 21
6.61
 31
0.0
  0
LINE
  5
39D
330
18
100
AcDbEntity
  8
0
 62
     0
100
AcDbLine
 10
1.81862
 20
6.62
 30
0.0
 11
2.109439
 21
6.62
 31
0.0
  0
LINE
  5
39E
330
18
100
AcDbEntity
  8
0
 62
     0
100
AcDbLine
 10
2.23542
 20
6.62
 30
0.0
 11
2.806911
 21
6.62
 31
0.0
  0
LINE
  5
39F
330
18
100
AcDbEntity
  8
0
 62
     0
100
AcDbLine
 10
1.817484
 20
6.63
 30
0.0
 11
2.119201
 21
6.63
 31
0.0
  0
LINE
  5
3A0
330
18
100
AcDbEntity
  8
0
 62
     0
100
AcDbLine
 10
2.217728
 20
6.63
 30
0.0
 11
2.806911
 21
6.63
 31
0.0
  0
LINE
  5
3A1
330
18
100
AcDbEntity
  8
0
 62
     0
100
AcDbLine
 10
1.816175
 20
6.64
 30
0.0
 11
2.134477
 21
6.64
 31
0.0
  0
LINE
  5
3A2
330
18
100
AcDbEntity
  8
0
 62
     0
100
AcDbLine
 10
2.19978
 20
6.64
 30
0.0
 11
2.795738
 21
6.64
 31
0.0
  0
LINE
  5
3A3
330
18
100
AcDbEntity
  8
0
 62
     0
100
AcDbLine
 10
1.814693
 20
6.65
 30
0.0
 11
2.779863
 21
6.65
 31
0.0
  0
LINE
  5
3A4
330
18
100
AcDbEntity
  8
0
 62
     0
100
AcDbLine
 10
1.813036
 20
6.66
 30
0.0
 11
2.763988
 21
6.66
 31
0.0
  0
LINE
  5
3A5
330
18
100
AcDbEntity
  8
0
 62
     0
100
AcDbLine
 10
1.811202
 20
6.67
 30
0.0
 11
2.748113
 21
6.67
 31
0.0
  0
LINE
  5
3A6
330
18
100
AcDbEntity
  8
0
 62
     0
100
AcDbLine
 10
1.809191
 20
6.68
 30
0.0
 11
2.732238
 21
6.68
 31
0.0
  0
LINE
  5
3A7
330
18
100
AcDbEntity
  8
0
 62
     0
100
AcDbLine
 10
1.806999
 20
6.69
 30
0.0
 11
2.716363
 21
6.69
 31
0.0
  0
LINE
  5
3A8
330
18
100
AcDbEntity
  8
0
 62
     0
100
AcDbLine
 10
1.804625
 20
6.7
 30
0.0
 11
2.700489
 21
6.7
 31
0.0
  0
LINE
  5
3A9
330
18
100
AcDbEntity
  8
0
 62
     0
100
AcDbLine
 10
1.802067
 20
6.71
 30
0.0
 11
2.684614
 21
6.71
 31
0.0
  0
LINE
  5
3AA
330
18
100
AcDbEntity
  8
0
 62
     0
100
AcDbLine
 10
1.799323
 20
6.72
 30
0.0
 11
2.668739
 21
6.72
 31
0.0
  0
LINE
  5
3AB
330
18
100
AcDbEntity
  8
0
 62
     0
100
AcDbLine
 10
1.796389
 20
6.73
 30
0.0
 11
2.652864
 21
6.73
 31
0.0
  0
LINE
  5
3AC
330
18
100
AcDbEntity
  8
0
 62
     0
100
AcDbLine
 10
1.793262
 20
6.74
 30
0.0
 11
2.636989
 21
6.74
 31
0.0
  0
LINE
  5
3AD
330
18
100
AcDbEntity
  8
0
 62
     0
100
AcDbLine
 10
1.78994
 20
6.75
 30
0.0
 11
2.621114
 21
6.75
 31
0.0
  0
LINE
  5
3AE
330
18
100
AcDbEntity
  8
0
 62
     0
100
AcDbLine
 10
1.786419
 20
6.76
 30
0.0
 11
2.60524
 21
6.76
 31
0.0
  0
LINE
  5
3AF
330
18
100
AcDbEntity
  8
0
 62
     0
100
AcDbLine
 10
1.782695
 20
6.77
 30
0.0
 11
2.589365
 21
6.77
 31
0.0
  0
LINE
  5
3B0
330
18
100
AcDbEntity
  8
0
 62
     0
100
AcDbLine
 10
1.778764
 20
6.78
 30
0.0
 11
2.57349
 21
6.78
 31
0.0
  0
LINE
  5
3B1
330
18
100
AcDbEntity
  8
0
 62
     0
100
AcDbLine
 10
1.774621
 20
6.79
 30
0.0
 11
2.557615
 21
6.79
 31
0.0
  0
LINE
  5
3B2
330
18
100
AcDbEntity
  8
0
 62
     0
100
AcDbLine
 10
1.770262
 20
6.8
 30
0.0
 11
2.54174
 21
6.8
 31
0.0
  0
LINE
  5
3B3
330
18
100
AcDbEntity
  8
0
 62
     0
100
AcDbLine
 10
1.765682
 20
6.81
 30
0.0
 11
2.525865
 21
6.81
 31
0.0
  0
LINE
  5
3B4
330
18
100
AcDbEntity
  8
0
 62
     0
100
AcDbLine
 10
1.760874
 20
6.82
 30
0.0
 11
2.50999
 21
6.82
 31
0.0
  0
LINE
  5
3B5
330
18
100
AcDbEntity
  8
0
 62
     0
100
AcDbLine
 10
1.755832
 20
6.83
 30
0.0
 11
2.494116
 21
6.83
 31
0.0
  0
LINE
  5
3B6
330
18
100
AcDbEntity
  8
0
 62
     0
100
AcDbLine
 10
1.750551
 20
6.84
 30
0.0
 11
2.478241
 21
6.84
 31
0.0
  0
LINE
  5
3B7
330
18
100
AcDbEntity
  8
0
 62
     0
100
AcDbLine
 10
1.745021
 20
6.85
 30
0.0
 11
2.462366
 21
6.85
 31
0.0
  0
LINE
  5
3B8
330
18
100
AcDbEntity
  8
0
 62
     0
100
AcDbLine
 10
1.739236
 20
6.86
 30
0.0
 11
2.446491
 21
6.86
 31
0.0
  0
LINE
  5
3B9
330
18
100
AcDbEntity
  8
0
 62
     0
100
AcDbLine
 10
1.733186
 20
6.87
 30
0.0
 11
2.430616
 21
6.87
 31
0.0
  0
LINE
  5
3BA
330
18
100
AcDbEntity
  8
0
 62
     0
100
AcDbLine
 10
1.726862
 20
6.88
 30
0.0
 11
2.414741
 21
6.88
 31
0.0
  0
LINE
  5
3BB
330
18
100
AcDbEntity
  8
0
 62
     0
100
AcDbLine
 10
1.720253
 20
6.89
 30
0.0
 11
2.398867
 21
6.89
 31
0.0
  0
LINE
  5
3BC
330
18
100
AcDbEntity
  8
0
 62
     0
100
AcDbLine
 10
1.713347
 20
6.9
 30
0.0
 11
2.382992
 21
6.9
 31
0.0
  0
LINE
  5
3BD
330
18
100
AcDbEntity
  8
0
 62
     0
100
AcDbLine
 10
1.706133
 20
6.91
 30
0.0
 11
2.367117
 21
6.91
 31
0.0
  0
LINE
  5
3BE
330
18
100
AcDbEntity
  8
0
 62
     0
100
AcDbLine
 10
1.698594
 20
6.92
 30
0.0
 11
2.351242
 21
6.92
 31
0.0
  0
LINE
  5
3BF
330
18
100
AcDbEntity
  8
0
 62
     0
100
AcDbLine
 10
1.690717
 20
6.93
 30
0.0
 11
2.335367
 21
6.93
 31
0.0
  0
LINE
  5
3C0
330
18
100
AcDbEntity
  8
0
 62
     0
100
AcDbLine
 10
1.682482
 20
6.94
 30
0.0
 11
2.319492
 21
6.94
 31
0.0
  0
LINE
  5
3C1
330
18
100
AcDbEntity
  8
0
 62
     0
100
AcDbLine
 10
1.67387
 20
6.95
 30
0.0
 11
2.303618
 21
6.95
 31
0.0
  0
LINE
  5
3C2
330
18
100
AcDbEntity
  8
0
 62
     0
100
AcDbLine
 10
1.664859
 20
6.96
 30
0.0
 11
2.287743
 21
6.96
 31
0.0
  0
LINE
  5
3C3
330
18
100
AcDbEntity
  8
0
 62
     0
100
AcDbLine
 10
1.655424
 20
6.97
 30
0.0
 11
2.271868
 21
6.97
 31
0.0
  0
LINE
  5
3C4
330
18
100
AcDbEntity
  8
0
 62
     0
100
AcDbLine
 10
1.645535
 20
6.98
 30
0.0
 11
2.255993
 21
6.98
 31
0.0
  0
LINE
  5
3C5
330
18
100
AcDbEntity
  8
0
 62
     0
100
AcDbLine
 10
1.635159
 20
6.99
 30
0.0
 11
2.240118
 21
6.99
 31
0.0
  0
LINE
  5
3C6
330
18
100
AcDbEntity
  8
0
 62
     0
100
AcDbLine
 10
1.624259
 20
7.0
 30
0.0
 11
2.224243
 21
7.0
 31
0.0
  0
LINE
  5
3C7
330
18
100
AcDbEntity
  8
0
 62
     0
100
AcDbLine
 10
1.612789
 20
7.01
 30
0.0
 11
2.208369
 21
7.01
 31
0.0
  0
LINE
  5
3C8
330
18
100
AcDbEntity
  8
0
 62
     0
100
AcDbLine
 10
1.601033
 20
7.02
 30
0.0
 11
2.192494
 21
7.02
 31
0.0
  0
LINE
  5
3C9
330
18
100
AcDbEntity
  8
0
 62
     0
100
AcDbLine
 10
1.589276
 20
7.03
 30
0.0
 11
2.176619
 21
7.03
 31
0.0
  0
LINE
  5
3CA
330
18
100
AcDbEntity
  8
0
 62
     0
100
AcDbLine
 10
1.57752
 20
7.04
 30
0.0
 11
2.160744
 21
7.04
 31
0.0
  0
LINE
  5
3CB
330
18
100
AcDbEntity
  8
0
 62
     0
100
AcDbLine
 10
1.565764
 20
7.05
 30
0.0
 11
2.144869
 21
7.05
 31
0.0
  0
LINE
  5
3CC
330
18
100
AcDbEntity
  8
0
 62
     0
100
AcDbLine
 10
1.554007
 20
7.06
 30
0.0
 11
2.128994
 21
7.06
 31
0.0
  0
LINE
  5
3CD
330
18
100
AcDbEntity
  8
0
 62
     0
100
AcDbLine
 10
1.542251
 20
7.07
 30
0.0
 11
2.11312
 21
7.07
 31
0.0
  0
LINE
  5
3CE
330
18
100
AcDbEntity
  8
0
 62
     0
100
AcDbLine
 10
1.530495
 20
7.08
 30
0.0
 11
2.097245
 21
7.08
 31
0.0
  0
LINE
  5
3CF
330
18
100
AcDbEntity
  8
0
 62
     0
100
AcDbLine
 10
1.518738
 20
7.09
 30
0.0
 11
2.08137
 21
7.09
 31
0.0
  0
LINE
  5
3D0
330
18
100
AcDbEntity
  8
0
 62
     0
100
AcDbLine
 10
1.506982
 20
7.1
 30
0.0
 11
2.065495
 21
7.1
 31
0.0
  0
LINE
  5
3D1
330
18
100
AcDbEntity
  8
0
 62
     0
100
AcDbLine
 10
1.495226
 20
7.11
 30
0.0
 11
2.04962
 21
7.11
 31
0.0
  0
LINE
  5
3D2
330
18
100
AcDbEntity
  8
0
 62
     0
100
AcDbLine
 10
1.483469
 20
7.12
 30
0.0
 11
2.033745
 21
7.12
 31
0.0
  0
LINE
  5
3D3
330
18
100
AcDbEntity
  8
0
 62
     0
100
AcDbLine
 10
1.471713
 20
7.13
 30
0.0
 11
2.017871
 21
7.13
 31
0.0
  0
LINE
  5
3D4
330
18
100
AcDbEntity
  8
0
 62
     0
100
AcDbLine
 10
1.459957
 20
7.14
 30
0.0
 11
2.001996
 21
7.14
 31
0.0
  0
LINE
  5
3D5
330
18
100
AcDbEntity
  8
0
 62
     0
100
AcDbLine
 10
1.4482
 20
7.15
 30
0.0
 11
1.986121
 21
7.15
 31
0.0
  0
LINE
  5
3D6
330
18
100
AcDbEntity
  8
0
 62
     0
100
AcDbLine
 10
1.436444
 20
7.16
 30
0.0
 11
1.970246
 21
7.16
 31
0.0
  0
LINE
  5
3D7
330
18
100
AcDbEntity
  8
0
 62
     0
100
AcDbLine
 10
1.424688
 20
7.17
 30
0.0
 11
1.954371
 21
7.17
 31
0.0
  0
LINE
  5
3D8
330
18
100
AcDbEntity
  8
0
 62
     0
100
AcDbLine
 10
1.412931
 20
7.18
 30
0.0
 11
1.938496
 21
7.18
 31
0.0
  0
LINE
  5
3D9
330
18
100
AcDbEntity
  8
0
 62
     0
100
AcDbLine
 10
1.401175
 20
7.19
 30
0.0
 11
1.922622
 21
7.19
 31
0.0
  0
LINE
  5
3DA
330
18
100
AcDbEntity
  8
0
 62
     0
100
AcDbLine
 10
1.389419
 20
7.2
 30
0.0
 11
1.906747
 21
7.2
 31
0.0
  0
LINE
  5
3DB
330
18
100
AcDbEntity
  8
0
 62
     0
100
AcDbLine
 10
1.377662
 20
7.21
 30
0.0
 11
1.890872
 21
7.21
 31
0.0
  0
LINE
  5
3DC
330
18
100
AcDbEntity
  8
0
 62
     0
100
AcDbLine
 10
1.365906
 20
7.22
 30
0.0
 11
1.874997
 21
7.22
 31
0.0
  0
LINE
  5
3DD
330
18
100
AcDbEntity
  8
0
 62
     0
100
AcDbLine
 10
1.35415
 20
7.23
 30
0.0
 11
1.859122
 21
7.23
 31
0.0
  0
LINE
  5
3DE
330
18
100
AcDbEntity
  8
0
 62
     0
100
AcDbLine
 10
1.342393
 20
7.24
 30
0.0
 11
1.843247
 21
7.24
 31
0.0
  0
LINE
  5
3DF
330
18
100
AcDbEntity
  8
0
 62
     0
100
AcDbLine
 10
1.330637
 20
7.25
 30
0.0
 11
1.827373
 21
7.25
 31
0.0
  0
LINE
  5
3E0
330
18
100
AcDbEntity
  8
0
 62
     0
100
AcDbLine
 10
1.318881
 20
7.26
 30
0.0
 11
1.811498
 21
7.26
 31
0.0
  0
LINE
  5
3E1
330
18
100
AcDbEntity
  8
0
 62
     0
100
AcDbLine
 10
1.307124
 20
7.27
 30
0.0
 11
1.795623
 21
7.27
 31
0.0
  0
LINE
  5
3E2
330
18
100
AcDbEntity
  8
0
 62
     0
100
AcDbLine
 10
1.295368
 20
7.28
 30
0.0
 11
1.779748
 21
7.28
 31
0.0
  0
LINE
  5
3E3
330
18
100
AcDbEntity
  8
0
 62
     0
100
AcDbLine
 10
1.283612
 20
7.29
 30
0.0
 11
1.763873
 21
7.29
 31
0.0
  0
LINE
  5
3E4
330
18
100
AcDbEntity
  8
0
 62
     0
100
AcDbLine
 10
1.271855
 20
7.3
 30
0.0
 11
1.747998
 21
7.3
 31
0.0
  0
LINE
  5
3E5
330
18
100
AcDbEntity
  8
0
 62
     0
100
AcDbLine
 10
1.260099
 20
7.31
 30
0.0
 11
1.732124
 21
7.31
 31
0.0
  0
LINE
  5
3E6
330
18
100
AcDbEntity
  8
0
 62
     0
100
AcDbLine
 10
1.248343
 20
7.32
 30
0.0
 11
1.716249
 21
7.32
 31
0.0
  0
LINE
  5
3E7
330
18
100
AcDbEntity
  8
0
 62
     0
100
AcDbLine
 10
1.236586
 20
7.33
 30
0.0
 11
1.700374
 21
7.33
 31
0.0
  0
LINE
  5
3E8
330
18
100
AcDbEntity
  8
0
 62
     0
100
AcDbLine
 10
1.22483
 20
7.34
 30
0.0
 11
1.684499
 21
7.34
 31
0.0
  0
LINE
  5
3E9
330
18
100
AcDbEntity
  8
0
 62
     0
100
AcDbLine
 10
1.213074
 20
7.35
 30
0.0
 11
1.668624
 21
7.35
 31
0.0
  0
LINE
  5
3EA
330
18
100
AcDbEntity
  8
0
 62
     0
100
AcDbLine
 10
1.201317
 20
7.36
 30
0.0
 11
1.652749
 21
7.36
 31
0.0
  0
LINE
  5
3EB
330
18
100
AcDbEntity
  8
0
 62
     0
100
AcDbLine
 10
1.189561
 20
7.37
 30
0.0
 11
1.636875
 21
7.37
 31
0.0
  0
LINE
  5
3EC
330
18
100
AcDbEntity
  8
0
 62
     0
100
AcDbLine
 10
1.177805
 20
7.38
 30
0.0
 11
1.621
 21
7.38
 31
0.0
  0
LINE
  5
3ED
330
18
100
AcDbEntity
  8
0
 62
     0
100
AcDbLine
 10
1.166048
 20
7.39
 30
0.0
 11
1.605125
 21
7.39
 31
0.0
  0
LINE
  5
3EE
330
18
100
AcDbEntity
  8
0
 62
     0
100
AcDbLine
 10
1.154292
 20
7.4
 30
0.0
 11
1.58925
 21
7.4
 31
0.0
  0
LINE
  5
3EF
330
18
100
AcDbEntity
  8
0
 62
     0
100
AcDbLine
 10
1.142536
 20
7.41
 30
0.0
 11
1.573375
 21
7.41
 31
0.0
  0
LINE
  5
3F0
330
18
100
AcDbEntity
  8
0
 62
     0
100
AcDbLine
 10
1.130779
 20
7.42
 30
0.0
 11
1.5575
 21
7.42
 31
0.0
  0
LINE
  5
3F1
330
18
100
AcDbEntity
  8
0
 62
     0
100
AcDbLine
 10
1.119023
 20
7.43
 30
0.0
 11
1.541626
 21
7.43
 31
0.0
  0
LINE
  5
3F2
330
18
100
AcDbEntity
  8
0
 62
     0
100
AcDbLine
 10
1.107267
 20
7.44
 30
0.0
 11
1.525751
 21
7.44
 31
0.0
  0
LINE
  5
3F3
330
18
100
AcDbEntity
  8
0
 62
     0
100
AcDbLine
 10
1.09592
 20
7.45
 30
0.0
 11
1.509876
 21
7.45
 31
0.0
  0
LINE
  5
3F4
330
18
100
AcDbEntity
  8
0
 62
     0
100
AcDbLine
 10
1.09592
 20
7.46
 30
0.0
 11
1.494001
 21
7.46
 31
0.0
  0
LINE
  5
3F5
330
18
100
AcDbEntity
  8
0
 62
     0
100
AcDbLine
 10
1.09592
 20
7.47
 30
0.0
 11
1.478126
 21
7.47
 31
0.0
  0
LINE
  5
3F6
330
18
100
AcDbEntity
  8
0
 62
     0
100
AcDbLine
 10
1.09592
 20
7.48
 30
0.0
 11
1.462251
 21
7.48
 31
0.0
  0
LINE
  5
3F7
330
18
100
AcDbEntity
  8
0
 62
     0
100
AcDbLine
 10
1.09592
 20
7.49
 30
0.0
 11
1.446377
 21
7.49
 31
0.0
  0
LINE
  5
3F8
330
18
100
AcDbEntity
  8
0
 62
     0
100
AcDbLine
 10
1.09592
 20
7.5
 30
0.0
 11
1.430502
 21
7.5
 31
0.0
  0
LINE
  5
3F9
330
18
100
AcDbEntity
  8
0
 62
     0
100
AcDbLine
 10
1.09592
 20
7.51
 30
0.0
 11
1.414627
 21
7.51
 31
0.0
  0
LINE
  5
3FA
330
18
100
AcDbEntity
  8
0
 62
     0
100
AcDbLine
 10
1.09592
 20
7.52
 30
0.0
 11
1.398752
 21
7.52
 31
0.0
  0
LINE
  5
3FB
330
18
100
AcDbEntity
  8
0
 62
     0
100
AcDbLine
 10
1.09592
 20
7.53
 30
0.0
 11
1.382877
 21
7.53
 31
0.0
  0
LINE
  5
3FC
330
18
100
AcDbEntity
  8
0
 62
     0
100
AcDbLine
 10
1.09592
 20
7.54
 30
0.0
 11
1.367002
 21
7.54
 31
0.0
  0
LINE
  5
3FD
330
18
100
AcDbEntity
  8
0
 62
     0
100
AcDbLine
 10
1.09592
 20
7.55
 30
0.0
 11
1.351128
 21
7.55
 31
0.0
  0
LINE
  5
3FE
330
18
100
AcDbEntity
  8
0
 62
     0
100
AcDbLine
 10
1.09592
 20
7.56
 30
0.0
 11
1.335253
 21
7.56
 31
0.0
  0
LINE
  5
3FF
330
18
100
AcDbEntity
  8
0
 62
     0
100
AcDbLine
 10
1.09592
 20
7.57
 30
0.0
 11
1.319378
 21
7.57
 31
0.0
  0
LINE
  5
400
330
18
100
AcDbEntity
  8
0
 62
     0
100
AcDbLine
 10
1.09592
 20
7.58
 30
0.0
 11
1.303503
 21
7.58
 31
0.0
  0
LINE
  5
401
330
18
100
AcDbEntity
  8
0
 62
     0
100
AcDbLine
 10
1.09592
 20
7.59
 30
0.0
 11
1.287628
 21
7.59
 31
0.0
  0
LINE
  5
402
330
18
100
AcDbEntity
  8
0
 62
     0
100
AcDbLine
 10
1.09592
 20
7.6
 30
0.0
 11
1.271753
 21
7.6
 31
0.0
  0
LINE
  5
403
330
18
100
AcDbEntity
  8
0
 62
     0
100
AcDbLine
 10
1.09592
 20
7.61
 30
0.0
 11
1.255879
 21
7.61
 31
0.0
  0
LINE
  5
404
330
18
100
AcDbEntity
  8
0
 62
     0
100
AcDbLine
 10
1.09592
 20
7.62
 30
0.0
 11
1.240004
 21
7.62
 31
0.0
  0
LINE
  5
405
330
18
100
AcDbEntity
  8
0
 62
     0
100
AcDbLine
 10
1.09592
 20
7.63
 30
0.0
 11
1.224129
 21
7.63
 31
0.0
  0
LINE
  5
406
330
18
100
AcDbEntity
  8
0
 62
     0
100
AcDbLine
 10
1.09592
 20
7.64
 30
0.0
 11
1.208254
 21
7.64
 31
0.0
  0
LINE
  5
407
330
18
100
AcDbEntity
  8
0
 62
     0
100
AcDbLine
 10
1.09592
 20
7.65
 30
0.0
 11
1.192379
 21
7.65
 31
0.0
  0
LINE
  5
408
330
18
100
AcDbEntity
  8
0
 62
     0
100
AcDbLine
 10
1.09592
 20
7.66
 30
0.0
 11
1.176504
 21
7.66
 31
0.0
  0
LINE
  5
409
330
18
100
AcDbEntity
  8
0
 62
     0
100
AcDbLine
 10
1.09592
 20
7.67
 30
0.0
 11
1.16063
 21
7.67
 31
0.0
  0
LINE
  5
40A
330
18
100
AcDbEntity
  8
0
 62
     0
100
AcDbLine
 10
1.09592
 20
7.68
 30
0.0
 11
1.144755
 21
7.68
 31
0.0
  0
LINE
  5
40B
330
18
100
AcDbEntity
  8
0
 62
     0
100
AcDbLine
 10
1.09592
 20
7.69
 30
0.0
 11
1.12888
 21
7.69
 31
0.0
  0
LINE
  5
40C
330
18
100
AcDbEntity
  8
0
 62
     0
100
AcDbLine
 10
1.09592
 20
7.7
 30
0.0
 11
1.113005
 21
7.7
 31
0.0
  0
LINE
  5
40D
330
18
100
AcDbEntity
  8
0
 62
     0
100
AcDbLine
 10
1.09592
 20
7.71
 30
0.0
 11
1.09713
 21
7.71
 31
0.0
  0
LINE
  5
40E
330
18
100
AcDbEntity
  8
0
 62
     0
100
AcDbLine
 10
1.821865
 20
5.05
 30
0.0
 11
2.093001
 21
5.05
 31
0.0
  0
LINE
  5
40F
330
18
100
AcDbEntity
  8
0
 62
     0
100
AcDbLine
 10
1.821865
 20
5.04
 30
0.0
 11
2.093001
 21
5.04
 31
0.0
  0
LINE
  5
410
330
18
100
AcDbEntity
  8
0
 62
     0
100
AcDbLine
 10
1.821865
 20
5.03
 30
0.0
 11
2.093001
 21
5.03
 31
0.0
  0
LINE
  5
411
330
18
100
AcDbEntity
  8
0
 62
     0
100
AcDbLine
 10
1.821865
 20
5.02
 30
0.0
 11
2.093001
 21
5.02
 31
0.0
  0
LINE
  5
412
330
18
100
AcDbEntity
  8
0
 62
     0
100
AcDbLine
 10
1.821865
 20
5.01
 30
0.0
 11
2.093001
 21
5.01
 31
0.0
  0
LINE
  5
413
330
18
100
AcDbEntity
  8
0
 62
     0
100
AcDbLine
 10
1.821865
 20
5.0
 30
0.0
 11
2.093001
 21
5.0
 31
0.0
  0
LINE
  5
414
330
18
100
AcDbEntity
  8
0
 62
     0
100
AcDbLine
 10
1.821865
 20
4.99
 30
0.0
 11
2.093001
 21
4.99
 31
0.0
  0
LINE
  5
415
330
18
100
AcDbEntity
  8
0
 62
     0
100
AcDbLine
 10
1.821865
 20
4.98
 30
0.0
 11
2.093001
 21
4.98
 31
0.0
  0
LINE
  5
416
330
18
100
AcDbEntity
  8
0
 62
     0
100
AcDbLine
 10
1.821865
 20
4.97
 30
0.0
 11
2.093001
 21
4.97
 31
0.0
  0
LINE
  5
417
330
18
100
AcDbEntity
  8
0
 62
     0
100
AcDbLine
 10
1.821865
 20
4.96
 30
0.0
 11
2.093001
 21
4.96
 31
0.0
  0
LINE
  5
418
330
18
100
AcDbEntity
  8
0
 62
     0
100
AcDbLine
 10
1.821865
 20
4.95
 30
0.0
 11
2.093001
 21
4.95
 31
0.0
  0
LINE
  5
419
330
18
100
AcDbEntity
  8
0
 62
     0
100
AcDbLine
 10
1.821865
 20
4.94
 30
0.0
 11
2.093001
 21
4.94
 31
0.0
  0
LINE
  5
41A
330
18
100
AcDbEntity
  8
0
 62
     0
100
AcDbLine
 10
1.821865
 20
4.93
 30
0.0
 11
2.093001
 21
4.93
 31
0.0
  0
LINE
  5
41B
330
18
100
AcDbEntity
  8
0
 62
     0
100
AcDbLine
 10
1.821865
 20
4.92
 30
0.0
 11
2.093001
 21
4.92
 31
0.0
  0
LINE
  5
41C
330
18
100
AcDbEntity
  8
0
 62
     0
100
AcDbLine
 10
1.821865
 20
4.91
 30
0.0
 11
2.093001
 21
4.91
 31
0.0
  0
LINE
  5
41D
330
18
100
AcDbEntity
  8
0
 62
     0
100
AcDbLine
 10
1.821865
 20
4.9
 30
0.0
 11
2.093001
 21
4.9
 31
0.0
  0
LINE
  5
41E
330
18
100
AcDbEntity
  8
0
 62
     0
100
AcDbLine
 10
1.821865
 20
4.89
 30
0.0
 11
2.093001
 21
4.89
 31
0.0
  0
LINE
  5
41F
330
18
100
AcDbEntity
  8
0
 62
     0
100
AcDbLine
 10
1.821865
 20
4.88
 30
0.0
 11
2.093001
 21
4.88
 31
0.0
  0
LINE
  5
420
330
18
100
AcDbEntity
  8
0
 62
     0
100
AcDbLine
 10
1.821865
 20
4.87
 30
0.0
 11
2.093001
 21
4.87
 31
0.0
  0
LINE
  5
421
330
18
100
AcDbEntity
  8
0
 62
     0
100
AcDbLine
 10
1.821865
 20
4.86
 30
0.0
 11
2.093001
 21
4.86
 31
0.0
  0
LINE
  5
422
330
18
100
AcDbEntity
  8
0
 62
     0
100
AcDbLine
 10
1.821865
 20
4.85
 30
0.0
 11
2.093001
 21
4.85
 31
0.0
  0
LINE
  5
423
330
18
100
AcDbEntity
  8
0
 62
     0
100
AcDbLine
 10
1.821865
 20
4.84
 30
0.0
 11
2.093001
 21
4.84
 31
0.0
  0
LINE
  5
424
330
18
100
AcDbEntity
  8
0
 62
     0
100
AcDbLine
 10
1.821865
 20
4.83
 30
0.0
 11
2.093001
 21
4.83
 31
0.0
  0
LINE
  5
425
330
18
100
AcDbEntity
  8
0
 62
     0
100
AcDbLine
 10
1.821865
 20
4.82
 30
0.0
 11
2.093001
 21
4.82
 31
0.0
  0
LINE
  5
426
330
18
100
AcDbEntity
  8
0
 62
     0
100
AcDbLine
 10
1.821865
 20
4.81
 30
0.0
 11
2.093001
 21
4.81
 31
0.0
  0
LINE
  5
427
330
18
100
AcDbEntity
  8
0
 62
     0
100
AcDbLine
 10
1.821865
 20
4.8
 30
0.0
 11
2.093001
 21
4.8
 31
0.0
  0
LINE
  5
428
330
18
100
AcDbEntity
  8
0
 62
     0
100
AcDbLine
 10
1.821865
 20
4.79
 30
0.0
 11
2.093001
 21
4.79
 31
0.0
  0
LINE
  5
429
330
18
100
AcDbEntity
  8
0
 62
     0
100
AcDbLine
 10
1.821865
 20
4.78
 30
0.0
 11
2.093001
 21
4.78
 31
0.0
  0
LINE
  5
42A
330
18
100
AcDbEntity
  8
0
 62
     0
100
AcDbLine
 10
1.821865
 20
4.77
 30
0.0
 11
2.093001
 21
4.77
 31
0.0
  0
LINE
  5
42B
330
18
100
AcDbEntity
  8
0
 62
     0
100
AcDbLine
 10
1.821865
 20
4.76
 30
0.0
 11
2.093001
 21
4.76
 31
0.0
  0
LINE
  5
42C
330
18
100
AcDbEntity
  8
0
 62
     0
100
AcDbLine
 10
1.821865
 20
4.75
 30
0.0
 11
2.093001
 21
4.75
 31
0.0
  0
LINE
  5
42D
330
18
100
AcDbEntity
  8
0
 62
     0
100
AcDbLine
 10
1.821865
 20
4.74
 30
0.0
 11
2.093001
 21
4.74
 31
0.0
  0
LINE
  5
42E
330
18
100
AcDbEntity
  8
0
 62
     0
100
AcDbLine
 10
1.821865
 20
4.73
 30
0.0
 11
2.093001
 21
4.73
 31
0.0
  0
LINE
  5
42F
330
18
100
AcDbEntity
  8
0
 62
     0
100
AcDbLine
 10
1.821865
 20
4.72
 30
0.0
 11
2.093001
 21
4.72
 31
0.0
  0
LINE
  5
430
330
18
100
AcDbEntity
  8
0
 62
     0
100
AcDbLine
 10
1.821865
 20
4.71
 30
0.0
 11
2.093001
 21
4.71
 31
0.0
  0
LINE
  5
431
330
18
100
AcDbEntity
  8
0
 62
     0
100
AcDbLine
 10
1.821865
 20
4.7
 30
0.0
 11
2.093001
 21
4.7
 31
0.0
  0
LINE
  5
432
330
18
100
AcDbEntity
  8
0
 62
     0
100
AcDbLine
 10
1.821865
 20
4.69
 30
0.0
 11
2.093001
 21
4.69
 31
0.0
  0
LINE
  5
433
330
18
100
AcDbEntity
  8
0
 62
     0
100
AcDbLine
 10
1.821865
 20
4.68
 30
0.0
 11
2.093001
 21
4.68
 31
0.0
  0
LINE
  5
434
330
18
100
AcDbEntity
  8
0
 62
     0
100
AcDbLine
 10
1.821865
 20
4.67
 30
0.0
 11
2.093001
 21
4.67
 31
0.0
  0
LINE
  5
435
330
18
100
AcDbEntity
  8
0
 62
     0
100
AcDbLine
 10
1.821865
 20
4.66
 30
0.0
 11
2.093001
 21
4.66
 31
0.0
  0
LINE
  5
436
330
18
100
AcDbEntity
  8
0
 62
     0
100
AcDbLine
 10
1.821865
 20
4.65
 30
0.0
 11
2.093001
 21
4.65
 31
0.0
  0
LINE
  5
437
330
18
100
AcDbEntity
  8
0
 62
     0
100
AcDbLine
 10
1.821865
 20
4.64
 30
0.0
 11
2.093001
 21
4.64
 31
0.0
  0
LINE
  5
438
330
18
100
AcDbEntity
  8
0
 62
     0
100
AcDbLine
 10
1.821865
 20
4.63
 30
0.0
 11
2.093001
 21
4.63
 31
0.0
  0
LINE
  5
439
330
18
100
AcDbEntity
  8
0
 62
     0
100
AcDbLine
 10
1.821865
 20
4.62
 30
0.0
 11
2.093001
 21
4.62
 31
0.0
  0
LINE
  5
43A
330
18
100
AcDbEntity
  8
0
 62
     0
100
AcDbLine
 10
1.821865
 20
4.61
 30
0.0
 11
2.093001
 21
4.61
 31
0.0
  0
LINE
  5
43B
330
18
100
AcDbEntity
  8
0
 62
     0
100
AcDbLine
 10
1.821865
 20
4.6
 30
0.0
 11
2.093001
 21
4.6
 31
0.0
  0
LINE
  5
43C
330
18
100
AcDbEntity
  8
0
 62
     0
100
AcDbLine
 10
1.821865
 20
4.59
 30
0.0
 11
2.093001
 21
4.59
 31
0.0
  0
LINE
  5
43D
330
18
100
AcDbEntity
  8
0
 62
     0
100
AcDbLine
 10
1.821865
 20
4.58
 30
0.0
 11
2.093001
 21
4.58
 31
0.0
  0
LINE
  5
43E
330
18
100
AcDbEntity
  8
0
 62
     0
100
AcDbLine
 10
1.821865
 20
4.57
 30
0.0
 11
2.093001
 21
4.57
 31
0.0
  0
LINE
  5
43F
330
18
100
AcDbEntity
  8
0
 62
     0
100
AcDbLine
 10
1.821865
 20
4.56
 30
0.0
 11
2.093001
 21
4.56
 31
0.0
  0
LINE
  5
440
330
18
100
AcDbEntity
  8
0
 62
     0
100
AcDbLine
 10
1.821865
 20
4.55
 30
0.0
 11
2.093001
 21
4.55
 31
0.0
  0
LINE
  5
441
330
18
100
AcDbEntity
  8
0
 62
     0
100
AcDbLine
 10
1.821865
 20
4.54
 30
0.0
 11
2.093001
 21
4.54
 31
0.0
  0
LINE
  5
442
330
18
100
AcDbEntity
  8
0
 62
     0
100
AcDbLine
 10
1.821865
 20
4.53
 30
0.0
 11
2.093001
 21
4.53
 31
0.0
  0
LINE
  5
443
330
18
100
AcDbEntity
  8
0
 62
     0
100
AcDbLine
 10
1.821865
 20
4.52
 30
0.0
 11
2.093001
 21
4.52
 31
0.0
  0
LINE
  5
444
330
18
100
AcDbEntity
  8
0
 62
     0
100
AcDbLine
 10
1.821865
 20
4.51
 30
0.0
 11
2.093001
 21
4.51
 31
0.0
  0
LINE
  5
445
330
18
100
AcDbEntity
  8
0
 62
     0
100
AcDbLine
 10
1.821865
 20
4.5
 30
0.0
 11
2.093001
 21
4.5
 31
0.0
  0
LINE
  5
446
330
18
100
AcDbEntity
  8
0
 62
     0
100
AcDbLine
 10
1.821865
 20
4.49
 30
0.0
 11
2.093001
 21
4.49
 31
0.0
  0
LINE
  5
447
330
18
100
AcDbEntity
  8
0
 62
     0
100
AcDbLine
 10
1.821865
 20
4.48
 30
0.0
 11
2.093001
 21
4.48
 31
0.0
  0
LINE
  5
448
330
18
100
AcDbEntity
  8
0
 62
     0
100
AcDbLine
 10
1.821865
 20
4.47
 30
0.0
 11
2.093001
 21
4.47
 31
0.0
  0
LINE
  5
449
330
18
100
AcDbEntity
  8
0
 62
     0
100
AcDbLine
 10
1.821865
 20
4.46
 30
0.0
 11
2.093001
 21
4.46
 31
0.0
  0
LINE
  5
44A
330
18
100
AcDbEntity
  8
0
 62
     0
100
AcDbLine
 10
1.821865
 20
4.45
 30
0.0
 11
2.093001
 21
4.45
 31
0.0
  0
LINE
  5
44B
330
18
100
AcDbEntity
  8
0
 62
     0
100
AcDbLine
 10
1.821865
 20
4.44
 30
0.0
 11
2.093001
 21
4.44
 31
0.0
  0
LINE
  5
44C
330
18
100
AcDbEntity
  8
0
 62
     0
100
AcDbLine
 10
1.821865
 20
4.43
 30
0.0
 11
2.093001
 21
4.43
 31
0.0
  0
LINE
  5
44D
330
18
100
AcDbEntity
  8
0
 62
     0
100
AcDbLine
 10
1.821865
 20
4.42
 30
0.0
 11
2.093001
 21
4.42
 31
0.0
  0
LINE
  5
44E
330
18
100
AcDbEntity
  8
0
 62
     0
100
AcDbLine
 10
1.821865
 20
4.41
 30
0.0
 11
2.093001
 21
4.41
 31
0.0
  0
LINE
  5
44F
330
18
100
AcDbEntity
  8
0
 62
     0
100
AcDbLine
 10
1.821865
 20
4.4
 30
0.0
 11
2.093001
 21
4.4
 31
0.0
  0
LINE
  5
450
330
18
100
AcDbEntity
  8
0
 62
     0
100
AcDbLine
 10
1.821865
 20
4.39
 30
0.0
 11
2.093001
 21
4.39
 31
0.0
  0
LINE
  5
451
330
18
100
AcDbEntity
  8
0
 62
     0
100
AcDbLine
 10
1.821865
 20
4.38
 30
0.0
 11
2.093001
 21
4.38
 31
0.0
  0
LINE
  5
452
330
18
100
AcDbEntity
  8
0
 62
     0
100
AcDbLine
 10
1.821865
 20
4.37
 30
0.0
 11
2.093001
 21
4.37
 31
0.0
  0
LINE
  5
453
330
18
100
AcDbEntity
  8
0
 62
     0
100
AcDbLine
 10
1.821865
 20
4.36
 30
0.0
 11
2.093001
 21
4.36
 31
0.0
  0
LINE
  5
454
330
18
100
AcDbEntity
  8
0
 62
     0
100
AcDbLine
 10
1.156833
 20
4.35
 30
0.0
 11
1.166252
 21
4.35
 31
0.0
  0
LINE
  5
455
330
18
100
AcDbEntity
  8
0
 62
     0
100
AcDbLine
 10
1.821865
 20
4.35
 30
0.0
 11
2.093001
 21
4.35
 31
0.0
  0
LINE
  5
456
330
18
100
AcDbEntity
  8
0
 62
     0
100
AcDbLine
 10
1.156833
 20
4.34
 30
0.0
 11
1.179807
 21
4.34
 31
0.0
  0
LINE
  5
457
330
18
100
AcDbEntity
  8
0
 62
     0
100
AcDbLine
 10
1.821865
 20
4.34
 30
0.0
 11
2.093001
 21
4.34
 31
0.0
  0
LINE
  5
458
330
18
100
AcDbEntity
  8
0
 62
     0
100
AcDbLine
 10
1.156833
 20
4.33
 30
0.0
 11
1.193363
 21
4.33
 31
0.0
  0
LINE
  5
459
330
18
100
AcDbEntity
  8
0
 62
     0
100
AcDbLine
 10
1.821865
 20
4.33
 30
0.0
 11
2.093001
 21
4.33
 31
0.0
  0
LINE
  5
45A
330
18
100
AcDbEntity
  8
0
 62
     0
100
AcDbLine
 10
1.156833
 20
4.32
 30
0.0
 11
1.206918
 21
4.32
 31
0.0
  0
LINE
  5
45B
330
18
100
AcDbEntity
  8
0
 62
     0
100
AcDbLine
 10
1.821865
 20
4.32
 30
0.0
 11
2.093001
 21
4.32
 31
0.0
  0
LINE
  5
45C
330
18
100
AcDbEntity
  8
0
 62
     0
100
AcDbLine
 10
1.156833
 20
4.31
 30
0.0
 11
1.220473
 21
4.31
 31
0.0
  0
LINE
  5
45D
330
18
100
AcDbEntity
  8
0
 62
     0
100
AcDbLine
 10
1.821865
 20
4.31
 30
0.0
 11
2.093001
 21
4.31
 31
0.0
  0
LINE
  5
45E
330
18
100
AcDbEntity
  8
0
 62
     0
100
AcDbLine
 10
1.156833
 20
4.3
 30
0.0
 11
1.234029
 21
4.3
 31
0.0
  0
LINE
  5
45F
330
18
100
AcDbEntity
  8
0
 62
     0
100
AcDbLine
 10
1.821865
 20
4.3
 30
0.0
 11
2.093001
 21
4.3
 31
0.0
  0
LINE
  5
460
330
18
100
AcDbEntity
  8
0
 62
     0
100
AcDbLine
 10
1.156833
 20
4.29
 30
0.0
 11
1.247584
 21
4.29
 31
0.0
  0
LINE
  5
461
330
18
100
AcDbEntity
  8
0
 62
     0
100
AcDbLine
 10
1.821865
 20
4.29
 30
0.0
 11
2.093001
 21
4.29
 31
0.0
  0
LINE
  5
462
330
18
100
AcDbEntity
  8
0
 62
     0
100
AcDbLine
 10
1.156833
 20
4.28
 30
0.0
 11
1.261139
 21
4.28
 31
0.0
  0
LINE
  5
463
330
18
100
AcDbEntity
  8
0
 62
     0
100
AcDbLine
 10
1.821865
 20
4.28
 30
0.0
 11
2.093001
 21
4.28
 31
0.0
  0
LINE
  5
464
330
18
100
AcDbEntity
  8
0
 62
     0
100
AcDbLine
 10
1.156833
 20
4.27
 30
0.0
 11
1.274694
 21
4.27
 31
0.0
  0
LINE
  5
465
330
18
100
AcDbEntity
  8
0
 62
     0
100
AcDbLine
 10
1.821865
 20
4.27
 30
0.0
 11
2.093001
 21
4.27
 31
0.0
  0
LINE
  5
466
330
18
100
AcDbEntity
  8
0
 62
     0
100
AcDbLine
 10
1.156833
 20
4.26
 30
0.0
 11
1.28825
 21
4.26
 31
0.0
  0
LINE
  5
467
330
18
100
AcDbEntity
  8
0
 62
     0
100
AcDbLine
 10
1.821865
 20
4.26
 30
0.0
 11
2.093001
 21
4.26
 31
0.0
  0
LINE
  5
468
330
18
100
AcDbEntity
  8
0
 62
     0
100
AcDbLine
 10
1.156833
 20
4.25
 30
0.0
 11
1.301805
 21
4.25
 31
0.0
  0
LINE
  5
469
330
18
100
AcDbEntity
  8
0
 62
     0
100
AcDbLine
 10
1.821865
 20
4.25
 30
0.0
 11
2.093001
 21
4.25
 31
0.0
  0
LINE
  5
46A
330
18
100
AcDbEntity
  8
0
 62
     0
100
AcDbLine
 10
1.156833
 20
4.24
 30
0.0
 11
1.31536
 21
4.24
 31
0.0
  0
LINE
  5
46B
330
18
100
AcDbEntity
  8
0
 62
     0
100
AcDbLine
 10
1.821865
 20
4.24
 30
0.0
 11
2.093001
 21
4.24
 31
0.0
  0
LINE
  5
46C
330
18
100
AcDbEntity
  8
0
 62
     0
100
AcDbLine
 10
1.156833
 20
4.23
 30
0.0
 11
1.328915
 21
4.23
 31
0.0
  0
LINE
  5
46D
330
18
100
AcDbEntity
  8
0
 62
     0
100
AcDbLine
 10
1.821865
 20
4.23
 30
0.0
 11
2.093001
 21
4.23
 31
0.0
  0
LINE
  5
46E
330
18
100
AcDbEntity
  8
0
 62
     0
100
AcDbLine
 10
1.156833
 20
4.22
 30
0.0
 11
1.342471
 21
4.22
 31
0.0
  0
LINE
  5
46F
330
18
100
AcDbEntity
  8
0
 62
     0
100
AcDbLine
 10
1.821865
 20
4.22
 30
0.0
 11
2.093001
 21
4.22
 31
0.0
  0
LINE
  5
470
330
18
100
AcDbEntity
  8
0
 62
     0
100
AcDbLine
 10
1.156833
 20
4.21
 30
0.0
 11
1.356026
 21
4.21
 31
0.0
  0
LINE
  5
471
330
18
100
AcDbEntity
  8
0
 62
     0
100
AcDbLine
 10
1.821865
 20
4.21
 30
0.0
 11
2.093001
 21
4.21
 31
0.0
  0
LINE
  5
472
330
18
100
AcDbEntity
  8
0
 62
     0
100
AcDbLine
 10
1.156833
 20
4.2
 30
0.0
 11
1.369581
 21
4.2
 31
0.0
  0
LINE
  5
473
330
18
100
AcDbEntity
  8
0
 62
     0
100
AcDbLine
 10
1.821865
 20
4.2
 30
0.0
 11
2.093001
 21
4.2
 31
0.0
  0
LINE
  5
474
330
18
100
AcDbEntity
  8
0
 62
     0
100
AcDbLine
 10
1.156833
 20
4.19
 30
0.0
 11
1.383137
 21
4.19
 31
0.0
  0
LINE
  5
475
330
18
100
AcDbEntity
  8
0
 62
     0
100
AcDbLine
 10
1.821865
 20
4.19
 30
0.0
 11
2.093001
 21
4.19
 31
0.0
  0
LINE
  5
476
330
18
100
AcDbEntity
  8
0
 62
     0
100
AcDbLine
 10
1.156833
 20
4.18
 30
0.0
 11
1.396692
 21
4.18
 31
0.0
  0
LINE
  5
477
330
18
100
AcDbEntity
  8
0
 62
     0
100
AcDbLine
 10
1.821865
 20
4.18
 30
0.0
 11
2.093001
 21
4.18
 31
0.0
  0
LINE
  5
478
330
18
100
AcDbEntity
  8
0
 62
     0
100
AcDbLine
 10
1.156833
 20
4.17
 30
0.0
 11
1.410247
 21
4.17
 31
0.0
  0
LINE
  5
479
330
18
100
AcDbEntity
  8
0
 62
     0
100
AcDbLine
 10
1.821865
 20
4.17
 30
0.0
 11
2.093001
 21
4.17
 31
0.0
  0
LINE
  5
47A
330
18
100
AcDbEntity
  8
0
 62
     0
100
AcDbLine
 10
1.156833
 20
4.16
 30
0.0
 11
1.423802
 21
4.16
 31
0.0
  0
LINE
  5
47B
330
18
100
AcDbEntity
  8
0
 62
     0
100
AcDbLine
 10
1.821865
 20
4.16
 30
0.0
 11
2.093001
 21
4.16
 31
0.0
  0
LINE
  5
47C
330
18
100
AcDbEntity
  8
0
 62
     0
100
AcDbLine
 10
1.156833
 20
4.15
 30
0.0
 11
1.437358
 21
4.15
 31
0.0
  0
LINE
  5
47D
330
18
100
AcDbEntity
  8
0
 62
     0
100
AcDbLine
 10
1.821865
 20
4.15
 30
0.0
 11
2.093001
 21
4.15
 31
0.0
  0
LINE
  5
47E
330
18
100
AcDbEntity
  8
0
 62
     0
100
AcDbLine
 10
1.156833
 20
4.14
 30
0.0
 11
1.450913
 21
4.14
 31
0.0
  0
LINE
  5
47F
330
18
100
AcDbEntity
  8
0
 62
     0
100
AcDbLine
 10
1.821865
 20
4.14
 30
0.0
 11
2.093001
 21
4.14
 31
0.0
  0
LINE
  5
480
330
18
100
AcDbEntity
  8
0
 62
     0
100
AcDbLine
 10
1.156833
 20
4.13
 30
0.0
 11
1.464468
 21
4.13
 31
0.0
  0
LINE
  5
481
330
18
100
AcDbEntity
  8
0
 62
     0
100
AcDbLine
 10
1.821865
 20
4.13
 30
0.0
 11
2.093001
 21
4.13
 31
0.0
  0
LINE
  5
482
330
18
100
AcDbEntity
  8
0
 62
     0
100
AcDbLine
 10
1.156833
 20
4.12
 30
0.0
 11
1.478024
 21
4.12
 31
0.0
  0
LINE
  5
483
330
18
100
AcDbEntity
  8
0
 62
     0
100
AcDbLine
 10
1.821865
 20
4.12
 30
0.0
 11
2.093001
 21
4.12
 31
0.0
  0
LINE
  5
484
330
18
100
AcDbEntity
  8
0
 62
     0
100
AcDbLine
 10
1.156833
 20
4.11
 30
0.0
 11
1.491579
 21
4.11
 31
0.0
  0
LINE
  5
485
330
18
100
AcDbEntity
  8
0
 62
     0
100
AcDbLine
 10
1.821865
 20
4.11
 30
0.0
 11
2.093001
 21
4.11
 31
0.0
  0
LINE
  5
486
330
18
100
AcDbEntity
  8
0
 62
     0
100
AcDbLine
 10
1.156833
 20
4.1
 30
0.0
 11
1.505134
 21
4.1
 31
0.0
  0
LINE
  5
487
330
18
100
AcDbEntity
  8
0
 62
     0
100
AcDbLine
 10
1.821865
 20
4.1
 30
0.0
 11
2.093001
 21
4.1
 31
0.0
  0
LINE
  5
488
330
18
100
AcDbEntity
  8
0
 62
     0
100
AcDbLine
 10
1.156833
 20
4.09
 30
0.0
 11
1.518689
 21
4.09
 31
0.0
  0
LINE
  5
489
330
18
100
AcDbEntity
  8
0
 62
     0
100
AcDbLine
 10
1.821865
 20
4.09
 30
0.0
 11
2.093001
 21
4.09
 31
0.0
  0
LINE
  5
48A
330
18
100
AcDbEntity
  8
0
 62
     0
100
AcDbLine
 10
1.156833
 20
4.08
 30
0.0
 11
1.532245
 21
4.08
 31
0.0
  0
LINE
  5
48B
330
18
100
AcDbEntity
  8
0
 62
     0
100
AcDbLine
 10
1.821865
 20
4.08
 30
0.0
 11
2.093001
 21
4.08
 31
0.0
  0
LINE
  5
48C
330
18
100
AcDbEntity
  8
0
 62
     0
100
AcDbLine
 10
1.156833
 20
4.07
 30
0.0
 11
1.5458
 21
4.07
 31
0.0
  0
LINE
  5
48D
330
18
100
AcDbEntity
  8
0
 62
     0
100
AcDbLine
 10
1.821865
 20
4.07
 30
0.0
 11
2.093001
 21
4.07
 31
0.0
  0
LINE
  5
48E
330
18
100
AcDbEntity
  8
0
 62
     0
100
AcDbLine
 10
1.156833
 20
4.06
 30
0.0
 11
1.559355
 21
4.06
 31
0.0
  0
LINE
  5
48F
330
18
100
AcDbEntity
  8
0
 62
     0
100
AcDbLine
 10
1.821865
 20
4.06
 30
0.0
 11
2.093001
 21
4.06
 31
0.0
  0
LINE
  5
490
330
18
100
AcDbEntity
  8
0
 62
     0
100
AcDbLine
 10
1.165653
 20
4.05
 30
0.0
 11
1.57291
 21
4.05
 31
0.0
  0
LINE
  5
491
330
18
100
AcDbEntity
  8
0
 62
     0
100
AcDbLine
 10
1.821865
 20
4.05
 30
0.0
 11
2.093001
 21
4.05
 31
0.0
  0
LINE
  5
492
330
18
100
AcDbEntity
  8
0
 62
     0
100
AcDbLine
 10
1.17628
 20
4.04
 30
0.0
 11
1.586466
 21
4.04
 31
0.0
  0
LINE
  5
493
330
18
100
AcDbEntity
  8
0
 62
     0
100
AcDbLine
 10
1.821865
 20
4.04
 30
0.0
 11
2.093001
 21
4.04
 31
0.0
  0
LINE
  5
494
330
18
100
AcDbEntity
  8
0
 62
     0
100
AcDbLine
 10
1.186906
 20
4.03
 30
0.0
 11
1.600021
 21
4.03
 31
0.0
  0
LINE
  5
495
330
18
100
AcDbEntity
  8
0
 62
     0
100
AcDbLine
 10
1.821865
 20
4.03
 30
0.0
 11
2.093001
 21
4.03
 31
0.0
  0
LINE
  5
496
330
18
100
AcDbEntity
  8
0
 62
     0
100
AcDbLine
 10
1.197532
 20
4.02
 30
0.0
 11
1.613576
 21
4.02
 31
0.0
  0
LINE
  5
497
330
18
100
AcDbEntity
  8
0
 62
     0
100
AcDbLine
 10
1.821865
 20
4.02
 30
0.0
 11
2.093001
 21
4.02
 31
0.0
  0
LINE
  5
498
330
18
100
AcDbEntity
  8
0
 62
     0
100
AcDbLine
 10
1.208158
 20
4.01
 30
0.0
 11
1.627132
 21
4.01
 31
0.0
  0
LINE
  5
499
330
18
100
AcDbEntity
  8
0
 62
     0
100
AcDbLine
 10
1.821798
 20
4.01
 30
0.0
 11
2.093001
 21
4.01
 31
0.0
  0
LINE
  5
49A
330
18
100
AcDbEntity
  8
0
 62
     0
100
AcDbLine
 10
1.218784
 20
4.0
 30
0.0
 11
1.640687
 21
4.0
 31
0.0
  0
LINE
  5
49B
330
18
100
AcDbEntity
  8
0
 62
     0
100
AcDbLine
 10
1.820691
 20
4.0
 30
0.0
 11
2.093001
 21
4.0
 31
0.0
  0
LINE
  5
49C
330
18
100
AcDbEntity
  8
0
 62
     0
100
AcDbLine
 10
1.229411
 20
3.99
 30
0.0
 11
1.654242
 21
3.99
 31
0.0
  0
LINE
  5
49D
330
18
100
AcDbEntity
  8
0
 62
     0
100
AcDbLine
 10
1.81816
 20
3.99
 30
0.0
 11
2.093001
 21
3.99
 31
0.0
  0
LINE
  5
49E
330
18
100
AcDbEntity
  8
0
 62
     0
100
AcDbLine
 10
1.240037
 20
3.98
 30
0.0
 11
1.667797
 21
3.98
 31
0.0
  0
LINE
  5
49F
330
18
100
AcDbEntity
  8
0
 62
     0
100
AcDbLine
 10
1.814044
 20
3.98
 30
0.0
 11
2.093001
 21
3.98
 31
0.0
  0
LINE
  5
4A0
330
18
100
AcDbEntity
  8
0
 62
     0
100
AcDbLine
 10
1.250663
 20
3.97
 30
0.0
 11
1.681353
 21
3.97
 31
0.0
  0
LINE
  5
4A1
330
18
100
AcDbEntity
  8
0
 62
     0
100
AcDbLine
 10
1.808017
 20
3.97
 30
0.0
 11
2.093001
 21
3.97
 31
0.0
  0
LINE
  5
4A2
330
18
100
AcDbEntity
  8
0
 62
     0
100
AcDbLine
 10
1.261289
 20
3.96
 30
0.0
 11
1.694908
 21
3.96
 31
0.0
  0
LINE
  5
4A3
330
18
100
AcDbEntity
  8
0
 62
     0
100
AcDbLine
 10
1.799418
 20
3.96
 30
0.0
 11
2.093001
 21
3.96
 31
0.0
  0
LINE
  5
4A4
330
18
100
AcDbEntity
  8
0
 62
     0
100
AcDbLine
 10
1.271916
 20
3.95
 30
0.0
 11
1.708906
 21
3.95
 31
0.0
  0
LINE
  5
4A5
330
18
100
AcDbEntity
  8
0
 62
     0
100
AcDbLine
 10
1.78657
 20
3.95
 30
0.0
 11
2.093001
 21
3.95
 31
0.0
  0
LINE
  5
4A6
330
18
100
AcDbEntity
  8
0
 62
     0
100
AcDbLine
 10
1.282542
 20
3.94
 30
0.0
 11
1.735692
 21
3.94
 31
0.0
  0
LINE
  5
4A7
330
18
100
AcDbEntity
  8
0
 62
     0
100
AcDbLine
 10
1.759784
 20
3.94
 30
0.0
 11
2.093001
 21
3.94
 31
0.0
  0
LINE
  5
4A8
330
18
100
AcDbEntity
  8
0
 62
     0
100
AcDbLine
 10
1.293168
 20
3.93
 30
0.0
 11
2.093001
 21
3.93
 31
0.0
  0
LINE
  5
4A9
330
18
100
AcDbEntity
  8
0
 62
     0
100
AcDbLine
 10
1.303794
 20
3.92
 30
0.0
 11
2.093001
 21
3.92
 31
0.0
  0
LINE
  5
4AA
330
18
100
AcDbEntity
  8
0
 62
     0
100
AcDbLine
 10
1.31442
 20
3.91
 30
0.0
 11
2.093001
 21
3.91
 31
0.0
  0
LINE
  5
4AB
330
18
100
AcDbEntity
  8
0
 62
     0
100
AcDbLine
 10
1.325047
 20
3.9
 30
0.0
 11
2.093001
 21
3.9
 31
0.0
  0
LINE
  5
4AC
330
18
100
AcDbEntity
  8
0
 62
     0
100
AcDbLine
 10
1.335673
 20
3.89
 30
0.0
 11
2.093001
 21
3.89
 31
0.0
  0
LINE
  5
4AD
330
18
100
AcDbEntity
  8
0
 62
     0
100
AcDbLine
 10
1.346299
 20
3.88
 30
0.0
 11
2.093001
 21
3.88
 31
0.0
  0
LINE
  5
4AE
330
18
100
AcDbEntity
  8
0
 62
     0
100
AcDbLine
 10
1.356925
 20
3.87
 30
0.0
 11
2.093016
 21
3.87
 31
0.0
  0
LINE
  5
4AF
330
18
100
AcDbEntity
  8
0
 62
     0
100
AcDbLine
 10
1.367552
 20
3.86
 30
0.0
 11
2.093172
 21
3.86
 31
0.0
  0
LINE
  5
4B0
330
18
100
AcDbEntity
  8
0
 62
     0
100
AcDbLine
 10
1.378178
 20
3.85
 30
0.0
 11
2.093496
 21
3.85
 31
0.0
  0
LINE
  5
4B1
330
18
100
AcDbEntity
  8
0
 62
     0
100
AcDbLine
 10
1.388804
 20
3.84
 30
0.0
 11
2.093989
 21
3.84
 31
0.0
  0
LINE
  5
4B2
330
18
100
AcDbEntity
  8
0
 62
     0
100
AcDbLine
 10
1.39943
 20
3.83
 30
0.0
 11
2.094652
 21
3.83
 31
0.0
  0
LINE
  5
4B3
330
18
100
AcDbEntity
  8
0
 62
     0
100
AcDbLine
 10
1.410056
 20
3.82
 30
0.0
 11
2.095484
 21
3.82
 31
0.0
  0
LINE
  5
4B4
330
18
100
AcDbEntity
  8
0
 62
     0
100
AcDbLine
 10
1.420683
 20
3.81
 30
0.0
 11
2.096488
 21
3.81
 31
0.0
  0
LINE
  5
4B5
330
18
100
AcDbEntity
  8
0
 62
     0
100
AcDbLine
 10
1.431309
 20
3.8
 30
0.0
 11
2.097663
 21
3.8
 31
0.0
  0
LINE
  5
4B6
330
18
100
AcDbEntity
  8
0
 62
     0
100
AcDbLine
 10
1.441935
 20
3.79
 30
0.0
 11
2.099011
 21
3.79
 31
0.0
  0
LINE
  5
4B7
330
18
100
AcDbEntity
  8
0
 62
     0
100
AcDbLine
 10
1.452561
 20
3.78
 30
0.0
 11
2.100532
 21
3.78
 31
0.0
  0
LINE
  5
4B8
330
18
100
AcDbEntity
  8
0
 62
     0
100
AcDbLine
 10
1.463187
 20
3.77
 30
0.0
 11
2.102229
 21
3.77
 31
0.0
  0
LINE
  5
4B9
330
18
100
AcDbEntity
  8
0
 62
     0
100
AcDbLine
 10
1.473814
 20
3.76
 30
0.0
 11
2.104103
 21
3.76
 31
0.0
  0
LINE
  5
4BA
330
18
100
AcDbEntity
  8
0
 62
     0
100
AcDbLine
 10
1.48444
 20
3.75
 30
0.0
 11
2.106155
 21
3.75
 31
0.0
  0
LINE
  5
4BB
330
18
100
AcDbEntity
  8
0
 62
     0
100
AcDbLine
 10
1.495066
 20
3.74
 30
0.0
 11
2.108388
 21
3.74
 31
0.0
  0
LINE
  5
4BC
330
18
100
AcDbEntity
  8
0
 62
     0
100
AcDbLine
 10
1.505692
 20
3.73
 30
0.0
 11
2.110803
 21
3.73
 31
0.0
  0
LINE
  5
4BD
330
18
100
AcDbEntity
  8
0
 62
     0
100
AcDbLine
 10
1.516319
 20
3.72
 30
0.0
 11
2.113403
 21
3.72
 31
0.0
  0
LINE
  5
4BE
330
18
100
AcDbEntity
  8
0
 62
     0
100
AcDbLine
 10
1.526945
 20
3.71
 30
0.0
 11
2.11619
 21
3.71
 31
0.0
  0
LINE
  5
4BF
330
18
100
AcDbEntity
  8
0
 62
     0
100
AcDbLine
 10
1.537571
 20
3.7
 30
0.0
 11
2.119167
 21
3.7
 31
0.0
  0
LINE
  5
4C0
330
18
100
AcDbEntity
  8
0
 62
     0
100
AcDbLine
 10
1.548197
 20
3.69
 30
0.0
 11
2.122337
 21
3.69
 31
0.0
  0
LINE
  5
4C1
330
18
100
AcDbEntity
  8
0
 62
     0
100
AcDbLine
 10
1.558823
 20
3.68
 30
0.0
 11
2.125704
 21
3.68
 31
0.0
  0
LINE
  5
4C2
330
18
100
AcDbEntity
  8
0
 62
     0
100
AcDbLine
 10
1.56945
 20
3.67
 30
0.0
 11
2.129271
 21
3.67
 31
0.0
  0
LINE
  5
4C3
330
18
100
AcDbEntity
  8
0
 62
     0
100
AcDbLine
 10
1.580076
 20
3.66
 30
0.0
 11
2.133041
 21
3.66
 31
0.0
  0
LINE
  5
4C4
330
18
100
AcDbEntity
  8
0
 62
     0
100
AcDbLine
 10
1.590702
 20
3.65
 30
0.0
 11
2.13702
 21
3.65
 31
0.0
  0
LINE
  5
4C5
330
18
100
AcDbEntity
  8
0
 62
     0
100
AcDbLine
 10
1.601328
 20
3.64
 30
0.0
 11
2.141211
 21
3.64
 31
0.0
  0
LINE
  5
4C6
330
18
100
AcDbEntity
  8
0
 62
     0
100
AcDbLine
 10
1.611955
 20
3.63
 30
0.0
 11
2.145619
 21
3.63
 31
0.0
  0
LINE
  5
4C7
330
18
100
AcDbEntity
  8
0
 62
     0
100
AcDbLine
 10
1.622581
 20
3.62
 30
0.0
 11
2.150251
 21
3.62
 31
0.0
  0
LINE
  5
4C8
330
18
100
AcDbEntity
  8
0
 62
     0
100
AcDbLine
 10
1.633207
 20
3.61
 30
0.0
 11
2.155111
 21
3.61
 31
0.0
  0
LINE
  5
4C9
330
18
100
AcDbEntity
  8
0
 62
     0
100
AcDbLine
 10
1.643833
 20
3.6
 30
0.0
 11
2.160206
 21
3.6
 31
0.0
  0
LINE
  5
4CA
330
18
100
AcDbEntity
  8
0
 62
     0
100
AcDbLine
 10
1.654459
 20
3.59
 30
0.0
 11
2.165543
 21
3.59
 31
0.0
  0
LINE
  5
4CB
330
18
100
AcDbEntity
  8
0
 62
     0
100
AcDbLine
 10
1.665086
 20
3.58
 30
0.0
 11
2.17113
 21
3.58
 31
0.0
  0
LINE
  5
4CC
330
18
100
AcDbEntity
  8
0
 62
     0
100
AcDbLine
 10
1.675712
 20
3.57
 30
0.0
 11
2.176974
 21
3.57
 31
0.0
  0
LINE
  5
4CD
330
18
100
AcDbEntity
  8
0
 62
     0
100
AcDbLine
 10
1.686338
 20
3.56
 30
0.0
 11
2.183085
 21
3.56
 31
0.0
  0
LINE
  5
4CE
330
18
100
AcDbEntity
  8
0
 62
     0
100
AcDbLine
 10
1.696964
 20
3.55
 30
0.0
 11
2.189472
 21
3.55
 31
0.0
  0
LINE
  5
4CF
330
18
100
AcDbEntity
  8
0
 62
     0
100
AcDbLine
 10
1.70759
 20
3.54
 30
0.0
 11
2.196147
 21
3.54
 31
0.0
  0
LINE
  5
4D0
330
18
100
AcDbEntity
  8
0
 62
     0
100
AcDbLine
 10
1.718217
 20
3.53
 30
0.0
 11
2.203121
 21
3.53
 31
0.0
  0
LINE
  5
4D1
330
18
100
AcDbEntity
  8
0
 62
     0
100
AcDbLine
 10
1.728843
 20
3.52
 30
0.0
 11
2.210408
 21
3.52
 31
0.0
  0
LINE
  5
4D2
330
18
100
AcDbEntity
  8
0
 62
     0
100
AcDbLine
 10
1.739469
 20
3.51
 30
0.0
 11
2.218021
 21
3.51
 31
0.0
  0
LINE
  5
4D3
330
18
100
AcDbEntity
  8
0
 62
     0
100
AcDbLine
 10
1.750095
 20
3.5
 30
0.0
 11
2.225978
 21
3.5
 31
0.0
  0
LINE
  5
4D4
330
18
100
AcDbEntity
  8
0
 62
     0
100
AcDbLine
 10
1.760722
 20
3.49
 30
0.0
 11
2.234296
 21
3.49
 31
0.0
  0
LINE
  5
4D5
330
18
100
AcDbEntity
  8
0
 62
     0
100
AcDbLine
 10
1.771348
 20
3.48
 30
0.0
 11
2.242996
 21
3.48
 31
0.0
  0
LINE
  5
4D6
330
18
100
AcDbEntity
  8
0
 62
     0
100
AcDbLine
 10
1.781974
 20
3.47
 30
0.0
 11
2.252047
 21
3.47
 31
0.0
  0
LINE
  5
4D7
330
18
100
AcDbEntity
  8
0
 62
     0
100
AcDbLine
 10
1.7926
 20
3.46
 30
0.0
 11
2.261148
 21
3.46
 31
0.0
  0
LINE
  5
4D8
330
18
100
AcDbEntity
  8
0
 62
     0
100
AcDbLine
 10
1.803226
 20
3.45
 30
0.0
 11
2.270248
 21
3.45
 31
0.0
  0
LINE
  5
4D9
330
18
100
AcDbEntity
  8
0
 62
     0
100
AcDbLine
 10
1.813853
 20
3.44
 30
0.0
 11
2.279349
 21
3.44
 31
0.0
  0
LINE
  5
4DA
330
18
100
AcDbEntity
  8
0
 62
     0
100
AcDbLine
 10
1.824479
 20
3.43
 30
0.0
 11
2.28845
 21
3.43
 31
0.0
  0
LINE
  5
4DB
330
18
100
AcDbEntity
  8
0
 62
     0
100
AcDbLine
 10
1.835105
 20
3.42
 30
0.0
 11
2.297551
 21
3.42
 31
0.0
  0
LINE
  5
4DC
330
18
100
AcDbEntity
  8
0
 62
     0
100
AcDbLine
 10
1.845731
 20
3.41
 30
0.0
 11
2.306651
 21
3.41
 31
0.0
  0
LINE
  5
4DD
330
18
100
AcDbEntity
  8
0
 62
     0
100
AcDbLine
 10
1.856358
 20
3.4
 30
0.0
 11
2.315752
 21
3.4
 31
0.0
  0
LINE
  5
4DE
330
18
100
AcDbEntity
  8
0
 62
     0
100
AcDbLine
 10
1.866984
 20
3.39
 30
0.0
 11
2.324853
 21
3.39
 31
0.0
  0
LINE
  5
4DF
330
18
100
AcDbEntity
  8
0
 62
     0
100
AcDbLine
 10
1.87761
 20
3.38
 30
0.0
 11
2.333953
 21
3.38
 31
0.0
  0
LINE
  5
4E0
330
18
100
AcDbEntity
  8
0
 62
     0
100
AcDbLine
 10
1.888236
 20
3.37
 30
0.0
 11
2.343054
 21
3.37
 31
0.0
  0
LINE
  5
4E1
330
18
100
AcDbEntity
  8
0
 62
     0
100
AcDbLine
 10
1.898862
 20
3.36
 30
0.0
 11
2.352155
 21
3.36
 31
0.0
  0
LINE
  5
4E2
330
18
100
AcDbEntity
  8
0
 62
     0
100
AcDbLine
 10
1.909489
 20
3.35
 30
0.0
 11
2.361256
 21
3.35
 31
0.0
  0
LINE
  5
4E3
330
18
100
AcDbEntity
  8
0
 62
     0
100
AcDbLine
 10
1.920115
 20
3.34
 30
0.0
 11
2.370356
 21
3.34
 31
0.0
  0
LINE
  5
4E4
330
18
100
AcDbEntity
  8
0
 62
     0
100
AcDbLine
 10
1.930741
 20
3.33
 30
0.0
 11
2.379457
 21
3.33
 31
0.0
  0
LINE
  5
4E5
330
18
100
AcDbEntity
  8
0
 62
     0
100
AcDbLine
 10
1.941367
 20
3.32
 30
0.0
 11
2.388558
 21
3.32
 31
0.0
  0
LINE
  5
4E6
330
18
100
AcDbEntity
  8
0
 62
     0
100
AcDbLine
 10
1.951993
 20
3.31
 30
0.0
 11
2.397659
 21
3.31
 31
0.0
  0
LINE
  5
4E7
330
18
100
AcDbEntity
  8
0
 62
     0
100
AcDbLine
 10
1.96262
 20
3.3
 30
0.0
 11
2.406759
 21
3.3
 31
0.0
  0
LINE
  5
4E8
330
18
100
AcDbEntity
  8
0
 62
     0
100
AcDbLine
 10
1.973246
 20
3.29
 30
0.0
 11
2.41586
 21
3.29
 31
0.0
  0
LINE
  5
4E9
330
18
100
AcDbEntity
  8
0
 62
     0
100
AcDbLine
 10
1.983872
 20
3.28
 30
0.0
 11
2.424961
 21
3.28
 31
0.0
  0
LINE
  5
4EA
330
18
100
AcDbEntity
  8
0
 62
     0
100
AcDbLine
 10
1.994498
 20
3.27
 30
0.0
 11
2.434062
 21
3.27
 31
0.0
  0
LINE
  5
4EB
330
18
100
AcDbEntity
  8
0
 62
     0
100
AcDbLine
 10
2.005125
 20
3.26
 30
0.0
 11
2.443162
 21
3.26
 31
0.0
  0
LINE
  5
4EC
330
18
100
AcDbEntity
  8
0
 62
     0
100
AcDbLine
 10
2.015751
 20
3.25
 30
0.0
 11
2.452263
 21
3.25
 31
0.0
  0
LINE
  5
4ED
330
18
100
AcDbEntity
  8
0
 62
     0
100
AcDbLine
 10
2.026377
 20
3.24
 30
0.0
 11
2.461364
 21
3.24
 31
0.0
  0
LINE
  5
4EE
330
18
100
AcDbEntity
  8
0
 62
     0
100
AcDbLine
 10
2.037003
 20
3.23
 30
0.0
 11
2.470465
 21
3.23
 31
0.0
  0
LINE
  5
4EF
330
18
100
AcDbEntity
  8
0
 62
     0
100
AcDbLine
 10
2.047629
 20
3.22
 30
0.0
 11
2.479565
 21
3.22
 31
0.0
  0
LINE
  5
4F0
330
18
100
AcDbEntity
  8
0
 62
     0
100
AcDbLine
 10
2.058256
 20
3.21
 30
0.0
 11
2.488666
 21
3.21
 31
0.0
  0
LINE
  5
4F1
330
18
100
AcDbEntity
  8
0
 62
     0
100
AcDbLine
 10
2.068882
 20
3.2
 30
0.0
 11
2.497767
 21
3.2
 31
0.0
  0
LINE
  5
4F2
330
18
100
AcDbEntity
  8
0
 62
     0
100
AcDbLine
 10
2.079508
 20
3.19
 30
0.0
 11
2.506868
 21
3.19
 31
0.0
  0
LINE
  5
4F3
330
18
100
AcDbEntity
  8
0
 62
     0
100
AcDbLine
 10
2.090134
 20
3.18
 30
0.0
 11
2.515968
 21
3.18
 31
0.0
  0
LINE
  5
4F4
330
18
100
AcDbEntity
  8
0
 62
     0
100
AcDbLine
 10
2.100761
 20
3.17
 30
0.0
 11
2.525069
 21
3.17
 31
0.0
  0
LINE
  5
4F5
330
18
100
AcDbEntity
  8
0
 62
     0
100
AcDbLine
 10
2.111387
 20
3.16
 30
0.0
 11
2.53417
 21
3.16
 31
0.0
  0
LINE
  5
4F6
330
18
100
AcDbEntity
  8
0
 62
     0
100
AcDbLine
 10
2.122013
 20
3.15
 30
0.0
 11
2.543271
 21
3.15
 31
0.0
  0
LINE
  5
4F7
330
18
100
AcDbEntity
  8
0
 62
     0
100
AcDbLine
 10
2.132639
 20
3.14
 30
0.0
 11
2.552371
 21
3.14
 31
0.0
  0
LINE
  5
4F8
330
18
100
AcDbEntity
  8
0
 62
     0
100
AcDbLine
 10
2.143265
 20
3.13
 30
0.0
 11
2.561472
 21
3.13
 31
0.0
  0
LINE
  5
4F9
330
18
100
AcDbEntity
  8
0
 62
     0
100
AcDbLine
 10
2.153892
 20
3.12
 30
0.0
 11
2.570573
 21
3.12
 31
0.0
  0
LINE
  5
4FA
330
18
100
AcDbEntity
  8
0
 62
     0
100
AcDbLine
 10
2.164518
 20
3.11
 30
0.0
 11
2.579674
 21
3.11
 31
0.0
  0
LINE
  5
4FB
330
18
100
AcDbEntity
  8
0
 62
     0
100
AcDbLine
 10
2.175144
 20
3.1
 30
0.0
 11
2.588774
 21
3.1
 31
0.0
  0
LINE
  5
4FC
330
18
100
AcDbEntity
  8
0
 62
     0
100
AcDbLine
 10
2.18577
 20
3.09
 30
0.0
 11
2.597875
 21
3.09
 31
0.0
  0
LINE
  5
4FD
330
18
100
AcDbEntity
  8
0
 62
     0
100
AcDbLine
 10
2.196396
 20
3.08
 30
0.0
 11
2.606976
 21
3.08
 31
0.0
  0
LINE
  5
4FE
330
18
100
AcDbEntity
  8
0
 62
     0
100
AcDbLine
 10
2.207023
 20
3.07
 30
0.0
 11
2.616077
 21
3.07
 31
0.0
  0
LINE
  5
4FF
330
18
100
AcDbEntity
  8
0
 62
     0
100
AcDbLine
 10
2.217649
 20
3.06
 30
0.0
 11
2.625177
 21
3.06
 31
0.0
  0
LINE
  5
500
330
18
100
AcDbEntity
  8
0
 62
     0
100
AcDbLine
 10
2.228275
 20
3.05
 30
0.0
 11
2.634278
 21
3.05
 31
0.0
  0
LINE
  5
501
330
18
100
AcDbEntity
  8
0
 62
     0
100
AcDbLine
 10
2.238901
 20
3.04
 30
0.0
 11
2.643379
 21
3.04
 31
0.0
  0
LINE
  5
502
330
18
100
AcDbEntity
  8
0
 62
     0
100
AcDbLine
 10
2.249528
 20
3.03
 30
0.0
 11
2.65248
 21
3.03
 31
0.0
  0
LINE
  5
503
330
18
100
AcDbEntity
  8
0
 62
     0
100
AcDbLine
 10
2.260154
 20
3.02
 30
0.0
 11
2.66158
 21
3.02
 31
0.0
  0
LINE
  5
504
330
18
100
AcDbEntity
  8
0
 62
     0
100
AcDbLine
 10
2.27078
 20
3.01
 30
0.0
 11
2.670681
 21
3.01
 31
0.0
  0
LINE
  5
505
330
18
100
AcDbEntity
  8
0
 62
     0
100
AcDbLine
 10
2.281406
 20
3.0
 30
0.0
 11
2.679782
 21
3.0
 31
0.0
  0
LINE
  5
506
330
18
100
AcDbEntity
  8
0
 62
     0
100
AcDbLine
 10
2.292032
 20
2.99
 30
0.0
 11
2.688883
 21
2.99
 31
0.0
  0
LINE
  5
507
330
18
100
AcDbEntity
  8
0
 62
     0
100
AcDbLine
 10
2.302659
 20
2.98
 30
0.0
 11
2.697983
 21
2.98
 31
0.0
  0
LINE
  5
508
330
18
100
AcDbEntity
  8
0
 62
     0
100
AcDbLine
 10
2.313285
 20
2.97
 30
0.0
 11
2.707084
 21
2.97
 31
0.0
  0
LINE
  5
509
330
18
100
AcDbEntity
  8
0
 62
     0
100
AcDbLine
 10
2.323911
 20
2.96
 30
0.0
 11
2.716185
 21
2.96
 31
0.0
  0
LINE
  5
50A
330
18
100
AcDbEntity
  8
0
 62
     0
100
AcDbLine
 10
2.334537
 20
2.95
 30
0.0
 11
2.725286
 21
2.95
 31
0.0
  0
LINE
  5
50B
330
18
100
AcDbEntity
  8
0
 62
     0
100
AcDbLine
 10
2.345164
 20
2.94
 30
0.0
 11
2.734386
 21
2.94
 31
0.0
  0
LINE
  5
50C
330
18
100
AcDbEntity
  8
0
 62
     0
100
AcDbLine
 10
2.35579
 20
2.93
 30
0.0
 11
2.743487
 21
2.93
 31
0.0
  0
LINE
  5
50D
330
18
100
AcDbEntity
  8
0
 62
     0
100
AcDbLine
 10
2.366416
 20
2.92
 30
0.0
 11
2.752588
 21
2.92
 31
0.0
  0
LINE
  5
50E
330
18
100
AcDbEntity
  8
0
 62
     0
100
AcDbLine
 10
2.377042
 20
2.91
 30
0.0
 11
2.761689
 21
2.91
 31
0.0
  0
LINE
  5
50F
330
18
100
AcDbEntity
  8
0
 62
     0
100
AcDbLine
 10
2.387668
 20
2.9
 30
0.0
 11
2.770789
 21
2.9
 31
0.0
  0
LINE
  5
510
330
18
100
AcDbEntity
  8
0
 62
     0
100
AcDbLine
 10
2.398295
 20
2.89
 30
0.0
 11
2.77989
 21
2.89
 31
0.0
  0
LINE
  5
511
330
18
100
AcDbEntity
  8
0
 62
     0
100
AcDbLine
 10
2.408921
 20
2.88
 30
0.0
 11
2.788991
 21
2.88
 31
0.0
  0
LINE
  5
512
330
18
100
AcDbEntity
  8
0
 62
     0
100
AcDbLine
 10
2.419547
 20
2.87
 30
0.0
 11
2.798092
 21
2.87
 31
0.0
  0
LINE
  5
513
330
18
100
AcDbEntity
  8
0
 62
     0
100
AcDbLine
 10
2.430173
 20
2.86
 30
0.0
 11
2.807192
 21
2.86
 31
0.0
  0
LINE
  5
514
330
18
100
AcDbEntity
  8
0
 62
     0
100
AcDbLine
 10
2.440799
 20
2.85
 30
0.0
 11
2.816293
 21
2.85
 31
0.0
  0
LINE
  5
515
330
18
100
AcDbEntity
  8
0
 62
     0
100
AcDbLine
 10
2.451426
 20
2.84
 30
0.0
 11
2.825394
 21
2.84
 31
0.0
  0
LINE
  5
516
330
18
100
AcDbEntity
  8
0
 62
     0
100
AcDbLine
 10
2.462052
 20
2.83
 30
0.0
 11
2.834495
 21
2.83
 31
0.0
  0
LINE
  5
517
330
18
100
AcDbEntity
  8
0
 62
     0
100
AcDbLine
 10
2.472678
 20
2.82
 30
0.0
 11
2.843595
 21
2.82
 31
0.0
  0
LINE
  5
518
330
18
100
AcDbEntity
  8
0
 62
     0
100
AcDbLine
 10
2.483304
 20
2.81
 30
0.0
 11
2.852696
 21
2.81
 31
0.0
  0
LINE
  5
519
330
18
100
AcDbEntity
  8
0
 62
     0
100
AcDbLine
 10
2.493931
 20
2.8
 30
0.0
 11
2.861797
 21
2.8
 31
0.0
  0
LINE
  5
51A
330
18
100
AcDbEntity
  8
0
 62
     0
100
AcDbLine
 10
2.504557
 20
2.79
 30
0.0
 11
2.870898
 21
2.79
 31
0.0
  0
LINE
  5
51B
330
18
100
AcDbEntity
  8
0
 62
     0
100
AcDbLine
 10
2.515183
 20
2.78
 30
0.0
 11
2.879998
 21
2.78
 31
0.0
  0
LINE
  5
51C
330
18
100
AcDbEntity
  8
0
 62
     0
100
AcDbLine
 10
2.525809
 20
2.77
 30
0.0
 11
2.889099
 21
2.77
 31
0.0
  0
LINE
  5
51D
330
18
100
AcDbEntity
  8
0
 62
     0
100
AcDbLine
 10
2.536435
 20
2.76
 30
0.0
 11
2.893285
 21
2.76
 31
0.0
  0
LINE
  5
51E
330
18
100
AcDbEntity
  8
0
 62
     0
100
AcDbLine
 10
2.547062
 20
2.75
 30
0.0
 11
2.893285
 21
2.75
 31
0.0
  0
LINE
  5
51F
330
18
100
AcDbEntity
  8
0
 62
     0
100
AcDbLine
 10
2.557688
 20
2.74
 30
0.0
 11
2.893285
 21
2.74
 31
0.0
  0
LINE
  5
520
330
18
100
AcDbEntity
  8
0
 62
     0
100
AcDbLine
 10
2.568314
 20
2.73
 30
0.0
 11
2.893285
 21
2.73
 31
0.0
  0
LINE
  5
521
330
18
100
AcDbEntity
  8
0
 62
     0
100
AcDbLine
 10
2.57894
 20
2.72
 30
0.0
 11
2.893285
 21
2.72
 31
0.0
  0
LINE
  5
522
330
18
100
AcDbEntity
  8
0
 62
     0
100
AcDbLine
 10
2.589567
 20
2.71
 30
0.0
 11
2.893285
 21
2.71
 31
0.0
  0
LINE
  5
523
330
18
100
AcDbEntity
  8
0
 62
     0
100
AcDbLine
 10
2.600193
 20
2.7
 30
0.0
 11
2.893285
 21
2.7
 31
0.0
  0
LINE
  5
524
330
18
100
AcDbEntity
  8
0
 62
     0
100
AcDbLine
 10
2.610819
 20
2.69
 30
0.0
 11
2.893285
 21
2.69
 31
0.0
  0
LINE
  5
525
330
18
100
AcDbEntity
  8
0
 62
     0
100
AcDbLine
 10
2.621445
 20
2.68
 30
0.0
 11
2.893285
 21
2.68
 31
0.0
  0
LINE
  5
526
330
18
100
AcDbEntity
  8
0
 62
     0
100
AcDbLine
 10
2.632071
 20
2.67
 30
0.0
 11
2.893285
 21
2.67
 31
0.0
  0
LINE
  5
527
330
18
100
AcDbEntity
  8
0
 62
     0
100
AcDbLine
 10
2.642698
 20
2.66
 30
0.0
 11
2.893285
 21
2.66
 31
0.0
  0
LINE
  5
528
330
18
100
AcDbEntity
  8
0
 62
     0
100
AcDbLine
 10
2.653324
 20
2.65
 30
0.0
 11
2.893285
 21
2.65
 31
0.0
  0
LINE
  5
529
330
18
100
AcDbEntity
  8
0
 62
     0
100
AcDbLine
 10
2.66395
 20
2.64
 30
0.0
 11
2.893285
 21
2.64
 31
0.0
  0
LINE
  5
52A
330
18
100
AcDbEntity
  8
0
 62
     0
100
AcDbLine
 10
2.674576
 20
2.63
 30
0.0
 11
2.893285
 21
2.63
 31
0.0
  0
LINE
  5
52B
330
18
100
AcDbEntity
  8
0
 62
     0
100
AcDbLine
 10
2.685202
 20
2.62
 30
0.0
 11
2.893285
 21
2.62
 31
0.0
  0
LINE
  5
52C
330
18
100
AcDbEntity
  8
0
 62
     0
100
AcDbLine
 10
2.695829
 20
2.61
 30
0.0
 11
2.893285
 21
2.61
 31
0.0
  0
LINE
  5
52D
330
18
100
AcDbEntity
  8
0
 62
     0
100
AcDbLine
 10
2.706455
 20
2.6
 30
0.0
 11
2.893285
 21
2.6
 31
0.0
  0
LINE
  5
52E
330
18
100
AcDbEntity
  8
0
 62
     0
100
AcDbLine
 10
2.717081
 20
2.59
 30
0.0
 11
2.893285
 21
2.59
 31
0.0
  0
LINE
  5
52F
330
18
100
AcDbEntity
  8
0
 62
     0
100
AcDbLine
 10
2.727707
 20
2.58
 30
0.0
 11
2.893285
 21
2.58
 31
0.0
  0
LINE
  5
530
330
18
100
AcDbEntity
  8
0
 62
     0
100
AcDbLine
 10
2.738334
 20
2.57
 30
0.0
 11
2.893285
 21
2.57
 31
0.0
  0
LINE
  5
531
330
18
100
AcDbEntity
  8
0
 62
     0
100
AcDbLine
 10
2.74896
 20
2.56
 30
0.0
 11
2.893285
 21
2.56
 31
0.0
  0
LINE
  5
532
330
18
100
AcDbEntity
  8
0
 62
     0
100
AcDbLine
 10
2.759586
 20
2.55
 30
0.0
 11
2.893285
 21
2.55
 31
0.0
  0
LINE
  5
533
330
18
100
AcDbEntity
  8
0
 62
     0
100
AcDbLine
 10
2.770212
 20
2.54
 30
0.0
 11
2.893285
 21
2.54
 31
0.0
  0
LINE
  5
534
330
18
100
AcDbEntity
  8
0
 62
     0
100
AcDbLine
 10
2.780838
 20
2.53
 30
0.0
 11
2.893285
 21
2.53
 31
0.0
  0
LINE
  5
535
330
18
100
AcDbEntity
  8
0
 62
     0
100
AcDbLine
 10
2.791465
 20
2.52
 30
0.0
 11
2.893285
 21
2.52
 31
0.0
  0
LINE
  5
536
330
18
100
AcDbEntity
  8
0
 62
     0
100
AcDbLine
 10
2.802091
 20
2.51
 30
0.0
 11
2.893285
 21
2.51
 31
0.0
  0
LINE
  5
537
330
18
100
AcDbEntity
  8
0
 62
     0
100
AcDbLine
 10
2.812717
 20
2.5
 30
0.0
 11
2.893285
 21
2.5
 31
0.0
  0
LINE
  5
538
330
18
100
AcDbEntity
  8
0
 62
     0
100
AcDbLine
 10
2.823343
 20
2.49
 30
0.0
 11
2.893285
 21
2.49
 31
0.0
  0
LINE
  5
539
330
18
100
AcDbEntity
  8
0
 62
     0
100
AcDbLine
 10
2.833969
 20
2.48
 30
0.0
 11
2.893285
 21
2.48
 31
0.0
  0
LINE
  5
53A
330
18
100
AcDbEntity
  8
0
 62
     0
100
AcDbLine
 10
2.844596
 20
2.47
 30
0.0
 11
2.893285
 21
2.47
 31
0.0
  0
LINE
  5
53B
330
18
100
AcDbEntity
  8
0
 62
     0
100
AcDbLine
 10
2.855222
 20
2.46
 30
0.0
 11
2.893285
 21
2.46
 31
0.0
  0
LINE
  5
53C
330
18
100
AcDbEntity
  8
0
 62
     0
100
AcDbLine
 10
2.865848
 20
2.45
 30
0.0
 11
2.893285
 21
2.45
 31
0.0
  0
LINE
  5
53D
330
18
100
AcDbEntity
  8
0
 62
     0
100
AcDbLine
 10
2.876474
 20
2.44
 30
0.0
 11
2.893285
 21
2.44
 31
0.0
  0
LINE
  5
53E
330
18
100
AcDbEntity
  8
0
 62
     0
100
AcDbLine
 10
2.887101
 20
2.43
 30
0.0
 11
2.893285
 21
2.43
 31
0.0
  0
LINE
  5
53F
330
18
100
AcDbEntity
  8
0
 62
     0
100
AcDbLine
 10
2.806911
 20
6.59
 30
0.0
 11
3.476136
 21
6.59
 31
0.0
  0
LINE
  5
540
330
18
100
AcDbEntity
  8
0
 62
     0
100
AcDbLine
 10
2.806911
 20
6.6
 30
0.0
 11
3.495022
 21
6.6
 31
0.0
  0
LINE
  5
541
330
18
100
AcDbEntity
  8
0
 62
     0
100
AcDbLine
 10
2.806911
 20
6.61
 30
0.0
 11
3.492144
 21
6.61
 31
0.0
  0
LINE
  5
542
330
18
100
AcDbEntity
  8
0
 62
     0
100
AcDbLine
 10
2.806911
 20
6.62
 30
0.0
 11
3.489266
 21
6.62
 31
0.0
  0
LINE
  5
543
330
18
100
AcDbEntity
  8
0
 62
     0
100
AcDbLine
 10
2.806911
 20
6.63
 30
0.0
 11
3.486388
 21
6.63
 31
0.0
  0
LINE
  5
544
330
18
100
AcDbEntity
  8
0
 62
     0
100
AcDbLine
 10
2.822987
 20
6.64
 30
0.0
 11
3.48351
 21
6.64
 31
0.0
  0
LINE
  5
545
330
18
100
AcDbEntity
  8
0
 62
     0
100
AcDbLine
 10
2.845826
 20
6.65
 30
0.0
 11
3.480633
 21
6.65
 31
0.0
  0
LINE
  5
546
330
18
100
AcDbEntity
  8
0
 62
     0
100
AcDbLine
 10
2.868665
 20
6.66
 30
0.0
 11
3.477755
 21
6.66
 31
0.0
  0
LINE
  5
547
330
18
100
AcDbEntity
  8
0
 62
     0
100
AcDbLine
 10
2.891504
 20
6.67
 30
0.0
 11
3.474877
 21
6.67
 31
0.0
  0
LINE
  5
548
330
18
100
AcDbEntity
  8
0
 62
     0
100
AcDbLine
 10
2.914343
 20
6.68
 30
0.0
 11
3.471999
 21
6.68
 31
0.0
  0
LINE
  5
549
330
18
100
AcDbEntity
  8
0
 62
     0
100
AcDbLine
 10
2.937182
 20
6.69
 30
0.0
 11
3.469121
 21
6.69
 31
0.0
  0
LINE
  5
54A
330
18
100
AcDbEntity
  8
0
 62
     0
100
AcDbLine
 10
2.960021
 20
6.7
 30
0.0
 11
3.466243
 21
6.7
 31
0.0
  0
LINE
  5
54B
330
18
100
AcDbEntity
  8
0
 62
     0
100
AcDbLine
 10
2.98286
 20
6.71
 30
0.0
 11
3.463365
 21
6.71
 31
0.0
  0
LINE
  5
54C
330
18
100
AcDbEntity
  8
0
 62
     0
100
AcDbLine
 10
3.005699
 20
6.72
 30
0.0
 11
3.460487
 21
6.72
 31
0.0
  0
LINE
  5
54D
330
18
100
AcDbEntity
  8
0
 62
     0
100
AcDbLine
 10
3.028538
 20
6.73
 30
0.0
 11
3.45761
 21
6.73
 31
0.0
  0
LINE
  5
54E
330
18
100
AcDbEntity
  8
0
 62
     0
100
AcDbLine
 10
3.051377
 20
6.74
 30
0.0
 11
3.454732
 21
6.74
 31
0.0
  0
LINE
  5
54F
330
18
100
AcDbEntity
  8
0
 62
     0
100
AcDbLine
 10
3.074216
 20
6.75
 30
0.0
 11
3.451854
 21
6.75
 31
0.0
  0
LINE
  5
550
330
18
100
AcDbEntity
  8
0
 62
     0
100
AcDbLine
 10
3.097055
 20
6.76
 30
0.0
 11
3.448976
 21
6.76
 31
0.0
  0
LINE
  5
551
330
18
100
AcDbEntity
  8
0
 62
     0
100
AcDbLine
 10
3.119894
 20
6.77
 30
0.0
 11
3.446098
 21
6.77
 31
0.0
  0
LINE
  5
552
330
18
100
AcDbEntity
  8
0
 62
     0
100
AcDbLine
 10
3.142733
 20
6.78
 30
0.0
 11
3.44322
 21
6.78
 31
0.0
  0
LINE
  5
553
330
18
100
AcDbEntity
  8
0
 62
     0
100
AcDbLine
 10
3.165572
 20
6.79
 30
0.0
 11
3.440342
 21
6.79
 31
0.0
  0
LINE
  5
554
330
18
100
AcDbEntity
  8
0
 62
     0
100
AcDbLine
 10
3.18841
 20
6.8
 30
0.0
 11
3.437464
 21
6.8
 31
0.0
  0
LINE
  5
555
330
18
100
AcDbEntity
  8
0
 62
     0
100
AcDbLine
 10
3.211249
 20
6.81
 30
0.0
 11
3.434586
 21
6.81
 31
0.0
  0
LINE
  5
556
330
18
100
AcDbEntity
  8
0
 62
     0
100
AcDbLine
 10
3.234088
 20
6.82
 30
0.0
 11
3.431709
 21
6.82
 31
0.0
  0
LINE
  5
557
330
18
100
AcDbEntity
  8
0
 62
     0
100
AcDbLine
 10
3.256927
 20
6.83
 30
0.0
 11
3.428831
 21
6.83
 31
0.0
  0
LINE
  5
558
330
18
100
AcDbEntity
  8
0
 62
     0
100
AcDbLine
 10
3.279766
 20
6.84
 30
0.0
 11
3.425953
 21
6.84
 31
0.0
  0
LINE
  5
559
330
18
100
AcDbEntity
  8
0
 62
     0
100
AcDbLine
 10
3.302605
 20
6.85
 30
0.0
 11
3.423075
 21
6.85
 31
0.0
  0
LINE
  5
55A
330
18
100
AcDbEntity
  8
0
 62
     0
100
AcDbLine
 10
3.325444
 20
6.86
 30
0.0
 11
3.420197
 21
6.86
 31
0.0
  0
LINE
  5
55B
330
18
100
AcDbEntity
  8
0
 62
     0
100
AcDbLine
 10
3.348283
 20
6.87
 30
0.0
 11
3.417319
 21
6.87
 31
0.0
  0
LINE
  5
55C
330
18
100
AcDbEntity
  8
0
 62
     0
100
AcDbLine
 10
3.371122
 20
6.88
 30
0.0
 11
3.414441000000001
 21
6.88
 31
0.0
  0
LINE
  5
55D
330
18
100
AcDbEntity
  8
0
 62
     0
100
AcDbLine
 10
3.393961
 20
6.89
 30
0.0
 11
3.411563
 21
6.89
 31
0.0
  0
LINE
  5
55E
330
18
100
AcDbEntity
  8
0
 62
     0
100
AcDbLine
 10
2.806911
 20
6.58
 30
0.0
 11
3.453297
 21
6.58
 31
0.0
  0
LINE
  5
55F
330
18
100
AcDbEntity
  8
0
 62
     0
100
AcDbLine
 10
2.806911
 20
6.57
 30
0.0
 11
3.430458
 21
6.57
 31
0.0
  0
LINE
  5
560
330
18
100
AcDbEntity
  8
0
 62
     0
100
AcDbLine
 10
2.806911
 20
6.56
 30
0.0
 11
3.407619
 21
6.56
 31
0.0
  0
LINE
  5
561
330
18
100
AcDbEntity
  8
0
 62
     0
100
AcDbLine
 10
2.806911
 20
6.55
 30
0.0
 11
3.38478
 21
6.55
 31
0.0
  0
LINE
  5
562
330
18
100
AcDbEntity
  8
0
 62
     0
100
AcDbLine
 10
2.806911
 20
6.54
 30
0.0
 11
3.361941
 21
6.54
 31
0.0
  0
LINE
  5
563
330
18
100
AcDbEntity
  8
0
 62
     0
100
AcDbLine
 10
2.806911
 20
6.53
 30
0.0
 11
3.339102
 21
6.53
 31
0.0
  0
LINE
  5
564
330
18
100
AcDbEntity
  8
0
 62
     0
100
AcDbLine
 10
2.806911
 20
6.52
 30
0.0
 11
3.316263
 21
6.52
 31
0.0
  0
LINE
  5
565
330
18
100
AcDbEntity
  8
0
 62
     0
100
AcDbLine
 10
2.806911
 20
6.51
 30
0.0
 11
3.293424
 21
6.51
 31
0.0
  0
LINE
  5
566
330
18
100
AcDbEntity
  8
0
 62
     0
100
AcDbLine
 10
2.806911
 20
6.5
 30
0.0
 11
3.270586
 21
6.5
 31
0.0
  0
LINE
  5
567
330
18
100
AcDbEntity
  8
0
 62
     0
100
AcDbLine
 10
2.806911
 20
6.49
 30
0.0
 11
3.247747
 21
6.49
 31
0.0
  0
LINE
  5
568
330
18
100
AcDbEntity
  8
0
 62
     0
100
AcDbLine
 10
2.806911
 20
6.48
 30
0.0
 11
3.224908
 21
6.48
 31
0.0
  0
LINE
  5
569
330
18
100
AcDbEntity
  8
0
 62
     0
100
AcDbLine
 10
2.806911
 20
6.47
 30
0.0
 11
3.202069
 21
6.47
 31
0.0
  0
LINE
  5
56A
330
18
100
AcDbEntity
  8
0
 62
     0
100
AcDbLine
 10
2.806911
 20
6.46
 30
0.0
 11
3.17923
 21
6.46
 31
0.0
  0
LINE
  5
56B
330
18
100
AcDbEntity
  8
0
 62
     0
100
AcDbLine
 10
2.806911
 20
6.45
 30
0.0
 11
3.156391
 21
6.45
 31
0.0
  0
LINE
  5
56C
330
18
100
AcDbEntity
  8
0
 62
     0
100
AcDbLine
 10
2.806911
 20
6.44
 30
0.0
 11
3.133552
 21
6.44
 31
0.0
  0
LINE
  5
56D
330
18
100
AcDbEntity
  8
0
 62
     0
100
AcDbLine
 10
2.806911
 20
6.43
 30
0.0
 11
3.110713
 21
6.43
 31
0.0
  0
LINE
  5
56E
330
18
100
AcDbEntity
  8
0
 62
     0
100
AcDbLine
 10
2.806911
 20
6.42
 30
0.0
 11
3.087874
 21
6.42
 31
0.0
  0
LINE
  5
56F
330
18
100
AcDbEntity
  8
0
 62
     0
100
AcDbLine
 10
2.806911
 20
6.41
 30
0.0
 11
3.065035
 21
6.41
 31
0.0
  0
LINE
  5
570
330
18
100
AcDbEntity
  8
0
 62
     0
100
AcDbLine
 10
2.806911
 20
6.4
 30
0.0
 11
3.042196
 21
6.4
 31
0.0
  0
LINE
  5
571
330
18
100
AcDbEntity
  8
0
 62
     0
100
AcDbLine
 10
2.806911
 20
6.39
 30
0.0
 11
3.019357
 21
6.39
 31
0.0
  0
LINE
  5
572
330
18
100
AcDbEntity
  8
0
 62
     0
100
AcDbLine
 10
2.806911
 20
6.38
 30
0.0
 11
2.996518
 21
6.38
 31
0.0
  0
LINE
  5
573
330
18
100
AcDbEntity
  8
0
 62
     0
100
AcDbLine
 10
2.806911
 20
6.37
 30
0.0
 11
2.973679
 21
6.37
 31
0.0
  0
LINE
  5
574
330
18
100
AcDbEntity
  8
0
 62
     0
100
AcDbLine
 10
2.806911
 20
6.36
 30
0.0
 11
2.95084
 21
6.36
 31
0.0
  0
LINE
  5
575
330
18
100
AcDbEntity
  8
0
 62
     0
100
AcDbLine
 10
2.806911
 20
6.35
 30
0.0
 11
2.928001
 21
6.35
 31
0.0
  0
LINE
  5
576
330
18
100
AcDbEntity
  8
0
 62
     0
100
AcDbLine
 10
2.806911
 20
6.34
 30
0.0
 11
2.905162
 21
6.34
 31
0.0
  0
LINE
  5
577
330
18
100
AcDbEntity
  8
0
 62
     0
100
AcDbLine
 10
2.806911
 20
6.33
 30
0.0
 11
2.882324
 21
6.33
 31
0.0
  0
LINE
  5
578
330
18
100
AcDbEntity
  8
0
 62
     0
100
AcDbLine
 10
2.806911
 20
6.32
 30
0.0
 11
2.859485
 21
6.32
 31
0.0
  0
LINE
  5
579
330
18
100
AcDbEntity
  8
0
 62
     0
100
AcDbLine
 10
2.806911
 20
6.31
 30
0.0
 11
2.836646
 21
6.31
 31
0.0
  0
LINE
  5
57A
330
18
100
AcDbEntity
  8
0
 62
     0
100
AcDbLine
 10
2.806911
 20
6.3
 30
0.0
 11
2.813807
 21
6.3
 31
0.0
  0
LINE
  5
57B
330
18
100
AcDbEntity
  8
0
 62
     0
100
AcDbLine
 10
3.336982
 20
3.05
 30
0.0
 11
3.868953
 21
3.05
 31
0.0
  0
LINE
  5
57C
330
18
100
AcDbEntity
  8
0
 62
     0
100
AcDbLine
 10
3.352572
 20
3.06
 30
0.0
 11
3.884543
 21
3.06
 31
0.0
  0
LINE
  5
57D
330
18
100
AcDbEntity
  8
0
 62
     0
100
AcDbLine
 10
3.368162
 20
3.07
 30
0.0
 11
3.900133
 21
3.07
 31
0.0
  0
LINE
  5
57E
330
18
100
AcDbEntity
  8
0
 62
     0
100
AcDbLine
 10
3.383752
 20
3.08
 30
0.0
 11
3.915724
 21
3.08
 31
0.0
  0
LINE
  5
57F
330
18
100
AcDbEntity
  8
0
 62
     0
100
AcDbLine
 10
3.399343
 20
3.09
 30
0.0
 11
3.931314
 21
3.09
 31
0.0
  0
LINE
  5
580
330
18
100
AcDbEntity
  8
0
 62
     0
100
AcDbLine
 10
3.414933
 20
3.1
 30
0.0
 11
3.946904
 21
3.1
 31
0.0
  0
LINE
  5
581
330
18
100
AcDbEntity
  8
0
 62
     0
100
AcDbLine
 10
3.430523
 20
3.11
 30
0.0
 11
3.962494
 21
3.11
 31
0.0
  0
LINE
  5
582
330
18
100
AcDbEntity
  8
0
 62
     0
100
AcDbLine
 10
3.446113
 20
3.12
 30
0.0
 11
3.978085
 21
3.12
 31
0.0
  0
LINE
  5
583
330
18
100
AcDbEntity
  8
0
 62
     0
100
AcDbLine
 10
3.461704
 20
3.13
 30
0.0
 11
3.993675
 21
3.13
 31
0.0
  0
LINE
  5
584
330
18
100
AcDbEntity
  8
0
 62
     0
100
AcDbLine
 10
3.477294
 20
3.14
 30
0.0
 11
4.009265
 21
3.14
 31
0.0
  0
LINE
  5
585
330
18
100
AcDbEntity
  8
0
 62
     0
100
AcDbLine
 10
3.492884
 20
3.15
 30
0.0
 11
4.024855000000001
 21
3.15
 31
0.0
  0
LINE
  5
586
330
18
100
AcDbEntity
  8
0
 62
     0
100
AcDbLine
 10
3.508474
 20
3.16
 30
0.0
 11
4.040446
 21
3.16
 31
0.0
  0
LINE
  5
587
330
18
100
AcDbEntity
  8
0
 62
     0
100
AcDbLine
 10
3.524065
 20
3.17
 30
0.0
 11
4.056036
 21
3.17
 31
0.0
  0
LINE
  5
588
330
18
100
AcDbEntity
  8
0
 62
     0
100
AcDbLine
 10
3.539655
 20
3.18
 30
0.0
 11
4.071626
 21
3.18
 31
0.0
  0
LINE
  5
589
330
18
100
AcDbEntity
  8
0
 62
     0
100
AcDbLine
 10
3.555245
 20
3.19
 30
0.0
 11
4.087216000000001
 21
3.19
 31
0.0
  0
LINE
  5
58A
330
18
100
AcDbEntity
  8
0
 62
     0
100
AcDbLine
 10
3.570835
 20
3.2
 30
0.0
 11
4.102807
 21
3.2
 31
0.0
  0
LINE
  5
58B
330
18
100
AcDbEntity
  8
0
 62
     0
100
AcDbLine
 10
3.586426
 20
3.21
 30
0.0
 11
4.118397
 21
3.21
 31
0.0
  0
LINE
  5
58C
330
18
100
AcDbEntity
  8
0
 62
     0
100
AcDbLine
 10
3.602016
 20
3.22
 30
0.0
 11
4.133987
 21
3.22
 31
0.0
  0
LINE
  5
58D
330
18
100
AcDbEntity
  8
0
 62
     0
100
AcDbLine
 10
3.617606
 20
3.23
 30
0.0
 11
4.149577
 21
3.23
 31
0.0
  0
LINE
  5
58E
330
18
100
AcDbEntity
  8
0
 62
     0
100
AcDbLine
 10
3.633196
 20
3.24
 30
0.0
 11
4.165168
 21
3.24
 31
0.0
  0
LINE
  5
58F
330
18
100
AcDbEntity
  8
0
 62
     0
100
AcDbLine
 10
3.648787
 20
3.25
 30
0.0
 11
4.180758
 21
3.25
 31
0.0
  0
LINE
  5
590
330
18
100
AcDbEntity
  8
0
 62
     0
100
AcDbLine
 10
3.664377
 20
3.26
 30
0.0
 11
4.196348
 21
3.26
 31
0.0
  0
LINE
  5
591
330
18
100
AcDbEntity
  8
0
 62
     0
100
AcDbLine
 10
3.679967
 20
3.27
 30
0.0
 11
4.211938
 21
3.27
 31
0.0
  0
LINE
  5
592
330
18
100
AcDbEntity
  8
0
 62
     0
100
AcDbLine
 10
3.695557
 20
3.28
 30
0.0
 11
4.227529
 21
3.28
 31
0.0
  0
LINE
  5
593
330
18
100
AcDbEntity
  8
0
 62
     0
100
AcDbLine
 10
3.711148
 20
3.29
 30
0.0
 11
4.243119
 21
3.29
 31
0.0
  0
LINE
  5
594
330
18
100
AcDbEntity
  8
0
 62
     0
100
AcDbLine
 10
3.726738
 20
3.3
 30
0.0
 11
4.258709
 21
3.3
 31
0.0
  0
LINE
  5
595
330
18
100
AcDbEntity
  8
0
 62
     0
100
AcDbLine
 10
3.742328
 20
3.31
 30
0.0
 11
4.274299
 21
3.31
 31
0.0
  0
LINE
  5
596
330
18
100
AcDbEntity
  8
0
 62
     0
100
AcDbLine
 10
3.757918
 20
3.32
 30
0.0
 11
4.28989
 21
3.32
 31
0.0
  0
LINE
  5
597
330
18
100
AcDbEntity
  8
0
 62
     0
100
AcDbLine
 10
3.773509
 20
3.33
 30
0.0
 11
4.30548
 21
3.33
 31
0.0
  0
LINE
  5
598
330
18
100
AcDbEntity
  8
0
 62
     0
100
AcDbLine
 10
3.789099
 20
3.34
 30
0.0
 11
4.32107
 21
3.34
 31
0.0
  0
LINE
  5
599
330
18
100
AcDbEntity
  8
0
 62
     0
100
AcDbLine
 10
3.804689
 20
3.35
 30
0.0
 11
4.33666
 21
3.35
 31
0.0
  0
LINE
  5
59A
330
18
100
AcDbEntity
  8
0
 62
     0
100
AcDbLine
 10
3.820279
 20
3.36
 30
0.0
 11
4.352251
 21
3.36
 31
0.0
  0
LINE
  5
59B
330
18
100
AcDbEntity
  8
0
 62
     0
100
AcDbLine
 10
3.83587
 20
3.37
 30
0.0
 11
4.367841
 21
3.37
 31
0.0
  0
LINE
  5
59C
330
18
100
AcDbEntity
  8
0
 62
     0
100
AcDbLine
 10
3.85146
 20
3.38
 30
0.0
 11
4.383431
 21
3.38
 31
0.0
  0
LINE
  5
59D
330
18
100
AcDbEntity
  8
0
 62
     0
100
AcDbLine
 10
3.86705
 20
3.39
 30
0.0
 11
4.399021
 21
3.39
 31
0.0
  0
LINE
  5
59E
330
18
100
AcDbEntity
  8
0
 62
     0
100
AcDbLine
 10
3.88264
 20
3.4
 30
0.0
 11
4.405988
 21
3.4
 31
0.0
  0
LINE
  5
59F
330
18
100
AcDbEntity
  8
0
 62
     0
100
AcDbLine
 10
3.898231
 20
3.41
 30
0.0
 11
4.393587
 21
3.41
 31
0.0
  0
LINE
  5
5A0
330
18
100
AcDbEntity
  8
0
 62
     0
100
AcDbLine
 10
3.913821
 20
3.42
 30
0.0
 11
4.387194
 21
3.42
 31
0.0
  0
LINE
  5
5A1
330
18
100
AcDbEntity
  8
0
 62
     0
100
AcDbLine
 10
3.929411
 20
3.43
 30
0.0
 11
4.385223000000001
 21
3.43
 31
0.0
  0
LINE
  5
5A2
330
18
100
AcDbEntity
  8
0
 62
     0
100
AcDbLine
 10
3.945001
 20
3.44
 30
0.0
 11
4.385216000000001
 21
3.44
 31
0.0
  0
LINE
  5
5A3
330
18
100
AcDbEntity
  8
0
 62
     0
100
AcDbLine
 10
3.960592
 20
3.45
 30
0.0
 11
4.385216000000001
 21
3.45
 31
0.0
  0
LINE
  5
5A4
330
18
100
AcDbEntity
  8
0
 62
     0
100
AcDbLine
 10
3.976182
 20
3.46
 30
0.0
 11
4.385216000000001
 21
3.46
 31
0.0
  0
LINE
  5
5A5
330
18
100
AcDbEntity
  8
0
 62
     0
100
AcDbLine
 10
3.991772
 20
3.47
 30
0.0
 11
4.382781
 21
3.47
 31
0.0
  0
LINE
  5
5A6
330
18
100
AcDbEntity
  8
0
 62
     0
100
AcDbLine
 10
4.007362000000001
 20
3.48
 30
0.0
 11
4.369803
 21
3.48
 31
0.0
  0
LINE
  5
5A7
330
18
100
AcDbEntity
  8
0
 62
     0
100
AcDbLine
 10
4.022953
 20
3.49
 30
0.0
 11
4.356825
 21
3.49
 31
0.0
  0
LINE
  5
5A8
330
18
100
AcDbEntity
  8
0
 62
     0
100
AcDbLine
 10
4.038543
 20
3.5
 30
0.0
 11
4.343846
 21
3.5
 31
0.0
  0
LINE
  5
5A9
330
18
100
AcDbEntity
  8
0
 62
     0
100
AcDbLine
 10
4.054133
 20
3.51
 30
0.0
 11
4.330868
 21
3.51
 31
0.0
  0
LINE
  5
5AA
330
18
100
AcDbEntity
  8
0
 62
     0
100
AcDbLine
 10
4.069723000000001
 20
3.52
 30
0.0
 11
4.322471
 21
3.52
 31
0.0
  0
LINE
  5
5AB
330
18
100
AcDbEntity
  8
0
 62
     0
100
AcDbLine
 10
4.085314
 20
3.53
 30
0.0
 11
4.319387
 21
3.53
 31
0.0
  0
LINE
  5
5AC
330
18
100
AcDbEntity
  8
0
 62
     0
100
AcDbLine
 10
4.100904
 20
3.54
 30
0.0
 11
4.319079
 21
3.54
 31
0.0
  0
LINE
  5
5AD
330
18
100
AcDbEntity
  8
0
 62
     0
100
AcDbLine
 10
4.116494
 20
3.55
 30
0.0
 11
4.318944
 21
3.55
 31
0.0
  0
LINE
  5
5AE
330
18
100
AcDbEntity
  8
0
 62
     0
100
AcDbLine
 10
4.132084
 20
3.56
 30
0.0
 11
4.31881
 21
3.56
 31
0.0
  0
LINE
  5
5AF
330
18
100
AcDbEntity
  8
0
 62
     0
100
AcDbLine
 10
4.147675
 20
3.57
 30
0.0
 11
4.318675
 21
3.57
 31
0.0
  0
LINE
  5
5B0
330
18
100
AcDbEntity
  8
0
 62
     0
100
AcDbLine
 10
4.163265
 20
3.58
 30
0.0
 11
4.318540000000001
 21
3.58
 31
0.0
  0
LINE
  5
5B1
330
18
100
AcDbEntity
  8
0
 62
     0
100
AcDbLine
 10
4.178855
 20
3.59
 30
0.0
 11
4.318406
 21
3.59
 31
0.0
  0
LINE
  5
5B2
330
18
100
AcDbEntity
  8
0
 62
     0
100
AcDbLine
 10
4.194445
 20
3.6
 30
0.0
 11
4.318271
 21
3.6
 31
0.0
  0
LINE
  5
5B3
330
18
100
AcDbEntity
  8
0
 62
     0
100
AcDbLine
 10
4.210036
 20
3.61
 30
0.0
 11
4.318136
 21
3.61
 31
0.0
  0
LINE
  5
5B4
330
18
100
AcDbEntity
  8
0
 62
     0
100
AcDbLine
 10
4.225626
 20
3.62
 30
0.0
 11
4.318002
 21
3.62
 31
0.0
  0
LINE
  5
5B5
330
18
100
AcDbEntity
  8
0
 62
     0
100
AcDbLine
 10
4.241216000000001
 20
3.63
 30
0.0
 11
4.317867
 21
3.63
 31
0.0
  0
LINE
  5
5B6
330
18
100
AcDbEntity
  8
0
 62
     0
100
AcDbLine
 10
4.256806
 20
3.64
 30
0.0
 11
4.317732
 21
3.64
 31
0.0
  0
LINE
  5
5B7
330
18
100
AcDbEntity
  8
0
 62
     0
100
AcDbLine
 10
4.272397
 20
3.65
 30
0.0
 11
4.317598
 21
3.65
 31
0.0
  0
LINE
  5
5B8
330
18
100
AcDbEntity
  8
0
 62
     0
100
AcDbLine
 10
4.287987
 20
3.66
 30
0.0
 11
4.317463
 21
3.66
 31
0.0
  0
LINE
  5
5B9
330
18
100
AcDbEntity
  8
0
 62
     0
100
AcDbLine
 10
4.303577
 20
3.67
 30
0.0
 11
4.317328
 21
3.67
 31
0.0
  0
LINE
  5
5BA
330
18
100
AcDbEntity
  8
0
 62
     0
100
AcDbLine
 10
3.321391
 20
3.04
 30
0.0
 11
3.853363
 21
3.04
 31
0.0
  0
LINE
  5
5BB
330
18
100
AcDbEntity
  8
0
 62
     0
100
AcDbLine
 10
3.305801
 20
3.03
 30
0.0
 11
3.837772
 21
3.03
 31
0.0
  0
LINE
  5
5BC
330
18
100
AcDbEntity
  8
0
 62
     0
100
AcDbLine
 10
3.290211
 20
3.02
 30
0.0
 11
3.822182
 21
3.02
 31
0.0
  0
LINE
  5
5BD
330
18
100
AcDbEntity
  8
0
 62
     0
100
AcDbLine
 10
3.274621
 20
3.01
 30
0.0
 11
3.806592
 21
3.01
 31
0.0
  0
LINE
  5
5BE
330
18
100
AcDbEntity
  8
0
 62
     0
100
AcDbLine
 10
3.25903
 20
3.0
 30
0.0
 11
3.791002
 21
3.0
 31
0.0
  0
LINE
  5
5BF
330
18
100
AcDbEntity
  8
0
 62
     0
100
AcDbLine
 10
3.24344
 20
2.99
 30
0.0
 11
3.775411
 21
2.99
 31
0.0
  0
LINE
  5
5C0
330
18
100
AcDbEntity
  8
0
 62
     0
100
AcDbLine
 10
3.22785
 20
2.98
 30
0.0
 11
3.759821
 21
2.98
 31
0.0
  0
LINE
  5
5C1
330
18
100
AcDbEntity
  8
0
 62
     0
100
AcDbLine
 10
3.21226
 20
2.97
 30
0.0
 11
3.744231
 21
2.97
 31
0.0
  0
LINE
  5
5C2
330
18
100
AcDbEntity
  8
0
 62
     0
100
AcDbLine
 10
3.196669
 20
2.96
 30
0.0
 11
3.728641000000001
 21
2.96
 31
0.0
  0
LINE
  5
5C3
330
18
100
AcDbEntity
  8
0
 62
     0
100
AcDbLine
 10
3.181079
 20
2.95
 30
0.0
 11
3.71305
 21
2.95
 31
0.0
  0
LINE
  5
5C4
330
18
100
AcDbEntity
  8
0
 62
     0
100
AcDbLine
 10
3.165489
 20
2.94
 30
0.0
 11
3.69746
 21
2.94
 31
0.0
  0
LINE
  5
5C5
330
18
100
AcDbEntity
  8
0
 62
     0
100
AcDbLine
 10
3.149899
 20
2.93
 30
0.0
 11
3.68187
 21
2.93
 31
0.0
  0
LINE
  5
5C6
330
18
100
AcDbEntity
  8
0
 62
     0
100
AcDbLine
 10
3.134308
 20
2.92
 30
0.0
 11
3.66628
 21
2.92
 31
0.0
  0
LINE
  5
5C7
330
18
100
AcDbEntity
  8
0
 62
     0
100
AcDbLine
 10
3.118718
 20
2.91
 30
0.0
 11
3.650689
 21
2.91
 31
0.0
  0
LINE
  5
5C8
330
18
100
AcDbEntity
  8
0
 62
     0
100
AcDbLine
 10
3.103128
 20
2.9
 30
0.0
 11
3.635099
 21
2.9
 31
0.0
  0
LINE
  5
5C9
330
18
100
AcDbEntity
  8
0
 62
     0
100
AcDbLine
 10
3.087538
 20
2.89
 30
0.0
 11
3.619509
 21
2.89
 31
0.0
  0
LINE
  5
5CA
330
18
100
AcDbEntity
  8
0
 62
     0
100
AcDbLine
 10
3.071947
 20
2.88
 30
0.0
 11
3.603919
 21
2.88
 31
0.0
  0
LINE
  5
5CB
330
18
100
AcDbEntity
  8
0
 62
     0
100
AcDbLine
 10
3.056357
 20
2.87
 30
0.0
 11
3.588328
 21
2.87
 31
0.0
  0
LINE
  5
5CC
330
18
100
AcDbEntity
  8
0
 62
     0
100
AcDbLine
 10
3.040767
 20
2.86
 30
0.0
 11
3.572738
 21
2.86
 31
0.0
  0
LINE
  5
5CD
330
18
100
AcDbEntity
  8
0
 62
     0
100
AcDbLine
 10
3.025177
 20
2.85
 30
0.0
 11
3.557148
 21
2.85
 31
0.0
  0
LINE
  5
5CE
330
18
100
AcDbEntity
  8
0
 62
     0
100
AcDbLine
 10
3.009586
 20
2.84
 30
0.0
 11
3.541558
 21
2.84
 31
0.0
  0
LINE
  5
5CF
330
18
100
AcDbEntity
  8
0
 62
     0
100
AcDbLine
 10
2.993996
 20
2.83
 30
0.0
 11
3.525967
 21
2.83
 31
0.0
  0
LINE
  5
5D0
330
18
100
AcDbEntity
  8
0
 62
     0
100
AcDbLine
 10
2.978406
 20
2.82
 30
0.0
 11
3.510377
 21
2.82
 31
0.0
  0
LINE
  5
5D1
330
18
100
AcDbEntity
  8
0
 62
     0
100
AcDbLine
 10
2.962816
 20
2.81
 30
0.0
 11
3.494787
 21
2.81
 31
0.0
  0
LINE
  5
5D2
330
18
100
AcDbEntity
  8
0
 62
     0
100
AcDbLine
 10
2.947225
 20
2.8
 30
0.0
 11
3.479197
 21
2.8
 31
0.0
  0
LINE
  5
5D3
330
18
100
AcDbEntity
  8
0
 62
     0
100
AcDbLine
 10
2.931635
 20
2.79
 30
0.0
 11
3.463606
 21
2.79
 31
0.0
  0
LINE
  5
5D4
330
18
100
AcDbEntity
  8
0
 62
     0
100
AcDbLine
 10
2.916045
 20
2.78
 30
0.0
 11
3.448016
 21
2.78
 31
0.0
  0
LINE
  5
5D5
330
18
100
AcDbEntity
  8
0
 62
     0
100
AcDbLine
 10
2.900455
 20
2.77
 30
0.0
 11
3.432426
 21
2.77
 31
0.0
  0
LINE
  5
5D6
330
18
100
AcDbEntity
  8
0
 62
     0
100
AcDbLine
 10
2.893285
 20
2.76
 30
0.0
 11
3.416836
 21
2.76
 31
0.0
  0
LINE
  5
5D7
330
18
100
AcDbEntity
  8
0
 62
     0
100
AcDbLine
 10
2.893285
 20
2.75
 30
0.0
 11
3.401245
 21
2.75
 31
0.0
  0
LINE
  5
5D8
330
18
100
AcDbEntity
  8
0
 62
     0
100
AcDbLine
 10
2.893285
 20
2.74
 30
0.0
 11
3.385655
 21
2.74
 31
0.0
  0
LINE
  5
5D9
330
18
100
AcDbEntity
  8
0
 62
     0
100
AcDbLine
 10
2.893285
 20
2.73
 30
0.0
 11
3.370065
 21
2.73
 31
0.0
  0
LINE
  5
5DA
330
18
100
AcDbEntity
  8
0
 62
     0
100
AcDbLine
 10
2.893285
 20
2.72
 30
0.0
 11
3.354475
 21
2.72
 31
0.0
  0
LINE
  5
5DB
330
18
100
AcDbEntity
  8
0
 62
     0
100
AcDbLine
 10
2.893285
 20
2.71
 30
0.0
 11
3.338884
 21
2.71
 31
0.0
  0
LINE
  5
5DC
330
18
100
AcDbEntity
  8
0
 62
     0
100
AcDbLine
 10
2.893285
 20
2.7
 30
0.0
 11
3.323294
 21
2.7
 31
0.0
  0
LINE
  5
5DD
330
18
100
AcDbEntity
  8
0
 62
     0
100
AcDbLine
 10
2.893285
 20
2.69
 30
0.0
 11
3.307704
 21
2.69
 31
0.0
  0
LINE
  5
5DE
330
18
100
AcDbEntity
  8
0
 62
     0
100
AcDbLine
 10
2.893285
 20
2.68
 30
0.0
 11
3.292114
 21
2.68
 31
0.0
  0
LINE
  5
5DF
330
18
100
AcDbEntity
  8
0
 62
     0
100
AcDbLine
 10
2.893285
 20
2.67
 30
0.0
 11
3.276523
 21
2.67
 31
0.0
  0
LINE
  5
5E0
330
18
100
AcDbEntity
  8
0
 62
     0
100
AcDbLine
 10
2.893285
 20
2.66
 30
0.0
 11
3.260933
 21
2.66
 31
0.0
  0
LINE
  5
5E1
330
18
100
AcDbEntity
  8
0
 62
     0
100
AcDbLine
 10
2.893285
 20
2.65
 30
0.0
 11
3.245343
 21
2.65
 31
0.0
  0
LINE
  5
5E2
330
18
100
AcDbEntity
  8
0
 62
     0
100
AcDbLine
 10
2.893285
 20
2.64
 30
0.0
 11
3.229753
 21
2.64
 31
0.0
  0
LINE
  5
5E3
330
18
100
AcDbEntity
  8
0
 62
     0
100
AcDbLine
 10
2.893285
 20
2.63
 30
0.0
 11
3.214162
 21
2.63
 31
0.0
  0
LINE
  5
5E4
330
18
100
AcDbEntity
  8
0
 62
     0
100
AcDbLine
 10
2.893285
 20
2.62
 30
0.0
 11
3.198572
 21
2.62
 31
0.0
  0
LINE
  5
5E5
330
18
100
AcDbEntity
  8
0
 62
     0
100
AcDbLine
 10
2.893285
 20
2.61
 30
0.0
 11
3.182982
 21
2.61
 31
0.0
  0
LINE
  5
5E6
330
18
100
AcDbEntity
  8
0
 62
     0
100
AcDbLine
 10
2.893285
 20
2.6
 30
0.0
 11
3.167392
 21
2.6
 31
0.0
  0
LINE
  5
5E7
330
18
100
AcDbEntity
  8
0
 62
     0
100
AcDbLine
 10
2.893285
 20
2.59
 30
0.0
 11
3.151801
 21
2.59
 31
0.0
  0
LINE
  5
5E8
330
18
100
AcDbEntity
  8
0
 62
     0
100
AcDbLine
 10
2.893285
 20
2.58
 30
0.0
 11
3.136211
 21
2.58
 31
0.0
  0
LINE
  5
5E9
330
18
100
AcDbEntity
  8
0
 62
     0
100
AcDbLine
 10
2.893285
 20
2.57
 30
0.0
 11
3.120621
 21
2.57
 31
0.0
  0
LINE
  5
5EA
330
18
100
AcDbEntity
  8
0
 62
     0
100
AcDbLine
 10
2.893285
 20
2.56
 30
0.0
 11
3.105031
 21
2.56
 31
0.0
  0
LINE
  5
5EB
330
18
100
AcDbEntity
  8
0
 62
     0
100
AcDbLine
 10
2.893285
 20
2.55
 30
0.0
 11
3.08944
 21
2.55
 31
0.0
  0
LINE
  5
5EC
330
18
100
AcDbEntity
  8
0
 62
     0
100
AcDbLine
 10
2.893285
 20
2.54
 30
0.0
 11
3.07385
 21
2.54
 31
0.0
  0
LINE
  5
5ED
330
18
100
AcDbEntity
  8
0
 62
     0
100
AcDbLine
 10
2.893285
 20
2.53
 30
0.0
 11
3.05826
 21
2.53
 31
0.0
  0
LINE
  5
5EE
330
18
100
AcDbEntity
  8
0
 62
     0
100
AcDbLine
 10
2.893285
 20
2.52
 30
0.0
 11
3.04267
 21
2.52
 31
0.0
  0
LINE
  5
5EF
330
18
100
AcDbEntity
  8
0
 62
     0
100
AcDbLine
 10
2.893285
 20
2.51
 30
0.0
 11
3.027079
 21
2.51
 31
0.0
  0
LINE
  5
5F0
330
18
100
AcDbEntity
  8
0
 62
     0
100
AcDbLine
 10
2.893285
 20
2.5
 30
0.0
 11
3.011489
 21
2.5
 31
0.0
  0
LINE
  5
5F1
330
18
100
AcDbEntity
  8
0
 62
     0
100
AcDbLine
 10
2.893285
 20
2.49
 30
0.0
 11
2.995899
 21
2.49
 31
0.0
  0
LINE
  5
5F2
330
18
100
AcDbEntity
  8
0
 62
     0
100
AcDbLine
 10
2.893285
 20
2.48
 30
0.0
 11
2.980309
 21
2.48
 31
0.0
  0
LINE
  5
5F3
330
18
100
AcDbEntity
  8
0
 62
     0
100
AcDbLine
 10
2.893285
 20
2.47
 30
0.0
 11
2.964718
 21
2.47
 31
0.0
  0
LINE
  5
5F4
330
18
100
AcDbEntity
  8
0
 62
     0
100
AcDbLine
 10
2.893285
 20
2.46
 30
0.0
 11
2.949128
 21
2.46
 31
0.0
  0
LINE
  5
5F5
330
18
100
AcDbEntity
  8
0
 62
     0
100
AcDbLine
 10
2.893285
 20
2.45
 30
0.0
 11
2.933538
 21
2.45
 31
0.0
  0
LINE
  5
5F6
330
18
100
AcDbEntity
  8
0
 62
     0
100
AcDbLine
 10
2.893285
 20
2.44
 30
0.0
 11
2.917948
 21
2.44
 31
0.0
  0
LINE
  5
5F7
330
18
100
AcDbEntity
  8
0
 62
     0
100
AcDbLine
 10
2.893285
 20
2.43
 30
0.0
 11
2.902357
 21
2.43
 31
0.0
  0
LINE
  5
5F8
330
18
100
AcDbEntity
  8
0
 62
     0
100
AcDbLine
 10
4.212866
 20
7.24
 30
0.0
 11
4.269257
 21
7.24
 31
0.0
  0
LINE
  5
5F9
330
18
100
AcDbEntity
  8
0
 62
     0
100
AcDbLine
 10
4.216163
 20
7.25
 30
0.0
 11
4.271381
 21
7.25
 31
0.0
  0
LINE
  5
5FA
330
18
100
AcDbEntity
  8
0
 62
     0
100
AcDbLine
 10
4.239001999999999
 20
7.26
 30
0.0
 11
4.287504
 21
7.26
 31
0.0
  0
LINE
  5
5FB
330
18
100
AcDbEntity
  8
0
 62
     0
100
AcDbLine
 10
4.261841
 20
7.27
 30
0.0
 11
4.310343
 21
7.27
 31
0.0
  0
LINE
  5
5FC
330
18
100
AcDbEntity
  8
0
 62
     0
100
AcDbLine
 10
4.284680000000001
 20
7.28
 30
0.0
 11
4.333182
 21
7.28
 31
0.0
  0
LINE
  5
5FD
330
18
100
AcDbEntity
  8
0
 62
     0
100
AcDbLine
 10
4.307519
 20
7.29
 30
0.0
 11
4.356021
 21
7.29
 31
0.0
  0
LINE
  5
5FE
330
18
100
AcDbEntity
  8
0
 62
     0
100
AcDbLine
 10
4.330358
 20
7.3
 30
0.0
 11
4.37886
 21
7.3
 31
0.0
  0
LINE
  5
5FF
330
18
100
AcDbEntity
  8
0
 62
     0
100
AcDbLine
 10
4.353197
 20
7.31
 30
0.0
 11
4.401698000000001
 21
7.31
 31
0.0
  0
LINE
  5
600
330
18
100
AcDbEntity
  8
0
 62
     0
100
AcDbLine
 10
4.376035
 20
7.32
 30
0.0
 11
4.424537
 21
7.32
 31
0.0
  0
LINE
  5
601
330
18
100
AcDbEntity
  8
0
 62
     0
100
AcDbLine
 10
4.398874
 20
7.33
 30
0.0
 11
4.447376
 21
7.33
 31
0.0
  0
LINE
  5
602
330
18
100
AcDbEntity
  8
0
 62
     0
100
AcDbLine
 10
4.421713
 20
7.34
 30
0.0
 11
4.470215000000001
 21
7.34
 31
0.0
  0
LINE
  5
603
330
18
100
AcDbEntity
  8
0
 62
     0
100
AcDbLine
 10
4.444552
 20
7.35
 30
0.0
 11
4.493054
 21
7.35
 31
0.0
  0
LINE
  5
604
330
18
100
AcDbEntity
  8
0
 62
     0
100
AcDbLine
 10
4.467391
 20
7.36
 30
0.0
 11
4.515893
 21
7.36
 31
0.0
  0
LINE
  5
605
330
18
100
AcDbEntity
  8
0
 62
     0
100
AcDbLine
 10
4.49023
 20
7.37
 30
0.0
 11
4.538732
 21
7.37
 31
0.0
  0
LINE
  5
606
330
18
100
AcDbEntity
  8
0
 62
     0
100
AcDbLine
 10
4.513069000000001
 20
7.38
 30
0.0
 11
4.561571
 21
7.38
 31
0.0
  0
LINE
  5
607
330
18
100
AcDbEntity
  8
0
 62
     0
100
AcDbLine
 10
4.535908
 20
7.39
 30
0.0
 11
4.58441
 21
7.39
 31
0.0
  0
LINE
  5
608
330
18
100
AcDbEntity
  8
0
 62
     0
100
AcDbLine
 10
4.558747
 20
7.4
 30
0.0
 11
4.607249
 21
7.4
 31
0.0
  0
LINE
  5
609
330
18
100
AcDbEntity
  8
0
 62
     0
100
AcDbLine
 10
4.581586
 20
7.41
 30
0.0
 11
4.630088
 21
7.41
 31
0.0
  0
LINE
  5
60A
330
18
100
AcDbEntity
  8
0
 62
     0
100
AcDbLine
 10
4.604425
 20
7.42
 30
0.0
 11
4.652927
 21
7.42
 31
0.0
  0
LINE
  5
60B
330
18
100
AcDbEntity
  8
0
 62
     0
100
AcDbLine
 10
4.627264
 20
7.43
 30
0.0
 11
4.675766
 21
7.43
 31
0.0
  0
LINE
  5
60C
330
18
100
AcDbEntity
  8
0
 62
     0
100
AcDbLine
 10
4.650103
 20
7.44
 30
0.0
 11
4.698605000000001
 21
7.44
 31
0.0
  0
LINE
  5
60D
330
18
100
AcDbEntity
  8
0
 62
     0
100
AcDbLine
 10
4.672942
 20
7.45
 30
0.0
 11
4.721444
 21
7.45
 31
0.0
  0
LINE
  5
60E
330
18
100
AcDbEntity
  8
0
 62
     0
100
AcDbLine
 10
4.695781
 20
7.46
 30
0.0
 11
4.744283
 21
7.46
 31
0.0
  0
LINE
  5
60F
330
18
100
AcDbEntity
  8
0
 62
     0
100
AcDbLine
 10
4.71862
 20
7.47
 30
0.0
 11
4.767122000000001
 21
7.47
 31
0.0
  0
LINE
  5
610
330
18
100
AcDbEntity
  8
0
 62
     0
100
AcDbLine
 10
4.741459
 20
7.48
 30
0.0
 11
4.78996
 21
7.48
 31
0.0
  0
LINE
  5
611
330
18
100
AcDbEntity
  8
0
 62
     0
100
AcDbLine
 10
4.764297
 20
7.49
 30
0.0
 11
4.812799
 21
7.49
 31
0.0
  0
LINE
  5
612
330
18
100
AcDbEntity
  8
0
 62
     0
100
AcDbLine
 10
4.787136
 20
7.5
 30
0.0
 11
4.835637999999999
 21
7.5
 31
0.0
  0
LINE
  5
613
330
18
100
AcDbEntity
  8
0
 62
     0
100
AcDbLine
 10
4.809975
 20
7.51
 30
0.0
 11
4.858477
 21
7.51
 31
0.0
  0
LINE
  5
614
330
18
100
AcDbEntity
  8
0
 62
     0
100
AcDbLine
 10
4.832814
 20
7.52
 30
0.0
 11
4.881316
 21
7.52
 31
0.0
  0
LINE
  5
615
330
18
100
AcDbEntity
  8
0
 62
     0
100
AcDbLine
 10
4.855653
 20
7.53
 30
0.0
 11
4.904155
 21
7.53
 31
0.0
  0
LINE
  5
616
330
18
100
AcDbEntity
  8
0
 62
     0
100
AcDbLine
 10
4.878492
 20
7.54
 30
0.0
 11
4.9067
 21
7.54
 31
0.0
  0
LINE
  5
617
330
18
100
AcDbEntity
  8
0
 62
     0
100
AcDbLine
 10
4.901331
 20
7.55
 30
0.0
 11
4.902245
 21
7.55
 31
0.0
  0
LINE
  5
618
330
18
100
AcDbEntity
  8
0
 62
     0
100
AcDbLine
 10
4.217415
 20
7.23
 30
0.0
 11
4.269391000000001
 21
7.23
 31
0.0
  0
LINE
  5
619
330
18
100
AcDbEntity
  8
0
 62
     0
100
AcDbLine
 10
4.219362
 20
7.22
 30
0.0
 11
4.269526
 21
7.22
 31
0.0
  0
LINE
  5
61A
330
18
100
AcDbEntity
  8
0
 62
     0
100
AcDbLine
 10
4.221267
 20
7.21
 30
0.0
 11
4.269661
 21
7.21
 31
0.0
  0
LINE
  5
61B
330
18
100
AcDbEntity
  8
0
 62
     0
100
AcDbLine
 10
4.223172
 20
7.2
 30
0.0
 11
4.269794999999999
 21
7.2
 31
0.0
  0
LINE
  5
61C
330
18
100
AcDbEntity
  8
0
 62
     0
100
AcDbLine
 10
4.225077
 20
7.19
 30
0.0
 11
4.26993
 21
7.19
 31
0.0
  0
LINE
  5
61D
330
18
100
AcDbEntity
  8
0
 62
     0
100
AcDbLine
 10
4.226982
 20
7.18
 30
0.0
 11
4.270065
 21
7.18
 31
0.0
  0
LINE
  5
61E
330
18
100
AcDbEntity
  8
0
 62
     0
100
AcDbLine
 10
4.228886
 20
7.17
 30
0.0
 11
4.270199
 21
7.17
 31
0.0
  0
LINE
  5
61F
330
18
100
AcDbEntity
  8
0
 62
     0
100
AcDbLine
 10
4.230791
 20
7.16
 30
0.0
 11
4.270334
 21
7.16
 31
0.0
  0
LINE
  5
620
330
18
100
AcDbEntity
  8
0
 62
     0
100
AcDbLine
 10
4.232696
 20
7.15
 30
0.0
 11
4.270468
 21
7.15
 31
0.0
  0
LINE
  5
621
330
18
100
AcDbEntity
  8
0
 62
     0
100
AcDbLine
 10
4.234601000000001
 20
7.14
 30
0.0
 11
4.270603
 21
7.14
 31
0.0
  0
LINE
  5
622
330
18
100
AcDbEntity
  8
0
 62
     0
100
AcDbLine
 10
4.236505999999999
 20
7.13
 30
0.0
 11
4.270738
 21
7.13
 31
0.0
  0
LINE
  5
623
330
18
100
AcDbEntity
  8
0
 62
     0
100
AcDbLine
 10
4.238411
 20
7.12
 30
0.0
 11
4.270872
 21
7.12
 31
0.0
  0
LINE
  5
624
330
18
100
AcDbEntity
  8
0
 62
     0
100
AcDbLine
 10
4.240316
 20
7.11
 30
0.0
 11
4.271007
 21
7.11
 31
0.0
  0
LINE
  5
625
330
18
100
AcDbEntity
  8
0
 62
     0
100
AcDbLine
 10
4.242221
 20
7.1
 30
0.0
 11
4.271142
 21
7.1
 31
0.0
  0
LINE
  5
626
330
18
100
AcDbEntity
  8
0
 62
     0
100
AcDbLine
 10
4.244126000000001
 20
7.09
 30
0.0
 11
4.271276
 21
7.09
 31
0.0
  0
LINE
  5
627
330
18
100
AcDbEntity
  8
0
 62
     0
100
AcDbLine
 10
4.246030999999999
 20
7.08
 30
0.0
 11
4.271411
 21
7.08
 31
0.0
  0
LINE
  5
628
330
18
100
AcDbEntity
  8
0
 62
     0
100
AcDbLine
 10
4.247936
 20
7.07
 30
0.0
 11
4.271546
 21
7.07
 31
0.0
  0
LINE
  5
629
330
18
100
AcDbEntity
  8
0
 62
     0
100
AcDbLine
 10
4.249841
 20
7.06
 30
0.0
 11
4.27168
 21
7.06
 31
0.0
  0
LINE
  5
62A
330
18
100
AcDbEntity
  8
0
 62
     0
100
AcDbLine
 10
4.251746
 20
7.05
 30
0.0
 11
4.271815
 21
7.05
 31
0.0
  0
LINE
  5
62B
330
18
100
AcDbEntity
  8
0
 62
     0
100
AcDbLine
 10
4.253651000000001
 20
7.04
 30
0.0
 11
4.27195
 21
7.04
 31
0.0
  0
LINE
  5
62C
330
18
100
AcDbEntity
  8
0
 62
     0
100
AcDbLine
 10
4.255556
 20
7.03
 30
0.0
 11
4.272084
 21
7.03
 31
0.0
  0
LINE
  5
62D
330
18
100
AcDbEntity
  8
0
 62
     0
100
AcDbLine
 10
4.257461
 20
7.02
 30
0.0
 11
4.272219000000001
 21
7.02
 31
0.0
  0
LINE
  5
62E
330
18
100
AcDbEntity
  8
0
 62
     0
100
AcDbLine
 10
4.259366
 20
7.01
 30
0.0
 11
4.272354
 21
7.01
 31
0.0
  0
LINE
  5
62F
330
18
100
AcDbEntity
  8
0
 62
     0
100
AcDbLine
 10
4.261271
 20
7.0
 30
0.0
 11
4.272488
 21
7.0
 31
0.0
  0
LINE
  5
630
330
18
100
AcDbEntity
  8
0
 62
     0
100
AcDbLine
 10
4.263176000000001
 20
6.99
 30
0.0
 11
4.272623
 21
6.99
 31
0.0
  0
LINE
  5
631
330
18
100
AcDbEntity
  8
0
 62
     0
100
AcDbLine
 10
4.265081
 20
6.98
 30
0.0
 11
4.272758000000001
 21
6.98
 31
0.0
  0
LINE
  5
632
330
18
100
AcDbEntity
  8
0
 62
     0
100
AcDbLine
 10
4.266985
 20
6.97
 30
0.0
 11
4.272892
 21
6.97
 31
0.0
  0
LINE
  5
633
330
18
100
AcDbEntity
  8
0
 62
     0
100
AcDbLine
 10
4.26889
 20
6.96
 30
0.0
 11
4.273027
 21
6.96
 31
0.0
  0
LINE
  5
634
330
18
100
AcDbEntity
  8
0
 62
     0
100
AcDbLine
 10
4.270795
 20
6.95
 30
0.0
 11
4.273162
 21
6.95
 31
0.0
  0
LINE
  5
635
330
18
100
AcDbEntity
  8
0
 62
     0
100
AcDbLine
 10
4.2727
 20
6.94
 30
0.0
 11
4.273296
 21
6.94
 31
0.0
  0
ENDSEC
  0
SECTION
  2
OBJECTS
  0
DICTIONARY
  5
C
330
0
100
AcDbDictionary
281
     1
  3
ACAD_COLOR
350
63B
  3
ACAD_GROUP
350
D
  3
ACAD_LAYOUT
350
15
  3
ACAD_MATERIAL
350
63D
  3
ACAD_MLINESTYLE
350
12
  3
ACAD_PLOTSETTINGS
350
14
  3
ACAD_PLOTSTYLENAME
350
E
  3
ACDBHEADERROUNDTRIPXREC
350
63A
  0
DICTIONARY
  5
63B
102
{ACAD_REACTORS
330
C
102
}
330
C
100
AcDbDictionary
281
     1
  0
DICTIONARY
  5
D
102
{ACAD_REACTORS
330
C
102
}
330
C
100
AcDbDictionary
281
     1
  0
DICTIONARY
  5
15
102
{ACAD_REACTORS
330
C
102
}
330
C
100
AcDbDictionary
281
     1
  3
Layout1
350
17
  3
Model
350
19
  0
DICTIONARY
  5
63D
102
{ACAD_REACTORS
330
C
102
}
330
C
100
AcDbDictionary
281
     1
  0
DICTIONARY
  5
12
102
{ACAD_REACTORS
330
C
102
}
330
C
100
AcDbDictionary
281
     1
  3
Standard
350
13
  0
DICTIONARY
  5
14
102
{ACAD_REACTORS
330
C
102
}
330
C
100
AcDbDictionary
281
     1
  0
ACDBDICTIONARYWDFLT
  5
E
102
{ACAD_REACTORS
330
C
102
}
330
C
100
AcDbDictionary
281
     1
  3
Normal
350
F
100
AcDbDictionaryWithDefault
340
F
  0
DICTIONARY
  5
63A
102
{ACAD_REACTORS
330
C
102
}
330
C
100
AcDbDictionary
281
     1
  3
COLORDICT
350
63C
  3
MATERIALDICT
350
63E
  0
LAYOUT
  5
17
102
{ACAD_REACTORS
330
15
102
}
102
{ACAD_XDICTIONARY
360
63F
102
}
330
15
100
AcDbPlotSettings
  1

  2

  4

  6

 40
0.0
 41
0.0
 42
0.0
 43
0.0
 44
0.0
 45
0.0
 46
0.0
 47
0.0
 48
0.0
 49
0.0
140
0.0
141
0.0
142
1.0
143
1.0
 70
   688
 72
     0
 73
     0
 74
     5
  7

 75
    16
147
1.0
148
0.0
149
0.0
100
AcDbLayout
  1
Layout1
 70
     1
 71
     1
 10
0.0
 20
0.0
 11
12.0
 21
9.0
 12
0.0
 22
0.0
 32
0.0
 14
1.000000000000000E+20
 24
1.000000000000000E+20
 34
1.000000000000000E+20
 15
-1.000000000000000E+20
 25
-1.000000000000000E+20
 35
-1.000000000000000E+20
146
0.0
 13
0.0
 23
0.0
 33
0.0
 16
1.0
 26
0.0
 36
0.0
 17
0.0
 27
1.0
 37
0.0
 76
     0
330
16
  0
LAYOUT
  5
19
102
{ACAD_REACTORS
330
15
102
}
102
{ACAD_XDICTIONARY
360
641
102
}
330
15
100
AcDbPlotSettings
  1

  2

  4

  6

 40
0.0
 41
0.0
 42
0.0
 43
0.0
 44
0.0
 45
0.0
 46
0.0
 47
0.0
 48
0.0
 49
0.0
140
0.0
141
0.0
142
1.0
143
1.0
 70
  1712
 72
     0
 73
     0
 74
     0
  7

 75
     0
147
1.0
148
0.0
149
0.0
100
AcDbLayout
  1
Model
 70
     1
 71
     0
 10
0.0
 20
0.0
 11
0.0
 21
0.0
 12
0.0
 22
0.0
 32
0.0
 14
0.0
 24
0.0
 34
0.0
 15
0.0
 25
0.0
 35
0.0
146
0.0
 13
0.0
 23
0.0
 33
0.0
 16
1.0
 26
0.0
 36
0.0
 17
0.0
 27
1.0
 37
0.0
 76
     0
330
18
  0
MLINESTYLE
  5
13
102
{ACAD_REACTORS
330
12
102
}
330
12
100
AcDbMlineStyle
  2
Standard
 70
     0
  3

 62
   256
 51
90.0
 52
90.0
 71
     2
 49
0.5
 62
   256
  6
BYLAYER
 49
-0.5
 62
   256
  6
BYLAYER
  0
ACDBPLACEHOLDER
  5
F
102
{ACAD_REACTORS
330
E
102
}
330
E
  0
XRECORD
  5
63C
102
{ACAD_REACTORS
330
63A
102
}
330
63A
100
AcDbXrecord
340
63B
  0
XRECORD
  5
63E
102
{ACAD_REACTORS
330
63A
102
}
330
63A
100
AcDbXrecord
340
63D
  0
DICTIONARY
  5
63F
330
17
100
AcDbDictionary
280
     1
281
     1
  3
ACAD_XREC_ROUNDTRIP
360
640
  0
DICTIONARY
  5
641
330
19
100
AcDbDictionary
280
     1
281
     1
  3
ACAD_XREC_ROUNDTRIP
360
642
  0
XRECORD
  5
640
102
{ACAD_REACTORS
330
63F
102
}
330
63F
100
AcDbXrecord
102
SHADEPLOT
 70
 18664
102
SHADEPLOTRESLEVEL
 70
   232
102
SHADEPLOTCUSTOMDPI
 70
 13608
  0
XRECORD
  5
642
102
{ACAD_REACTORS
330
641
102
}
330
641
100
AcDbXrecord
102
SHADEPLOT
 70
     0
102
SHADEPLOTRESLEVEL
 70
     0
102
SHADEPLOTCUSTOMDPI
 70
     0
  0
ENDSEC
  0
EOF
