  0
SECTION
  2
HEADER
  9
$ACADVER
  1
AC1015
  9
$ACADMAINTVER
 70
     6
  9
$DWGCODEPAGE
  3
ANSI_1252
  9
$INSBASE
 10
0.0
 20
0.0
 30
0.0
  9
$EXTMIN
 10
52.13940551276611
 20
92.04944362922228
 30
-0.0015258207003612
  9
$EXTMAX
 10
152.6489964559616
 20
192.0783272617379
 30
0.0000000349246008
  9
$LIMMIN
 10
51.95772433810763
 20
91.89964463975694
  9
$LIMMAX
 10
152.8614705403646
 20
192.0752699110243
  9
$ORTHOMODE
 70
     0
  9
$REGENMODE
 70
     1
  9
$FILLMODE
 70
     1
  9
$QTEXTMODE
 70
     0
  9
$MIRRTEXT
 70
     1
  9
$LTSCALE
 40
1.0
  9
$ATTMODE
 70
     1
  9
$TEXTSIZE
 40
0.2
  9
$TRACEWID
 40
0.05
  9
$TEXTSTYLE
  7
STANDARD
  9
$CLAYER
  8
0
  9
$CELTYPE
  6
CONTINUOUS
  9
$CECOLOR
 62
   256
  9
$CELTSCALE
 40
1.0
  9
$DISPSILH
 70
     0
  9
$DIMSCALE
 40
1.0
  9
$DIMASZ
 40
0.18
  9
$DIMEXO
 40
0.0625
  9
$DIMDLI
 40
0.38
  9
$DIMRND
 40
0.0
  9
$DIMDLE
 40
0.0
  9
$DIMEXE
 40
0.18
  9
$DIMTP
 40
0.0
  9
$DIMTM
 40
0.0
  9
$DIMTXT
 40
0.18
  9
$DIMCEN
 40
0.09
  9
$DIMTSZ
 40
0.0
  9
$DIMTOL
 70
     0
  9
$DIMLIM
 70
     0
  9
$DIMTIH
 70
     1
  9
$DIMTOH
 70
     1
  9
$DIMSE1
 70
     0
  9
$DIMSE2
 70
     0
  9
$DIMTAD
 70
     0
  9
$DIMZIN
 70
     0
  9
$DIMBLK
  1

  9
$DIMASO
 70
     1
  9
$DIMSHO
 70
     1
  9
$DIMPOST
  1

  9
$DIMAPOST
  1

  9
$DIMALT
 70
     0
  9
$DIMALTD
 70
     2
  9
$DIMALTF
 40
25.4
  9
$DIMLFAC
 40
1.0
  9
$DIMTOFL
 70
     0
  9
$DIMTVP
 40
0.0
  9
$DIMTIX
 70
     0
  9
$DIMSOXD
 70
     0
  9
$DIMSAH
 70
     0
  9
$DIMBLK1
  1

  9
$DIMBLK2
  1

  9
$DIMSTYLE
  2
STANDARD
  9
$DIMCLRD
 70
     0
  9
$DIMCLRE
 70
     0
  9
$DIMCLRT
 70
     0
  9
$DIMTFAC
 40
1.0
  9
$DIMGAP
 40
0.09
  9
$DIMJUST
 70
     0
  9
$DIMSD1
 70
     0
  9
$DIMSD2
 70
     0
  9
$DIMTOLJ
 70
     1
  9
$DIMTZIN
 70
     0
  9
$DIMALTZ
 70
     0
  9
$DIMALTTZ
 70
     0
  9
$DIMUPT
 70
     0
  9
$DIMDEC
 70
     4
  9
$DIMTDEC
 70
     4
  9
$DIMALTU
 70
     2
  9
$DIMALTTD
 70
     2
  9
$DIMTXSTY
  7
STANDARD
  9
$DIMAUNIT
 70
     0
  9
$DIMADEC
 70
     0
  9
$DIMALTRND
 40
0.0
  9
$DIMAZIN
 70
     0
  9
$DIMDSEP
 70
    46
  9
$DIMATFIT
 70
     3
  9
$DIMFRAC
 70
     0
  9
$DIMLDRBLK
  1

  9
$DIMLUNIT
 70
     2
  9
$DIMLWD
 70
    -2
  9
$DIMLWE
 70
    -2
  9
$DIMTMOVE
 70
     0
  9
$LUNITS
 70
     2
  9
$LUPREC
 70
     4
  9
$SKETCHINC
 40
0.1
  9
$FILLETRAD
 40
0.0
  9
$AUNITS
 70
     0
  9
$AUPREC
 70
     0
  9
$MENU
  1
acad
  9
$ELEVATION
 40
0.0
  9
$PELEVATION
 40
0.0
  9
$THICKNESS
 40
0.0
  9
$LIMCHECK
 70
     0
  9
$CHAMFERA
 40
0.0
  9
$CHAMFERB
 40
0.0
  9
$CHAMFERC
 40
0.0
  9
$CHAMFERD
 40
0.0
  9
$SKPOLY
 70
     0
  9
$TDCREATE
 40
2444971.666666667
  9
$TDUCREATE
 40
2444972.0
  9
$TDUPDATE
 40
2452215.432059491
  9
$TDUUPDATE
 40
2452215.765392824
  9
$TDINDWG
 40
0.000602662
  9
$TDUSRTIMER
 40
0.000602662
  9
$USRTIMER
 70
     1
  9
$ANGBASE
 50
0.0
  9
$ANGDIR
 70
     0
  9
$PDMODE
 70
     0
  9
$PDSIZE
 40
0.0
  9
$PLINEWID
 40
0.0
  9
$SPLFRAME
 70
     0
  9
$SPLINETYPE
 70
     6
  9
$SPLINESEGS
 70
     8
  9
$HANDSEED
  5
1C0
  9
$SURFTAB1
 70
     6
  9
$SURFTAB2
 70
     6
  9
$SURFTYPE
 70
     6
  9
$SURFU
 70
     6
  9
$SURFV
 70
     6
  9
$UCSBASE
  2

  9
$UCSNAME
  2

  9
$UCSORG
 10
0.0
 20
0.0
 30
0.0
  9
$UCSXDIR
 10
1.0
 20
0.0
 30
0.0
  9
$UCSYDIR
 10
0.0
 20
1.0
 30
0.0
  9
$UCSORTHOREF
  2

  9
$UCSORTHOVIEW
 70
     0
  9
$UCSORGTOP
 10
0.0
 20
0.0
 30
0.0
  9
$UCSORGBOTTOM
 10
0.0
 20
0.0
 30
0.0
  9
$UCSORGLEFT
 10
0.0
 20
0.0
 30
0.0
  9
$UCSORGRIGHT
 10
0.0
 20
0.0
 30
0.0
  9
$UCSORGFRONT
 10
0.0
 20
0.0
 30
0.0
  9
$UCSORGBACK
 10
0.0
 20
0.0
 30
0.0
  9
$PUCSBASE
  2

  9
$PUCSNAME
  2

  9
$PUCSORG
 10
0.0
 20
0.0
 30
0.0
  9
$PUCSXDIR
 10
1.0
 20
0.0
 30
0.0
  9
$PUCSYDIR
 10
0.0
 20
1.0
 30
0.0
  9
$PUCSORTHOREF
  2

  9
$PUCSORTHOVIEW
 70
     0
  9
$PUCSORGTOP
 10
0.0
 20
0.0
 30
0.0
  9
$PUCSORGBOTTOM
 10
0.0
 20
0.0
 30
0.0
  9
$PUCSORGLEFT
 10
0.0
 20
0.0
 30
0.0
  9
$PUCSORGRIGHT
 10
0.0
 20
0.0
 30
0.0
  9
$PUCSORGFRONT
 10
0.0
 20
0.0
 30
0.0
  9
$PUCSORGBACK
 10
0.0
 20
0.0
 30
0.0
  9
$USERI1
 70
     0
  9
$USERI2
 70
     0
  9
$USERI3
 70
     0
  9
$USERI4
 70
     0
  9
$USERI5
 70
     0
  9
$USERR1
 40
0.0
  9
$USERR2
 40
0.0
  9
$USERR3
 40
0.0
  9
$USERR4
 40
0.0
  9
$USERR5
 40
0.0
  9
$WORLDVIEW
 70
     1
  9
$SHADEDGE
 70
     3
  9
$SHADEDIF
 70
    70
  9
$TILEMODE
 70
     1
  9
$MAXACTVP
 70
    16
  9
$PINSBASE
 10
0.0
 20
0.0
 30
0.0
  9
$PLIMCHECK
 70
     0
  9
$PEXTMIN
 10
1.000000000000000E+20
 20
1.000000000000000E+20
 30
1.000000000000000E+20
  9
$PEXTMAX
 10
-1.000000000000000E+20
 20
-1.000000000000000E+20
 30
-1.000000000000000E+20
  9
$PLIMMIN
 10
0.0
 20
0.0
  9
$PLIMMAX
 10
12.0
 20
9.0
  9
$UNITMODE
 70
     0
  9
$VISRETAIN
 70
     0
  9
$PLINEGEN
 70
     1
  9
$PSLTSCALE
 70
     0
  9
$TREEDEPTH
 70
  3020
  9
$CMLSTYLE
  2
STANDARD
  9
$CMLJUST
 70
     0
  9
$CMLSCALE
 40
1.0
  9
$PROXYGRAPHICS
 70
     0
  9
$MEASUREMENT
 70
     0
  9
$CELWEIGHT
370
    -1
  9
$ENDCAPS
280
     0
  9
$JOINSTYLE
280
     0
  9
$LWDISPLAY
290
     0
  9
$INSUNITS
 70
     0
  9
$HYPERLINKBASE
  1

  9
$STYLESHEET
  1

  9
$XEDIT
290
     1
  9
$CEPSNTYPE
380
     0
  9
$PSTYLEMODE
290
     1
  9
$FINGERPRINTGUID
  2
{87DE950C-CEA3-11D5-923F-00805F198AD5}
  9
$VERSIONGUID
  2
{87DE950E-CEA3-11D5-923F-00805F198AD5}
  9
$EXTNAMES
290
     1
  9
$PSVPSCALE
 40
0.0
  9
$OLESTARTUP
290
     0
  0
ENDSEC
  0
SECTION
  2
CLASSES
  0
CLASS
  1
LWPOLYLINE
  2
AcDbPolyline
  3
AutoCAD 2000
 90
        0
280
     0
281
     1
  0
CLASS
  1
IMAGE
  2
AcDbRasterImage
  3
ISM
 90
      127
280
     0
281
     1
  0
CLASS
  1
OLE2FRAME
  2
AcDbOle2Frame
  3
AutoCAD 2000
 90
        0
280
     0
281
     1
  0
CLASS
  1
HATCH
  2
AcDbHatch
  3
AutoCAD 2000
 90
        0
280
     0
281
     1
  0
CLASS
  1
DICTIONARYVAR
  2
AcDbDictionaryVar
  3
AutoCAD 2000
 90
        0
280
     0
281
     0
  0
CLASS
  1
RASTERVARIABLES
  2
AcDbRasterVariables
  3
ISM
 90
        0
280
     0
281
     0
  0
CLASS
  1
IMAGEDEF
  2
AcDbRasterImageDef
  3
ISM
 90
        0
280
     0
281
     0
  0
CLASS
  1
IMAGEDEF_REACTOR
  2
AcDbRasterImageDefReactor
  3
ISM
 90
        1
280
     0
281
     0
  0
CLASS
  1
IDBUFFER
  2
AcDbIdBuffer
  3
AutoCAD 2000
 90
        0
280
     0
281
     0
  0
CLASS
  1
SPATIAL_FILTER
  2
AcDbSpatialFilter
  3
AutoCAD 2000
 90
        0
280
     0
281
     0
  0
CLASS
  1
XRECORD
  2
AcDbXrecord
  3
AutoCAD 2000
 90
        0
280
     0
281
     0
  0
CLASS
  1
SORTENTSTABLE
  2
AcDbSortentsTable
  3
AutoCAD 2000
 90
        0
280
     0
281
     0
  0
CLASS
  1
LAYER_INDEX
  2
AcDbLayerIndex
  3
AutoCAD 2000
 90
        0
280
     0
281
     0
  0
CLASS
  1
SPATIAL_INDEX
  2
AcDbSpatialIndex
  3
AutoCAD 2000
 90
        0
280
     0
281
     0
  0
CLASS
  1
OBJECT_PTR
  2
CAseDLPNTableRecord
  3
ASE-LPNTableRecord
 90
        1
280
     1
281
     0
  0
CLASS
  1
LAYOUT
  2
AcDbLayout
  3
ObjectDBX Classes
 90
        0
280
     0
281
     0
  0
CLASS
  1
PLOTSETTINGS
  2
AcDbPlotSettings
  3
AutoCAD 2000
 90
        0
280
     0
281
     0
  0
CLASS
  1
ACDBDICTIONARYWDFLT
  2
AcDbDictionaryWithDefault
  3
AutoCAD 2000
 90
        0
280
     0
281
     0
  0
CLASS
  1
ACDBPLACEHOLDER
  2
AcDbPlaceHolder
  3
ObjectDBX Classes
 90
        0
280
     0
281
     0
  0
CLASS
  1
VBAPROJECT
  2
AcDbVbaProject
  3
ObjectDBX Classes
 90
        0
280
     0
281
     0
  0
CLASS
  1
WIPEOUT
  2
AcDbWipeout
  3
WipeOut|AutoCAD Express Tool|expresstools@autodesk.com
 90
      127
280
     0
281
     1
  0
CLASS
  1
WIPEOUTVARIABLES
  2
AcDbWipeoutVariables
  3
WipeOut|AutoCAD Express Tool|expresstools@autodesk.com
 90
        0
280
     0
281
     0
  0
CLASS
  1
RTEXT
  2
RText
  3
RText|AutoCAD Express Tool|expresstools@autodesk.com
 90
        0
280
     0
281
     1
  0
CLASS
  1
ARCALIGNEDTEXT
  2
AcDbArcAlignedText
  3
ATEXT|AutoCAD Express Tool|expresstools@autodesk.com
 90
        0
280
     0
281
     1
  0
CLASS
  1
LONG_TRANSACTION
  2
AcDbLongTransaction
  3
AutoCAD 2000
 90
        0
280
     1
281
     0
  0
CLASS
  1
LWPOLYLINE
  2
AcDbPolyline
  3
AutoCAD 2000
 90
        0
280
     0
281
     1
  0
CLASS
  1
HATCH
  2
AcDbHatch
  3
AutoCAD 2000
 90
        0
280
     0
281
     1
  0
CLASS
  1
XRECORD
  2
AcDbXrecord
  3
AutoCAD 2000
 90
        0
280
     0
281
     0
  0
ENDSEC
  0
SECTION
  2
TABLES
  0
TABLE
  2
VPORT
  5
7
330
0
100
AcDbSymbolTable
 70
     2
  0
VPORT
  5
18C
330
7
100
AcDbSymbolTableRecord
100
AcDbViewportTableRecord
  2
*Active
 70
     0
 10
0.0
 20
0.0
 11
1.0
 21
1.0
 12
102.3942009843639
 22
142.0638854454801
 13
0.0
 23
0.0
 14
1.0
 24
1.0
 15
0.0
 25
0.0
 16
0.0
 26
0.0
 36
1.0
 17
0.0
 27
0.0
 37
0.0
 40
101.6041416424764
 41
1.836842105263158
 42
50.0
 43
0.0
 44
0.0
 50
0.0
 51
0.0
 71
     0
 72
   100
 73
     1
 74
     1
 75
     0
 76
     0
 77
     0
 78
     0
281
     0
 65
     1
110
0.0
120
0.0
130
0.0
111
1.0
121
0.0
131
0.0
112
0.0
122
1.0
132
0.0
 79
     0
146
0.0
  0
ENDTAB
  0
TABLE
  2
LTYPE
  5
4
330
0
100
AcDbSymbolTable
 70
     1
  0
LTYPE
  5
11
330
4
100
AcDbSymbolTableRecord
100
AcDbLinetypeTableRecord
  2
BYBLOCK
 70
     0
  3

 72
    65
 73
     0
 40
0.0
  0
LTYPE
  5
12
330
4
100
AcDbSymbolTableRecord
100
AcDbLinetypeTableRecord
  2
BYLAYER
 70
     0
  3

 72
    65
 73
     0
 40
0.0
  0
LTYPE
  5
13
330
4
100
AcDbSymbolTableRecord
100
AcDbLinetypeTableRecord
  2
CONTINUOUS
 70
     0
  3
Solid line
 72
    65
 73
     0
 40
0.0
  0
ENDTAB
  0
TABLE
  2
LAYER
  5
2
330
0
100
AcDbSymbolTable
 70
     2
  0
LAYER
  5
14
330
2
100
AcDbSymbolTableRecord
100
AcDbLayerTableRecord
  2
0
 70
     0
 62
     7
  6
CONTINUOUS
370
    -3
390
0
  0
LAYER
  5
21
330
2
100
AcDbSymbolTableRecord
100
AcDbLayerTableRecord
  2
LAYER_1
 70
     0
 62
     5
  6
CONTINUOUS
370
    -3
390
0
  0
ENDTAB
  0
TABLE
  2
STYLE
  5
3
330
0
100
AcDbSymbolTable
 70
     5
  0
STYLE
  5
17
330
3
100
AcDbSymbolTableRecord
100
AcDbTextStyleTableRecord
  2
STANDARD
 70
     0
 40
0.0
 41
1.0
 50
0.0
 71
     0
 42
0.2
  3
txt
  4

  0
STYLE
  5
1D
330
3
100
AcDbSymbolTableRecord
100
AcDbTextStyleTableRecord
  2
STD
 70
     0
 40
0.0
 41
1.0
 50
0.0
 71
     0
 42
0.2
  3
txt
  4

  0
STYLE
  5
1E
330
3
100
AcDbSymbolTableRecord
100
AcDbTextStyleTableRecord
  2
TATESTD
 70
     4
 40
0.0
 41
1.0
 50
0.0
 71
     0
 42
0.2
  3
txt
  4

  0
STYLE
  5
1F
330
3
100
AcDbSymbolTableRecord
100
AcDbTextStyleTableRecord
  2
KANJISTD
 70
     0
 40
0.0
 41
1.0
 50
0.0
 71
     0
 42
0.2
  3
txt
  4
extfont
  0
STYLE
  5
20
330
3
100
AcDbSymbolTableRecord
100
AcDbTextStyleTableRecord
  2
KANJITATE
 70
     4
 40
0.0
 41
1.0
 50
0.0
 71
     0
 42
0.2
  3
txt
  4
extfont
  0
ENDTAB
  0
TABLE
  2
VIEW
  5
5
330
0
100
AcDbSymbolTable
 70
     0
  0
ENDTAB
  0
TABLE
  2
UCS
  5
6
330
0
100
AcDbSymbolTable
 70
     0
  0
ENDTAB
  0
TABLE
  2
APPID
  5
8
330
0
100
AcDbSymbolTable
 70
     1
  0
APPID
  5
16
330
8
100
AcDbSymbolTableRecord
100
AcDbRegAppTableRecord
  2
ACAD
 70
     0
  0
ENDTAB
  0
TABLE
  2
DIMSTYLE
  5
9
330
0
100
AcDbSymbolTable
 70
     1
100
AcDbDimStyleTable
  0
DIMSTYLE
105
18
330
9
100
AcDbSymbolTableRecord
100
AcDbDimStyleTableRecord
  2
STANDARD
 70
     0
  3

  4

289
     0
340
17
  0
ENDTAB
  0
TABLE
  2
BLOCK_RECORD
  5
1
330
0
100
AcDbSymbolTable
 70
     2
  0
BLOCK_RECORD
  5
A
330
1
100
AcDbSymbolTableRecord
100
AcDbBlockTableRecord
  2
*MODEL_SPACE
340
187
  0
BLOCK_RECORD
  5
B
330
1
100
AcDbSymbolTableRecord
100
AcDbBlockTableRecord
  2
*PAPER_SPACE
340
188
  0
BLOCK_RECORD
  5
92
330
1
100
AcDbSymbolTableRecord
100
AcDbBlockTableRecord
  2
AI9-BLK1
340
0
102
{BLKREFS
331
93
102
}
  0
BLOCK_RECORD
  5
98
330
1
100
AcDbSymbolTableRecord
100
AcDbBlockTableRecord
  2
AI9-BLK2
340
0
102
{BLKREFS
331
99
102
}
  0
ENDTAB
  0
ENDSEC
  0
SECTION
  2
BLOCKS
  0
BLOCK
  5
D
330
A
100
AcDbEntity
  8
0
100
AcDbBlockBegin
  2
*MODEL_SPACE
 70
     0
 10
0.0
 20
0.0
 30
0.0
  3
*MODEL_SPACE
  1

  4

  0
ENDBLK
  5
E
330
A
100
AcDbEntity
  8
0
100
AcDbBlockEnd
  0
BLOCK
  5
F
330
B
100
AcDbEntity
 67
     1
  8
0
100
AcDbBlockBegin
  2
*PAPER_SPACE
 70
     0
 10
0.0
 20
0.0
 30
0.0
  3
*PAPER_SPACE
  1

  4

  0
ENDBLK
  5
10
330
B
100
AcDbEntity
 67
     1
  8
0
100
AcDbBlockEnd
  0
BLOCK
  5
94
330
92
100
AcDbEntity
  8
LAYER_1
 62
     7
100
AcDbBlockBegin
  2
AI9-BLK1
 70
     0
 10
0.0
 20
0.0
 30
0.0
  3
AI9-BLK1
  1

  4

  0
LINE
  5
96
330
92
100
AcDbEntity
  8
LAYER_1
 62
     7
100
AcDbLine
 10
-5.255148654513889
 20
15.27426147460937
 30
0.0
 11
3.864019097222222
 21
-12.04224514431424
 31
0.0
  0
HATCH
  5
95
330
92
100
AcDbEntity
  8
LAYER_1
 62
     7
100
AcDbHatch
 10
0.0
 20
0.0
 30
0.0
210
0.0
220
0.0
230
1.0
  2
SOLID
 70
     1
 71
     0
 91
        1
 92
        3
 72
     0
 73
     1
 93
        3
 10
2.4649658203125
 20
-11.79282023111979
 10
5.380550130208333
 20
-15.31611938476562
 10
4.61711697048611
 20
-10.8071784125434
 97
        0
 75
     0
 76
     1
 98
        1
 10
0.0
 20
0.0
  0
ENDBLK
  5
97
330
92
100
AcDbEntity
  8
LAYER_1
100
AcDbBlockEnd
  0
BLOCK
  5
9A
330
98
100
AcDbEntity
  8
LAYER_1
 62
     7
100
AcDbBlockBegin
  2
AI9-BLK2
 70
     0
 10
0.0
 20
0.0
 30
0.0
  3
AI9-BLK2
  1

  4

  0
LINE
  5
9C
330
98
100
AcDbEntity
  8
LAYER_1
 62
     7
100
AcDbLine
 10
-14.17105577256944
 20
11.13928561740451
 30
0.0
 11
11.75811089409722
 21
-9.321825493706596
 31
0.0
  0
HATCH
  5
9B
330
98
100
AcDbEntity
  8
LAYER_1
 62
     7
100
AcDbHatch
 10
0.0
 20
0.0
 30
0.0
210
0.0
220
0.0
230
1.0
  2
SOLID
 70
     1
 71
     0
 91
        1
 92
        3
 72
     0
 73
     1
 93
        3
 10
9.523966471354166
 20
-9.086525472005208
 10
14.25304904513889
 20
-11.24315524631076
 10
11.99341091579861
 20
-7.793236626519096
 97
        0
 75
     0
 76
     1
 98
        1
 10
0.0
 20
0.0
  0
ENDBLK
  5
9D
330
98
100
AcDbEntity
  8
LAYER_1
100
AcDbBlockEnd
  0
ENDSEC
  0
SECTION
  2
ENTITIES
  0
LWPOLYLINE
  5
172
330
A
100
AcDbEntity
  8
LAYER_1
 62
     7
100
AcDbPolyline
 90
       14
 70
     0
 43
0.0
 10
115.9684597439236
 20
106.5385443793403
 10
137.5833333333333
 20
94.89291585286458
 10
150.1772243923611
 20
102.7952758789062
 10
150.1772243923611
 20
117.1179158528646
 10
147.8931260850694
 20
118.7849975585937
 10
152.6466688368055
 20
121.5627780490451
 10
150.1772243923611
 20
124.0322224934896
 10
150.1772243923611
 20
141.4420125325521
 10
145.8556966145833
 20
143.4174302842882
 10
145.8556966145833
 20
148.6033325195313
 10
147.5844455295139
 20
150.4554158528646
 10
144.4976399739583
 20
152.5545125325521
 10
145.8556966145833
 20
154.282916937934
 10
145.8556966145833
 20
161.8455905490451
  0
LWPOLYLINE
  5
160
330
A
100
AcDbEntity
  8
LAYER_1
 62
     7
100
AcDbPolyline
 90
       16
 70
     0
 43
0.0
 10
97.69205593532985
 20
165.0409166124132
 10
73.5989529079861
 20
176.0087226019965
 10
61.66341959635416
 20
171.0288370768229
 10
61.66341959635416
 20
159.4688191731771
 10
62.8829833984375
 20
157.8637491861979
 10
59.67249891493055
 20
155.1472913953993
 10
61.66341959635416
 20
153.4185424804687
 10
61.66341959635416
 20
148.1093058268229
 10
54.85728895399305
 20
144.8991658528646
 10
54.85728895399305
 20
127.9834025065104
 10
52.14083116319444
 20
124.5262491861979
 10
56.83270670572916
 20
120.5750691731771
 10
54.85728895399305
 20
117.7352769639757
 10
54.85728895399305
 20
103.2893025716146
 10
73.00743001302082
 20
92.05312364366318
 10
106.6236382378472
 20
110.7959933810764
  0
LWPOLYLINE
  5
15A
330
A
100
AcDbEntity
  8
LAYER_1
 62
     7
100
AcDbPolyline
 90
        4
 70
     0
 43
0.0
 10
145.8556966145833
 20
162.8949666341146
 10
145.8556966145833
 20
170.8279880099826
 10
127.7055555555556
 20
178.3600002712674
 10
108.2371487087674
 20
169.4590793185764
  0
LINE
  5
159
330
A
100
AcDbEntity
  8
LAYER_1
 62
     7
100
AcDbLine
 10
108.3506646050347
 20
169.4699313693576
 30
0.0
 11
127.7055555555556
 21
178.3600002712674
 31
0.0
  0
LINE
  5
158
330
A
100
AcDbEntity
  8
LAYER_1
 62
     7
100
AcDbLine
 10
86.59402533637152
 20
159.4765706380208
 30
0.0
 11
98.40760226779513
 21
164.9027682834201
 31
0.0
  0
LINE
  5
157
330
A
100
AcDbEntity
  8
LAYER_1
 62
     7
100
AcDbLine
 10
54.85728895399305
 20
144.8991658528646
 30
0.0
 11
75.16681586371527
 21
154.2276231553819
 31
0.0
  0
LWPOLYLINE
  5
152
330
A
100
AcDbEntity
  8
LAYER_1
 62
     7
100
AcDbPolyline
 90
        3
 70
     0
 43
0.0
 10
93.57465006510415
 20
145.0433430989583
 10
73.25444335937499
 20
135.0213880750868
 10
54.85728895399305
 20
144.8991658528646
  0
LINE
  5
151
330
A
100
AcDbEntity
  8
LAYER_1
 62
     7
100
AcDbLine
 10
116.6883124457465
 20
156.4429918077257
 30
0.0
 11
104.6110134548611
 21
150.4865939670139
 31
0.0
  0
LINE
  5
150
330
A
100
AcDbEntity
  8
LAYER_1
 62
     7
100
AcDbLine
 10
145.8556966145833
 20
170.8279880099826
 30
0.0
 11
126.2603379991319
 21
161.1638061523437
 31
0.0
  0
LINE
  5
14F
330
A
100
AcDbEntity
  8
LAYER_1
 62
     7
100
AcDbLine
 10
140.4231255425347
 20
114.463469780816
 30
0.0
 11
152.6466688368055
 21
121.5627780490451
 31
0.0
  0
LINE
  5
14E
330
A
100
AcDbEntity
  8
LAYER_1
 62
     7
100
AcDbLine
 10
98.29994303385416
 20
164.8590155707465
 30
0.0
 11
73.5989529079861
 21
176.0087226019965
 31
0.0
  0
LINE
  5
14D
330
A
100
AcDbEntity
  8
LAYER_1
 62
     7
100
AcDbLine
 10
116.8342122395833
 20
156.4926011827257
 30
0.0
 11
150.1772243923611
 21
141.4420125325521
 31
0.0
  0
LINE
  5
14C
330
A
100
AcDbEntity
  8
LAYER_1
 62
     7
100
AcDbLine
 10
61.66341959635416
 20
171.0288370768229
 30
0.0
 11
85.01944444444443
 21
159.6906833224826
 31
0.0
  0
LWPOLYLINE
  5
147
330
A
100
AcDbEntity
  8
LAYER_1
 62
     7
100
AcDbPolyline
 90
        3
 70
     0
 43
0.0
 10
150.1772243923611
 20
141.4420125325521
 10
137.7066677517361
 20
134.2806925455729
 10
104.3925944010417
 20
150.3796237521701
  0
LWPOLYLINE
  5
13F
330
A
100
AcDbEntity
  8
LAYER_1
 62
     7
100
AcDbPolyline
 90
        6
 70
     0
 43
0.0
 10
137.7066677517361
 20
134.2806925455729
 10
137.7066677517361
 20
116.6859008789062
 10
140.4231255425347
 20
114.463469780816
 10
135.66923828125
 20
112.4260403103299
 10
137.7066677517361
 20
109.7712497287326
 10
137.7066677517361
 20
94.89291585286458
  0
LINE
  5
13E
330
A
100
AcDbEntity
  8
LAYER_1
 62
     7
100
AcDbLine
 10
140.4231255425347
 20
114.463469780816
 30
0.0
 11
135.66923828125
 21
112.4260403103299
 31
0.0
  0
LINE
  5
13D
330
A
100
AcDbEntity
  8
LAYER_1
 62
     7
100
AcDbLine
 10
137.7066677517361
 20
109.7712497287326
 30
0.0
 11
150.1772243923611
 21
117.1179158528646
 31
0.0
  0
LINE
  5
13C
330
A
100
AcDbEntity
  8
LAYER_1
 62
     7
100
AcDbLine
 10
137.7066677517361
 20
116.809235297309
 30
0.0
 11
150.1772243923611
 21
124.0322224934896
 31
0.0
  0
LINE
  5
13B
330
A
100
AcDbEntity
  8
LAYER_1
 62
     7
100
AcDbLine
 10
140.0600124782986
 20
165.4126424153646
 30
0.0
 11
152.5233344184028
 21
160.0861802842882
 31
0.0
  0
LINE
  5
13A
330
A
100
AcDbEntity
  8
LAYER_1
 62
     7
100
AcDbLine
 10
108.3203477647569
 20
178.9773613823785
 30
0.0
 11
116.37119140625
 21
175.5364000108507
 31
0.0
  0
LWPOLYLINE
  5
135
330
A
100
AcDbEntity
  8
LAYER_1
 62
     7
100
AcDbPolyline
 90
        3
 70
     1
 43
0.0
 10
118.3214599609375
 20
174.7791680230035
 10
116.4283799913194
 20
176.7545857747396
 10
113.3829155815972
 20
175.3555324978298
  0
HATCH
  5
134
330
A
100
AcDbEntity
  8
LAYER_1
 62
     7
100
AcDbHatch
 10
0.0
 20
0.0
 30
0.0
210
0.0
220
0.0
230
1.0
  2
SOLID
 70
     1
 71
     0
 91
        1
 92
        3
 72
     0
 73
     1
 93
        3
 10
118.3214599609375
 20
174.7791680230035
 10
116.4283799913194
 20
176.7545857747396
 10
113.3829155815972
 20
175.3555324978298
 97
        0
 75
     0
 76
     1
 98
        1
 10
0.0
 20
0.0
  0
LWPOLYLINE
  5
12F
330
A
100
AcDbEntity
  8
LAYER_1
 62
     7
100
AcDbPolyline
 90
        3
 70
     1
 43
0.0
 10
138.6533799913194
 20
166.218450249566
 10
143.2629177517361
 20
165.5600925021701
 10
140.2994466145833
 20
163.9136813693576
  0
HATCH
  5
12E
330
A
100
AcDbEntity
  8
LAYER_1
 62
     7
100
AcDbHatch
 10
0.0
 20
0.0
 30
0.0
210
0.0
220
0.0
230
1.0
  2
SOLID
 70
     1
 71
     0
 91
        1
 92
        3
 72
     0
 73
     1
 93
        3
 10
138.6533799913194
 20
166.218450249566
 10
143.2629177517361
 20
165.5600925021701
 10
140.2994466145833
 20
163.9136813693576
 97
        0
 75
     0
 76
     1
 98
        1
 10
0.0
 20
0.0
  0
MTEXT
  5
12D
330
A
100
AcDbEntity
  8
LAYER_1
 62
     7
100
AcDbMText
 10
104.7067535447444
 20
183.5417553449165
 30
0.0
 40
5.129346700887831
 41
0.0
 71
     1
 72
     2
  1
\fHelvetica|b0|i0;\Q42.89;S
  7
STD
 11
0.9104109833192104
 21
-0.4137050174360331
 31
0.0
 73
     1
 44
1.0
  0
LWPOLYLINE
  5
125
330
A
100
AcDbEntity
  8
LAYER_1
 62
     7
100
AcDbPolyline
 90
        6
 70
     0
 43
0.0
 10
73.25444335937499
 20
135.0213880750868
 10
73.25444335937499
 20
117.4882636176215
 10
71.03201226128472
 20
114.031110297309
 10
75.60055338541666
 20
110.0799302842882
 10
73.25444335937499
 20
106.9931247287326
 10
73.25444335937499
 20
92.05312364366318
  0
LINE
  5
124
330
A
100
AcDbEntity
  8
LAYER_1
 62
     7
100
AcDbLine
 10
54.85728895399305
 20
127.9834025065104
 30
0.0
 11
73.25444335937499
 21
117.4882636176215
 31
0.0
  0
LINE
  5
123
330
A
100
AcDbEntity
  8
LAYER_1
 62
     7
100
AcDbLine
 10
54.91895616319444
 20
117.6736097547743
 30
0.0
 11
73.31611056857638
 21
107.1784708658854
 31
0.0
  0
LINE
  5
122
330
A
100
AcDbEntity
  8
LAYER_1
 62
     7
100
AcDbLine
 10
52.27966851128472
 20
124.6189222547743
 30
0.0
 11
71.03201226128472
 21
114.031110297309
 31
0.0
  0
LINE
  5
121
330
A
100
AcDbEntity
  8
LAYER_1
 62
     7
100
AcDbLine
 10
56.87887098524305
 20
120.5647338867187
 30
0.0
 11
75.63121473524305
 21
109.9772664388021
 31
0.0
  0
SPLINE
  5
120
330
A
100
AcDbEntity
  8
LAYER_1
 62
     7
100
AcDbSpline
210
0.0
220
0.0
230
1.0
 70
    11
 71
     3
 72
    41
 73
    37
 74
     0
 42
0.0000000001
 43
0.0000000001
 40
0.0
 40
0.0
 40
0.0
 40
0.0
 40
1.0
 40
1.0
 40
1.0
 40
2.0
 40
2.0
 40
2.0
 40
3.0
 40
3.0
 40
3.0
 40
4.0
 40
4.0
 40
4.0
 40
5.0
 40
5.0
 40
5.0
 40
6.0
 40
6.0
 40
6.0
 40
7.0
 40
7.0
 40
7.0
 40
8.0
 40
8.0
 40
8.0
 40
9.0
 40
9.0
 40
9.0
 40
10.0
 40
10.0
 40
10.0
 40
11.0
 40
11.0
 40
11.0
 40
12.0
 40
12.0
 40
12.0
 40
12.0
 10
123.8160427517361
 20
156.7213555230035
 30
0.0
 10
123.8160427517361
 20
156.7213555230035
 30
0.0
 10
123.5487033420139
 20
153.5008802625868
 30
0.0
 10
123.5487033420139
 20
153.5008802625868
 30
0.0
 10
123.5487033420139
 20
153.5008802625868
 30
0.0
 10
97.70187445746527
 20
165.1484035915798
 30
0.0
 10
97.70187445746527
 20
165.1484035915798
 30
0.0
 10
97.70187445746527
 20
165.6010891384549
 30
0.0
 10
98.03122558593749
 20
165.9304402669271
 30
0.0
 10
98.40157335069443
 20
166.0537746853298
 30
0.0
 10
98.40157335069443
 20
166.0537746853298
 30
0.0
 10
106.4682644314236
 20
169.7169447157118
 30
0.0
 10
106.4682644314236
 20
169.7169447157118
 30
0.0
 10
106.8799533420139
 20
169.8816202799479
 30
0.0
 10
107.3736355251736
 20
169.8816202799479
 30
0.0
 10
108.1146755642361
 20
169.511272515191
 30
0.0
 10
108.1146755642361
 20
169.511272515191
 30
0.0
 10
116.0990288628472
 20
166.0744452582465
 30
0.0
 10
116.0990288628472
 20
166.0744452582465
 30
0.0
 10
116.0990288628472
 20
166.0744452582465
 30
0.0
 10
116.1300347222222
 20
165.8584377712674
 30
0.0
 10
116.1300347222222
 20
165.8584377712674
 30
0.0
 10
116.1300347222222
 20
165.8584377712674
 30
0.0
 10
116.3770480685764
 20
165.9511108398437
 30
0.0
 10
116.3770480685764
 20
165.9511108398437
 30
0.0
 10
116.3770480685764
 20
165.9511108398437
 30
0.0
 10
125.5651177300347
 20
161.9792602539062
 30
0.0
 10
125.5651177300347
 20
161.9792602539062
 30
0.0
 10
126.5118299696181
 20
161.5679158528646
 30
0.0
 10
126.3061577690972
 20
161.0738891601562
 30
0.0
 10
126.3061577690972
 20
160.662200249566
 30
0.0
 10
126.3061577690972
 20
160.2508558485243
 30
0.0
 10
126.0181477864583
 20
159.7981703016493
 30
0.0
 10
125.6887966579861
 20
159.386481391059
 30
0.0
 10
125.3594455295139
 20
158.9747924804687
 30
0.0
 10
123.8160427517361
 20
156.7213555230035
 30
0.0
 10
123.8160427517361
 20
156.7213555230035
 30
0.0
  0
SPLINE
  5
11F
330
A
100
AcDbEntity
  8
LAYER_1
 62
     7
100
AcDbSpline
210
0.0
220
0.0
230
1.0
 70
    11
 71
     3
 72
    65
 73
    61
 74
     0
 42
0.0000000001
 43
0.0000000001
 40
0.0
 40
0.0
 40
0.0
 40
0.0
 40
1.0
 40
1.0
 40
1.0
 40
2.0
 40
2.0
 40
2.0
 40
3.0
 40
3.0
 40
3.0
 40
4.0
 40
4.0
 40
4.0
 40
5.0
 40
5.0
 40
5.0
 40
6.0
 40
6.0
 40
6.0
 40
7.0
 40
7.0
 40
7.0
 40
8.0
 40
8.0
 40
8.0
 40
9.0
 40
9.0
 40
9.0
 40
10.0
 40
10.0
 40
10.0
 40
11.0
 40
11.0
 40
11.0
 40
12.0
 40
12.0
 40
12.0
 40
13.0
 40
13.0
 40
13.0
 40
14.0
 40
14.0
 40
14.0
 40
15.0
 40
15.0
 40
15.0
 40
16.0
 40
16.0
 40
16.0
 40
17.0
 40
17.0
 40
17.0
 40
18.0
 40
18.0
 40
18.0
 40
19.0
 40
19.0
 40
19.0
 40
20.0
 40
20.0
 40
20.0
 40
20.0
 10
75.27120225694443
 20
154.282916937934
 30
0.0
 10
75.27120225694443
 20
154.282916937934
 30
0.0
 10
93.13333333333333
 20
145.4548597547743
 30
0.0
 10
93.13333333333333
 20
145.4548597547743
 30
0.0
 10
93.50368109809027
 20
145.2695136176215
 30
0.0
 10
93.83303222656249
 20
145.1461791992188
 30
0.0
 10
94.20337999131944
 20
144.9815036349826
 30
0.0
 10
94.20337999131944
 20
144.9815036349826
 30
0.0
 10
97.33152669270832
 20
144.3228013780382
 30
0.0
 10
97.33152669270832
 20
144.3228013780382
 30
0.0
 10
97.33152669270832
 20
144.3228013780382
 30
0.0
 10
103.0111111111111
 20
113.2287475585937
 30
0.0
 10
103.0111111111111
 20
113.2287475585937
 30
0.0
 10
103.0111111111111
 20
113.2287475585937
 30
0.0
 10
103.9988199869792
 20
112.3027058919271
 30
0.0
 10
103.9988199869792
 20
112.3027058919271
 30
0.0
 10
103.9988199869792
 20
112.3027058919271
 30
0.0
 10
114.6021348741319
 20
106.2989379882812
 30
0.0
 10
114.6021348741319
 20
106.2989379882812
 30
0.0
 10
115.9291856553819
 20
105.6195651584201
 30
0.0
 10
116.5003824869792
 20
105.7432440863715
 30
0.0
 10
117.0405734592014
 20
105.9747545030382
 30
0.0
 10
117.0405734592014
 20
105.9747545030382
 30
0.0
 10
115.9911973741319
 20
106.5301038953993
 30
0.0
 10
115.9911973741319
 20
106.5301038953993
 30
0.0
 10
115.9911973741319
 20
106.5301038953993
 30
0.0
 10
107.7339925130208
 20
146.6895819769965
 30
0.0
 10
107.7339925130208
 20
146.6895819769965
 30
0.0
 10
107.7339925130208
 20
146.6895819769965
 30
0.0
 10
105.7892361111111
 20
148.5723266601563
 30
0.0
 10
105.7892361111111
 20
148.5723266601563
 30
0.0
 10
105.5115614149305
 20
148.7883341471354
 30
0.0
 10
105.0175347222222
 20
149.3440280490451
 30
0.0
 10
104.8942003038194
 20
149.6837144639757
 30
0.0
 10
104.7319363064236
 20
150.0619859483507
 30
0.0
 10
104.8221978081597
 20
150.599420844184
 30
0.0
 10
103.8754855685764
 20
151.0111097547743
 30
0.0
 10
103.8754855685764
 20
151.0111097547743
 30
0.0
 10
94.52239583333332
 20
155.3322930230034
 30
0.0
 10
94.52239583333332
 20
155.3322930230034
 30
0.0
 10
94.52239583333332
 20
155.3322930230034
 30
0.0
 10
94.27538248697915
 20
155.2399644639757
 30
0.0
 10
94.27538248697915
 20
155.2399644639757
 30
0.0
 10
94.27538248697915
 20
155.2399644639757
 30
0.0
 10
94.24472113715277
 20
155.4559719509549
 30
0.0
 10
94.24472113715277
 20
155.4559719509549
 30
0.0
 10
94.24472113715277
 20
155.4559719509549
 30
0.0
 10
86.52253960503471
 20
159.386481391059
 30
0.0
 10
86.52253960503471
 20
159.386481391059
 30
0.0
 10
85.78149956597221
 20
159.756829155816
 30
0.0
 10
85.14898003472221
 20
159.8184963650174
 30
0.0
 10
84.73729112413194
 20
159.6538208007812
 30
0.0
 10
84.73729112413194
 20
159.6538208007812
 30
0.0
 10
75.55921223958333
 20
155.3529635959201
 30
0.0
 10
75.55921223958333
 20
155.3529635959201
 30
0.0
 10
74.7771755642361
 20
155.0236124674479
 30
0.0
 10
74.7771755642361
 20
154.6946058485243
 30
0.0
 10
74.7771755642361
 20
154.1182413736979
 30
0.0
 10
74.7771755642361
 20
154.1182413736979
 30
0.0
 10
75.27120225694443
 20
154.282916937934
 30
0.0
 10
75.27120225694443
 20
154.282916937934
 30
0.0
  0
LINE
  5
11E
330
A
100
AcDbEntity
  8
LAYER_1
 62
     7
100
AcDbLine
 10
118.239466688368
 20
156.7523613823785
 30
0.0
 11
125.5651177300347
 21
160.4155314127604
 31
0.0
  0
LINE
  5
11D
330
A
100
AcDbEntity
  8
LAYER_1
 62
     7
100
AcDbLine
 10
117.7864366319444
 20
157.1998792860243
 30
0.0
 11
125.4831244574653
 21
161.0738891601562
 31
0.0
  0
LINE
  5
11C
330
A
100
AcDbEntity
  8
LAYER_1
 62
     7
100
AcDbLine
 10
95.36093207465277
 20
145.6346937391493
 30
0.0
 11
103.5461344401042
 21
149.694049750434
 31
0.0
  0
LINE
  5
11B
330
A
100
AcDbEntity
  8
LAYER_1
 62
     7
100
AcDbLine
 10
94.90824652777776
 20
146.0822116427951
 30
0.0
 11
103.5668050130208
 21
150.4140747070312
 31
0.0
  0
SPLINE
  5
11A
330
A
100
AcDbEntity
  8
LAYER_1
 62
     7
100
AcDbSpline
210
0.0
220
0.0
230
1.0
 70
     8
 71
     3
 72
    14
 73
    10
 74
     0
 42
0.0000000001
 43
0.0000000001
 40
0.0
 40
0.0
 40
0.0
 40
0.0
 40
1.0
 40
1.0
 40
1.0
 40
2.0
 40
2.0
 40
2.0
 40
3.0
 40
3.0
 40
3.0
 40
3.0
 10
97.78421223958333
 20
165.6010891384549
 30
0.0
 10
98.03122558593749
 20
165.8894436306424
 30
0.0
 10
98.60724555121527
 20
165.6424302842882
 30
0.0
 10
99.05993109809027
 20
165.4364135742187
 30
0.0
 10
99.05993109809027
 20
165.4364135742187
 30
0.0
 10
116.9017361111111
 20
157.3697224934896
 30
0.0
 10
116.9017361111111
 20
157.3697224934896
 30
0.0
 10
117.4777560763889
 20
157.0403713650173
 30
0.0
 10
117.5397677951389
 20
156.7113647460937
 30
0.0
 10
117.5397677951389
 20
156.2583346896701
 30
0.0
  0
LWPOLYLINE
  5
115
330
A
100
AcDbEntity
  8
LAYER_1
 62
     7
100
AcDbPolyline
 90
        3
 70
     0
 43
0.0
 10
107.9806613498264
 20
161.9382636176215
 10
107.3736355251736
 20
161.6502536349826
 10
107.3736355251736
 20
160.7858791775174
  0
LWPOLYLINE
  5
110
330
A
100
AcDbEntity
  8
LAYER_1
 62
     7
100
AcDbPolyline
 90
        3
 70
     0
 43
0.0
 10
85.16930609809027
 20
151.1344441731771
 10
84.31526692708333
 20
150.7227552625868
 10
84.31526692708333
 20
149.8583808051215
  0
LINE
  5
10F
330
A
100
AcDbEntity
  8
LAYER_1
 62
     7
100
AcDbLine
 10
116.3873833550347
 20
165.9304402669271
 30
0.0
 11
115.6504774305555
 21
165.5804185655382
 31
0.0
  0
LINE
  5
10E
330
A
100
AcDbEntity
  8
LAYER_1
 62
     7
100
AcDbLine
 10
106.5609375
 20
162.6017890082465
 30
0.0
 11
109.5244086371528
 21
161.259235297309
 31
0.0
  0
LINE
  5
10D
330
A
100
AcDbEntity
  8
LAYER_1
 62
     7
100
AcDbLine
 10
107.4322021484375
 20
162.9910847981771
 30
0.0
 11
110.3577772352431
 21
161.6705796983507
 31
0.0
  0
LINE
  5
10C
330
A
100
AcDbEntity
  8
LAYER_1
 62
     7
100
AcDbLine
 10
108.303466796875
 20
163.3803805881076
 30
0.0
 11
111.1911458333333
 21
162.082268608941
 31
0.0
  0
LINE
  5
10B
330
A
100
AcDbEntity
  8
LAYER_1
 62
     7
100
AcDbLine
 10
109.1743869357639
 20
163.7696763780382
 30
0.0
 11
112.0245144314236
 21
162.4939575195312
 31
0.0
  0
LINE
  5
10A
330
A
100
AcDbEntity
  8
LAYER_1
 62
     7
100
AcDbLine
 10
110.0456515842014
 20
164.1589721679687
 30
0.0
 11
112.8578830295139
 21
162.9053019205729
 31
0.0
  0
LINE
  5
109
330
A
100
AcDbEntity
  8
LAYER_1
 62
     7
100
AcDbLine
 10
110.9169162326389
 20
164.5482679578993
 30
0.0
 11
113.6915961371528
 21
163.3169908311632
 31
0.0
  0
LINE
  5
108
330
A
100
AcDbEntity
  8
LAYER_1
 62
     7
100
AcDbLine
 10
111.7878363715278
 20
164.9375637478298
 30
0.0
 11
114.5249647352431
 21
163.7286797417535
 31
0.0
  0
LINE
  5
107
330
A
100
AcDbEntity
  8
LAYER_1
 62
     7
100
AcDbLine
 10
112.6591010199653
 20
165.3268595377604
 30
0.0
 11
115.3583333333333
 21
164.1400241427951
 31
0.0
  0
LINE
  5
106
330
A
100
AcDbEntity
  8
LAYER_1
 62
     7
100
AcDbLine
 10
113.5303656684028
 20
165.716155327691
 30
0.0
 11
116.1917019314236
 21
164.5517130533854
 31
0.0
  0
LINE
  5
105
330
A
100
AcDbEntity
  8
LAYER_1
 62
     7
100
AcDbLine
 10
114.4012858072917
 20
166.1054511176215
 30
0.0
 11
117.0250705295139
 21
164.9634019639757
 31
0.0
  0
LINE
  5
104
330
A
100
AcDbEntity
  8
LAYER_1
 62
     7
100
AcDbLine
 10
83.53736436631944
 20
151.8723836263021
 30
0.0
 11
86.8043484157986
 21
150.3920260959201
 31
0.0
  0
LINE
  5
103
330
A
100
AcDbEntity
  8
LAYER_1
 62
     7
100
AcDbLine
 10
84.49785698784721
 20
152.3016425238715
 30
0.0
 11
87.72315538194444
 21
150.8460896809896
 31
0.0
  0
LINE
  5
102
330
A
100
AcDbEntity
  8
LAYER_1
 62
     7
100
AcDbLine
 10
85.45834960937499
 20
152.730901421441
 30
0.0
 11
88.64230685763889
 21
151.2998087565104
 31
0.0
  0
LINE
  5
101
330
A
100
AcDbEntity
  8
LAYER_1
 62
     7
100
AcDbLine
 10
86.41884223090277
 20
153.1601603190104
 30
0.0
 11
89.56111382378471
 21
151.7535278320312
 31
0.0
  0
LINE
  5
100
330
A
100
AcDbEntity
  8
LAYER_1
 62
     7
100
AcDbLine
 10
87.37933485243055
 20
153.5894192165798
 30
0.0
 11
90.47992078993055
 21
152.2072469075521
 31
0.0
  0
LINE
  5
FF
330
A
100
AcDbEntity
  8
LAYER_1
 62
     7
100
AcDbLine
 10
88.33982747395832
 20
154.0183336046007
 30
0.0
 11
91.39872775607638
 21
152.6609659830729
 31
0.0
  0
LINE
  5
FE
330
A
100
AcDbEntity
  8
LAYER_1
 62
     7
100
AcDbLine
 10
89.29997558593749
 20
154.4475925021701
 30
0.0
 11
92.31753472222222
 21
153.1146850585938
 31
0.0
  0
LINE
  5
FD
330
A
100
AcDbEntity
  8
LAYER_1
 62
     7
100
AcDbLine
 10
90.26046820746527
 20
154.8768513997396
 30
0.0
 11
93.23634168836804
 21
153.5684041341146
 31
0.0
  0
LINE
  5
FC
330
A
100
AcDbEntity
  8
LAYER_1
 62
     7
100
AcDbLine
 10
91.22096082899304
 20
155.306110297309
 30
0.0
 11
94.15514865451388
 21
154.0221232096354
 31
0.0
  0
LINE
  5
FB
330
A
100
AcDbEntity
  8
LAYER_1
 62
     7
100
AcDbLine
 10
92.18145345052082
 20
155.7350246853299
 30
0.0
 11
95.07430013020833
 21
154.4758422851562
 31
0.0
  0
ELLIPSE
  5
FA
330
A
100
AcDbEntity
  8
LAYER_1
 62
     7
100
AcDbEllipse
 10
115.3583333333333
 20
162.5246188693576
 30
0.0
 11
1.134814453125
 21
0.0
 31
0.0
210
0.0
220
0.0
230
1.0
 40
0.4231936854887675
 41
0.0
 42
6.283185307179586
  0
SPLINE
  5
F9
330
A
100
AcDbEntity
  8
LAYER_1
 62
     7
100
AcDbSpline
210
0.0
220
0.0
230
1.0
 70
    11
 71
     3
 72
    23
 73
    19
 74
     0
 42
0.0000000001
 43
0.0000000001
 40
0.0
 40
0.0
 40
0.0
 40
0.0
 40
1.0
 40
1.0
 40
1.0
 40
2.0
 40
2.0
 40
2.0
 40
3.0
 40
3.0
 40
3.0
 40
4.0
 40
4.0
 40
4.0
 40
5.0
 40
5.0
 40
5.0
 40
6.0
 40
6.0
 40
6.0
 40
6.0
 10
116.4931477864583
 20
162.1559936523437
 30
0.0
 10
116.4931477864583
 20
161.8907212999132
 30
0.0
 10
115.9849962022569
 20
161.6757473415798
 30
0.0
 10
115.3583333333333
 20
161.6757473415798
 30
0.0
 10
114.7313259548611
 20
161.6757473415798
 30
0.0
 10
114.2231743706597
 20
161.8907212999132
 30
0.0
 10
114.2231743706597
 20
162.1559936523437
 30
0.0
 10
114.2231743706597
 20
162.1559936523437
 30
0.0
 10
114.2231743706597
 20
162.5091159396701
 30
0.0
 10
114.2231743706597
 20
162.5091159396701
 30
0.0
 10
114.2231743706597
 20
162.7743882921007
 30
0.0
 10
114.7313259548611
 20
162.989362250434
 30
0.0
 10
115.3583333333333
 20
162.989362250434
 30
0.0
 10
115.9849962022569
 20
162.989362250434
 30
0.0
 10
116.4931477864583
 20
162.7743882921007
 30
0.0
 10
116.4931477864583
 20
162.5091159396701
 30
0.0
 10
116.4931477864583
 20
162.5091159396701
 30
0.0
 10
116.4931477864583
 20
162.1559936523437
 30
0.0
 10
116.4931477864583
 20
162.1559936523437
 30
0.0
  0
ELLIPSE
  5
F8
330
A
100
AcDbEntity
  8
LAYER_1
 62
     7
100
AcDbEllipse
 10
109.0613878038194
 20
165.4069580078125
 30
0.0
 11
1.021470811631945
 21
0.0001722547743055556
 31
0.0
210
0.0
220
0.0
230
1.0
 40
0.4231028607631066
 41
0.0
 42
6.283185307179586
  0
SPLINE
  5
F7
330
A
100
AcDbEntity
  8
LAYER_1
 62
     7
100
AcDbSpline
210
0.0
220
0.0
230
1.0
 70
    11
 71
     3
 72
    23
 73
    19
 74
     0
 42
0.0000000001
 43
0.0000000001
 40
0.0
 40
0.0
 40
0.0
 40
0.0
 40
1.0
 40
1.0
 40
1.0
 40
2.0
 40
2.0
 40
2.0
 40
3.0
 40
3.0
 40
3.0
 40
4.0
 40
4.0
 40
4.0
 40
5.0
 40
5.0
 40
5.0
 40
6.0
 40
6.0
 40
6.0
 40
6.0
 10
110.0828586154514
 20
165.0753675672743
 30
0.0
 10
110.0828586154514
 20
164.8366224500868
 30
0.0
 10
109.6253499348958
 20
164.6430080837673
 30
0.0
 10
109.0613878038194
 20
164.6430080837673
 30
0.0
 10
108.4970811631944
 20
164.6430080837673
 30
0.0
 10
108.0395724826389
 20
164.8366224500868
 30
0.0
 10
108.0395724826389
 20
165.0753675672743
 30
0.0
 10
108.0395724826389
 20
165.0753675672743
 30
0.0
 10
108.0395724826389
 20
165.3930053710937
 30
0.0
 10
108.0395724826389
 20
165.3930053710937
 30
0.0
 10
108.0395724826389
 20
165.6317504882812
 30
0.0
 10
108.4970811631944
 20
165.8253648546007
 30
0.0
 10
109.0613878038194
 20
165.8253648546007
 30
0.0
 10
109.6253499348958
 20
165.8253648546007
 30
0.0
 10
110.0828586154514
 20
165.6317504882812
 30
0.0
 10
110.0828586154514
 20
165.3930053710937
 30
0.0
 10
110.0828586154514
 20
165.3930053710937
 30
0.0
 10
110.0828586154514
 20
165.0753675672743
 30
0.0
 10
110.0828586154514
 20
165.0753675672743
 30
0.0
  0
ELLIPSE
  5
F6
330
A
100
AcDbEntity
  8
LAYER_1
 62
     7
100
AcDbEllipse
 10
93.19500054253471
 20
151.8486124674479
 30
0.0
 11
1.251603190104167
 21
0.0
 31
0.0
210
0.0
220
0.0
230
1.0
 40
0.4230663363611341
 41
0.0
 42
6.283185307179586
  0
SPLINE
  5
F5
330
A
100
AcDbEntity
  8
LAYER_1
 62
     7
100
AcDbSpline
210
0.0
220
0.0
230
1.0
 70
    11
 71
     3
 72
    23
 73
    19
 74
     0
 42
0.0000000001
 43
0.0000000001
 40
0.0
 40
0.0
 40
0.0
 40
0.0
 40
1.0
 40
1.0
 40
1.0
 40
2.0
 40
2.0
 40
2.0
 40
3.0
 40
3.0
 40
3.0
 40
4.0
 40
4.0
 40
4.0
 40
5.0
 40
5.0
 40
5.0
 40
6.0
 40
6.0
 40
6.0
 40
6.0
 10
94.44660373263888
 20
151.4420912000868
 30
0.0
 10
94.44660373263888
 20
151.149602593316
 30
0.0
 10
93.8860866970486
 20
150.9125800238715
 30
0.0
 10
93.19500054253471
 20
150.9125800238715
 30
0.0
 10
92.50391438802083
 20
150.9125800238715
 30
0.0
 10
91.94374186197916
 20
151.149602593316
 30
0.0
 10
91.94374186197916
 20
151.4420912000868
 30
0.0
 10
91.94374186197916
 20
151.4420912000868
 30
0.0
 10
91.94374186197916
 20
151.831731499566
 30
0.0
 10
91.94374186197916
 20
151.831731499566
 30
0.0
 10
91.94374186197916
 20
152.1238755967882
 30
0.0
 10
92.50391438802083
 20
152.3608981662326
 30
0.0
 10
93.19500054253471
 20
152.3608981662326
 30
0.0
 10
93.8860866970486
 20
152.3608981662326
 30
0.0
 10
94.44660373263888
 20
152.1238755967882
 30
0.0
 10
94.44660373263888
 20
151.831731499566
 30
0.0
 10
94.44660373263888
 20
151.831731499566
 30
0.0
 10
94.44660373263888
 20
151.4420912000868
 30
0.0
 10
94.44660373263888
 20
151.4420912000868
 30
0.0
  0
ELLIPSE
  5
F4
330
A
100
AcDbEntity
  8
LAYER_1
 62
     7
100
AcDbEllipse
 10
86.95972222222221
 20
155.0067314995659
 30
0.0
 11
1.126201714409722
 21
0.0
 31
0.0
210
0.0
220
0.0
230
1.0
 40
0.4230651575405323
 41
0.0
 42
6.283185307179586
  0
SPLINE
  5
F3
330
A
100
AcDbEntity
  8
LAYER_1
 62
     7
100
AcDbSpline
210
0.0
220
0.0
230
1.0
 70
    11
 71
     3
 72
    23
 73
    19
 74
     0
 42
0.0000000001
 43
0.0000000001
 40
0.0
 40
0.0
 40
0.0
 40
0.0
 40
1.0
 40
1.0
 40
1.0
 40
2.0
 40
2.0
 40
2.0
 40
3.0
 40
3.0
 40
3.0
 40
4.0
 40
4.0
 40
4.0
 40
5.0
 40
5.0
 40
5.0
 40
6.0
 40
6.0
 40
6.0
 40
6.0
 10
88.08592393663194
 20
154.6412068684896
 30
0.0
 10
88.08592393663194
 20
154.3780015733507
 30
0.0
 10
87.58190646701388
 20
154.1644056532118
 30
0.0
 10
86.95972222222221
 20
154.1644056532118
 30
0.0
 10
86.33788248697915
 20
154.1644056532118
 30
0.0
 10
85.83352050781249
 20
154.3780015733507
 30
0.0
 10
85.83352050781249
 20
154.6412068684896
 30
0.0
 10
85.83352050781249
 20
154.6412068684896
 30
0.0
 10
85.83352050781249
 20
154.9915730794271
 30
0.0
 10
85.83352050781249
 20
154.9915730794271
 30
0.0
 10
85.83352050781249
 20
155.2547783745659
 30
0.0
 10
86.33788248697915
 20
155.4680297851562
 30
0.0
 10
86.95972222222221
 20
155.4680297851562
 30
0.0
 10
87.58190646701388
 20
155.4680297851562
 30
0.0
 10
88.08592393663194
 20
155.2547783745659
 30
0.0
 10
88.08592393663194
 20
154.9915730794271
 30
0.0
 10
88.08592393663194
 20
154.9915730794271
 30
0.0
 10
88.08592393663194
 20
154.6412068684896
 30
0.0
 10
88.08592393663194
 20
154.6412068684896
 30
0.0
  0
LWPOLYLINE
  5
EE
330
A
100
AcDbEntity
  8
LAYER_1
 62
     7
100
AcDbPolyline
 90
        3
 70
     0
 43
0.0
 10
97.33152669270832
 20
144.3228013780382
 10
98.28306206597222
 20
144.1326321072048
 10
103.9988199869792
 20
112.3027058919271
  0
SPLINE
  5
ED
330
A
100
AcDbEntity
  8
LAYER_1
 62
     7
100
AcDbSpline
210
0.0
220
0.0
230
1.0
 70
     8
 71
     3
 72
    17
 73
    13
 74
     0
 42
0.0000000001
 43
0.0000000001
 40
0.0
 40
0.0
 40
0.0
 40
0.0
 40
1.0
 40
1.0
 40
1.0
 40
2.0
 40
2.0
 40
2.0
 40
3.0
 40
3.0
 40
3.0
 40
4.0
 40
4.0
 40
4.0
 40
4.0
 10
104.801527235243
 20
149.7763875325521
 30
0.0
 10
104.8476915147569
 20
149.5910413953993
 30
0.0
 10
104.9865288628472
 20
148.5261623806424
 30
0.0
 10
105.2180392795139
 20
148.2481431749132
 30
0.0
 10
105.2180392795139
 20
148.2481431749132
 30
0.0
 10
107.1472927517361
 20
146.2882283528646
 30
0.0
 10
107.1472927517361
 20
146.2882283528646
 30
0.0
 10
107.1472927517361
 20
146.2882283528646
 30
0.0
 10
115.1526611328125
 20
106.7051147460937
 30
0.0
 10
115.1526611328125
 20
106.7051147460937
 30
0.0
 10
115.2759955512153
 20
106.211432562934
 30
0.0
 10
115.5640055338542
 20
105.8820814344618
 30
0.0
 10
115.9756944444444
 20
105.7997436523437
 30
0.0
  0
LINE
  5
EC
330
A
100
AcDbEntity
  8
LAYER_1
 62
     7
100
AcDbLine
 10
107.1472927517361
 20
146.2882283528646
 30
0.0
 11
107.7339925130208
 21
146.6895819769965
 31
0.0
  0
SPLINE
  5
EB
330
A
100
AcDbEntity
  8
LAYER_1
 62
     7
100
AcDbSpline
210
0.0
220
0.0
230
1.0
 70
     8
 71
     3
 72
    14
 73
    10
 74
     0
 42
0.0000000001
 43
0.0000000001
 40
0.0
 40
0.0
 40
0.0
 40
0.0
 40
1.0
 40
1.0
 40
1.0
 40
2.0
 40
2.0
 40
2.0
 40
3.0
 40
3.0
 40
3.0
 40
3.0
 10
75.22986111111111
 20
155.105950249566
 30
0.0
 10
75.43587782118055
 20
155.2296291775174
 30
0.0
 10
75.76488444010415
 20
155.0236124674479
 30
0.0
 10
76.13557671440971
 20
154.8179402669271
 30
0.0
 10
76.13557671440971
 20
154.8179402669271
 30
0.0
 10
93.62736002604166
 20
146.0925469292535
 30
0.0
 10
93.62736002604166
 20
146.0925469292535
 30
0.0
 10
94.18305392795138
 20
145.8252075195312
 30
0.0
 10
94.42972276475693
 20
145.1461791992188
 30
0.0
 10
94.73840332031249
 20
144.8374986436632
 30
0.0
  0
LINE
  5
EA
330
A
100
AcDbEntity
  8
LAYER_1
 62
     7
100
AcDbLine
 10
94.37839084201389
 20
155.3581312391493
 30
0.0
 11
93.64148491753471
 21
155.008454047309
 31
0.0
  0
LINE
  5
E9
330
A
100
AcDbEntity
  8
LAYER_1
 62
     7
100
AcDbLine
 10
104.3281711154514
 20
148.5209947374132
 30
0.0
 11
104.3281711154514
 21
113.5374281141493
 31
0.0
  0
SPLINE
  5
E8
330
A
100
AcDbEntity
  8
LAYER_1
 62
     7
100
AcDbSpline
210
0.0
220
0.0
230
1.0
 70
    11
 71
     3
 72
    23
 73
    19
 74
     0
 42
0.0000000001
 43
0.0000000001
 40
0.0
 40
0.0
 40
0.0
 40
0.0
 40
1.0
 40
1.0
 40
1.0
 40
2.0
 40
2.0
 40
2.0
 40
3.0
 40
3.0
 40
3.0
 40
4.0
 40
4.0
 40
4.0
 40
5.0
 40
5.0
 40
5.0
 40
6.0
 40
6.0
 40
6.0
 40
6.0
 10
100.1602945963542
 20
142.9644002278646
 30
0.0
 10
99.71759982638888
 20
143.0829115125868
 30
0.0
 10
99.50572645399305
 20
143.726799858941
 30
0.0
 10
99.68659396701388
 20
144.4020385742188
 30
0.0
 10
99.86780598958332
 20
145.0772772894965
 30
0.0
 10
100.3728569878472
 20
145.5285847981771
 30
0.0
 10
100.8155517578125
 20
145.4100735134549
 30
0.0
 10
100.8155517578125
 20
145.4100735134549
 30
0.0
 10
101.2627251519097
 20
145.2901841905382
 30
0.0
 10
101.2627251519097
 20
145.2901841905382
 30
0.0
 10
101.7050754123264
 20
145.171672905816
 30
0.0
 10
101.9172932942708
 20
144.5281290690104
 30
0.0
 10
101.73642578125
 20
143.8528903537326
 30
0.0
 10
101.5552137586806
 20
143.1773071289063
 30
0.0
 10
101.049818250868
 20
142.7259996202257
 30
0.0
 10
100.6074679904514
 20
142.8445109049479
 30
0.0
 10
100.6074679904514
 20
142.8445109049479
 30
0.0
 10
100.1602945963542
 20
142.9644002278646
 30
0.0
 10
100.1602945963542
 20
142.9644002278646
 30
0.0
  0
ELLIPSE
  5
E7
330
A
100
AcDbEntity
  8
LAYER_1
 62
     7
100
AcDbEllipse
 10
100.9350965711806
 20
144.0673475477431
 30
0.0
 11
-0.3276285807291666
 21
-1.222836642795139
 31
0.0
210
0.0
220
0.0
230
1.0
 40
0.6552547348271212
 41
0.0
 42
6.283185307179586
  0
SPLINE
  5
E6
330
A
100
AcDbEntity
  8
LAYER_1
 62
     7
100
AcDbSpline
210
0.0
220
0.0
230
1.0
 70
     8
 71
     3
 72
    17
 73
    13
 74
     0
 42
0.0000000001
 43
0.0000000001
 40
0.0
 40
0.0
 40
0.0
 40
0.0
 40
1.0
 40
1.0
 40
1.0
 40
2.0
 40
2.0
 40
2.0
 40
3.0
 40
3.0
 40
3.0
 40
4.0
 40
4.0
 40
4.0
 40
4.0
 10
120.5039279513889
 20
154.8802964952257
 30
0.0
 10
120.5097846137153
 20
154.9064792209201
 30
0.0
 10
120.5163302951389
 20
154.9330064561632
 30
0.0
 10
120.5232204861111
 20
154.9595336914063
 30
0.0
 10
120.6861735026042
 20
155.5672485351562
 30
0.0
 10
121.1409261067708
 20
155.9737698025174
 30
0.0
 10
121.5391791449653
 20
155.8669718424479
 30
0.0
 10
121.5391791449653
 20
155.8669718424479
 30
0.0
 10
121.9415662977431
 20
155.7591403537326
 30
0.0
 10
121.9415662977431
 20
155.7591403537326
 30
0.0
 10
122.3398193359375
 20
155.6523423936632
 30
0.0
 10
122.5306776258681
 20
155.0732218424479
 30
0.0
 10
122.367724609375
 20
154.4655069986979
 30
0.0
  0
SPLINE
  5
E5
330
A
100
AcDbEntity
  8
LAYER_1
 62
     7
100
AcDbSpline
210
0.0
220
0.0
230
1.0
 70
     8
 71
     3
 72
    17
 73
    13
 74
     0
 42
0.0000000001
 43
0.0000000001
 40
0.0
 40
0.0
 40
0.0
 40
0.0
 40
1.0
 40
1.0
 40
1.0
 40
2.0
 40
2.0
 40
2.0
 40
3.0
 40
3.0
 40
3.0
 40
4.0
 40
4.0
 40
4.0
 40
4.0
 10
122.2230305989583
 20
154.0996378580729
 30
0.0
 10
122.2829752604167
 20
154.2098809136285
 30
0.0
 10
122.332240125868
 20
154.3328708224826
 30
0.0
 10
122.367724609375
 20
154.4655069986979
 30
0.0
 10
122.5306776258681
 20
155.0732218424479
 30
0.0
 10
122.3398193359375
 20
155.6523423936632
 30
0.0
 10
121.9415662977431
 20
155.7591403537326
 30
0.0
 10
121.5433132595486
 20
155.8659383138021
 30
0.0
 10
121.0885606553819
 20
155.459417046441
 30
0.0
 10
120.9256076388889
 20
154.8517022026909
 30
0.0
 10
120.9132052951389
 20
154.8051934136284
 30
0.0
 10
120.9028700086806
 20
154.7590291341146
 30
0.0
 10
120.8946017795139
 20
154.7128648546007
 30
0.0
  0
SPLINE
  5
E4
330
A
100
AcDbEntity
  8
LAYER_1
 62
     7
100
AcDbSpline
210
0.0
220
0.0
230
1.0
 70
    11
 71
     3
 72
    23
 73
    19
 74
     0
 42
0.0000000001
 43
0.0000000001
 40
0.0
 40
0.0
 40
0.0
 40
0.0
 40
1.0
 40
1.0
 40
1.0
 40
2.0
 40
2.0
 40
2.0
 40
3.0
 40
3.0
 40
3.0
 40
4.0
 40
4.0
 40
4.0
 40
5.0
 40
5.0
 40
5.0
 40
6.0
 40
6.0
 40
6.0
 40
6.0
 10
111.2638373480903
 20
117.2205796983507
 30
0.0
 10
111.7065321180556
 20
117.3390909830729
 30
0.0
 10
111.9184054904514
 20
117.9826348198785
 30
0.0
 10
111.7375379774306
 20
118.6582180447049
 30
0.0
 10
111.5566704644097
 20
119.3334567599826
 30
0.0
 10
111.0512749565972
 20
119.7847642686632
 30
0.0
 10
110.6085801866319
 20
119.666252983941
 30
0.0
 10
110.6085801866319
 20
119.666252983941
 30
0.0
 10
110.1614067925347
 20
119.5463636610243
 30
0.0
 10
110.1614067925347
 20
119.5463636610243
 30
0.0
 10
109.7190565321181
 20
119.4278523763021
 30
0.0
 10
109.5068386501736
 20
118.7843085394965
 30
0.0
 10
109.6880506727431
 20
118.1090698242187
 30
0.0
 10
109.8689181857639
 20
117.4334865993924
 30
0.0
 10
110.3743136935764
 20
116.9821790907118
 30
0.0
 10
110.816663953993
 20
117.100690375434
 30
0.0
 10
110.816663953993
 20
117.100690375434
 30
0.0
 10
111.2638373480903
 20
117.2205796983507
 30
0.0
 10
111.2638373480903
 20
117.2205796983507
 30
0.0
  0
ELLIPSE
  5
E3
330
A
100
AcDbEntity
  8
LAYER_1
 62
     7
100
AcDbEllipse
 10
110.4890353732639
 20
118.3235270182292
 30
0.0
 11
0.3276285807291666
 21
-1.222836642795139
 31
0.0
210
0.0
220
0.0
230
1.0
 40
0.6549918583441702
 41
0.0
 42
6.283185307179586
  0
SPLINE
  5
E2
330
A
100
AcDbEntity
  8
LAYER_1
 62
     7
100
AcDbSpline
210
0.0
220
0.0
230
1.0
 70
    11
 71
     3
 72
    56
 73
    52
 74
     0
 42
0.0000000001
 43
0.0000000001
 40
0.0
 40
0.0
 40
0.0
 40
0.0
 40
1.0
 40
1.0
 40
1.0
 40
2.0
 40
2.0
 40
2.0
 40
3.0
 40
3.0
 40
3.0
 40
4.0
 40
4.0
 40
4.0
 40
5.0
 40
5.0
 40
5.0
 40
6.0
 40
6.0
 40
6.0
 40
7.0
 40
7.0
 40
7.0
 40
8.0
 40
8.0
 40
8.0
 40
9.0
 40
9.0
 40
9.0
 40
10.0
 40
10.0
 40
10.0
 40
11.0
 40
11.0
 40
11.0
 40
12.0
 40
12.0
 40
12.0
 40
13.0
 40
13.0
 40
13.0
 40
14.0
 40
14.0
 40
14.0
 40
15.0
 40
15.0
 40
15.0
 40
16.0
 40
16.0
 40
16.0
 40
17.0
 40
17.0
 40
17.0
 40
17.0
 10
106.4682644314236
 20
114.3656290690104
 30
0.0
 10
106.1805989583333
 20
114.4772501627604
 30
0.0
 10
106.0899929470486
 20
114.2781236436632
 30
0.0
 10
106.0899929470486
 20
114.0679728190104
 30
0.0
 10
106.0899929470486
 20
113.9098429361979
 30
0.0
 10
106.1340901692708
 20
113.6239000108507
 30
0.0
 10
106.4165879991319
 20
113.5012546115451
 30
0.0
 10
106.5747178819444
 20
113.4330417209201
 30
0.0
 10
106.6263943142361
 20
113.5219251844618
 30
0.0
 10
106.6525770399306
 20
113.6197658962674
 30
0.0
 10
106.6525770399306
 20
113.6197658962674
 30
0.0
 10
106.7741889105903
 20
114.0982896592882
 30
0.0
 10
106.7741889105903
 20
114.0982896592882
 30
0.0
 10
106.8313774956597
 20
114.314641655816
 30
0.0
 10
106.976416015625
 20
114.4331529405382
 30
0.0
 10
107.2720052083333
 20
114.3053398980035
 30
0.0
 10
107.7126329210069
 20
114.1144816080729
 30
0.0
 10
107.8345893012153
 20
113.6518052842882
 30
0.0
 10
107.8345893012153
 20
113.3331339518229
 30
0.0
 10
107.8345893012153
 20
112.9882798936632
 30
0.0
 10
107.7308919270833
 20
112.8983629014757
 30
0.0
 10
107.6557888454861
 20
112.8480645073785
 30
0.0
 10
107.5131618923611
 20
112.7516018337674
 30
0.0
 10
107.3574435763889
 20
112.7877753363715
 30
0.0
 10
107.1838107638889
 20
112.8632229275174
 30
0.0
 10
107.1838107638889
 20
112.8632229275174
 30
0.0
 10
107.1838107638889
 20
113.099211968316
 30
0.0
 10
107.1838107638889
 20
113.099211968316
 30
0.0
 10
107.5210856119792
 20
112.9531399197049
 30
0.0
 10
107.6192708333333
 20
113.1853393554687
 30
0.0
 10
107.6192708333333
 20
113.4237399631076
 30
0.0
 10
107.6192708333333
 20
113.6052964952257
 30
0.0
 10
107.5727620442708
 20
113.9312025282118
 30
0.0
 10
107.3057671440972
 20
114.0469577365451
 30
0.0
 10
107.1114637586805
 20
114.1310180664062
 30
0.0
 10
107.0491075303819
 20
114.0672837999132
 30
0.0
 10
106.976416015625
 20
113.7930541992187
 30
0.0
 10
106.976416015625
 20
113.7930541992187
 30
0.0
 10
106.8885660807292
 20
113.4499226888021
 30
0.0
 10
106.8885660807292
 20
113.4499226888021
 30
0.0
 10
106.8599717881944
 20
113.3403686523437
 30
0.0
 10
106.7741889105903
 20
113.1026570638021
 30
0.0
 10
106.4503499348958
 20
113.2432169596354
 30
0.0
 10
106.1599283854167
 20
113.3689629448785
 30
0.0
 10
105.8746744791667
 20
113.6817776150174
 30
0.0
 10
105.8746744791667
 20
114.1327406141493
 30
0.0
 10
105.8746744791667
 20
114.7835191514757
 30
0.0
 10
106.2636257595486
 20
114.6798217773437
 30
0.0
 10
106.4682644314236
 20
114.601618109809
 30
0.0
 10
106.4682644314236
 20
114.601618109809
 30
0.0
 10
106.4682644314236
 20
114.3656290690104
 30
0.0
 10
106.4682644314236
 20
114.3656290690104
 30
0.0
  0
LWPOLYLINE
  5
DC
330
A
100
AcDbEntity
  8
LAYER_1
 62
     7
100
AcDbPolyline
 90
        4
 70
     1
 43
0.0
 10
107.7853244357639
 20
114.6925686306424
 10
107.7853244357639
 20
114.4410766601562
 10
105.9239393446181
 20
115.2472290039062
 10
105.9239393446181
 20
115.4987209743924
  0
SPLINE
  5
DB
330
A
100
AcDbEntity
  8
LAYER_1
 62
     7
100
AcDbSpline
210
0.0
220
0.0
230
1.0
 70
    11
 71
     3
 72
    59
 73
    55
 74
     0
 42
0.0000000001
 43
0.0000000001
 40
0.0
 40
0.0
 40
0.0
 40
0.0
 40
1.0
 40
1.0
 40
1.0
 40
2.0
 40
2.0
 40
2.0
 40
3.0
 40
3.0
 40
3.0
 40
4.0
 40
4.0
 40
4.0
 40
5.0
 40
5.0
 40
5.0
 40
6.0
 40
6.0
 40
6.0
 40
7.0
 40
7.0
 40
7.0
 40
8.0
 40
8.0
 40
8.0
 40
9.0
 40
9.0
 40
9.0
 40
10.0
 40
10.0
 40
10.0
 40
11.0
 40
11.0
 40
11.0
 40
12.0
 40
12.0
 40
12.0
 40
13.0
 40
13.0
 40
13.0
 40
14.0
 40
14.0
 40
14.0
 40
15.0
 40
15.0
 40
15.0
 40
16.0
 40
16.0
 40
16.0
 40
17.0
 40
17.0
 40
17.0
 40
18.0
 40
18.0
 40
18.0
 40
18.0
 10
107.7853244357639
 20
116.6545505099826
 30
0.0
 10
107.7853244357639
 20
116.6545505099826
 30
0.0
 10
106.6863389756944
 20
117.1306627061632
 30
0.0
 10
106.6863389756944
 20
117.1306627061632
 30
0.0
 10
106.6319064670139
 20
117.1540893554687
 30
0.0
 10
106.3959174262153
 20
117.2615763346354
 30
0.0
 10
106.2222846137153
 20
117.3366794162326
 30
0.0
 10
106.2222846137153
 20
117.3366794162326
 30
0.0
 10
106.2222846137153
 20
117.3315117730035
 30
0.0
 10
106.2222846137153
 20
117.3315117730035
 30
0.0
 10
106.2222846137153
 20
117.3315117730035
 30
0.0
 10
107.7853244357639
 20
116.1308959960937
 30
0.0
 10
107.7853244357639
 20
116.1308959960937
 30
0.0
 10
107.7853244357639
 20
116.1308959960937
 30
0.0
 10
107.7853244357639
 20
115.8821601019965
 30
0.0
 10
107.7853244357639
 20
115.8821601019965
 30
0.0
 10
107.7853244357639
 20
115.8821601019965
 30
0.0
 10
106.2246961805555
 20
116.0344333224826
 30
0.0
 10
106.2246961805555
 20
116.0344333224826
 30
0.0
 10
106.2246961805555
 20
116.0344333224826
 30
0.0
 10
106.2246961805555
 20
116.0292656792535
 30
0.0
 10
106.2246961805555
 20
116.0292656792535
 30
0.0
 10
106.3959174262153
 20
115.9551961263021
 30
0.0
 10
106.6319064670139
 20
115.8580444335937
 30
0.0
 10
106.6863389756944
 20
115.8346177842882
 30
0.0
 10
106.6863389756944
 20
115.8346177842882
 30
0.0
 10
107.7853244357639
 20
115.3585055881076
 30
0.0
 10
107.7853244357639
 20
115.3585055881076
 30
0.0
 10
107.7853244357639
 20
115.3585055881076
 30
0.0
 10
107.7853244357639
 20
115.114592827691
 30
0.0
 10
107.7853244357639
 20
115.114592827691
 30
0.0
 10
107.7853244357639
 20
115.114592827691
 30
0.0
 10
105.9239393446181
 20
115.9210896809896
 30
0.0
 10
105.9239393446181
 20
115.9210896809896
 30
0.0
 10
105.9239393446181
 20
115.9210896809896
 30
0.0
 10
105.9239393446181
 20
116.2811021592882
 30
0.0
 10
105.9239393446181
 20
116.2811021592882
 30
0.0
 10
105.9239393446181
 20
116.2811021592882
 30
0.0
 10
107.4976589626736
 20
116.1312405056424
 30
0.0
 10
107.4976589626736
 20
116.1312405056424
 30
0.0
 10
107.4976589626736
 20
116.1312405056424
 30
0.0
 10
107.4976589626736
 20
116.1364081488715
 30
0.0
 10
107.4976589626736
 20
116.1364081488715
 30
0.0
 10
107.4976589626736
 20
116.1364081488715
 30
0.0
 10
105.9239393446181
 20
117.3466701931423
 30
0.0
 10
105.9239393446181
 20
117.3466701931423
 30
0.0
 10
105.9239393446181
 20
117.3466701931423
 30
0.0
 10
105.9239393446181
 20
117.7046156141493
 30
0.0
 10
105.9239393446181
 20
117.7046156141493
 30
0.0
 10
105.9239393446181
 20
117.7046156141493
 30
0.0
 10
107.7853244357639
 20
116.8981187608507
 30
0.0
 10
107.7853244357639
 20
116.8981187608507
 30
0.0
 10
107.7853244357639
 20
116.8981187608507
 30
0.0
 10
107.7853244357639
 20
116.6545505099826
 30
0.0
 10
107.7853244357639
 20
116.6545505099826
 30
0.0
  0
SPLINE
  5
DA
330
A
100
AcDbEntity
  8
LAYER_1
 62
     7
100
AcDbSpline
210
0.0
220
0.0
230
1.0
 70
    11
 71
     3
 72
    26
 73
    22
 74
     0
 42
0.0000000001
 43
0.0000000001
 40
0.0
 40
0.0
 40
0.0
 40
0.0
 40
1.0
 40
1.0
 40
1.0
 40
2.0
 40
2.0
 40
2.0
 40
3.0
 40
3.0
 40
3.0
 40
4.0
 40
4.0
 40
4.0
 40
5.0
 40
5.0
 40
5.0
 40
6.0
 40
6.0
 40
6.0
 40
7.0
 40
7.0
 40
7.0
 40
7.0
 10
107.7853244357639
 20
117.5592325846354
 30
0.0
 10
107.7853244357639
 20
117.5592325846354
 30
0.0
 10
107.7853244357639
 20
117.3077406141493
 30
0.0
 10
107.7853244357639
 20
117.3077406141493
 30
0.0
 10
107.7853244357639
 20
117.3077406141493
 30
0.0
 10
105.9239393446181
 20
118.1138929578993
 30
0.0
 10
105.9239393446181
 20
118.1138929578993
 30
0.0
 10
105.9239393446181
 20
118.1138929578993
 30
0.0
 10
105.9239393446181
 20
118.9513956705729
 30
0.0
 10
105.9239393446181
 20
118.9513956705729
 30
0.0
 10
105.9239393446181
 20
119.295905219184
 30
0.0
 10
106.1468370225694
 20
119.4068372938368
 30
0.0
 10
106.4475938585069
 20
119.2766126844618
 30
0.0
 10
106.7070095486111
 20
119.1643025716146
 30
0.0
 10
106.9998426649305
 20
118.8897284613715
 30
0.0
 10
106.9998426649305
 20
118.4852742513021
 30
0.0
 10
106.9998426649305
 20
118.4852742513021
 30
0.0
 10
106.9998426649305
 20
117.8992635091146
 30
0.0
 10
106.9998426649305
 20
117.8992635091146
 30
0.0
 10
106.9998426649305
 20
117.8992635091146
 30
0.0
 10
107.7853244357639
 20
117.5592325846354
 30
0.0
 10
107.7853244357639
 20
117.5592325846354
 30
0.0
  0
SPLINE
  5
D9
330
A
100
AcDbEntity
  8
LAYER_1
 62
     7
100
AcDbSpline
210
0.0
220
0.0
230
1.0
 70
    11
 71
     3
 72
    20
 73
    16
 74
     0
 42
0.0000000001
 43
0.0000000001
 40
0.0
 40
0.0
 40
0.0
 40
0.0
 40
1.0
 40
1.0
 40
1.0
 40
2.0
 40
2.0
 40
2.0
 40
3.0
 40
3.0
 40
3.0
 40
4.0
 40
4.0
 40
4.0
 40
5.0
 40
5.0
 40
5.0
 40
5.0
 10
106.7848687065972
 20
117.9926255967882
 30
0.0
 10
106.7848687065972
 20
117.9926255967882
 30
0.0
 10
106.7848687065972
 20
118.4928534613715
 30
0.0
 10
106.7848687065972
 20
118.4928534613715
 30
0.0
 10
106.7848687065972
 20
118.7185072157118
 30
0.0
 10
106.7018419053819
 20
118.9072984483507
 30
0.0
 10
106.4503499348958
 20
119.0161634657118
 30
0.0
 10
106.2143608940972
 20
119.1184828016493
 30
0.0
 10
106.1392578125
 20
118.990325249566
 30
0.0
 10
106.1392578125
 20
118.7829305013021
 30
0.0
 10
106.1392578125
 20
118.7829305013021
 30
0.0
 10
106.1392578125
 20
118.2720228407118
 30
0.0
 10
106.1392578125
 20
118.2720228407118
 30
0.0
 10
106.1392578125
 20
118.2720228407118
 30
0.0
 10
106.7848687065972
 20
117.9926255967882
 30
0.0
 10
106.7848687065972
 20
117.9926255967882
 30
0.0
  0
SPLINE
  5
D8
330
A
100
AcDbEntity
  8
LAYER_1
 62
     7
100
AcDbSpline
210
0.0
220
0.0
230
1.0
 70
    11
 71
     3
 72
    56
 73
    52
 74
     0
 42
0.0000000001
 43
0.0000000001
 40
0.0
 40
0.0
 40
0.0
 40
0.0
 40
1.0
 40
1.0
 40
1.0
 40
2.0
 40
2.0
 40
2.0
 40
3.0
 40
3.0
 40
3.0
 40
4.0
 40
4.0
 40
4.0
 40
5.0
 40
5.0
 40
5.0
 40
6.0
 40
6.0
 40
6.0
 40
7.0
 40
7.0
 40
7.0
 40
8.0
 40
8.0
 40
8.0
 40
9.0
 40
9.0
 40
9.0
 40
10.0
 40
10.0
 40
10.0
 40
11.0
 40
11.0
 40
11.0
 40
12.0
 40
12.0
 40
12.0
 40
13.0
 40
13.0
 40
13.0
 40
14.0
 40
14.0
 40
14.0
 40
15.0
 40
15.0
 40
15.0
 40
16.0
 40
16.0
 40
16.0
 40
17.0
 40
17.0
 40
17.0
 40
17.0
 10
106.4682644314236
 20
120.7042602539062
 30
0.0
 10
106.1805989583333
 20
120.8158813476562
 30
0.0
 10
106.0899929470486
 20
120.6164103190104
 30
0.0
 10
106.0899929470486
 20
120.4066040039062
 30
0.0
 10
106.0899929470486
 20
120.2484741210937
 30
0.0
 10
106.1340901692708
 20
119.9621866861979
 30
0.0
 10
106.4165879991319
 20
119.839885796441
 30
0.0
 10
106.5747178819444
 20
119.7713283962674
 30
0.0
 10
106.6263943142361
 20
119.8605563693576
 30
0.0
 10
106.6525770399306
 20
119.9580525716146
 30
0.0
 10
106.6525770399306
 20
119.9580525716146
 30
0.0
 10
106.7741889105903
 20
120.436920844184
 30
0.0
 10
106.7741889105903
 20
120.436920844184
 30
0.0
 10
106.8313774956597
 20
120.6532728407118
 30
0.0
 10
106.976416015625
 20
120.771784125434
 30
0.0
 10
107.2720052083333
 20
120.6436265733507
 30
0.0
 10
107.7126329210069
 20
120.4527682834201
 30
0.0
 10
107.8345893012153
 20
119.990436469184
 30
0.0
 10
107.8345893012153
 20
119.6714206271701
 30
0.0
 10
107.8345893012153
 20
119.326911078559
 30
0.0
 10
107.7308919270833
 20
119.2369940863715
 30
0.0
 10
107.6557888454861
 20
119.1863511827257
 30
0.0
 10
107.5131618923611
 20
119.0902330186632
 30
0.0
 10
107.3574435763889
 20
119.1264065212674
 30
0.0
 10
107.1838107638889
 20
119.2015096028646
 30
0.0
 10
107.1838107638889
 20
119.2015096028646
 30
0.0
 10
107.1838107638889
 20
119.4374986436632
 30
0.0
 10
107.1838107638889
 20
119.4374986436632
 30
0.0
 10
107.5210856119792
 20
119.2914265950521
 30
0.0
 10
107.6192708333333
 20
119.523626030816
 30
0.0
 10
107.6192708333333
 20
119.7623711480035
 30
0.0
 10
107.6192708333333
 20
119.9435831705729
 30
0.0
 10
107.5727620442708
 20
120.2698337131076
 30
0.0
 10
107.3057671440972
 20
120.385588921441
 30
0.0
 10
107.1114637586805
 20
120.4696492513021
 30
0.0
 10
107.0491075303819
 20
120.405914984809
 30
0.0
 10
106.976416015625
 20
120.131340874566
 30
0.0
 10
106.976416015625
 20
120.131340874566
 30
0.0
 10
106.8885660807292
 20
119.7885538736979
 30
0.0
 10
106.8885660807292
 20
119.7885538736979
 30
0.0
 10
106.8599717881944
 20
119.6789998372396
 30
0.0
 10
106.7741889105903
 20
119.4412882486979
 30
0.0
 10
106.4503499348958
 20
119.5815036349826
 30
0.0
 10
106.1599283854167
 20
119.7072496202257
 30
0.0
 10
105.8746744791667
 20
120.0200642903646
 30
0.0
 10
105.8746744791667
 20
120.4713717990451
 30
0.0
 10
105.8746744791667
 20
121.1218058268229
 30
0.0
 10
106.2636257595486
 20
121.0184529622396
 30
0.0
 10
106.4682644314236
 20
120.9399047851562
 30
0.0
 10
106.4682644314236
 20
120.9399047851562
 30
0.0
 10
106.4682644314236
 20
120.7042602539062
 30
0.0
 10
106.4682644314236
 20
120.7042602539062
 30
0.0
  0
SPLINE
  5
D7
330
A
100
AcDbEntity
  8
LAYER_1
 62
     7
100
AcDbSpline
210
0.0
220
0.0
230
1.0
 70
    11
 71
     3
 72
    17
 73
    13
 74
     0
 42
0.0000000001
 43
0.0000000001
 40
0.0
 40
0.0
 40
0.0
 40
0.0
 40
1.0
 40
1.0
 40
1.0
 40
2.0
 40
2.0
 40
2.0
 40
3.0
 40
3.0
 40
3.0
 40
4.0
 40
4.0
 40
4.0
 40
4.0
 10
107.8345893012153
 20
121.5307386610243
 30
0.0
 10
107.8345893012153
 20
120.8358629014757
 30
0.0
 10
107.2565022786458
 20
120.8737589518229
 30
0.0
 10
106.8548041449653
 20
121.0477362738715
 30
0.0
 10
106.4527615017361
 20
121.2217135959201
 30
0.0
 10
105.8746744791667
 20
121.6847344292535
 30
0.0
 10
105.8746744791667
 20
122.3796101888021
 30
0.0
 10
105.8746744791667
 20
123.0744859483507
 30
0.0
 10
106.4527615017361
 20
123.0365898980035
 30
0.0
 10
106.8548041449653
 20
122.8626125759549
 30
0.0
 10
107.2565022786458
 20
122.6882907443576
 30
0.0
 10
107.8345893012153
 20
122.2252699110243
 30
0.0
 10
107.8345893012153
 20
121.5307386610243
 30
0.0
  0
SPLINE
  5
D6
330
A
100
AcDbEntity
  8
LAYER_1
 62
     7
100
AcDbSpline
210
0.0
220
0.0
230
1.0
 70
    11
 71
     3
 72
    17
 73
    13
 74
     0
 42
0.0000000001
 43
0.0000000001
 40
0.0
 40
0.0
 40
0.0
 40
0.0
 40
1.0
 40
1.0
 40
1.0
 40
2.0
 40
2.0
 40
2.0
 40
3.0
 40
3.0
 40
3.0
 40
4.0
 40
4.0
 40
4.0
 40
4.0
 10
106.0975721571181
 20
122.283147515191
 30
0.0
 10
106.0975721571181
 20
121.8786933051215
 30
0.0
 10
106.4165879991319
 20
121.4966322157118
 30
0.0
 10
106.8548041449653
 20
121.3071519639757
 30
0.0
 10
107.29267578125
 20
121.117327202691
 30
0.0
 10
107.6116916232639
 20
121.222747124566
 30
0.0
 10
107.6116916232639
 20
121.6272013346354
 30
0.0
 10
107.6116916232639
 20
122.0316555447049
 30
0.0
 10
107.29267578125
 20
122.413372124566
 30
0.0
 10
106.8548041449653
 20
122.6031968858507
 30
0.0
 10
106.4165879991319
 20
122.7930216471354
 30
0.0
 10
106.0975721571181
 20
122.6872572157118
 30
0.0
 10
106.0975721571181
 20
122.283147515191
 30
0.0
  0
LWPOLYLINE
  5
C8
330
A
100
AcDbEntity
  8
LAYER_1
 62
     7
100
AcDbPolyline
 90
       12
 70
     1
 43
0.0
 10
105.9239393446181
 20
124.7977227105035
 10
105.9239393446181
 20
125.0412909613715
 10
107.7853244357639
 20
124.2351386176215
 10
107.7853244357639
 20
123.9526407877604
 10
106.281884765625
 20
123.6573961046007
 10
106.281884765625
 20
123.6525729709201
 10
107.7853244357639
 20
123.0011054144965
 10
107.7853244357639
 20
122.7575371636285
 10
105.9239393446181
 20
123.5636895073785
 10
105.9239393446181
 20
123.8616902669271
 10
107.4277235243056
 20
124.1410875108507
 10
107.4277235243056
 20
124.1462551540799
  0
SPLINE
  5
C7
330
A
100
AcDbEntity
  8
LAYER_1
 62
     7
100
AcDbSpline
210
0.0
220
0.0
230
1.0
 70
    11
 71
     3
 72
    56
 73
    52
 74
     0
 42
0.0000000001
 43
0.0000000001
 40
0.0
 40
0.0
 40
0.0
 40
0.0
 40
1.0
 40
1.0
 40
1.0
 40
2.0
 40
2.0
 40
2.0
 40
3.0
 40
3.0
 40
3.0
 40
4.0
 40
4.0
 40
4.0
 40
5.0
 40
5.0
 40
5.0
 40
6.0
 40
6.0
 40
6.0
 40
7.0
 40
7.0
 40
7.0
 40
8.0
 40
8.0
 40
8.0
 40
9.0
 40
9.0
 40
9.0
 40
10.0
 40
10.0
 40
10.0
 40
11.0
 40
11.0
 40
11.0
 40
12.0
 40
12.0
 40
12.0
 40
13.0
 40
13.0
 40
13.0
 40
14.0
 40
14.0
 40
14.0
 40
15.0
 40
15.0
 40
15.0
 40
16.0
 40
16.0
 40
16.0
 40
17.0
 40
17.0
 40
17.0
 40
17.0
 10
106.5564588758681
 20
126.9161119249132
 30
0.0
 10
106.2880859375
 20
127.0201538085937
 30
0.0
 10
106.2033365885417
 20
126.8344631618923
 30
0.0
 10
106.2033365885417
 20
126.6384372287326
 30
0.0
 10
106.2033365885417
 20
126.4909871419271
 30
0.0
 10
106.2443332248264
 20
126.2239922417535
 30
0.0
 10
106.5078830295139
 20
126.1096150716146
 30
0.0
 10
106.6556776258681
 20
126.0458808051215
 30
0.0
 10
106.7039089626736
 20
126.1289076063368
 30
0.0
 10
106.728369140625
 20
126.2202026367187
 30
0.0
 10
106.728369140625
 20
126.2202026367187
 30
0.0
 10
106.8420572916667
 20
126.6666870117187
 30
0.0
 10
106.8420572916667
 20
126.6666870117187
 30
0.0
 10
106.8951117621528
 20
126.8685696072049
 30
0.0
 10
107.0305040147569
 20
126.979157172309
 30
0.0
 10
107.3064561631944
 20
126.8599568684896
 30
0.0
 10
107.7178005642361
 20
126.6818454318576
 30
0.0
 10
107.8314887152778
 20
126.2501749674479
 30
0.0
 10
107.8314887152778
 20
125.9528632269965
 30
0.0
 10
107.8314887152778
 20
125.6310913085937
 30
0.0
 10
107.7346815321181
 20
125.5470309787326
 30
0.0
 10
107.6644015842014
 20
125.5001776801215
 30
0.0
 10
107.5314208984375
 20
125.410260687934
 30
0.0
 10
107.3860378689236
 20
125.4440226236979
 30
0.0
 10
107.2241183810764
 20
125.5143025716146
 30
0.0
 10
107.2241183810764
 20
125.5143025716146
 30
0.0
 10
107.2241183810764
 20
125.7344441731771
 30
0.0
 10
107.2241183810764
 20
125.7344441731771
 30
0.0
 10
107.5386555989583
 20
125.5983629014757
 30
0.0
 10
107.6306396484375
 20
125.8147148980035
 30
0.0
 10
107.6306396484375
 20
126.0372680664062
 30
0.0
 10
107.6306396484375
 20
126.2067667643229
 30
0.0
 10
107.5868869357639
 20
126.5109686957465
 30
0.0
 10
107.3378065321181
 20
126.6188001844618
 30
0.0
 10
107.15625
 20
126.6973483615451
 30
0.0
 10
107.0983723958333
 20
126.6377482096354
 30
0.0
 10
107.0305040147569
 20
126.3817776150174
 30
0.0
 10
107.0305040147569
 20
126.3817776150174
 30
0.0
 10
106.9481662326389
 20
126.0617282443576
 30
0.0
 10
106.9481662326389
 20
126.0617282443576
 30
0.0
 10
106.9216389973958
 20
125.9597534179687
 30
0.0
 10
106.8420572916667
 20
125.7378892686632
 30
0.0
 10
106.5395779079861
 20
125.8688028971354
 30
0.0
 10
106.2684488932292
 20
125.9859361436632
 30
0.0
 10
106.0024875217014
 20
126.2777357313368
 30
0.0
 10
106.0024875217014
 20
126.6987263997396
 30
0.0
 10
106.0024875217014
 20
127.306096733941
 30
0.0
 10
106.3652560763889
 20
127.2092895507812
 30
0.0
 10
106.5564588758681
 20
127.1362535264757
 30
0.0
 10
106.5564588758681
 20
127.1362535264757
 30
0.0
 10
106.5564588758681
 20
126.9161119249132
 30
0.0
 10
106.5564588758681
 20
126.9161119249132
 30
0.0
  0
SPLINE
  5
C6
330
A
100
AcDbEntity
  8
LAYER_1
 62
     7
100
AcDbSpline
210
0.0
220
0.0
230
1.0
 70
    11
 71
     3
 72
    53
 73
    49
 74
     0
 42
0.0000000001
 43
0.0000000001
 40
0.0
 40
0.0
 40
0.0
 40
0.0
 40
1.0
 40
1.0
 40
1.0
 40
2.0
 40
2.0
 40
2.0
 40
3.0
 40
3.0
 40
3.0
 40
4.0
 40
4.0
 40
4.0
 40
5.0
 40
5.0
 40
5.0
 40
6.0
 40
6.0
 40
6.0
 40
7.0
 40
7.0
 40
7.0
 40
8.0
 40
8.0
 40
8.0
 40
9.0
 40
9.0
 40
9.0
 40
10.0
 40
10.0
 40
10.0
 40
11.0
 40
11.0
 40
11.0
 40
12.0
 40
12.0
 40
12.0
 40
13.0
 40
13.0
 40
13.0
 40
14.0
 40
14.0
 40
14.0
 40
15.0
 40
15.0
 40
15.0
 40
16.0
 40
16.0
 40
16.0
 40
16.0
 10
106.6966742621528
 20
127.6564629448785
 30
0.0
 10
106.6966742621528
 20
127.6564629448785
 30
0.0
 10
107.5193630642361
 20
127.3005845811632
 30
0.0
 10
107.5193630642361
 20
127.3005845811632
 30
0.0
 10
107.6185818142361
 20
127.2575208875868
 30
0.0
 10
107.6185818142361
 20
127.3422702365451
 30
0.0
 10
107.6185818142361
 20
127.3856784396701
 30
0.0
 10
107.6185818142361
 20
127.3856784396701
 30
0.0
 10
107.6185818142361
 20
127.4607815212674
 30
0.0
 10
107.6185818142361
 20
127.4607815212674
 30
0.0
 10
107.6185818142361
 20
127.4607815212674
 30
0.0
 10
107.7853244357639
 20
127.388434516059
 30
0.0
 10
107.7853244357639
 20
127.388434516059
 30
0.0
 10
107.7925591362847
 20
127.307819281684
 30
0.0
 10
107.8022054036458
 20
127.2433959960937
 30
0.0
 10
107.8022054036458
 20
127.2216918945312
 30
0.0
 10
107.8022054036458
 20
127.0111965603299
 30
0.0
 10
107.6836941189236
 20
127.016364203559
 30
0.0
 10
107.5314208984375
 20
127.0825100368923
 30
0.0
 10
107.5314208984375
 20
127.0825100368923
 30
0.0
 10
106.6966742621528
 20
127.4439005533854
 30
0.0
 10
106.6966742621528
 20
127.4439005533854
 30
0.0
 10
106.6966742621528
 20
127.4439005533854
 30
0.0
 10
106.6966742621528
 20
127.2719902886285
 30
0.0
 10
106.6966742621528
 20
127.2719902886285
 30
0.0
 10
106.6966742621528
 20
127.2719902886285
 30
0.0
 10
106.5202853732639
 20
127.3484714084201
 30
0.0
 10
106.5202853732639
 20
127.3484714084201
 30
0.0
 10
106.5202853732639
 20
127.3484714084201
 30
0.0
 10
106.5202853732639
 20
127.5203816731771
 30
0.0
 10
106.5202853732639
 20
127.5203816731771
 30
0.0
 10
106.5202853732639
 20
127.5203816731771
 30
0.0
 10
106.1668185763889
 20
127.6733439127604
 30
0.0
 10
106.1668185763889
 20
127.6733439127604
 30
0.0
 10
106.1668185763889
 20
127.6733439127604
 30
0.0
 10
106.1668185763889
 20
127.8859063042535
 30
0.0
 10
106.1668185763889
 20
127.8859063042535
 30
0.0
 10
106.1668185763889
 20
127.8859063042535
 30
0.0
 10
106.5202853732639
 20
127.7329440646701
 30
0.0
 10
106.5202853732639
 20
127.7329440646701
 30
0.0
 10
106.5202853732639
 20
127.7329440646701
 30
0.0
 10
106.5202853732639
 20
127.9362046983507
 30
0.0
 10
106.5202853732639
 20
127.9362046983507
 30
0.0
 10
106.5202853732639
 20
127.9362046983507
 30
0.0
 10
106.6966742621528
 20
127.859723578559
 30
0.0
 10
106.6966742621528
 20
127.859723578559
 30
0.0
 10
106.6966742621528
 20
127.859723578559
 30
0.0
 10
106.6966742621528
 20
127.6564629448785
 30
0.0
 10
106.6966742621528
 20
127.6564629448785
 30
0.0
  0
SPLINE
  5
C5
330
A
100
AcDbEntity
  8
LAYER_1
 62
     7
100
AcDbSpline
210
0.0
220
0.0
230
1.0
 70
    11
 71
     3
 72
    38
 73
    34
 74
     0
 42
0.0000000001
 43
0.0000000001
 40
0.0
 40
0.0
 40
0.0
 40
0.0
 40
1.0
 40
1.0
 40
1.0
 40
2.0
 40
2.0
 40
2.0
 40
3.0
 40
3.0
 40
3.0
 40
4.0
 40
4.0
 40
4.0
 40
5.0
 40
5.0
 40
5.0
 40
6.0
 40
6.0
 40
6.0
 40
7.0
 40
7.0
 40
7.0
 40
8.0
 40
8.0
 40
8.0
 40
9.0
 40
9.0
 40
9.0
 40
10.0
 40
10.0
 40
10.0
 40
11.0
 40
11.0
 40
11.0
 40
11.0
 10
107.7853244357639
 20
127.8383639865451
 30
0.0
 10
107.7853244357639
 20
127.8383639865451
 30
0.0
 10
107.7853244357639
 20
127.6254570855035
 30
0.0
 10
107.7853244357639
 20
127.6254570855035
 30
0.0
 10
107.7853244357639
 20
127.6254570855035
 30
0.0
 10
106.5202853732639
 20
128.1732272677951
 30
0.0
 10
106.5202853732639
 20
128.1732272677951
 30
0.0
 10
106.5202853732639
 20
128.1732272677951
 30
0.0
 10
106.5202853732639
 20
128.3740763346354
 30
0.0
 10
106.5202853732639
 20
128.3740763346354
 30
0.0
 10
106.5202853732639
 20
128.3740763346354
 30
0.0
 10
106.7307807074653
 20
128.2827813042535
 30
0.0
 10
106.7307807074653
 20
128.2827813042535
 30
0.0
 10
106.7307807074653
 20
128.2827813042535
 30
0.0
 10
106.7307807074653
 20
128.287604437934
 30
0.0
 10
106.7307807074653
 20
128.287604437934
 30
0.0
 10
106.5829861111111
 20
128.436432562934
 30
0.0
 10
106.4837673611111
 20
128.5904283311632
 30
0.0
 10
106.4837673611111
 20
128.7502807617187
 30
0.0
 10
106.4837673611111
 20
128.7768079969618
 30
0.0
 10
106.4861789279514
 20
128.7878323025174
 30
0.0
 10
106.4910020616319
 20
128.8026462131076
 30
0.0
 10
106.4910020616319
 20
128.8026462131076
 30
0.0
 10
106.7111436631944
 20
128.7072170681423
 30
0.0
 10
106.7111436631944
 20
128.7072170681423
 30
0.0
 10
106.7111436631944
 20
128.7072170681423
 30
0.0
 10
106.7111436631944
 20
128.6276353624132
 30
0.0
 10
106.7111436631944
 20
128.6276353624132
 30
0.0
 10
106.7111436631944
 20
128.4291978624132
 30
0.0
 10
106.8661729600694
 20
128.236272515191
 30
0.0
 10
107.0501410590278
 20
128.1566908094618
 30
0.0
 10
107.0501410590278
 20
128.1566908094618
 30
0.0
 10
107.7853244357639
 20
127.8383639865451
 30
0.0
 10
107.7853244357639
 20
127.8383639865451
 30
0.0
  0
SPLINE
  5
C4
330
A
100
AcDbEntity
  8
LAYER_1
 62
     7
100
AcDbSpline
210
0.0
220
0.0
230
1.0
 70
    11
 71
     3
 72
    17
 73
    13
 74
     0
 42
0.0000000001
 43
0.0000000001
 40
0.0
 40
0.0
 40
0.0
 40
0.0
 40
1.0
 40
1.0
 40
1.0
 40
2.0
 40
2.0
 40
2.0
 40
3.0
 40
3.0
 40
3.0
 40
4.0
 40
4.0
 40
4.0
 40
4.0
 10
106.4837673611111
 20
129.4806410047743
 30
0.0
 10
106.4837673611111
 20
129.8844061957465
 30
0.0
 10
106.8248318142361
 20
129.9205796983507
 30
0.0
 10
107.1514268663194
 20
129.7793307834201
 30
0.0
 10
107.4780219184028
 20
129.637737358941
 30
0.0
 10
107.8190863715278
 20
129.3063191731771
 30
0.0
 10
107.8190863715278
 20
128.9022094726562
 30
0.0
 10
107.8190863715278
 20
128.498444281684
 30
0.0
 10
107.4780219184028
 20
128.4622707790799
 30
0.0
 10
107.1514268663194
 20
128.6035196940104
 30
0.0
 10
106.8248318142361
 20
128.7451131184896
 30
0.0
 10
106.4837673611111
 20
129.0765313042535
 30
0.0
 10
106.4837673611111
 20
129.4806410047743
 30
0.0
  0
SPLINE
  5
C3
330
A
100
AcDbEntity
  8
LAYER_1
 62
     7
100
AcDbSpline
210
0.0
220
0.0
230
1.0
 70
    11
 71
     3
 72
    17
 73
    13
 74
     0
 42
0.0000000001
 43
0.0000000001
 40
0.0
 40
0.0
 40
0.0
 40
0.0
 40
1.0
 40
1.0
 40
1.0
 40
2.0
 40
2.0
 40
2.0
 40
3.0
 40
3.0
 40
3.0
 40
4.0
 40
4.0
 40
4.0
 40
4.0
 10
107.635462782118
 20
128.9817911783854
 30
0.0
 10
107.635462782118
 20
129.2866821289063
 30
0.0
 10
107.3209255642361
 20
129.4858086480035
 30
0.0
 10
107.1514268663194
 20
129.5591891818576
 30
0.0
 10
106.9822726779514
 20
129.6325697157118
 30
0.0
 10
106.6677354600694
 20
129.7056057400174
 30
0.0
 10
106.6677354600694
 20
129.4010592990451
 30
0.0
 10
106.6677354600694
 20
129.0961683485243
 30
0.0
 10
106.9822726779514
 20
128.8970418294271
 30
0.0
 10
107.1514268663194
 20
128.8236612955729
 30
0.0
 10
107.3209255642361
 20
128.7502807617187
 30
0.0
 10
107.635462782118
 20
128.6772447374132
 30
0.0
 10
107.635462782118
 20
128.9817911783854
 30
0.0
  0
SPLINE
  5
C2
330
A
100
AcDbEntity
  8
LAYER_1
 62
     7
100
AcDbSpline
210
0.0
220
0.0
230
1.0
 70
    11
 71
     3
 72
    44
 73
    40
 74
     0
 42
0.0000000001
 43
0.0000000001
 40
0.0
 40
0.0
 40
0.0
 40
0.0
 40
1.0
 40
1.0
 40
1.0
 40
2.0
 40
2.0
 40
2.0
 40
3.0
 40
3.0
 40
3.0
 40
4.0
 40
4.0
 40
4.0
 40
5.0
 40
5.0
 40
5.0
 40
6.0
 40
6.0
 40
6.0
 40
7.0
 40
7.0
 40
7.0
 40
8.0
 40
8.0
 40
8.0
 40
9.0
 40
9.0
 40
9.0
 40
10.0
 40
10.0
 40
10.0
 40
11.0
 40
11.0
 40
11.0
 40
12.0
 40
12.0
 40
12.0
 40
13.0
 40
13.0
 40
13.0
 40
13.0
 10
107.7853244357639
 20
130.7773749457465
 30
0.0
 10
107.7853244357639
 20
130.7773749457465
 30
0.0
 10
107.7853244357639
 20
130.5648125542535
 30
0.0
 10
107.7853244357639
 20
130.5648125542535
 30
0.0
 10
107.7853244357639
 20
130.5648125542535
 30
0.0
 10
107.0063883463542
 20
130.9020874023437
 30
0.0
 10
107.0063883463542
 20
130.9020874023437
 30
0.0
 10
106.7862467447917
 20
130.9971720377604
 30
0.0
 10
106.6749701605903
 20
130.9827026367187
 30
0.0
 10
106.6749701605903
 20
130.7746188693576
 30
0.0
 10
106.6749701605903
 20
130.6536960177951
 30
0.0
 10
106.7524848090278
 20
130.4070271809896
 30
0.0
 10
107.095960828993
 20
130.2585435655382
 30
0.0
 10
107.095960828993
 20
130.2585435655382
 30
0.0
 10
107.7853244357639
 20
129.9598537868924
 30
0.0
 10
107.7853244357639
 20
129.9598537868924
 30
0.0
 10
107.7853244357639
 20
129.9598537868924
 30
0.0
 10
107.7853244357639
 20
129.7469468858507
 30
0.0
 10
107.7853244357639
 20
129.7469468858507
 30
0.0
 10
107.7853244357639
 20
129.7469468858507
 30
0.0
 10
106.5202853732639
 20
130.2947170681424
 30
0.0
 10
106.5202853732639
 20
130.2947170681424
 30
0.0
 10
106.5202853732639
 20
130.2947170681424
 30
0.0
 10
106.5202853732639
 20
130.4955661349826
 30
0.0
 10
106.5202853732639
 20
130.4955661349826
 30
0.0
 10
106.5202853732639
 20
130.4955661349826
 30
0.0
 10
106.6990858289931
 20
130.4180514865451
 30
0.0
 10
106.6990858289931
 20
130.4180514865451
 30
0.0
 10
106.6990858289931
 20
130.4180514865451
 30
0.0
 10
106.6990858289931
 20
130.4228746202257
 30
0.0
 10
106.6990858289931
 20
130.4228746202257
 30
0.0
 10
106.6315619574653
 20
130.4983222113715
 30
0.0
 10
106.4837673611111
 20
130.6805677625868
 30
0.0
 10
106.4837673611111
 20
130.898297797309
 30
0.0
 10
106.4837673611111
 20
131.0943237304687
 30
0.0
 10
106.5636935763889
 20
131.3065416124132
 30
0.0
 10
106.9240505642361
 20
131.1504787868923
 30
0.0
 10
106.9240505642361
 20
131.1504787868923
 30
0.0
 10
107.7853244357639
 20
130.7773749457465
 30
0.0
 10
107.7853244357639
 20
130.7773749457465
 30
0.0
  0
SPLINE
  5
C1
330
A
100
AcDbEntity
  8
LAYER_1
 62
     7
100
AcDbSpline
210
0.0
220
0.0
230
1.0
 70
    11
 71
     3
 72
    53
 73
    49
 74
     0
 42
0.0000000001
 43
0.0000000001
 40
0.0
 40
0.0
 40
0.0
 40
0.0
 40
1.0
 40
1.0
 40
1.0
 40
2.0
 40
2.0
 40
2.0
 40
3.0
 40
3.0
 40
3.0
 40
4.0
 40
4.0
 40
4.0
 40
5.0
 40
5.0
 40
5.0
 40
6.0
 40
6.0
 40
6.0
 40
7.0
 40
7.0
 40
7.0
 40
8.0
 40
8.0
 40
8.0
 40
9.0
 40
9.0
 40
9.0
 40
10.0
 40
10.0
 40
10.0
 40
11.0
 40
11.0
 40
11.0
 40
12.0
 40
12.0
 40
12.0
 40
13.0
 40
13.0
 40
13.0
 40
14.0
 40
14.0
 40
14.0
 40
15.0
 40
15.0
 40
15.0
 40
16.0
 40
16.0
 40
16.0
 40
16.0
 10
107.6812825520833
 20
132.1871080186632
 30
0.0
 10
107.8628390842014
 20
132.1085598415799
 30
0.0
 10
108.317591688368
 20
131.9094333224826
 30
0.0
 10
108.317591688368
 20
131.3237670898437
 30
0.0
 10
108.317591688368
 20
131.1739054361979
 30
0.0
 10
108.2765950520833
 20
130.8989868164063
 30
0.0
 10
107.9403537326389
 20
131.0033732096354
 30
0.0
 10
107.9403537326389
 20
131.0033732096354
 30
0.0
 10
107.9403537326389
 20
131.2162801106771
 30
0.0
 10
107.9403537326389
 20
131.2162801106771
 30
0.0
 10
108.1408582899306
 20
131.1680487738715
 30
0.0
 10
108.1408582899306
 20
131.3640747070313
 30
0.0
 10
108.1408582899306
 20
131.4147176106771
 30
0.0
 10
108.1408582899306
 20
131.7826538085938
 30
0.0
 10
107.8459581163194
 20
131.9032321506076
 30
0.0
 10
107.695751953125
 20
131.9679999457465
 30
0.0
 10
107.695751953125
 20
131.9679999457465
 30
0.0
 10
107.6426974826389
 20
131.9910820855035
 30
0.0
 10
107.6426974826389
 20
131.9910820855035
 30
0.0
 10
107.6426974826389
 20
131.9910820855035
 30
0.0
 10
107.6426974826389
 20
131.9862589518229
 30
0.0
 10
107.6426974826389
 20
131.9862589518229
 30
0.0
 10
107.6426974826389
 20
131.9862589518229
 30
0.0
 10
107.65234375
 20
131.9821248372396
 30
0.0
 10
107.65234375
 20
131.9821248372396
 30
0.0
 10
107.7419162326389
 20
131.8877292209201
 30
0.0
 10
107.8218424479167
 20
131.7420016818576
 30
0.0
 10
107.8218424479167
 20
131.572502983941
 30
0.0
 10
107.8218424479167
 20
131.1418660481771
 30
0.0
 10
107.4177327473958
 20
131.1911309136285
 30
0.0
 10
107.1152533637153
 20
131.3220445421007
 30
0.0
 10
106.7597195095486
 20
131.4760403103298
 30
0.0
 10
106.4837673611111
 20
131.7864434136285
 30
0.0
 10
106.4837673611111
 20
132.1226847330729
 30
0.0
 10
106.4837673611111
 20
132.3524726019965
 30
0.0
 10
106.6267388237847
 20
132.3876125759549
 30
0.0
 10
106.6990858289931
 20
132.4069051106771
 30
0.0
 10
106.6990858289931
 20
132.4069051106771
 30
0.0
 10
106.6990858289931
 20
132.4117282443576
 30
0.0
 10
106.6990858289931
 20
132.4117282443576
 30
0.0
 10
106.6990858289931
 20
132.4117282443576
 30
0.0
 10
106.5202853732639
 20
132.4892428927951
 30
0.0
 10
106.5202853732639
 20
132.4892428927951
 30
0.0
 10
106.5202853732639
 20
132.4892428927951
 30
0.0
 10
106.5202853732639
 20
132.6900919596354
 30
0.0
 10
106.5202853732639
 20
132.6900919596354
 30
0.0
 10
106.5202853732639
 20
132.6900919596354
 30
0.0
 10
107.6812825520833
 20
132.1871080186632
 30
0.0
 10
107.6812825520833
 20
132.1871080186632
 30
0.0
  0
SPLINE
  5
C0
330
A
100
AcDbEntity
  8
LAYER_1
 62
     7
100
AcDbSpline
210
0.0
220
0.0
230
1.0
 70
    11
 71
     3
 72
    17
 73
    13
 74
     0
 42
0.0000000001
 43
0.0000000001
 40
0.0
 40
0.0
 40
0.0
 40
0.0
 40
1.0
 40
1.0
 40
1.0
 40
2.0
 40
2.0
 40
2.0
 40
3.0
 40
3.0
 40
3.0
 40
4.0
 40
4.0
 40
4.0
 40
4.0
 10
107.6378743489583
 20
131.6569078233507
 30
0.0
 10
107.6378743489583
 20
131.7923000759548
 30
0.0
 10
107.5483018663194
 20
132.0417249891493
 30
0.0
 10
107.212060546875
 20
132.1871080186632
 30
0.0
 10
107.0063883463542
 20
132.2763359917535
 30
0.0
 10
106.6749701605903
 20
132.3858900282118
 30
0.0
 10
106.6749701605903
 20
132.0785875108507
 30
0.0
 10
106.6749701605903
 20
131.7495808919271
 30
0.0
 10
106.9870958116319
 20
131.5976521809896
 30
0.0
 10
107.1490152994792
 20
131.5273722330729
 30
0.0
 10
107.4273790147569
 20
131.4071384006076
 30
0.0
 10
107.6378743489583
 20
131.4247083875868
 30
0.0
 10
107.6378743489583
 20
131.6569078233507
 30
0.0
  0
LWPOLYLINE
  5
BA
330
A
100
AcDbEntity
  8
LAYER_1
 62
     7
100
AcDbPolyline
 90
        4
 70
     1
 43
0.0
 10
107.2241183810764
 20
133.3191663953993
 10
107.2241183810764
 20
132.7266099717882
 10
107.0063883463542
 20
132.8210055881076
 10
107.0063883463542
 20
133.4135620117187
  0
LWPOLYLINE
  5
B0
330
A
100
AcDbEntity
  8
LAYER_1
 62
     7
100
AcDbPolyline
 90
        8
 70
     1
 43
0.0
 10
106.0483072916667
 20
133.5813381618924
 10
106.0483072916667
 20
134.9917602539063
 10
106.2563910590278
 20
134.9014987521701
 10
106.2563910590278
 20
134.3137654622396
 10
107.7853244357639
 20
133.651618109809
 10
107.7853244357639
 20
133.4170071072049
 10
106.2563910590278
 20
134.0788099500868
 10
106.2563910590278
 20
133.4910766601562
  0
LWPOLYLINE
  5
AA
330
A
100
AcDbEntity
  8
LAYER_1
 62
     7
100
AcDbPolyline
 90
        4
 70
     1
 43
0.0
 10
107.7853244357639
 20
134.6072875976562
 10
107.7853244357639
 20
134.3943806966146
 10
106.5202853732639
 20
134.9421508789062
 10
106.5202853732639
 20
135.1550577799479
  0
LWPOLYLINE
  5
A4
330
A
100
AcDbEntity
  8
LAYER_1
 62
     7
100
AcDbPolyline
 90
        4
 70
     1
 43
0.0
 10
106.2904975043403
 20
135.0417141384548
 10
106.0483072916667
 20
135.1464450412326
 10
106.0483072916667
 20
135.3593519422743
 10
106.2904975043403
 20
135.2546210394965
  0
SPLINE
  5
A3
330
A
100
AcDbEntity
  8
LAYER_1
 62
     7
100
AcDbSpline
210
0.0
220
0.0
230
1.0
 70
    11
 71
     3
 72
    32
 73
    28
 74
     0
 42
0.0000000001
 43
0.0000000001
 40
0.0
 40
0.0
 40
0.0
 40
0.0
 40
1.0
 40
1.0
 40
1.0
 40
2.0
 40
2.0
 40
2.0
 40
3.0
 40
3.0
 40
3.0
 40
4.0
 40
4.0
 40
4.0
 40
5.0
 40
5.0
 40
5.0
 40
6.0
 40
6.0
 40
6.0
 40
7.0
 40
7.0
 40
7.0
 40
8.0
 40
8.0
 40
8.0
 40
9.0
 40
9.0
 40
9.0
 40
9.0
 10
107.3887939453125
 20
136.1723944769965
 30
0.0
 10
107.4490831163194
 20
136.1389770507813
 30
0.0
 10
107.6282280815972
 20
136.0035847981771
 30
0.0
 10
107.7346815321181
 20
135.7979125976563
 30
0.0
 10
107.7732666015625
 20
135.722809516059
 30
0.0
 10
107.8218424479167
 20
135.6198011610243
 30
0.0
 10
107.8218424479167
 20
135.4165405273437
 30
0.0
 10
107.8218424479167
 20
135.0610066731771
 30
0.0
 10
107.553125
 20
134.9666110568576
 30
0.0
 10
107.1879448784722
 20
135.1250854492187
 30
0.0
 10
106.7958930121528
 20
135.2945841471354
 30
0.0
 10
106.4837673611111
 20
135.6184231228299
 30
0.0
 10
106.4837673611111
 20
136.0370022243924
 30
0.0
 10
106.4837673611111
 20
136.4021823459201
 30
0.0
 10
106.7741889105903
 20
136.4555813259549
 30
0.0
 10
107.2217068142361
 20
136.2616224500868
 30
0.0
 10
107.2217068142361
 20
136.2616224500868
 30
0.0
 10
107.2217068142361
 20
135.3376478407118
 30
0.0
 10
107.2217068142361
 20
135.3376478407118
 30
0.0
 10
107.4852566189236
 20
135.2236151801215
 30
0.0
 10
107.6378743489583
 20
135.280803765191
 30
0.0
 10
107.6378743489583
 20
135.5250610351562
 30
0.0
 10
107.6378743489583
 20
135.7259101019965
 30
0.0
 10
107.4828450520833
 20
135.9116007486979
 30
0.0
 10
107.3887939453125
 20
135.9594875759549
 30
0.0
 10
107.3887939453125
 20
135.9594875759549
 30
0.0
 10
107.3887939453125
 20
136.1723944769965
 30
0.0
 10
107.3887939453125
 20
136.1723944769965
 30
0.0
  0
SPLINE
  5
A2
330
A
100
AcDbEntity
  8
LAYER_1
 62
     7
100
AcDbSpline
210
0.0
220
0.0
230
1.0
 70
    11
 71
     3
 72
    14
 73
    10
 74
     0
 42
0.0000000001
 43
0.0000000001
 40
0.0
 40
0.0
 40
0.0
 40
0.0
 40
1.0
 40
1.0
 40
1.0
 40
2.0
 40
2.0
 40
2.0
 40
3.0
 40
3.0
 40
3.0
 40
3.0
 10
107.0525526258681
 20
136.1148613823785
 30
0.0
 10
106.8565266927083
 20
136.187897406684
 30
0.0
 10
106.6749701605903
 20
136.1841078016493
 30
0.0
 10
106.6749701605903
 20
135.9250366210937
 30
0.0
 10
106.6749701605903
 20
135.7293551974826
 30
0.0
 10
106.8565266927083
 20
135.4957777235243
 30
0.0
 10
107.0525526258681
 20
135.411028374566
 30
0.0
 10
107.0525526258681
 20
135.411028374566
 30
0.0
 10
107.0525526258681
 20
136.1148613823785
 30
0.0
 10
107.0525526258681
 20
136.1148613823785
 30
0.0
  0
ELLIPSE
  5
A1
330
A
100
AcDbEntity
  8
LAYER_1
 62
     7
100
AcDbEllipse
 10
106.4231336805556
 20
137.0700141059028
 30
0.0
 11
-0.5212429470486112
 21
0.2272040473090278
 31
0.0
210
0.0
220
0.0
230
1.0
 40
0.9315429083625161
 41
0.0
 42
6.283185307179586
  0
ELLIPSE
  5
A0
330
A
100
AcDbEntity
  8
LAYER_1
 62
     7
100
AcDbEllipse
 10
106.4246839735243
 20
137.0708753797743
 30
0.0
 11
0.43563232421875
 21
-0.1887912326388889
 31
0.0
210
0.0
220
0.0
230
1.0
 40
0.8925145835204901
 41
0.0
 42
6.283185307179586
  0
SPLINE
  5
9F
330
A
100
AcDbEntity
  8
LAYER_1
 62
     7
100
AcDbSpline
210
0.0
220
0.0
230
1.0
 70
    11
 71
     3
 72
    35
 73
    31
 74
     0
 42
0.0000000001
 43
0.0000000001
 40
0.0
 40
0.0
 40
0.0
 40
0.0
 40
1.0
 40
1.0
 40
1.0
 40
2.0
 40
2.0
 40
2.0
 40
3.0
 40
3.0
 40
3.0
 40
4.0
 40
4.0
 40
4.0
 40
5.0
 40
5.0
 40
5.0
 40
6.0
 40
6.0
 40
6.0
 40
7.0
 40
7.0
 40
7.0
 40
8.0
 40
8.0
 40
8.0
 40
9.0
 40
9.0
 40
9.0
 40
10.0
 40
10.0
 40
10.0
 40
10.0
 10
106.7259575737847
 20
136.8297186957465
 30
0.0
 10
106.7259575737847
 20
136.8297186957465
 30
0.0
 10
106.7259575737847
 20
136.7384236653646
 30
0.0
 10
106.7259575737847
 20
136.7384236653646
 30
0.0
 10
106.7259575737847
 20
136.7384236653646
 30
0.0
 10
106.1230658637153
 20
136.9995619032118
 30
0.0
 10
106.1230658637153
 20
136.9995619032118
 30
0.0
 10
106.1230658637153
 20
136.9995619032118
 30
0.0
 10
106.1230658637153
 20
137.2290052625868
 30
0.0
 10
106.1230658637153
 20
137.2290052625868
 30
0.0
 10
106.1230658637153
 20
137.3716322157118
 30
0.0
 10
106.1757758246528
 20
137.4191745334201
 30
0.0
 10
106.2946316189236
 20
137.3678426106771
 30
0.0
 10
106.4024631076389
 20
137.320989312066
 30
0.0
 10
106.44931640625
 20
137.2327948676215
 30
0.0
 10
106.4606852213542
 20
137.1394327799479
 30
0.0
 10
106.4606852213542
 20
137.1394327799479
 30
0.0
 10
106.7259575737847
 20
137.1959323459201
 30
0.0
 10
106.7259575737847
 20
137.1959323459201
 30
0.0
 10
106.7259575737847
 20
137.1959323459201
 30
0.0
 10
106.7259575737847
 20
137.0936130099826
 30
0.0
 10
106.7259575737847
 20
137.0936130099826
 30
0.0
 10
106.7259575737847
 20
137.0936130099826
 30
0.0
 10
106.4648193359375
 20
137.0477932400173
 30
0.0
 10
106.4648193359375
 20
137.0477932400173
 30
0.0
 10
106.4648193359375
 20
137.0477932400173
 30
0.0
 10
106.4648193359375
 20
136.942717827691
 30
0.0
 10
106.4648193359375
 20
136.942717827691
 30
0.0
 10
106.4648193359375
 20
136.942717827691
 30
0.0
 10
106.7259575737847
 20
136.8297186957465
 30
0.0
 10
106.7259575737847
 20
136.8297186957465
 30
0.0
  0
SPLINE
  5
9E
330
A
100
AcDbEntity
  8
LAYER_1
 62
     7
100
AcDbSpline
210
0.0
220
0.0
230
1.0
 70
    11
 71
     3
 72
    20
 73
    16
 74
     0
 42
0.0000000001
 43
0.0000000001
 40
0.0
 40
0.0
 40
0.0
 40
0.0
 40
1.0
 40
1.0
 40
1.0
 40
2.0
 40
2.0
 40
2.0
 40
3.0
 40
3.0
 40
3.0
 40
4.0
 40
4.0
 40
4.0
 40
5.0
 40
5.0
 40
5.0
 40
5.0
 10
106.3873046875
 20
137.0856892903646
 30
0.0
 10
106.3873046875
 20
137.1632039388021
 30
0.0
 10
106.3817925347222
 20
137.2345174153646
 30
0.0
 10
106.2891194661458
 20
137.2748250325521
 30
0.0
 10
106.2143608940972
 20
137.3072089301215
 30
0.0
 10
106.2005805121528
 20
137.2451972113715
 30
0.0
 10
106.2005805121528
 20
137.1818074544271
 30
0.0
 10
106.2005805121528
 20
137.1818074544271
 30
0.0
 10
106.2005805121528
 20
137.0570949978298
 30
0.0
 10
106.2005805121528
 20
137.0570949978298
 30
0.0
 10
106.2005805121528
 20
137.0570949978298
 30
0.0
 10
106.3873046875
 20
136.9764797634549
 30
0.0
 10
106.3873046875
 20
136.9764797634549
 30
0.0
 10
106.3873046875
 20
136.9764797634549
 30
0.0
 10
106.3873046875
 20
137.0856892903646
 30
0.0
 10
106.3873046875
 20
137.0856892903646
 30
0.0
  0
INSERT
  5
99
330
A
100
AcDbEntity
  8
LAYER_1
 62
     7
100
AcDbBlockReference
  2
AI9-BLK2
 10
93.2814724392361
 20
174.7034620496962
 30
0.0
  0
INSERT
  5
93
330
A
100
AcDbEntity
  8
LAYER_1
 62
     7
100
AcDbBlockReference
  2
AI9-BLK1
 10
84.36556532118055
 20
170.5684861924913
 30
0.0
  0
HATCH
  5
91
330
A
100
AcDbEntity
  8
LAYER_1
 62
     7
100
AcDbHatch
 10
0.0
 20
0.0
 30
0.0
210
0.0
220
0.0
230
1.0
  2
SOLID
 70
     1
 71
     0
 91
        1
 92
        1
 93
        1
 72
     4
 94
        3
 73
     0
 74
     0
 95
       35
 96
       31
 40
0.0
 40
0.0
 40
0.0
 40
0.0
 40
1.0
 40
1.0
 40
1.0
 40
2.0
 40
2.0
 40
2.0
 40
3.0
 40
3.0
 40
3.0
 40
4.0
 40
4.0
 40
4.0
 40
5.0
 40
5.0
 40
5.0
 40
6.0
 40
6.0
 40
6.0
 40
7.0
 40
7.0
 40
7.0
 40
8.0
 40
8.0
 40
8.0
 40
9.0
 40
9.0
 40
9.0
 40
10.0
 40
10.0
 40
10.0
 40
10.0
 10
62.47577311197916
 20
187.3127699110243
 10
62.47577311197916
 20
187.3127699110243
 10
62.47577311197916
 20
192.0752699110243
 10
62.47577311197916
 20
192.0752699110243
 10
62.47577311197916
 20
192.0752699110243
 10
64.71095106336804
 20
192.0752699110243
 10
64.71095106336804
 20
192.0752699110243
 10
64.71095106336804
 20
192.0752699110243
 10
64.71095106336804
 20
191.6012247721354
 10
64.71095106336804
 20
191.6012247721354
 10
64.71095106336804
 20
191.6012247721354
 10
63.00287272135416
 20
191.6012247721354
 10
63.00287272135416
 20
191.6012247721354
 10
63.00287272135416
 20
191.6012247721354
 10
63.00287272135416
 20
190.0357733832465
 10
63.00287272135416
 20
190.0357733832465
 10
63.00287272135416
 20
190.0357733832465
 10
64.59037272135416
 20
190.0357733832465
 10
64.59037272135416
 20
190.0357733832465
 10
64.59037272135416
 20
190.0357733832465
 10
64.59037272135416
 20
189.5617282443576
 10
64.59037272135416
 20
189.5617282443576
 10
64.59037272135416
 20
189.5617282443576
 10
63.00287272135416
 20
189.5617282443576
 10
63.00287272135416
 20
189.5617282443576
 10
63.00287272135416
 20
189.5617282443576
 10
63.00287272135416
 20
187.3127699110243
 10
63.00287272135416
 20
187.3127699110243
 10
63.00287272135416
 20
187.3127699110243
 10
62.47577311197916
 20
187.3127699110243
 10
62.47577311197916
 20
187.3127699110243
 97
        0
 75
     0
 76
     1
 98
        1
 10
0.0
 20
0.0
  0
HATCH
  5
90
330
A
100
AcDbEntity
  8
LAYER_1
 62
     7
100
AcDbHatch
 10
0.0
 20
0.0
 30
0.0
210
0.0
220
0.0
230
1.0
  2
SOLID
 70
     1
 71
     0
 91
        2
 92
       16
 93
        1
 72
     4
 94
        3
 73
     0
 74
     0
 95
       56
 96
       52
 40
0.0
 40
0.0
 40
0.0
 40
0.0
 40
1.0
 40
1.0
 40
1.0
 40
2.0
 40
2.0
 40
2.0
 40
3.0
 40
3.0
 40
3.0
 40
4.0
 40
4.0
 40
4.0
 40
5.0
 40
5.0
 40
5.0
 40
6.0
 40
6.0
 40
6.0
 40
7.0
 40
7.0
 40
7.0
 40
8.0
 40
8.0
 40
8.0
 40
9.0
 40
9.0
 40
9.0
 40
10.0
 40
10.0
 40
10.0
 40
11.0
 40
11.0
 40
11.0
 40
12.0
 40
12.0
 40
12.0
 40
13.0
 40
13.0
 40
13.0
 40
14.0
 40
14.0
 40
14.0
 40
15.0
 40
15.0
 40
15.0
 40
16.0
 40
16.0
 40
16.0
 40
17.0
 40
17.0
 40
17.0
 40
17.0
 10
67.30338541666666
 20
187.6844957139757
 10
67.23344997829861
 20
187.6779500325521
 10
67.15731336805555
 20
187.6717488606771
 10
67.08737792968749
 20
187.6906968858507
 10
66.98574761284722
 20
187.7413397894965
 10
66.99849446614583
 20
187.8681193033854
 10
66.99849446614583
 20
187.9566582573785
 10
66.99849446614583
 20
187.9566582573785
 10
66.99849446614583
 20
189.9782402886285
 10
66.99849446614583
 20
189.9782402886285
 10
66.99849446614583
 20
190.0605780707465
 10
67.08737792968749
 20
190.9387329101562
 10
66.04144694010417
 20
190.9387329101562
 10
65.329345703125
 20
190.9387329101562
 10
64.96726616753472
 20
190.6193725585937
 10
64.99275987413193
 20
189.8897013346354
 10
64.99275987413193
 20
189.8897013346354
 10
65.44337836371527
 20
189.8897013346354
 10
65.44337836371527
 20
189.8897013346354
 10
65.43717719184028
 20
190.3013902452257
 10
65.50091145833333
 20
190.5108520507812
 10
65.95876464843749
 20
190.5108520507812
 10
66.36597493489583
 20
190.5108520507812
 10
66.51824815538194
 20
190.3585788302951
 10
66.51824815538194
 20
189.9592922634548
 10
66.51824815538194
 20
189.7756686740451
 10
66.53099500868055
 20
189.6361423068576
 10
66.42316351996527
 20
189.5538045247396
 10
66.36011827256944
 20
189.5017835828993
 10
65.65042860243055
 20
189.2351331922743
 10
65.36517469618055
 20
189.1083536783854
 10
64.87872721354167
 20
188.8923461914062
 10
64.85977918836805
 20
188.3848836263021
 10
64.85977918836805
 20
188.2515584309896
 10
64.85977918836805
 20
187.6104261610243
 10
65.06200629340277
 20
187.2145846896701
 10
65.76446126302083
 20
187.2145846896701
 10
66.10035807291666
 20
187.2145846896701
 10
66.42316351996527
 20
187.4764119466146
 10
66.54339735243055
 20
187.7881930881076
 10
66.54339735243055
 20
187.7881930881076
 10
66.55614420572915
 20
187.7881930881076
 10
66.55614420572915
 20
187.7881930881076
 10
66.60678710937499
 20
187.3096693250868
 10
66.76457248263888
 20
187.271428765191
 10
67.18900824652778
 20
187.2907212999132
 10
67.2272488064236
 20
187.3034681532118
 10
67.26514485677083
 20
187.3096693250868
 10
67.30338541666666
 20
187.3158704969618
 10
67.30338541666666
 20
187.3158704969618
 10
67.30338541666666
 20
187.6844957139757
 10
67.30338541666666
 20
187.6844957139757
 97
        0
 92
        1
 93
        1
 72
     4
 94
        3
 73
     0
 74
     0
 95
       20
 96
       16
 40
0.0
 40
0.0
 40
0.0
 40
0.0
 40
1.0
 40
1.0
 40
1.0
 40
2.0
 40
2.0
 40
2.0
 40
3.0
 40
3.0
 40
3.0
 40
4.0
 40
4.0
 40
4.0
 40
5.0
 40
5.0
 40
5.0
 40
5.0
 10
66.48035210503471
 20
188.3593899197049
 10
66.48035210503471
 20
187.7881930881076
 10
66.06211751302082
 20
187.6424655490451
 10
65.87229275173611
 20
187.6424655490451
 10
65.46680501302083
 20
187.6424655490451
 10
65.37792154947915
 20
187.8708753797743
 10
65.37792154947915
 20
188.2260647243923
 10
65.37792154947915
 20
188.4672214084201
 10
65.45405815972222
 20
188.7273261176215
 10
65.68832465277777
 20
188.8355021158854
 10
65.95463053385416
 20
188.9622816297743
 10
66.23333875868055
 20
189.0701131184896
 10
66.48035210503471
 20
189.2161851671007
 10
66.48035210503471
 20
189.2161851671007
 10
66.48035210503471
 20
188.3593899197049
 10
66.48035210503471
 20
188.3593899197049
 97
        0
 75
     0
 76
     1
 98
        1
 10
0.0
 20
0.0
  0
HATCH
  5
8F
330
A
100
AcDbEntity
  8
LAYER_1
 62
     7
100
AcDbHatch
 10
0.0
 20
0.0
 30
0.0
210
0.0
220
0.0
230
1.0
  2
SOLID
 70
     1
 71
     0
 91
        1
 92
        1
 93
        1
 72
     4
 94
        3
 73
     0
 74
     0
 95
       35
 96
       31
 40
0.0
 40
0.0
 40
0.0
 40
0.0
 40
1.0
 40
1.0
 40
1.0
 40
2.0
 40
2.0
 40
2.0
 40
3.0
 40
3.0
 40
3.0
 40
4.0
 40
4.0
 40
4.0
 40
5.0
 40
5.0
 40
5.0
 40
6.0
 40
6.0
 40
6.0
 40
7.0
 40
7.0
 40
7.0
 40
8.0
 40
8.0
 40
8.0
 40
9.0
 40
9.0
 40
9.0
 40
10.0
 40
10.0
 40
10.0
 40
10.0
 10
68.11573893229166
 20
188.9240410698785
 10
68.11573893229166
 20
188.4610202365451
 10
68.1477783203125
 20
187.6424655490451
 10
68.79166666666666
 20
187.6424655490451
 10
69.34012586805555
 20
187.6424655490451
 10
69.39111328125
 20
188.1120320638021
 10
69.41660698784722
 20
188.5433580186632
 10
69.41660698784722
 20
188.5433580186632
 10
69.8906521267361
 20
188.5433580186632
 10
69.8906521267361
 20
188.5433580186632
 10
69.8717041015625
 20
187.8643296983507
 10
69.61883409288194
 20
187.2145846896701
 10
68.82887369791666
 20
187.2145846896701
 10
67.74918077256943
 20
187.2145846896701
 10
67.59759657118055
 20
188.1182332356771
 10
67.59759657118055
 20
189.0322170681423
 10
67.59759657118055
 20
189.8952134874132
 10
67.73677842881943
 20
190.9387329101562
 10
68.81612684461805
 20
190.9387329101562
 10
69.52960611979167
 20
190.9387329101562
 10
69.87411566840277
 20
190.3837280273437
 10
69.86756998697916
 20
189.7301934136285
 10
69.86756998697916
 20
189.7301934136285
 10
69.39559190538193
 20
189.7301934136285
 10
69.39559190538193
 20
189.7301934136285
 10
69.38939073350694
 20
190.1170776367187
 10
69.28741590711805
 20
190.5108520507812
 10
68.80992567274305
 20
190.5108520507812
 10
68.07784288194443
 20
190.5108520507812
 10
68.11573893229166
 20
189.4256469726562
 10
68.11573893229166
 20
188.9240410698785
 97
        0
 75
     0
 76
     1
 98
        1
 10
0.0
 20
0.0
  0
HATCH
  5
8E
330
A
100
AcDbEntity
  8
LAYER_1
 62
     7
100
AcDbHatch
 10
0.0
 20
0.0
 30
0.0
210
0.0
220
0.0
230
1.0
  2
SOLID
 70
     1
 71
     0
 91
        1
 92
        1
 93
        1
 72
     4
 94
        3
 73
     0
 74
     0
 95
       53
 96
       49
 40
0.0
 40
0.0
 40
0.0
 40
0.0
 40
1.0
 40
1.0
 40
1.0
 40
2.0
 40
2.0
 40
2.0
 40
3.0
 40
3.0
 40
3.0
 40
4.0
 40
4.0
 40
4.0
 40
5.0
 40
5.0
 40
5.0
 40
6.0
 40
6.0
 40
6.0
 40
7.0
 40
7.0
 40
7.0
 40
8.0
 40
8.0
 40
8.0
 40
9.0
 40
9.0
 40
9.0
 40
10.0
 40
10.0
 40
10.0
 40
11.0
 40
11.0
 40
11.0
 40
12.0
 40
12.0
 40
12.0
 40
13.0
 40
13.0
 40
13.0
 40
14.0
 40
14.0
 40
14.0
 40
15.0
 40
15.0
 40
15.0
 40
16.0
 40
16.0
 40
16.0
 40
16.0
 10
71.02271050347221
 20
190.8395141601562
 10
71.02271050347221
 20
190.8395141601562
 10
71.61319986979166
 20
190.8395141601562
 10
71.61319986979166
 20
190.8395141601562
 10
71.61319986979166
 20
190.8395141601562
 10
71.61319986979166
 20
190.4116333007812
 10
71.61319986979166
 20
190.4116333007812
 10
71.61319986979166
 20
190.4116333007812
 10
71.02891167534722
 20
190.4116333007812
 10
71.02891167534722
 20
190.4116333007812
 10
71.02891167534722
 20
190.4116333007812
 10
71.02891167534722
 20
188.0135023328993
 10
71.02891167534722
 20
188.0135023328993
 10
71.02891167534722
 20
187.893268500434
 10
70.98412543402777
 20
187.7416842990451
 10
71.2638671875
 20
187.7416842990451
 10
71.2638671875
 20
187.7416842990451
 10
71.60045301649305
 20
187.7416842990451
 10
71.60045301649305
 20
187.7416842990451
 10
71.60045301649305
 20
187.7416842990451
 10
71.60045301649305
 20
187.3138034396701
 10
71.60045301649305
 20
187.3138034396701
 10
71.60045301649305
 20
187.3138034396701
 10
71.04820421006944
 20
187.3138034396701
 10
71.04820421006944
 20
187.3138034396701
 10
70.74779188368055
 20
187.3072577582465
 10
70.52386067708332
 20
187.3585896809896
 10
70.52386067708332
 20
187.893268500434
 10
70.52386067708332
 20
187.893268500434
 10
70.52386067708332
 20
190.4116333007812
 10
70.52386067708332
 20
190.4116333007812
 10
70.52386067708332
 20
190.4116333007812
 10
70.03500162760416
 20
190.4116333007812
 10
70.03500162760416
 20
190.4116333007812
 10
70.03500162760416
 20
190.4116333007812
 10
70.03500162760416
 20
190.8395141601562
 10
70.03500162760416
 20
190.8395141601562
 10
70.03500162760416
 20
190.8395141601562
 10
70.52386067708332
 20
190.8395141601562
 10
70.52386067708332
 20
190.8395141601562
 10
70.52386067708332
 20
190.8395141601562
 10
70.52386067708332
 20
191.798284233941
 10
70.52386067708332
 20
191.798284233941
 10
70.52386067708332
 20
191.798284233941
 10
71.02271050347221
 20
191.798284233941
 10
71.02271050347221
 20
191.798284233941
 10
71.02271050347221
 20
191.798284233941
 10
71.02271050347221
 20
190.8395141601562
 10
71.02271050347221
 20
190.8395141601562
 97
        0
 75
     0
 76
     1
 98
        1
 10
0.0
 20
0.0
  0
HATCH
  5
8D
330
A
100
AcDbEntity
  8
LAYER_1
 62
     7
100
AcDbHatch
 10
0.0
 20
0.0
 30
0.0
210
0.0
220
0.0
230
1.0
  2
SOLID
 70
     1
 71
     0
 91
        2
 92
       16
 93
        1
 72
     4
 94
        3
 73
     0
 74
     0
 95
       17
 96
       13
 40
0.0
 40
0.0
 40
0.0
 40
0.0
 40
1.0
 40
1.0
 40
1.0
 40
2.0
 40
2.0
 40
2.0
 40
3.0
 40
3.0
 40
3.0
 40
4.0
 40
4.0
 40
4.0
 40
4.0
 10
74.44472384982639
 20
189.1972371419271
 10
74.44472384982639
 20
190.2631496853298
 10
74.05301649305555
 20
190.9387329101562
 10
73.17692871093749
 20
190.9387329101562
 10
72.30084092881944
 20
190.9387329101562
 10
71.9091335720486
 20
190.2631496853298
 10
71.9091335720486
 20
189.1972371419271
 10
71.9091335720486
 20
187.6741604275173
 10
72.40832790798611
 20
187.2145846896701
 10
73.17692871093749
 20
187.2145846896701
 10
73.95827636718749
 20
187.2145846896701
 10
74.44472384982639
 20
187.6676147460937
 10
74.44472384982639
 20
189.1972371419271
 97
        0
 92
        1
 93
        1
 72
     4
 94
        3
 73
     0
 74
     0
 95
       17
 96
       13
 40
0.0
 40
0.0
 40
0.0
 40
0.0
 40
1.0
 40
1.0
 40
1.0
 40
2.0
 40
2.0
 40
2.0
 40
3.0
 40
3.0
 40
3.0
 40
4.0
 40
4.0
 40
4.0
 40
4.0
 10
73.92658148871527
 20
189.0384182400173
 10
73.92658148871527
 20
188.2071166992187
 10
73.77913140190971
 20
187.6424655490451
 10
73.17692871093749
 20
187.6424655490451
 10
72.58747287326388
 20
187.6424655490451
 10
72.42727593315972
 20
188.2071166992187
 10
72.42727593315972
 20
189.0384182400173
 10
72.42727593315972
 20
190.1046752929687
 10
72.65775282118055
 20
190.5108520507812
 10
73.17692871093749
 20
190.5108520507812
 10
73.70850694444444
 20
190.5108520507812
 10
73.92658148871527
 20
190.1046752929687
 10
73.92658148871527
 20
189.0384182400173
 97
        0
 75
     0
 76
     1
 98
        1
 10
0.0
 20
0.0
  0
HATCH
  5
8C
330
A
100
AcDbEntity
  8
LAYER_1
 62
     7
100
AcDbHatch
 10
0.0
 20
0.0
 30
0.0
210
0.0
220
0.0
230
1.0
  2
SOLID
 70
     1
 71
     0
 91
        1
 92
        1
 93
        1
 72
     4
 94
        3
 73
     0
 74
     0
 95
       32
 96
       28
 40
0.0
 40
0.0
 40
0.0
 40
0.0
 40
1.0
 40
1.0
 40
1.0
 40
2.0
 40
2.0
 40
2.0
 40
3.0
 40
3.0
 40
3.0
 40
4.0
 40
4.0
 40
4.0
 40
5.0
 40
5.0
 40
5.0
 40
6.0
 40
6.0
 40
6.0
 40
7.0
 40
7.0
 40
7.0
 40
8.0
 40
8.0
 40
8.0
 40
9.0
 40
9.0
 40
9.0
 40
9.0
 10
75.59986436631944
 20
190.2600490993924
 10
75.59986436631944
 20
190.2600490993924
 10
75.61261121961805
 20
190.2600490993924
 10
75.61261121961805
 20
190.2600490993924
 10
75.82241753472222
 20
190.7216918945312
 10
76.12076280381943
 20
190.9180623372396
 10
76.64751790364582
 20
190.8736206054687
 10
76.64751790364582
 20
190.8736206054687
 10
76.64751790364582
 20
190.3802829318576
 10
76.64751790364582
 20
190.3802829318576
 10
75.99983995225693
 20
190.4943155924479
 10
75.61915690104166
 20
190.0888278537326
 10
75.61915690104166
 20
189.4494181315104
 10
75.61915690104166
 20
189.4494181315104
 10
75.61915690104166
 20
187.3127699110243
 10
75.61915690104166
 20
187.3127699110243
 10
75.61915690104166
 20
187.3127699110243
 10
75.11410590277777
 20
187.3127699110243
 10
75.11410590277777
 20
187.3127699110243
 10
75.11410590277777
 20
187.3127699110243
 10
75.11410590277777
 20
190.8395141601562
 10
75.11410590277777
 20
190.8395141601562
 10
75.11410590277777
 20
190.8395141601562
 10
75.59986436631944
 20
190.8395141601562
 10
75.59986436631944
 20
190.8395141601562
 10
75.59986436631944
 20
190.8395141601562
 10
75.59986436631944
 20
190.2600490993924
 10
75.59986436631944
 20
190.2600490993924
 97
        0
 75
     0
 76
     1
 98
        1
 10
0.0
 20
0.0
  0
HATCH
  5
8B
330
A
100
AcDbEntity
  8
LAYER_1
 62
     7
100
AcDbHatch
 10
0.0
 20
0.0
 30
0.0
210
0.0
220
0.0
230
1.0
  2
SOLID
 70
     1
 71
     0
 91
        1
 92
        1
 93
        1
 72
     4
 94
        3
 73
     0
 74
     0
 95
       44
 96
       40
 40
0.0
 40
0.0
 40
0.0
 40
0.0
 40
1.0
 40
1.0
 40
1.0
 40
2.0
 40
2.0
 40
2.0
 40
3.0
 40
3.0
 40
3.0
 40
4.0
 40
4.0
 40
4.0
 40
5.0
 40
5.0
 40
5.0
 40
6.0
 40
6.0
 40
6.0
 40
7.0
 40
7.0
 40
7.0
 40
8.0
 40
8.0
 40
8.0
 40
9.0
 40
9.0
 40
9.0
 40
10.0
 40
10.0
 40
10.0
 40
11.0
 40
11.0
 40
11.0
 40
12.0
 40
12.0
 40
12.0
 40
13.0
 40
13.0
 40
13.0
 40
13.0
 10
76.59515245225694
 20
190.8405476888021
 10
76.59515245225694
 20
190.8405476888021
 10
77.11605088975693
 20
190.8405476888021
 10
77.11605088975693
 20
190.8405476888021
 10
77.11605088975693
 20
190.8405476888021
 10
77.90980088975694
 20
187.7799248589409
 10
77.90980088975694
 20
187.7799248589409
 10
77.90980088975694
 20
187.7799248589409
 10
77.92254774305555
 20
187.7799248589409
 10
77.92254774305555
 20
187.7799248589409
 10
77.92254774305555
 20
187.7799248589409
 10
78.74144694010415
 20
190.8405476888021
 10
78.74144694010415
 20
190.8405476888021
 10
78.74144694010415
 20
190.8405476888021
 10
79.26200086805555
 20
190.8405476888021
 10
79.26200086805555
 20
190.8405476888021
 10
79.26200086805555
 20
190.8405476888021
 10
78.21434733072915
 20
187.4684882269965
 10
78.21434733072915
 20
187.4684882269965
 10
78.15095757378471
 20
187.259026421441
 10
77.992138671875
 20
186.7446736653646
 10
77.89050835503471
 20
186.5669067382812
 10
77.70654025607638
 20
186.2351440429687
 10
77.45263671875
 20
186.101129828559
 10
77.08435601128471
 20
186.101129828559
 10
76.96343315972221
 20
186.101129828559
 10
76.84285481770833
 20
186.1200778537326
 10
76.72227647569444
 20
186.1583184136285
 10
76.72227647569444
 20
186.1583184136285
 10
76.72227647569444
 20
186.6051472981771
 10
76.72227647569444
 20
186.6051472981771
 10
76.83665364583332
 20
186.5541598849826
 10
76.97618001302082
 20
186.529010687934
 10
77.09675835503471
 20
186.529010687934
 10
77.56666937934027
 20
186.529010687934
 10
77.57941623263888
 20
186.8779988606771
 10
77.71928710937499
 20
187.2273315429687
 10
77.71928710937499
 20
187.2273315429687
 10
76.59515245225694
 20
190.8405476888021
 10
76.59515245225694
 20
190.8405476888021
 97
        0
 75
     0
 76
     1
 98
        1
 10
0.0
 20
0.0
  0
HATCH
  5
8A
330
A
100
AcDbEntity
  8
LAYER_1
 62
     7
100
AcDbHatch
 10
0.0
 20
0.0
 30
0.0
210
0.0
220
0.0
230
1.0
  2
SOLID
 70
     1
 71
     0
 91
        1
 92
        1
 93
        1
 72
     4
 94
        3
 73
     0
 74
     0
 95
       71
 96
       67
 40
0.0
 40
0.0
 40
0.0
 40
0.0
 40
1.0
 40
1.0
 40
1.0
 40
2.0
 40
2.0
 40
2.0
 40
3.0
 40
3.0
 40
3.0
 40
4.0
 40
4.0
 40
4.0
 40
5.0
 40
5.0
 40
5.0
 40
6.0
 40
6.0
 40
6.0
 40
7.0
 40
7.0
 40
7.0
 40
8.0
 40
8.0
 40
8.0
 40
9.0
 40
9.0
 40
9.0
 40
10.0
 40
10.0
 40
10.0
 40
11.0
 40
11.0
 40
11.0
 40
12.0
 40
12.0
 40
12.0
 40
13.0
 40
13.0
 40
13.0
 40
14.0
 40
14.0
 40
14.0
 40
15.0
 40
15.0
 40
15.0
 40
16.0
 40
16.0
 40
16.0
 40
17.0
 40
17.0
 40
17.0
 40
18.0
 40
18.0
 40
18.0
 40
19.0
 40
19.0
 40
19.0
 40
20.0
 40
20.0
 40
20.0
 40
21.0
 40
21.0
 40
21.0
 40
22.0
 40
22.0
 40
22.0
 40
22.0
 10
82.43079969618054
 20
187.3138034396701
 10
82.43079969618054
 20
187.3138034396701
 10
81.77692057291667
 20
187.3138034396701
 10
81.77692057291667
 20
187.3138034396701
 10
81.77692057291667
 20
187.3138034396701
 10
80.76165093315971
 20
192.0742363823784
 10
80.76165093315971
 20
192.0742363823784
 10
80.76165093315971
 20
192.0742363823784
 10
81.34525010850693
 20
192.0742363823784
 10
81.34525010850693
 20
192.0742363823784
 10
81.34525010850693
 20
192.0742363823784
 10
81.9674343532986
 20
188.7938164605035
 10
81.9674343532986
 20
188.7938164605035
 10
82.02462293836805
 20
188.4706665039062
 10
82.06906467013889
 20
188.1409708658854
 10
82.1069607204861
 20
187.6975870768229
 10
82.1069607204861
 20
187.6975870768229
 10
82.11970757378471
 20
187.6975870768229
 10
82.11970757378471
 20
187.6975870768229
 10
82.16414930555555
 20
188.065178765191
 10
82.20238986545138
 20
188.4134779188368
 10
82.27198079427083
 20
188.7559204101562
 10
82.27198079427083
 20
188.7559204101562
 10
82.97030164930555
 20
192.0742363823784
 10
82.97030164930555
 20
192.0742363823784
 10
82.97030164930555
 20
192.0742363823784
 10
83.62383626302082
 20
192.0742363823784
 10
83.62383626302082
 20
192.0742363823784
 10
83.62383626302082
 20
192.0742363823784
 10
84.25222167968749
 20
188.7938164605035
 10
84.25222167968749
 20
188.7938164605035
 10
84.30941026475693
 20
188.4768676757812
 10
84.34730631510416
 20
188.1602634006076
 10
84.39174804687499
 20
187.6975870768229
 10
84.39174804687499
 20
187.6975870768229
 10
84.4044949001736
 20
187.6975870768229
 10
84.4044949001736
 20
187.6975870768229
 10
84.44893663194443
 20
188.065178765191
 10
84.48717719184027
 20
188.4134779188368
 10
84.55676812065971
 20
188.7559204101562
 10
84.55676812065971
 20
188.7559204101562
 10
85.24854329427083
 20
192.0742363823784
 10
85.24854329427083
 20
192.0742363823784
 10
85.24854329427083
 20
192.0742363823784
 10
85.83248697916666
 20
192.0742363823784
 10
85.83248697916666
 20
192.0742363823784
 10
85.83248697916666
 20
192.0742363823784
 10
84.71558702256944
 20
187.3138034396701
 10
84.71558702256944
 20
187.3138034396701
 10
84.71558702256944
 20
187.3138034396701
 10
84.06170789930555
 20
187.3138034396701
 10
84.06170789930555
 20
187.3138034396701
 10
84.06170789930555
 20
187.3138034396701
 10
83.42712131076388
 20
190.5432359483507
 10
83.42712131076388
 20
190.5432359483507
 10
83.36373155381943
 20
190.8536390516493
 10
83.32549099392361
 20
191.1705878363715
 10
83.28759494357638
 20
191.6904527452257
 10
83.28759494357638
 20
191.6904527452257
 10
83.27484809027777
 20
191.6904527452257
 10
83.27484809027777
 20
191.6904527452257
 10
83.23040635850694
 20
191.233977593316
 10
83.1921657986111
 20
190.8853339301215
 10
83.12257486979166
 20
190.5432359483507
 10
83.12257486979166
 20
190.5432359483507
 10
82.43079969618054
 20
187.3138034396701
 10
82.43079969618054
 20
187.3138034396701
 97
        0
 75
     0
 76
     1
 98
        1
 10
0.0
 20
0.0
  0
HATCH
  5
89
330
A
100
AcDbEntity
  8
LAYER_1
 62
     7
100
AcDbHatch
 10
0.0
 20
0.0
 30
0.0
210
0.0
220
0.0
230
1.0
  2
SOLID
 70
     1
 71
     0
 91
        2
 92
        1
 93
        1
 72
     4
 94
        3
 73
     0
 74
     0
 95
       29
 96
       25
 40
0.0
 40
0.0
 40
0.0
 40
0.0
 40
1.0
 40
1.0
 40
1.0
 40
2.0
 40
2.0
 40
2.0
 40
3.0
 40
3.0
 40
3.0
 40
4.0
 40
4.0
 40
4.0
 40
5.0
 40
5.0
 40
5.0
 40
6.0
 40
6.0
 40
6.0
 40
7.0
 40
7.0
 40
7.0
 40
8.0
 40
8.0
 40
8.0
 40
8.0
 10
88.2616238064236
 20
188.4865139431423
 10
88.29331868489582
 20
187.7947387695312
 10
87.93640679253471
 20
187.2145846896701
 10
87.19674479166666
 20
187.2145846896701
 10
86.53184136284722
 20
187.2145846896701
 10
86.05779622395832
 20
187.6614135742187
 10
86.05779622395832
 20
189.0825154622396
 10
86.05779622395832
 20
189.8225219726562
 10
86.25382215711805
 20
190.9387329101562
 10
87.18399793836805
 20
190.9387329101562
 10
88.32260199652777
 20
190.9387329101562
 10
88.25955674913193
 20
189.8545613606771
 10
88.28470594618055
 20
189.032561577691
 10
88.28470594618055
 20
189.032561577691
 10
86.57593858506944
 20
189.032561577691
 10
86.57593858506944
 20
189.032561577691
 10
86.58868543836805
 20
188.5564493815104
 10
86.50634765624999
 20
187.6424655490451
 10
87.20811360677082
 20
187.6424655490451
 10
87.68835991753471
 20
187.6424655490451
 10
87.82134060329861
 20
188.0865383572048
 10
87.78964572482639
 20
188.4865139431423
 10
87.78964572482639
 20
188.4865139431423
 10
88.2616238064236
 20
188.4865139431423
 10
88.2616238064236
 20
188.4865139431423
 97
        0
 92
       16
 93
        1
 72
     4
 94
        3
 73
     0
 74
     0
 95
       14
 96
       10
 40
0.0
 40
0.0
 40
0.0
 40
0.0
 40
1.0
 40
1.0
 40
1.0
 40
2.0
 40
2.0
 40
2.0
 40
3.0
 40
3.0
 40
3.0
 40
3.0
 10
87.76656358506943
 20
189.4404608832465
 10
87.74761555989582
 20
189.8545613606771
 10
87.77276475694444
 20
190.5108520507812
 10
87.19019911024304
 20
190.5108520507812
 10
86.60763346354166
 20
190.5108520507812
 10
86.59488661024305
 20
189.8607625325521
 10
86.57593858506944
 20
189.4404608832465
 10
86.57593858506944
 20
189.4404608832465
 10
87.76656358506943
 20
189.4404608832465
 10
87.76656358506943
 20
189.4404608832465
 97
        0
 75
     0
 76
     1
 98
        1
 10
0.0
 20
0.0
  0
HATCH
  5
88
330
A
100
AcDbEntity
  8
LAYER_1
 62
     7
100
AcDbHatch
 10
0.0
 20
0.0
 30
0.0
210
0.0
220
0.0
230
1.0
  2
SOLID
 70
     1
 71
     0
 91
        1
 92
        1
 93
        1
 72
     4
 94
        3
 73
     0
 74
     0
 95
       17
 96
       13
 40
0.0
 40
0.0
 40
0.0
 40
0.0
 40
1.0
 40
1.0
 40
1.0
 40
2.0
 40
2.0
 40
2.0
 40
3.0
 40
3.0
 40
3.0
 40
4.0
 40
4.0
 40
4.0
 40
4.0
 10
88.89586588541665
 20
187.3127699110243
 10
88.89586588541665
 20
187.3127699110243
 10
88.89586588541665
 20
192.0752699110243
 10
88.89586588541665
 20
192.0752699110243
 10
88.89586588541665
 20
192.0752699110243
 10
89.40091688368055
 20
192.0752699110243
 10
89.40091688368055
 20
192.0752699110243
 10
89.40091688368055
 20
192.0752699110243
 10
89.40091688368055
 20
187.3127699110243
 10
89.40091688368055
 20
187.3127699110243
 10
89.40091688368055
 20
187.3127699110243
 10
88.89586588541665
 20
187.3127699110243
 10
88.89586588541665
 20
187.3127699110243
 97
        0
 75
     0
 76
     1
 98
        1
 10
0.0
 20
0.0
  0
HATCH
  5
87
330
A
100
AcDbEntity
  8
LAYER_1
 62
     7
100
AcDbHatch
 10
0.0
 20
0.0
 30
0.0
210
0.0
220
0.0
230
1.0
  2
SOLID
 70
     1
 71
     0
 91
        2
 92
       16
 93
        1
 72
     4
 94
        3
 73
     0
 74
     0
 95
       38
 96
       34
 40
0.0
 40
0.0
 40
0.0
 40
0.0
 40
1.0
 40
1.0
 40
1.0
 40
2.0
 40
2.0
 40
2.0
 40
3.0
 40
3.0
 40
3.0
 40
4.0
 40
4.0
 40
4.0
 40
5.0
 40
5.0
 40
5.0
 40
6.0
 40
6.0
 40
6.0
 40
7.0
 40
7.0
 40
7.0
 40
8.0
 40
8.0
 40
8.0
 40
9.0
 40
9.0
 40
9.0
 40
10.0
 40
10.0
 40
10.0
 40
11.0
 40
11.0
 40
11.0
 40
11.0
 10
91.87759602864583
 20
190.4788126627604
 10
91.87759602864583
 20
190.4788126627604
 10
91.86484917534722
 20
190.4788126627604
 10
91.86484917534722
 20
190.4788126627604
 10
91.63161621093749
 20
190.7854261610243
 10
91.41698676215277
 20
190.9387329101562
 10
91.05766330295138
 20
190.9387329101562
 10
90.30663248697915
 20
190.9387329101562
 10
89.96556803385415
 20
190.1170776367187
 10
90.00346408420138
 20
189.0828599717882
 10
90.01621093749999
 20
188.7717678493924
 10
89.92732747395833
 20
187.2145846896701
 10
91.03216959635415
 20
187.2145846896701
 10
91.45488281249999
 20
187.2145846896701
 10
91.66951226128471
 20
187.3551445855035
 10
91.88414171006944
 20
187.775446234809
 10
91.88414171006944
 20
187.775446234809
 10
91.89688856336805
 20
187.775446234809
 10
91.89688856336805
 20
187.775446234809
 10
91.89688856336805
 20
187.775446234809
 10
91.89688856336805
 20
187.3127699110243
 10
91.89688856336805
 20
187.3127699110243
 10
91.89688856336805
 20
187.3127699110243
 10
92.38264702690971
 20
187.3127699110243
 10
92.38264702690971
 20
187.3127699110243
 10
92.38264702690971
 20
187.3127699110243
 10
92.38264702690971
 20
192.0752699110243
 10
92.38264702690971
 20
192.0752699110243
 10
92.38264702690971
 20
192.0752699110243
 10
91.87759602864583
 20
192.0752699110243
 10
91.87759602864583
 20
192.0752699110243
 10
91.87759602864583
 20
192.0752699110243
 10
91.87759602864583
 20
190.4788126627604
 10
91.87759602864583
 20
190.4788126627604
 97
        0
 92
        1
 93
        1
 72
     4
 94
        3
 73
     0
 74
     0
 95
       20
 96
       16
 40
0.0
 40
0.0
 40
0.0
 40
0.0
 40
1.0
 40
1.0
 40
1.0
 40
2.0
 40
2.0
 40
2.0
 40
3.0
 40
3.0
 40
3.0
 40
4.0
 40
4.0
 40
4.0
 40
5.0
 40
5.0
 40
5.0
 40
5.0
 10
91.87759602864583
 20
188.6956312391493
 10
91.87759602864583
 20
188.2960001627604
 10
91.73255750868054
 20
187.6424655490451
 10
91.21510416666666
 20
187.6424655490451
 10
90.5340087890625
 20
187.6424655490451
 10
90.50851508246527
 20
188.3342407226562
 10
90.50851508246527
 20
189.0956068250868
 10
90.50851508246527
 20
190.1808119032118
 10
90.77998860677083
 20
190.5108520507812
 10
91.19615614149305
 20
190.5108520507812
 10
91.86484917534722
 20
190.5108520507812
 10
91.87759602864583
 20
189.6158162434896
 10
91.87759602864583
 20
189.133502875434
 10
91.87759602864583
 20
189.133502875434
 10
91.87759602864583
 20
188.6956312391493
 10
91.87759602864583
 20
188.6956312391493
 97
        0
 75
     0
 76
     1
 98
        1
 10
0.0
 20
0.0
  0
LWPOLYLINE
  5
82
330
A
100
AcDbEntity
  8
LAYER_1
 62
     7
100
AcDbPolyline
 90
        3
 70
     0
 43
0.0
 10
54.94513888888888
 20
141.2749254014757
 10
73.11319444444443
 20
131.3971476236979
 10
97.36666666666666
 20
143.3330254448785
  0
LWPOLYLINE
  5
7D
330
A
100
AcDbEntity
  8
LAYER_1
 62
     7
100
AcDbPolyline
 90
        3
 70
     0
 43
0.0
 10
54.94513888888888
 20
137.7471476236979
 10
73.11319444444443
 20
127.8693698459201
 10
97.98402777777777
 20
140.069831000434
  0
LWPOLYLINE
  5
78
330
A
100
AcDbEntity
  8
LAYER_1
 62
     7
100
AcDbPolyline
 90
        3
 70
     0
 43
0.0
 10
54.94513888888888
 20
134.2193698459201
 10
73.11319444444443
 20
124.3415920681424
 10
98.51319444444444
 20
136.8066365559896
  0
LWPOLYLINE
  5
73
330
A
100
AcDbEntity
  8
LAYER_1
 62
     7
100
AcDbPolyline
 90
        3
 70
     0
 43
0.0
 10
54.94513888888888
 20
130.3388142903646
 10
73.11319444444443
 20
120.4610365125868
 10
99.30694444444444
 20
133.3670532226562
  0
LWPOLYLINE
  5
6E
330
A
100
AcDbEntity
  8
LAYER_1
 62
     7
100
AcDbPolyline
 90
        3
 70
     0
 43
0.0
 10
54.06319444444444
 20
126.9877699110243
 10
72.58402777777778
 20
116.3455254448785
 10
99.74791666666665
 20
130.1627699110243
  0
LWPOLYLINE
  5
69
330
A
100
AcDbEntity
  8
LAYER_1
 62
     7
100
AcDbPolyline
 90
        3
 70
     0
 43
0.0
 10
54.06319444444444
 20
122.9893920898437
 10
72.84861111111111
 20
112.4649698893229
 10
100.5123833550347
 20
126.9877699110243
  0
LINE
  5
68
330
A
100
AcDbEntity
  8
LAYER_1
 62
     7
100
AcDbLine
 10
75.25914442274305
 20
110.4072143554687
 30
0.0
 11
101.1001166449653
 21
123.5774698893229
 31
0.0
  0
LWPOLYLINE
  5
63
330
A
100
AcDbEntity
  8
LAYER_1
 62
     7
100
AcDbPolyline
 90
        3
 70
     0
 43
0.0
 10
55.00405002170138
 20
116.5808254665799
 10
73.11319444444443
 20
106.4381198459201
 10
101.5118055555555
 20
120.6963365342882
  0
LWPOLYLINE
  5
5E
330
A
100
AcDbEntity
  8
LAYER_1
 62
     7
100
AcDbPolyline
 90
        3
 70
     0
 43
0.0
 10
55.06261664496527
 20
113.229436577691
 10
73.11319444444443
 20
102.9103420681424
 10
102.0409722222222
 20
117.5802476671007
  0
LWPOLYLINE
  5
59
330
A
100
AcDbEntity
  8
LAYER_1
 62
     7
100
AcDbPolyline
 90
        3
 70
     0
 43
0.0
 10
54.94513888888888
 20
109.6427476671007
 10
73.11319444444443
 20
99.38256429036457
 10
102.6290500217014
 20
114.4052476671007
  0
LWPOLYLINE
  5
54
330
A
100
AcDbEntity
  8
LAYER_1
 62
     7
100
AcDbPolyline
 90
        3
 70
     0
 43
0.0
 10
54.88622775607639
 20
106.3502699110243
 10
73.11319444444443
 20
95.8547865125868
 10
103.98125
 20
112.1121921115451
  0
LWPOLYLINE
  5
4F
330
A
100
AcDbEntity
  8
LAYER_1
 62
     7
100
AcDbPolyline
 90
        3
 70
     0
 43
0.0
 10
150.0773166232639
 20
137.5704142252604
 10
137.7304389105903
 20
130.5152031792535
 10
108.2145833333333
 20
144.7441365559896
  0
LWPOLYLINE
  5
4A
330
A
100
AcDbEntity
  8
LAYER_1
 62
     7
100
AcDbPolyline
 90
        3
 70
     0
 43
0.0
 10
150.0773166232639
 20
134.0426364474826
 10
137.7304389105903
 20
126.9874254014757
 10
109.0965277777778
 20
140.8050143771701
  0
LWPOLYLINE
  5
45
330
A
100
AcDbEntity
  8
LAYER_1
 62
     7
100
AcDbPolyline
 90
        3
 70
     0
 43
0.0
 10
150.0773166232639
 20
130.5148586697048
 10
137.7304389105903
 20
123.4596476236979
 10
109.7431722005208
 20
136.9830254448785
  0
LWPOLYLINE
  5
40
330
A
100
AcDbEntity
  8
LAYER_1
 62
     7
100
AcDbPolyline
 90
        3
 70
     0
 43
0.0
 10
150.0773166232639
 20
127.1045586480035
 10
137.7304389105903
 20
120.0493476019965
 10
110.5665500217014
 20
133.2202921549479
  0
LINE
  5
3F
330
A
100
AcDbEntity
  8
LAYER_1
 62
     7
100
AcDbLine
 10
137.7304389105903
 20
116.6983032226562
 30
0.0
 11
111.3895833333333
 21
129.3983032226562
 31
0.0
  0
LINE
  5
3E
330
A
100
AcDbEntity
  8
LAYER_1
 62
     7
100
AcDbLine
 10
137.4951388888889
 20
113.229436577691
 30
0.0
 11
112.1537055121528
 21
125.4002699110243
 31
0.0
  0
LINE
  5
3D
330
A
100
AcDbEntity
  8
LAYER_1
 62
     7
100
AcDbLine
 10
137.7304389105903
 20
109.5838365342882
 30
0.0
 11
113.0945610894097
 21
121.4608032226562
 31
0.0
  0
LWPOLYLINE
  5
38
330
A
100
AcDbEntity
  8
LAYER_1
 62
     7
100
AcDbPolyline
 90
        3
 70
     0
 43
0.0
 10
150.0773166232639
 20
112.9348809136285
 10
137.7304389105903
 20
105.8796698676215
 10
113.8001166449653
 20
117.5802476671007
  0
LWPOLYLINE
  5
33
330
A
100
AcDbEntity
  8
LAYER_1
 62
     7
100
AcDbPolyline
 90
        3
 70
     0
 43
0.0
 10
150.0773166232639
 20
109.2892808702257
 10
137.7304389105903
 20
102.2340698242187
 10
114.5645833333333
 20
113.6407809787326
  0
LWPOLYLINE
  5
2E
330
A
100
AcDbEntity
  8
LAYER_1
 62
     7
100
AcDbPolyline
 90
        3
 70
     0
 43
0.0
 10
150.0773166232639
 20
105.702936469184
 10
137.7304389105903
 20
98.64772542317708
 10
115.3876166449653
 20
109.8780476888021
  0
LINE
  5
2D
330
A
100
AcDbEntity
  8
LAYER_1
 62
     7
100
AcDbLine
 10
61.73611111111111
 20
167.2337198893229
 30
0.0
 11
80.7861111111111
 21
157.7969143337674
 31
0.0
  0
LINE
  5
2C
330
A
100
AcDbEntity
  8
LAYER_1
 62
     7
100
AcDbLine
 10
61.73611111111111
 20
163.5295532226562
 30
0.0
 11
76.93483886718749
 21
155.974114312066
 31
0.0
  0
LINE
  5
2B
330
A
100
AcDbEntity
  8
LAYER_1
 62
     7
100
AcDbLine
 10
61.73611111111111
 20
160.0017754448785
 30
0.0
 11
74.17152777777777
 21
153.7399698893229
 31
0.0
  0
LINE
  5
2A
330
A
100
AcDbEntity
  8
LAYER_1
 62
     7
100
AcDbLine
 10
61.53043891059027
 20
156.5032809787326
 30
0.0
 11
70.5848388671875
 21
152.0349921332465
 31
0.0
  0
LINE
  5
29
330
A
100
AcDbEntity
  8
LAYER_1
 62
     7
100
AcDbLine
 10
61.73611111111111
 20
153.1226087782118
 30
0.0
 11
67.05706108940971
 21
150.388581000434
 31
0.0
  0
LINE
  5
28
330
A
100
AcDbEntity
  8
LAYER_1
 62
     7
100
AcDbLine
 10
61.73611111111111
 20
149.594831000434
 30
0.0
 11
63.35289442274305
 21
148.7421698676215
 31
0.0
  0
LINE
  5
27
330
A
100
AcDbEntity
  8
LAYER_1
 62
     7
100
AcDbLine
 10
123.8542833116319
 20
156.3858032226562
 30
0.0
 11
145.8443277994792
 21
167.086614312066
 31
0.0
  0
LINE
  5
26
330
A
100
AcDbEntity
  8
LAYER_1
 62
     7
100
AcDbLine
 10
124.9126166449653
 20
152.916936577691
 30
0.0
 11
146.0207166883681
 21
163.1474921332465
 31
0.0
  0
LINE
  5
25
330
A
100
AcDbEntity
  8
LAYER_1
 62
     7
100
AcDbLine
 10
129.3223388671875
 20
151.0352254231771
 30
0.0
 11
145.8443277994792
 21
159.4429809570312
 31
0.0
  0
LINE
  5
24
330
A
100
AcDbEntity
  8
LAYER_1
 62
     7
100
AcDbLine
 10
133.497105577257
 20
149.1538587782118
 30
0.0
 11
145.8443277994792
 21
155.4449476453993
 31
0.0
  0
LINE
  5
23
330
A
100
AcDbEntity
  8
LAYER_1
 62
     7
100
AcDbLine
 10
137.965394422743
 20
147.0371921115451
 30
0.0
 11
146.1971055772569
 21
151.2705254448784
 31
0.0
  0
LINE
  5
22
330
A
100
AcDbEntity
  8
LAYER_1
 62
     7
100
AcDbLine
 10
142.1987277560764
 20
145.0969143337674
 30
0.0
 11
145.8443277994792
 21
147.213581000434
 31
0.0
  0
ENDSEC
  0
SECTION
  2
OBJECTS
  0
DICTIONARY
  5
19
330
0
100
AcDbDictionary
281
     1
  3
ACAD_COLOR
350
1B8
  3
ACAD_GROUP
350
1A
  3
ACAD_LAYOUT
350
185
  3
ACAD_MATERIAL
350
1BA
  3
ACAD_MLINESTYLE
350
1B
  3
ACAD_PLOTSETTINGS
350
186
  3
ACAD_PLOTSTYLENAME
350
183
  3
ACDBHEADERROUNDTRIPXREC
350
1B7
  0
DICTIONARY
  5
1B8
102
{ACAD_REACTORS
330
19
102
}
330
19
100
AcDbDictionary
281
     1
  0
DICTIONARY
  5
1A
102
{ACAD_REACTORS
330
19
102
}
330
19
100
AcDbDictionary
281
     1
  0
DICTIONARY
  5
185
102
{ACAD_REACTORS
330
19
102
}
330
19
100
AcDbDictionary
281
     1
  3
Layout1
350
188
  3
Model
350
187
  0
DICTIONARY
  5
1BA
102
{ACAD_REACTORS
330
19
102
}
330
19
100
AcDbDictionary
281
     1
  0
DICTIONARY
  5
1B
102
{ACAD_REACTORS
330
19
102
}
330
19
100
AcDbDictionary
281
     1
  3
STANDARD
350
1C
  0
DICTIONARY
  5
186
102
{ACAD_REACTORS
330
19
102
}
330
19
100
AcDbDictionary
281
     1
  0
ACDBDICTIONARYWDFLT
  5
183
102
{ACAD_REACTORS
330
19
102
}
330
19
100
AcDbDictionary
281
     1
  3
Normal
350
184
100
AcDbDictionaryWithDefault
340
184
  0
DICTIONARY
  5
1B7
102
{ACAD_REACTORS
330
19
102
}
330
19
100
AcDbDictionary
281
     1
  3
COLORDICT
350
1B9
  3
MATERIALDICT
350
1BB
  0
LAYOUT
  5
188
102
{ACAD_REACTORS
330
185
102
}
102
{ACAD_XDICTIONARY
360
1BC
102
}
330
185
100
AcDbPlotSettings
  1

  2
Support Center HP LaserJet 4
  4

  6

 40
0.0
 41
0.0
 42
0.0
 43
0.0
 44
0.0
 45
0.0
 46
0.0
 47
0.0
 48
0.0
 49
0.0
140
0.0
141
0.0
142
1.0
143
1.0
 70
   688
 72
     0
 73
     0
 74
     5
  7

 75
    16
147
1.0
148
0.0
149
0.0
100
AcDbLayout
  1
Layout1
 70
     0
 71
     1
 10
0.0
 20
0.0
 11
12.0
 21
9.0
 12
0.0
 22
0.0
 32
0.0
 14
1.000000000000000E+20
 24
1.000000000000000E+20
 34
1.000000000000000E+20
 15
-1.000000000000000E+20
 25
-1.000000000000000E+20
 35
-1.000000000000000E+20
146
0.0
 13
0.0
 23
0.0
 33
0.0
 16
1.0
 26
0.0
 36
0.0
 17
0.0
 27
1.0
 37
0.0
 76
     0
330
B
  0
LAYOUT
  5
187
102
{ACAD_REACTORS
330
185
102
}
102
{ACAD_XDICTIONARY
360
1BE
102
}
330
185
100
AcDbPlotSettings
  1

  2
Support Center HP LaserJet 4
  4

  6

 40
0.0
 41
0.0
 42
0.0
 43
0.0
 44
0.0
 45
0.0
 46
0.0
 47
0.0
 48
0.0
 49
0.0
140
0.0
141
0.0
142
1.0
143
1.0
 70
  1712
 72
     0
 73
     0
 74
     0
  7

 75
     0
147
1.0
148
0.0
149
0.0
100
AcDbLayout
  1
Model
 70
     1
 71
     0
 10
0.0
 20
0.0
 11
12.0
 21
9.0
 12
0.0
 22
0.0
 32
0.0
 14
0.0
 24
0.0
 34
0.0
 15
0.0
 25
0.0
 35
0.0
146
0.0
 13
0.0
 23
0.0
 33
0.0
 16
1.0
 26
0.0
 36
0.0
 17
0.0
 27
1.0
 37
0.0
 76
     0
330
A
  0
MLINESTYLE
  5
1C
102
{ACAD_REACTORS
330
1B
102
}
330
1B
100
AcDbMlineStyle
  2
STANDARD
 70
     0
  3

 62
     0
 51
90.0000000000002
 52
90.0000000000002
 71
     2
 49
0.5
 62
   256
  6
BYLAYER
 49
-0.5
 62
   256
  6
BYLAYER
  0
ACDBPLACEHOLDER
  5
184
102
{ACAD_REACTORS
330
183
102
}
330
183
  0
XRECORD
  5
1B9
102
{ACAD_REACTORS
330
1B7
102
}
330
1B7
100
AcDbXrecord
340
1B8
  0
XRECORD
  5
1BB
102
{ACAD_REACTORS
330
1B7
102
}
330
1B7
100
AcDbXrecord
340
1BA
  0
DICTIONARY
  5
1BC
330
188
100
AcDbDictionary
280
     1
281
     1
  3
ACAD_XREC_ROUNDTRIP
360
1BD
  0
DICTIONARY
  5
1BE
330
187
100
AcDbDictionary
280
     1
281
     1
  3
ACAD_XREC_ROUNDTRIP
360
1BF
  0
XRECORD
  5
1BD
102
{ACAD_REACTORS
330
1BC
102
}
330
1BC
100
AcDbXrecord
102
SHADEPLOT
 70
 18664
102
SHADEPLOTRESLEVEL
 70
   232
102
SHADEPLOTCUSTOMDPI
 70
 13608
  0
XRECORD
  5
1BF
102
{ACAD_REACTORS
330
1BE
102
}
330
1BE
100
AcDbXrecord
102
SHADEPLOT
 70
     0
102
SHADEPLOTRESLEVEL
 70
     0
102
SHADEPLOTCUSTOMDPI
 70
     0
  0
ENDSEC
  0
EOF
