  0
SECTION
  2
HEADER
  9
$ACADVER
  1
AC1015
  9
$ACADMAINTVER
 70
     6
  9
$DWGCODEPAGE
  3
ISO8859-1
  9
$INSBASE
 10
0.0
 20
0.0
 30
0.0
  9
$EXTMIN
 10
1.657877
 20
1.202682
 30
0.0
  9
$EXTMAX
 10
7.854997
 20
6.955152
 30
0.0
  9
$LIMMIN
 10
0.0
 20
0.0
  9
$LIMMAX
 10
8.5
 20
11.0
  9
$ORTHOMODE
 70
     1
  9
$REGENMODE
 70
     0
  9
$FILLMODE
 70
     1
  9
$QTEXTMODE
 70
     0
  9
$MIRRTEXT
 70
     1
  9
$LTSCALE
 40
0.2
  9
$ATTMODE
 70
     1
  9
$TEXTSIZE
 40
0.22
  9
$TRACEWID
 40
0.05
  9
$TEXTSTYLE
  7
STANDARD
  9
$CLAYER
  8
0
  9
$CELTYPE
  6
ByLayer
  9
$CECOLOR
 62
   256
  9
$CELTSCALE
 40
1.0
  9
$DISPSILH
 70
     0
  9
$DIMSCALE
 40
1.0
  9
$DIMASZ
 40
0.2
  9
$DIMEXO
 40
0.0625
  9
$DIMDLI
 40
0.38
  9
$DIMRND
 40
0.0
  9
$DIMDLE
 40
0.0
  9
$DIMEXE
 40
0.075
  9
$DIMTP
 40
0.0
  9
$DIMTM
 40
0.0
  9
$DIMTXT
 40
0.1
  9
$DIMCEN
 40
0.09
  9
$DIMTSZ
 40
0.0
  9
$DIMTOL
 70
     0
  9
$DIMLIM
 70
     0
  9
$DIMTIH
 70
     0
  9
$DIMTOH
 70
     0
  9
$DIMSE1
 70
     0
  9
$DIMSE2
 70
     0
  9
$DIMTAD
 70
     1
  9
$DIMZIN
 70
     0
  9
$DIMBLK
  1

  9
$DIMASO
 70
     0
  9
$DIMSHO
 70
     1
  9
$DIMPOST
  1

  9
$DIMAPOST
  1

  9
$DIMALT
 70
     0
  9
$DIMALTD
 70
     2
  9
$DIMALTF
 40
25.4
  9
$DIMLFAC
 40
1.0
  9
$DIMTOFL
 70
     0
  9
$DIMTVP
 40
0.0
  9
$DIMTIX
 70
     0
  9
$DIMSOXD
 70
     0
  9
$DIMSAH
 70
     0
  9
$DIMBLK1
  1

  9
$DIMBLK2
  1

  9
$DIMSTYLE
  2
Standard
  9
$DIMCLRD
 70
     0
  9
$DIMCLRE
 70
     0
  9
$DIMCLRT
 70
     0
  9
$DIMTFAC
 40
1.0
  9
$DIMGAP
 40
0.09
  9
$DIMJUST
 70
     0
  9
$DIMSD1
 70
     0
  9
$DIMSD2
 70
     0
  9
$DIMTOLJ
 70
     1
  9
$DIMTZIN
 70
     0
  9
$DIMALTZ
 70
     0
  9
$DIMALTTZ
 70
     0
  9
$DIMUPT
 70
     0
  9
$DIMDEC
 70
     4
  9
$DIMTDEC
 70
     4
  9
$DIMALTU
 70
     2
  9
$DIMALTTD
 70
     2
  9
$DIMTXSTY
  7
STANDARD
  9
$DIMAUNIT
 70
     0
  9
$DIMADEC
 70
     0
  9
$DIMALTRND
 40
0.0
  9
$DIMAZIN
 70
     0
  9
$DIMDSEP
 70
    46
  9
$DIMATFIT
 70
     3
  9
$DIMFRAC
 70
     0
  9
$DIMLDRBLK
  1

  9
$DIMLUNIT
 70
     2
  9
$DIMLWD
 70
    -2
  9
$DIMLWE
 70
    -2
  9
$DIMTMOVE
 70
     0
  9
$LUNITS
 70
     2
  9
$LUPREC
 70
     4
  9
$SKETCHINC
 40
0.1
  9
$FILLETRAD
 40
0.01
  9
$AUNITS
 70
     0
  9
$AUPREC
 70
     0
  9
$MENU
  1
acad
  9
$ELEVATION
 40
0.0
  9
$PELEVATION
 40
0.0
  9
$THICKNESS
 40
0.0
  9
$LIMCHECK
 70
     0
  9
$CHAMFERA
 40
0.0
  9
$CHAMFERB
 40
0.0
  9
$CHAMFERC
 40
1.0
  9
$CHAMFERD
 40
0.0
  9
$SKPOLY
 70
     0
  9
$TDCREATE
 40
2453955.562528333
  9
$TDUCREATE
 40
2453955.895861667
  9
$TDUPDATE
 40
2453955.604195012
  9
$TDUUPDATE
 40
2453955.895861678
  9
$TDINDWG
 40
0.0000000116
  9
$TDUSRTIMER
 40
0.0000000116
  9
$USRTIMER
 70
     1
  9
$ANGBASE
 50
0.0
  9
$ANGDIR
 70
     0
  9
$PDMODE
 70
     0
  9
$PDSIZE
 40
0.0
  9
$PLINEWID
 40
0.0
  9
$SPLFRAME
 70
     0
  9
$SPLINETYPE
 70
     6
  9
$SPLINESEGS
 70
     8
  9
$HANDSEED
  5
483
  9
$SURFTAB1
 70
     6
  9
$SURFTAB2
 70
     6
  9
$SURFTYPE
 70
     6
  9
$SURFU
 70
     6
  9
$SURFV
 70
     6
  9
$UCSBASE
  2

  9
$UCSNAME
  2

  9
$UCSORG
 10
0.0
 20
0.0
 30
0.0
  9
$UCSXDIR
 10
1.0
 20
0.0
 30
0.0
  9
$UCSYDIR
 10
0.0
 20
1.0
 30
0.0
  9
$UCSORTHOREF
  2

  9
$UCSORTHOVIEW
 70
     0
  9
$UCSORGTOP
 10
0.0
 20
0.0
 30
0.0
  9
$UCSORGBOTTOM
 10
0.0
 20
0.0
 30
0.0
  9
$UCSORGLEFT
 10
0.0
 20
0.0
 30
0.0
  9
$UCSORGRIGHT
 10
0.0
 20
0.0
 30
0.0
  9
$UCSORGFRONT
 10
0.0
 20
0.0
 30
0.0
  9
$UCSORGBACK
 10
0.0
 20
0.0
 30
0.0
  9
$PUCSBASE
  2

  9
$PUCSNAME
  2

  9
$PUCSORG
 10
0.0
 20
0.0
 30
0.0
  9
$PUCSXDIR
 10
1.0
 20
0.0
 30
0.0
  9
$PUCSYDIR
 10
0.0
 20
1.0
 30
0.0
  9
$PUCSORTHOREF
  2

  9
$PUCSORTHOVIEW
 70
     0
  9
$PUCSORGTOP
 10
0.0
 20
0.0
 30
0.0
  9
$PUCSORGBOTTOM
 10
0.0
 20
0.0
 30
0.0
  9
$PUCSORGLEFT
 10
0.0
 20
0.0
 30
0.0
  9
$PUCSORGRIGHT
 10
0.0
 20
0.0
 30
0.0
  9
$PUCSORGFRONT
 10
0.0
 20
0.0
 30
0.0
  9
$PUCSORGBACK
 10
0.0
 20
0.0
 30
0.0
  9
$USERI1
 70
     0
  9
$USERI2
 70
     0
  9
$USERI3
 70
     0
  9
$USERI4
 70
     0
  9
$USERI5
 70
     0
  9
$USERR1
 40
0.0
  9
$USERR2
 40
0.0
  9
$USERR3
 40
0.0
  9
$USERR4
 40
0.0
  9
$USERR5
 40
0.0
  9
$WORLDVIEW
 70
     1
  9
$SHADEDGE
 70
     3
  9
$SHADEDIF
 70
    70
  9
$TILEMODE
 70
     1
  9
$MAXACTVP
 70
    16
  9
$PINSBASE
 10
0.0
 20
0.0
 30
0.0
  9
$PLIMCHECK
 70
     0
  9
$PEXTMIN
 10
1.000000000000000E+20
 20
1.000000000000000E+20
 30
1.000000000000000E+20
  9
$PEXTMAX
 10
-1.000000000000000E+20
 20
-1.000000000000000E+20
 30
-1.000000000000000E+20
  9
$PLIMMIN
 10
0.0
 20
0.0
  9
$PLIMMAX
 10
12.0
 20
9.0
  9
$UNITMODE
 70
     0
  9
$VISRETAIN
 70
     0
  9
$PLINEGEN
 70
     0
  9
$PSLTSCALE
 70
     1
  9
$TREEDEPTH
 70
  3020
  9
$CMLSTYLE
  2
Standard
  9
$CMLJUST
 70
     0
  9
$CMLSCALE
 40
1.0
  9
$PROXYGRAPHICS
 70
     1
  9
$MEASUREMENT
 70
     0
  9
$CELWEIGHT
370
    -1
  9
$ENDCAPS
280
     0
  9
$JOINSTYLE
280
     0
  9
$LWDISPLAY
290
     0
  9
$INSUNITS
 70
     1
  9
$HYPERLINKBASE
  1

  9
$STYLESHEET
  1

  9
$XEDIT
290
     1
  9
$CEPSNTYPE
380
     0
  9
$PSTYLEMODE
290
     0
  9
$FINGERPRINTGUID
  2
{FAEB1C30-E019-11D5-929B-00C0DF256EC4}
  9
$VERSIONGUID
  2
{FAEB1C32-E019-11D5-929B-00C0DF256EC4}
  9
$EXTNAMES
290
     1
  9
$PSVPSCALE
 40
0.0
  9
$OLESTARTUP
290
     0
  0
ENDSEC
  0
SECTION
  2
CLASSES
  0
CLASS
  1
ACDBDICTIONARYWDFLT
  2
AcDbDictionaryWithDefault
  3
AutoCAD 2000
 90
        0
280
     0
281
     0
  0
CLASS
  1
ACDBPLACEHOLDER
  2
AcDbPlaceHolder
  3
ObjectDBX Classes
 90
        0
280
     0
281
     0
  0
CLASS
  1
LAYOUT
  2
AcDbLayout
  3
ObjectDBX Classes
 90
        0
280
     0
281
     0
  0
ENDSEC
  0
SECTION
  2
TABLES
  0
TABLE
  2
VPORT
  5
8
330
0
100
AcDbSymbolTable
 70
     2
  0
VPORT
  5
1E
330
8
100
AcDbSymbolTableRecord
100
AcDbViewportTableRecord
  2
*ACTIVE
 70
     0
 10
0.0
 20
0.0
 11
1.0
 21
1.0
 12
7.630750605326877
 22
5.5
 13
0.0
 23
0.0
 14
1.0
 24
1.0
 15
0.0
 25
0.0
 16
0.0
 26
0.0
 36
1.0
 17
0.0
 27
0.0
 37
0.0
 40
11.0
 41
0.7207678883071553
 42
50.0
 43
0.0
 44
0.0
 50
0.0
 51
0.0
 71
     0
 72
  2000
 73
     1
 74
     0
 75
     0
 76
     0
 77
     0
 78
     0
281
     0
 65
     1
110
0.0
120
0.0
130
0.0
111
1.0
121
0.0
131
0.0
112
0.0
122
1.0
132
0.0
 79
     0
146
0.0
  0
ENDTAB
  0
TABLE
  2
LTYPE
  5
5
330
0
100
AcDbSymbolTable
 70
     1
  0
LTYPE
  5
10
330
5
100
AcDbSymbolTableRecord
100
AcDbLinetypeTableRecord
  2
ByBlock
 70
     0
  3

 72
    65
 73
     0
 40
0.0
  0
LTYPE
  5
11
330
5
100
AcDbSymbolTableRecord
100
AcDbLinetypeTableRecord
  2
ByLayer
 70
     0
  3

 72
    65
 73
     0
 40
0.0
  0
LTYPE
  5
1B
330
5
100
AcDbSymbolTableRecord
100
AcDbLinetypeTableRecord
  2
CONTINUOUS
 70
     0
  3
Solid line
 72
    65
 73
     0
 40
0.0
  0
ENDTAB
  0
TABLE
  2
LAYER
  5
2
330
0
100
AcDbSymbolTable
 70
     1
  0
LAYER
  5
1C
330
2
100
AcDbSymbolTableRecord
100
AcDbLayerTableRecord
  2
0
 70
     0
 62
     7
  6
CONTINUOUS
370
    -3
390
F
  0
ENDTAB
  0
TABLE
  2
STYLE
  5
3
330
0
100
AcDbSymbolTable
 70
     1
  0
STYLE
  5
21
330
3
100
AcDbSymbolTableRecord
100
AcDbTextStyleTableRecord
  2
STANDARD
 70
     0
 40
0.0
 41
1.0
 50
0.0
 71
     0
 42
0.22
  3
ROMANS.SHX
  4

  0
ENDTAB
  0
TABLE
  2
VIEW
  5
6
330
0
100
AcDbSymbolTable
 70
     1
  0
VIEW
  5
20
330
6
100
AcDbSymbolTableRecord
100
AcDbViewTableRecord
  2
1
 70
     0
 40
11.0
 10
7.225941000000001
 20
5.5
 41
14.451883
 11
0.0
 21
0.0
 31
1.0
 12
0.0
 22
0.0
 32
0.0
 42
50.0
 43
0.0
 44
0.0
 50
0.0
 71
     0
281
     0
 72
     0
  0
ENDTAB
  0
TABLE
  2
UCS
  5
7
330
0
100
AcDbSymbolTable
 70
     0
  0
ENDTAB
  0
TABLE
  2
APPID
  5
9
330
0
100
AcDbSymbolTable
 70
     1
  0
APPID
  5
1F
330
9
100
AcDbSymbolTableRecord
100
AcDbRegAppTableRecord
  2
ACAD
 70
     0
  0
ENDTAB
  0
TABLE
  2
DIMSTYLE
  5
A
330
0
100
AcDbSymbolTable
 70
     1
100
AcDbDimStyleTable
  0
DIMSTYLE
105
22
330
A
100
AcDbSymbolTableRecord
100
AcDbDimStyleTableRecord
  2
Standard
 70
     0
  3

  4

340
21
  0
ENDTAB
  0
TABLE
  2
BLOCK_RECORD
  5
1
330
0
100
AcDbSymbolTable
 70
     0
  0
BLOCK_RECORD
  5
18
330
1
100
AcDbSymbolTableRecord
100
AcDbBlockTableRecord
  2
*Model_Space
340
19
  0
BLOCK_RECORD
  5
16
330
1
100
AcDbSymbolTableRecord
100
AcDbBlockTableRecord
  2
*Paper_Space
340
17
  0
ENDTAB
  0
ENDSEC
  0
SECTION
  2
BLOCKS
  0
BLOCK
  5
478
330
18
100
AcDbEntity
  8
0
100
AcDbBlockBegin
  2
*Model_Space
 70
     0
 10
0.0
 20
0.0
 30
0.0
  3
*Model_Space
  1

  4

  0
ENDBLK
  5
479
330
18
100
AcDbEntity
  8
0
100
AcDbBlockEnd
  0
BLOCK
  5
476
330
16
100
AcDbEntity
 67
     1
  8
0
100
AcDbBlockBegin
  2
*Paper_Space
 70
     0
 10
0.0
 20
0.0
 30
0.0
  3
*Paper_Space
  1

  4

  0
ENDBLK
  5
477
330
16
100
AcDbEntity
 67
     1
  8
0
100
AcDbBlockEnd
  0
ENDSEC
  0
SECTION
  2
ENTITIES
  0
LINE
  5
23
330
18
100
AcDbEntity
  8
0
100
AcDbLine
 10
3.637
 20
3.735541
 30
0.0
 11
3.637
 21
2.551156
 31
0.0
  0
LINE
  5
24
330
18
100
AcDbEntity
  8
0
100
AcDbLine
 10
5.316175
 20
5.289391
 30
0.0
 11
5.316175
 21
3.99714
 31
0.0
  0
LINE
  5
25
330
18
100
AcDbEntity
  8
0
100
AcDbLine
 10
4.773925
 20
4.140873
 30
0.0
 11
4.773925
 21
2.038184
 31
0.0
  0
LINE
  5
26
330
18
100
AcDbEntity
  8
0
100
AcDbLine
 10
7.189742999999999
 20
6.140437
 30
0.0
 11
7.190067
 21
5.252597
 31
0.0
  0
LINE
  5
27
330
18
100
AcDbEntity
  8
0
100
AcDbLine
 10
1.800189
 20
5.543548
 30
0.0
 11
1.800189
 21
4.556433999999999
 31
0.0
  0
LINE
  5
28
330
18
100
AcDbEntity
  8
0
100
AcDbLine
 10
2.567885
 20
5.279994
 30
0.0
 11
2.567885
 21
4.244109
 31
0.0
  0
LINE
  5
29
330
18
100
AcDbEntity
  8
0
100
AcDbLine
 10
4.773925
 20
2.038184
 30
0.0
 11
4.323283999999999
 21
2.225904
 31
0.0
  0
LINE
  5
2A
330
18
100
AcDbEntity
  8
0
100
AcDbLine
 10
4.323283999999999
 20
2.225904
 30
0.0
 11
4.253114
 21
2.420887
 31
0.0
  0
LINE
  5
2B
330
18
100
AcDbEntity
  8
0
100
AcDbLine
 10
4.253114
 20
2.420887
 30
0.0
 11
4.073257
 21
2.196698
 31
0.0
  0
LINE
  5
2C
330
18
100
AcDbEntity
  8
0
100
AcDbLine
 10
4.073257
 20
2.196698
 30
0.0
 11
4.027104000000001
 21
2.376697
 31
0.0
  0
LINE
  5
2D
330
18
100
AcDbEntity
  8
0
100
AcDbLine
 10
4.027104000000001
 20
2.376697
 30
0.0
 11
3.637
 21
2.551156
 31
0.0
  0
LINE
  5
2E
330
18
100
AcDbEntity
  8
0
100
AcDbLine
 10
5.308111
 20
2.624179
 30
0.0
 11
4.773925
 21
2.038184
 31
0.0
  0
LINE
  5
2F
330
18
100
AcDbEntity
  8
0
100
AcDbLine
 10
6.704024
 20
3.490062
 30
0.0
 11
5.318349
 21
3.984135
 31
0.0
  0
LINE
  5
30
330
18
100
AcDbEntity
  8
0
100
AcDbLine
 10
6.704024
 20
3.490062
 30
0.0
 11
7.189742999999999
 21
4.047184
 31
0.0
  0
LINE
  5
31
330
18
100
AcDbEntity
  8
0
100
AcDbLine
 10
3.949309
 20
3.996222
 30
0.0
 11
2.567885
 21
2.843161
 31
0.0
  0
LINE
  5
32
330
18
100
AcDbEntity
  8
0
100
AcDbLine
 10
2.567885
 20
2.843161
 30
0.0
 11
1.800189
 21
3.199296
 31
0.0
  0
LINE
  5
33
330
18
100
AcDbEntity
  8
0
100
AcDbLine
 10
4.153984
 20
6.955152
 30
0.0
 11
3.977178
 21
6.849119
 31
0.0
  0
LINE
  5
34
330
18
100
AcDbEntity
  8
0
100
AcDbLine
 10
7.854997
 20
5.961901
 30
0.0
 11
7.345469000000001
 21
6.098644
 31
0.0
  0
LINE
  5
35
330
18
100
AcDbEntity
  8
0
100
AcDbLine
 10
6.704024
 20
5.711765
 30
0.0
 11
5.541293000000001
 21
6.057123000000001
 31
0.0
  0
LINE
  5
36
330
18
100
AcDbEntity
  8
0
100
AcDbLine
 10
2.567885
 20
5.279994
 30
0.0
 11
4.338373000000001
 21
6.411051000000001
 31
0.0
  0
LINE
  5
37
330
18
100
AcDbEntity
  8
0
100
AcDbLine
 10
2.567885
 20
5.279994
 30
0.0
 11
1.800189
 21
5.543548
 31
0.0
  0
LINE
  5
38
330
18
100
AcDbEntity
  8
0
100
AcDbLine
 10
7.189742999999999
 20
6.140437
 30
0.0
 11
6.704024
 21
5.711765
 31
0.0
  0
LINE
  5
39
330
18
100
AcDbEntity
  8
0
100
AcDbLine
 10
5.202088
 20
3.984783
 30
0.0
 11
5.202088
 21
3.13654
 31
0.0
  0
LINE
  5
3A
330
18
100
AcDbEntity
  8
0
100
AcDbLine
 10
4.905997
 20
4.092726
 30
0.0
 11
4.905997
 21
2.854875
 31
0.0
  0
LINE
  5
3B
330
18
100
AcDbEntity
  8
0
100
AcDbLine
 10
5.308111
 20
3.946423
 30
0.0
 11
5.308111
 21
2.624179
 31
0.0
  0
LINE
  5
3C
330
18
100
AcDbEntity
  8
0
100
AcDbLine
 10
3.949309
 20
6.088506
 30
0.0
 11
3.949309
 21
3.990674
 31
0.0
  0
LINE
  5
3D
330
18
100
AcDbEntity
  8
0
100
AcDbLine
 10
4.398656
 20
5.806144000000001
 30
0.0
 11
4.398656
 21
4.277680999999999
 31
0.0
  0
LINE
  5
3E
330
18
100
AcDbEntity
  8
0
100
AcDbLine
 10
5.541293000000001
 20
6.057123000000001
 30
0.0
 11
5.540515
 21
5.496025
 31
0.0
  0
LINE
  5
3F
330
18
100
AcDbEntity
  8
0
100
AcDbLine
 10
5.132169
 20
2.882041
 30
0.0
 11
5.001275
 21
2.739368
 31
0.0
  0
LINE
  5
40
330
18
100
AcDbEntity
  8
0
100
AcDbLine
 10
4.905997
 20
2.854875
 30
0.0
 11
5.001275
 21
2.739368
 31
0.0
  0
LINE
  5
41
330
18
100
AcDbEntity
  8
0
100
AcDbLine
 10
5.202088
 20
3.13654
 30
0.0
 11
5.132169
 21
2.882041
 31
0.0
  0
LINE
  5
42
330
18
100
AcDbEntity
  8
0
100
AcDbLine
 10
5.906276
 20
6.326158
 30
0.0
 11
3.960163
 21
6.853731
 31
0.0
  0
LINE
  5
43
330
18
100
AcDbEntity
  8
0
100
AcDbLine
 10
5.906276
 20
6.326158
 30
0.0
 11
5.541293000000001
 21
6.057123000000001
 31
0.0
  0
LINE
  5
44
330
18
100
AcDbEntity
  8
0
100
AcDbLine
 10
5.540515
 20
5.496025
 30
0.0
 11
4.437464
 21
5.834822
 31
0.0
  0
LINE
  5
45
330
18
100
AcDbEntity
  8
0
100
AcDbLine
 10
5.719198
 20
5.208856
 30
0.0
 11
5.472071
 21
5.287227
 31
0.0
  0
LINE
  5
46
330
18
100
AcDbEntity
  8
0
100
AcDbLine
 10
3.949309
 20
6.088506
 30
0.0
 11
4.323105
 21
6.327302
 31
0.0
  0
LINE
  5
47
330
18
100
AcDbEntity
  8
0
100
AcDbLine
 10
3.960163
 20
6.853731
 30
0.0
 11
3.600393
 21
6.637972
 31
0.0
  0
LINE
  5
48
330
18
100
AcDbEntity
  8
0
100
AcDbLine
 10
3.612059
 20
6.630152000000001
 30
0.0
 11
1.800189
 21
5.543548
 31
0.0
  0
LINE
  5
49
330
18
100
AcDbEntity
  8
0
100
AcDbLine
 10
4.366921
 20
4.28925
 30
0.0
 11
3.963224
 21
3.952288
 31
0.0
  0
LINE
  5
4A
330
18
100
AcDbEntity
  8
0
100
AcDbLine
 10
5.30363
 20
3.947765
 30
0.0
 11
4.366921
 21
4.28925
 31
0.0
  0
LINE
  5
4B
330
18
100
AcDbEntity
  8
0
100
AcDbLine
 10
2.567885
 20
4.244109
 30
0.0
 11
1.800189
 21
4.556433999999999
 31
0.0
  0
LINE
  5
4C
330
18
100
AcDbEntity
  8
0
100
AcDbLine
 10
1.800189
 20
4.556433999999999
 30
0.0
 11
1.657877
 21
4.381364
 31
0.0
  0
LINE
  5
4D
330
18
100
AcDbEntity
  8
0
100
AcDbLine
 10
2.701267
 20
3.977714
 30
0.0
 11
1.657877
 21
4.381364
 31
0.0
  0
LINE
  5
4E
330
18
100
AcDbEntity
  8
0
100
AcDbLine
 10
1.939286
 20
4.272497
 30
0.0
 11
1.800189
 21
4.134416000000001
 31
0.0
  0
LINE
  5
4F
330
18
100
AcDbEntity
  8
0
100
AcDbLine
 10
2.567885
 20
4.244109
 30
0.0
 11
2.437951
 21
4.079582
 31
0.0
  0
LINE
  5
50
330
18
100
AcDbEntity
  8
0
100
AcDbLine
 10
2.701267
 20
3.977714
 30
0.0
 11
2.567885
 21
3.82694
 31
0.0
  0
LINE
  5
51
330
18
100
AcDbEntity
  8
0
100
AcDbLine
 10
1.800189
 20
4.134416000000001
 30
0.0
 11
1.800189
 21
3.199296
 31
0.0
  0
LINE
  5
52
330
18
100
AcDbEntity
  8
0
100
AcDbLine
 10
2.567885
 20
3.82694
 30
0.0
 11
1.800189
 21
4.134416000000001
 31
0.0
  0
LINE
  5
53
330
18
100
AcDbEntity
  8
0
100
AcDbLine
 10
2.567885
 20
3.82694
 30
0.0
 11
2.567885
 21
2.843161
 31
0.0
  0
LINE
  5
54
330
18
100
AcDbEntity
  8
0
100
AcDbLine
 10
6.704024
 20
5.711765
 30
0.0
 11
6.704024
 21
4.754201999999999
 31
0.0
  0
LINE
  5
55
330
18
100
AcDbEntity
  8
0
100
AcDbLine
 10
7.190067
 20
5.252597
 30
0.0
 11
6.704024
 21
4.754201999999999
 31
0.0
  0
LINE
  5
56
330
18
100
AcDbEntity
  8
0
100
AcDbLine
 10
7.261317
 20
5.122523
 30
0.0
 11
6.813747
 21
4.669324
 31
0.0
  0
LINE
  5
57
330
18
100
AcDbEntity
  8
0
100
AcDbLine
 10
7.189742999999999
 20
4.948222
 30
0.0
 11
6.704024
 21
4.461473000000001
 31
0.0
  0
LINE
  5
58
330
18
100
AcDbEntity
  8
0
100
AcDbLine
 10
7.190067
 20
5.252597
 30
0.0
 11
7.261317
 21
5.122523
 31
0.0
  0
LINE
  5
59
330
18
100
AcDbEntity
  8
0
100
AcDbLine
 10
6.584878999999999
 20
4.596857
 30
0.0
 11
6.704024
 21
4.461473000000001
 31
0.0
  0
LINE
  5
5A
330
18
100
AcDbEntity
  8
0
100
AcDbLine
 10
6.813747
 20
4.669324
 30
0.0
 11
6.584878999999999
 21
4.596857
 31
0.0
  0
LINE
  5
5B
330
18
100
AcDbEntity
  8
0
100
AcDbLine
 10
6.704024
 20
4.754201999999999
 30
0.0
 11
6.813747
 21
4.669324
 31
0.0
  0
LINE
  5
5C
330
18
100
AcDbEntity
  8
0
100
AcDbLine
 10
7.189742999999999
 20
4.948222
 30
0.0
 11
7.143072999999999
 21
5.002792
 31
0.0
  0
LINE
  5
5D
330
18
100
AcDbEntity
  8
0
100
AcDbLine
 10
7.189742999999999
 20
4.948222
 30
0.0
 11
7.189742999999999
 21
4.047184
 31
0.0
  0
LINE
  5
5E
330
18
100
AcDbEntity
  8
0
100
AcDbLine
 10
6.704024
 20
4.461473000000001
 30
0.0
 11
6.704024
 21
3.490062
 31
0.0
  0
LWPOLYLINE
  5
5F
330
18
100
AcDbEntity
  8
0
100
AcDbPolyline
 90
       18
 70
     0
 43
0.0
 10
2.422242
 20
4.303362
 10
2.422237
 20
4.3088
 10
2.420187
 20
4.37081
 10
2.413138
 20
4.430817
 10
2.40509
 20
4.488822
 10
2.400032
 20
4.559832
 10
2.395963
 20
4.645846
 10
2.387892
 20
4.731857
 10
2.376835
 20
4.800862
 10
2.352763
 20
4.883858999999999
 10
2.320695
 20
4.961849
 10
2.29663
 20
5.036845
 10
2.281577
 20
5.098845
 10
2.271528
 20
5.157849
 10
2.261474
 20
5.222854
 10
2.252426
 20
5.280858
 10
2.239346
 20
5.376867
 10
2.236815
 20
5.393651999999999
  0
LWPOLYLINE
  5
74
330
18
100
AcDbEntity
  8
0
100
AcDbPolyline
 90
       19
 70
     0
 43
0.0
 10
2.032639
 20
4.461865
 10
2.031003
 20
4.503526
 10
2.026954
 20
4.564534
 10
2.017894
 20
4.637542
 10
2.011833
 20
4.711551999999999
 10
2.007787
 20
4.76856
 10
2.004737
 20
4.82957
 10
2.00068
 20
4.900581
 10
1.991635
 20
4.954584
 10
1.978609
 20
4.98358
 10
1.960575
 20
5.021573
 10
1.948527
 20
5.078575
 10
1.936466
 20
5.151579
 10
1.926407
 20
5.222586
 10
1.914342
 20
5.300592
 10
1.910299
 20
5.353599
 10
1.901233
 20
5.434608
 10
1.898183
 20
5.495618
 10
1.895101
 20
5.510964
  0
LWPOLYLINE
  5
8A
330
18
100
AcDbEntity
  8
0
100
AcDbPolyline
 90
       19
 70
     0
 43
0.0
 10
2.147062
 20
4.415314
 10
2.146089
 20
4.425602
 10
2.142019
 20
4.511616
 10
2.13696
 20
4.584626
 10
2.125896
 20
4.661633
 10
2.116844
 20
4.724638
 10
2.107783
 20
4.798646
 10
2.100728
 20
4.864654
 10
2.088687
 20
4.913654
 10
2.075657
 20
4.94765
 10
2.062634
 20
4.972645
 10
2.048607
 20
5.00364
 10
2.034571
 20
5.044637000000001
 10
2.024521
 20
5.104641
 10
2.014464
 20
5.173646
 10
1.996403
 20
5.245646
 10
1.985333
 20
5.329654
 10
1.980249
 20
5.433671
 10
1.9777
 20
5.482607
  0
LWPOLYLINE
  5
A0
330
18
100
AcDbEntity
  8
0
100
AcDbPolyline
 90
       21
 70
     0
 43
0.0
 10
2.289435
 20
4.357392
 10
2.287154
 20
4.379706
 10
2.281093
 20
4.453716
 10
2.275032
 20
4.528726
 10
2.269976
 20
4.597736
 10
2.260917
 20
4.668742
 10
2.25086
 20
4.737748000000001
 10
2.238821
 20
4.783748
 10
2.232776
 20
4.838754
 10
2.231719
 20
4.909767
 10
2.221685
 20
4.949767
 10
2.207655
 20
4.983763
 10
2.189617
 20
5.026757
 10
2.159562
 20
5.087745
 10
2.142526
 20
5.12774
 10
2.124482
 20
5.178735
 10
2.11444
 20
5.228737000000001
 10
2.103382
 20
5.298742
 10
2.090318
 20
5.374747
 10
2.084275
 20
5.426753
 10
2.082959
 20
5.446471
  0
LWPOLYLINE
  5
B8
330
18
100
AcDbEntity
  8
0
100
AcDbPolyline
 90
        9
 70
     0
 43
0.0
 10
2.567885
 20
4.786699
 10
2.55784
 20
4.839014
 10
2.543768
 20
4.926019999999999
 10
2.527689
 20
5.021026
 10
2.518636
 20
5.085032
 10
2.512592
 20
5.138038
 10
2.507542
 20
5.199046
 10
2.506496
 20
5.256056
 10
2.504889
 20
5.301621
  0
LWPOLYLINE
  5
C4
330
18
100
AcDbEntity
  8
0
100
AcDbPolyline
 90
       17
 70
     0
 43
0.0
 10
1.923767
 20
4.506158
 10
1.924958
 20
4.533447
 10
1.922912
 20
4.590456
 10
1.921861
 20
4.654468
 10
1.91582
 20
4.704473999999999
 10
1.907768
 20
4.766480000000001
 10
1.902727
 20
4.816485
 10
1.897691
 20
4.86049
 10
1.888672
 20
4.882487
 10
1.877645
 20
4.913485
 10
1.863613
 20
4.949481
 10
1.848578
 20
4.989477
 10
1.837533
 20
5.043479000000001
 10
1.825479
 20
5.107482
 10
1.815422
 20
5.176488
 10
1.804374
 20
5.23349
 10
1.800189
 20
5.248613
  0
LWPOLYLINE
  5
D8
330
18
100
AcDbEntity
  8
0
100
AcDbPolyline
 90
       20
 70
     0
 43
0.0
 10
2.552538
 20
4.250353
 10
2.553282
 20
4.2859
 10
2.551234
 20
4.34491
 10
2.546177
 20
4.41492
 10
2.54111
 20
4.497932
 10
2.536046
 20
4.575944
 10
2.528995
 20
4.637951
 10
2.513942
 20
4.700951
 10
2.499891
 20
4.760952
 10
2.485847
 20
4.812951
 10
2.470802
 20
4.86495
 10
2.453752
 20
4.923948
 10
2.438694
 20
4.991949
 10
2.430656
 20
5.037952
 10
2.423616
 20
5.085956
 10
2.416574
 20
5.136961
 10
2.406527
 20
5.192964
 10
2.399485
 20
5.243968
 10
2.392439
 20
5.298973999999999
 10
2.389628
 20
5.34119
  0
LWPOLYLINE
  5
EF
330
18
100
AcDbEntity
  8
0
100
AcDbPolyline
 90
       15
 70
     0
 43
0.0
 10
2.243298
 20
2.993738
 10
2.240233
 20
3.019396
 10
2.235178
 20
3.086405
 10
2.219115
 20
3.161408
 10
2.188026
 20
3.264403
 10
2.160959
 20
3.341397
 10
2.134899
 20
3.41039
 10
2.11284
 20
3.478386
 10
2.085751
 20
3.582385
 10
2.063673
 20
3.674386
 10
2.052584
 20
3.783399
 10
2.04251
 20
3.873409
 10
2.034449
 20
3.947417
 10
2.022396
 20
4.01042
 10
2.013223
 20
4.049092
  0
LWPOLYLINE
  5
101
330
18
100
AcDbEntity
  8
0
100
AcDbPolyline
 90
       16
 70
     0
 43
0.0
 10
2.412998
 20
2.915014
 10
2.407303
 20
2.97252
 10
2.392255
 20
3.02952
 10
2.377181
 20
3.117525
 10
2.354109
 20
3.202524
 10
2.32703
 20
3.294521
 10
2.30197
 20
3.362514
 10
2.273919
 20
3.419503
 10
2.249873
 20
3.471494
 10
2.223812
 20
3.540487
 10
2.194729
 20
3.637483
 10
2.178659
 20
3.721487
 10
2.164585
 20
3.809494
 10
2.151525
 20
3.881498
 10
2.134444
 20
3.978503
 10
2.129046
 20
4.002703
  0
LWPOLYLINE
  5
114
330
18
100
AcDbEntity
  8
0
100
AcDbPolyline
 90
       23
 70
     0
 43
0.0
 10
2.11512
 20
3.053199
 10
2.110143
 20
3.099308
 10
2.097103
 20
3.145307
 10
2.087072
 20
3.182306
 10
2.076034
 20
3.226306
 10
2.066996
 20
3.271308
 10
2.047961
 20
3.311301
 10
2.030922
 20
3.355296
 10
2.017886
 20
3.397294
 10
2.014847
 20
3.445301
 10
2.011809
 20
3.491308
 10
2.003752
 20
3.560315
 10
1.985682
 20
3.643317
 10
1.97964
 20
3.695323
 10
1.975585
 20
3.762333
 10
1.965538
 20
3.819336
 10
1.957491
 20
3.875341
 10
1.949448
 20
3.927345
 10
1.941417
 20
3.964346
 10
1.934384
 20
4.003348
 10
1.926358
 20
4.034348000000001
 10
1.915323
 20
4.075347
 10
1.911535
 20
4.08982
  0
LWPOLYLINE
  5
12E
330
18
100
AcDbEntity
  8
0
100
AcDbPolyline
 90
       11
 70
     0
 43
0.0
 10
1.936726
 20
3.135956
 10
1.928022
 20
3.204183
 10
1.908949
 20
3.291185
 10
1.882873
 20
3.379182
 10
1.868809
 20
3.456186
 10
1.845736
 20
3.541185
 10
1.833667
 20
3.625192
 10
1.823601
 20
3.7052
 10
1.820533
 20
3.789214
 10
1.811473
 20
3.861221
 10
1.800189
 20
3.926358
  0
LWPOLYLINE
  5
13C
330
18
100
AcDbEntity
  8
0
100
AcDbPolyline
 90
        7
 70
     0
 43
0.0
 10
2.567885
 20
3.585434
 10
2.561821
 20
3.614772
 10
2.555783
 20
3.660777
 10
2.54574
 20
3.711779
 10
2.532696
 20
3.762779
 10
2.522666
 20
3.797778
 10
2.509673
 20
3.850255
  0
LWPOLYLINE
  5
146
330
18
100
AcDbEntity
  8
0
100
AcDbPolyline
 90
       14
 70
     0
 43
0.0
 10
2.567885
 20
3.163913
 10
2.560155
 20
3.195687
 10
2.534068
 20
3.298687
 10
2.508007
 20
3.367680000000001
 10
2.483949
 20
3.434674
 10
2.462902
 20
3.487668
 10
2.437856
 20
3.539658
 10
2.422809
 20
3.594657
 10
2.409754
 20
3.65966
 10
2.400707
 20
3.716664
 10
2.389655
 20
3.778667
 10
2.380613
 20
3.82867
 10
2.374581
 20
3.867673
 10
2.36717
 20
3.90733
  0
LWPOLYLINE
  5
157
330
18
100
AcDbEntity
  8
0
100
AcDbPolyline
 90
       17
 70
     0
 43
0.0
 10
2.511488
 20
2.869324
 10
2.508389
 20
2.890585
 10
2.50331
 20
2.9886
 10
2.49025
 20
3.059604
 10
2.470188
 20
3.132603
 10
2.444121
 20
3.209597
 10
2.412045
 20
3.296589
 10
2.38599
 20
3.358581
 10
2.36293
 20
3.428576
 10
2.343887
 20
3.477571
 10
2.327848
 20
3.521567
 10
2.306787
 20
3.593564
 10
2.281692
 20
3.705566
 10
2.264606
 20
3.808573
 10
2.253556
 20
3.868577
 10
2.245517
 20
3.91558
 10
2.237763
 20
3.95916
  0
LWPOLYLINE
  5
16B
330
18
100
AcDbEntity
  8
0
100
AcDbPolyline
 90
        4
 70
     0
 43
0.0
 10
1.923767
 20
4.506158
 10
1.870039
 20
4.41938
 10
1.817057
 20
4.38333
 10
1.771289
 20
4.337489
  0
LWPOLYLINE
  5
172
330
18
100
AcDbEntity
  8
0
100
AcDbPolyline
 90
        6
 70
     0
 43
0.0
 10
2.032639
 20
4.461865
 10
1.982074
 20
4.402466
 10
1.965082
 20
4.38845
 10
1.957091
 20
4.375441
 10
1.927112
 20
4.34141
 10
1.891443
 20
4.291005999999999
  0
LWPOLYLINE
  5
17B
330
18
100
AcDbEntity
  8
0
100
AcDbPolyline
 90
        5
 70
     0
 43
0.0
 10
2.147062
 20
4.415314
 10
2.086126
 20
4.363542
 10
2.040144
 20
4.330498
 10
2.000166
 20
4.292459
 10
1.968338
 20
4.261258
  0
LWPOLYLINE
  5
183
330
18
100
AcDbEntity
  8
0
100
AcDbPolyline
 90
        6
 70
     0
 43
0.0
 10
2.289435
 20
4.357392
 10
2.249191
 20
4.323664
 10
2.214203
 20
4.299631
 10
2.172215
 20
4.274593
 10
2.127235
 20
4.238549
 10
2.098385
 20
4.210948
  0
LWPOLYLINE
  5
18C
330
18
100
AcDbEntity
  8
0
100
AcDbPolyline
 90
        6
 70
     0
 43
0.0
 10
2.422242
 20
4.303362
 10
2.365264
 20
4.261745
 10
2.332275
 20
4.239714
 10
2.299287
 20
4.215683
 10
2.272296
 20
4.197657
 10
2.2259
 20
4.161617
  0
LWPOLYLINE
  5
195
330
18
100
AcDbEntity
  8
0
100
AcDbPolyline
 90
        4
 70
     0
 43
0.0
 10
2.552538
 20
4.250353
 10
2.457352
 20
4.174801
 10
2.388372
 20
4.131737
 10
2.352459
 20
4.112655
  0
LWPOLYLINE
  5
19C
330
18
100
AcDbEntity
  8
0
100
AcDbPolyline
 90
        4
 70
     0
 43
0.0
 10
1.911535
 20
4.08982
 10
1.954281
 20
4.137391
 10
2.005252
 20
4.186441
 10
2.055264
 20
4.22763
  0
LWPOLYLINE
  5
1A3
330
18
100
AcDbEntity
  8
0
100
AcDbPolyline
 90
        5
 70
     0
 43
0.0
 10
2.013223
 20
4.049092
 10
2.070339
 20
4.093475
 10
2.113319
 20
4.129517
 10
2.163293
 20
4.174566
 10
2.173547
 20
4.18187
  0
LWPOLYLINE
  5
1AB
330
18
100
AcDbEntity
  8
0
100
AcDbPolyline
 90
        5
 70
     0
 43
0.0
 10
2.129046
 20
4.002703
 10
2.187395
 20
4.053561
 10
2.240378
 20
4.08761
 10
2.284359
 20
4.122652
 10
2.298559
 20
4.133507
  0
LWPOLYLINE
  5
1B3
330
18
100
AcDbEntity
  8
0
100
AcDbPolyline
 90
        4
 70
     0
 43
0.0
 10
2.237763
 20
3.95916
 10
2.321456
 20
4.010659
 10
2.390405
 20
4.090730000000001
 10
2.398565
 20
4.094819
  0
LWPOLYLINE
  5
1BA
330
18
100
AcDbEntity
  8
0
100
AcDbPolyline
 90
        6
 70
     0
 43
0.0
 10
2.36717
 20
3.90733
 10
2.440536
 20
3.940741000000001
 10
2.459534
 20
3.947757
 10
2.490521
 20
3.971787
 10
2.515511
 20
3.98981
 10
2.553848
 20
4.034745
  0
LWPOLYLINE
  5
1C3
330
18
100
AcDbEntity
  8
0
100
AcDbPolyline
 90
        6
 70
     0
 43
0.0
 10
2.509673
 20
3.850255
 10
2.561601
 20
3.888827
 10
2.594584
 20
3.918859
 10
2.635559
 20
3.9599
 10
2.65755
 20
3.976921
 10
2.673735
 20
3.988365
  0
LWPOLYLINE
  5
1CC
330
18
100
AcDbEntity
  8
0
100
AcDbPolyline
 90
       12
 70
     0
 43
0.0
 10
7.189742999999999
 20
4.584198000000001
 10
7.175035
 20
4.49964
 10
7.166088
 20
4.431619
 10
7.152136000000001
 20
4.368595
 10
7.139177
 20
4.313574
 10
7.130213
 20
4.266557
 10
7.122248
 20
4.220542
 10
7.115288000000001
 20
4.168526
 10
7.110324
 20
4.122513
 10
7.103367
 20
4.067496
 10
7.093427
 20
3.989473
 10
7.087653
 20
3.930087
  0
LWPOLYLINE
  5
1DB
330
18
100
AcDbEntity
  8
0
100
AcDbPolyline
 90
       11
 70
     0
 43
0.0
 10
6.78677
 20
4.544395
 10
6.785978999999999
 20
4.472323
 10
6.783023
 20
4.41731
 10
6.785075999999999
 20
4.351298
 10
6.786119
 20
4.297288
 10
6.780164999999999
 20
4.238272
 10
6.770228
 20
4.157248
 10
6.754283
 20
4.08522
 10
6.737336
 20
4.014193
 10
6.713410000000001
 20
3.916154
 10
6.704024
 20
3.886124
  0
LWPOLYLINE
  5
1E9
330
18
100
AcDbEntity
  8
0
100
AcDbPolyline
 90
       17
 70
     0
 43
0.0
 10
6.87873
 20
4.63655
 10
6.876909
 20
4.583418
 10
6.875969
 20
4.507402
 10
6.873025999999999
 20
4.435385
 10
6.872094000000001
 20
4.350368000000001
 10
6.866167
 20
4.258344999999999
 10
6.861209
 20
4.204330000000001
 10
6.858242
 20
4.162319
 10
6.849297999999999
 20
4.090297000000001
 10
6.842325
 20
4.054285
 10
6.82437
 20
3.993258
 10
6.806411
 20
3.938233
 10
6.794473
 20
3.857207
 10
6.786528
 20
3.786186
 10
6.777587
 20
3.711164
 10
6.768641000000001
 20
3.641143
 10
6.760239
 20
3.554541
  0
LWPOLYLINE
  5
1FD
330
18
100
AcDbEntity
  8
0
100
AcDbPolyline
 90
       16
 70
     0
 43
0.0
 10
7.098733999999999
 20
4.857019999999999
 10
7.098762
 20
4.822644
 10
7.094796000000001
 20
4.778632
 10
7.085857000000001
 20
4.700609
 10
7.079917
 20
4.623589
 10
7.073985
 20
4.537567
 10
7.069064999999999
 20
4.436543
 10
7.068131
 20
4.353525
 10
7.069189999999999
 20
4.279511
 10
7.060248
 20
4.205489
 10
7.047287
 20
4.152468
 10
7.033334
 20
4.090445
 10
7.024403
 20
4.00242
 10
7.016458
 20
3.931399
 10
7.007517
 20
3.855377
 10
7.005164
 20
3.835471
  0
LWPOLYLINE
  5
210
330
18
100
AcDbEntity
  8
0
100
AcDbPolyline
 90
       16
 70
     0
 43
0.0
 10
6.980805
 20
4.738841000000001
 10
6.980828999999999
 20
4.709527
 10
6.977878
 20
4.646512
 10
6.975941000000001
 20
4.567494
 10
6.974
 20
4.493478
 10
6.97708
 20
4.394461
 10
6.982152
 20
4.305447
 10
6.978211999999999
 20
4.229428
 10
6.969269000000001
 20
4.156407
 10
6.961306
 20
4.107391000000001
 10
6.95333
 20
4.075378
 10
6.946358999999999
 20
4.038365
 10
6.935419
 20
3.96034
 10
6.927474
 20
3.88932
 10
6.919538
 20
3.807297
 10
6.911496000000001
 20
3.728033
  0
LWPOLYLINE
  5
223
330
18
100
AcDbEntity
  8
0
100
AcDbPolyline
 90
       14
 70
     0
 43
0.0
 10
7.189916999999999
 20
5.664773
 10
7.187125
 20
5.640878
 10
7.183155999999999
 20
5.600867
 10
7.177185000000001
 20
5.562854
 10
7.169214
 20
5.52484
 10
7.164238
 20
5.49383
 10
7.157269
 20
5.452816
 10
7.1493
 20
5.412802
 10
7.141333
 20
5.368787
 10
7.136367
 20
5.325774
 10
7.133392999999999
 20
5.291765
 10
7.123439
 20
5.231745
 10
7.121453999999999
 20
5.21274
 10
7.114675999999999
 20
5.17529
  0
LWPOLYLINE
  5
234
330
18
100
AcDbEntity
  8
0
100
AcDbPolyline
 90
       14
 70
     0
 43
0.0
 10
7.108296000000001
 20
6.068555
 10
7.109781
 20
6.050898
 10
7.106849
 20
5.964878
 10
7.106936999999999
 20
5.855857
 10
7.105981
 20
5.799845
 10
7.10305
 20
5.713825
 10
7.09515
 20
5.585793
 10
7.088202000000001
 20
5.519775
 10
7.079250999999999
 20
5.455755
 10
7.070308
 20
5.382733
 10
7.066349000000001
 20
5.330719
 10
7.061396
 20
5.270703
 10
7.05646
 20
5.188683
 10
7.048716000000001
 20
5.107654
  0
LWPOLYLINE
  5
245
330
18
100
AcDbEntity
  8
0
100
AcDbPolyline
 90
       16
 70
     0
 43
0.0
 10
6.9871
 20
5.961594
 10
6.978863000000001
 20
5.915766000000001
 10
6.972929
 20
5.831745
 10
6.973967999999999
 20
5.783736
 10
6.974009
 20
5.732726
 10
6.975053999999999
 20
5.675715
 10
6.974100999999999
 20
5.617703
 10
6.971148
 20
5.557688
 10
6.967188
 20
5.506675
 10
6.959238
 20
5.442656
 10
6.945351
 20
5.297616000000001
 10
6.939411
 20
5.220596
 10
6.930472
 20
5.142573000000001
 10
6.927522
 20
5.079558000000001
 10
6.932557000000001
 20
5.036553
 10
6.939153
 20
4.995307
  0
LWPOLYLINE
  5
258
330
18
100
AcDbEntity
  8
0
100
AcDbPolyline
 90
       17
 70
     0
 43
0.0
 10
6.892506
 20
5.87811
 10
6.890902000000001
 20
5.844682
 10
6.886939
 20
5.797669
 10
6.878986
 20
5.737651000000001
 10
6.876039
 20
5.670635
 10
6.879096000000001
 20
5.599623
 10
6.884155000000001
 20
5.527613
 10
6.888196000000001
 20
5.477606
 10
6.882248
 20
5.410588
 10
6.866272
 20
5.376568
 10
6.842333999999999
 20
5.292532
 10
6.836376
 20
5.238517
 10
6.829426
 20
5.174498000000001
 10
6.822487
 20
5.096476999999999
 10
6.817561
 20
5.003455000000001
 10
6.81464
 20
4.903432
 10
6.813208
 20
4.866162
  0
LWPOLYLINE
  5
26C
330
18
100
AcDbEntity
  8
0
100
AcDbPolyline
 90
       19
 70
     0
 43
0.0
 10
6.771383999999999
 20
5.771214
 10
6.772953
 20
5.752569
 10
6.77998
 20
5.720568
 10
6.794026
 20
5.666569
 10
6.803058
 20
5.628568000000001
 10
6.803078999999999
 20
5.602563
 10
6.800091
 20
5.586557
 10
6.793114999999999
 20
5.554545
 10
6.791148
 20
5.512535
 10
6.788185
 20
5.465523999999999
 10
6.787219
 20
5.423514
 10
6.786249000000001
 20
5.385506
 10
6.783272999999999
 20
5.354498
 10
6.776308
 20
5.309483
 10
6.762347999999999
 20
5.255461
 10
6.749382000000001
 20
5.210442
 10
6.737417
 20
5.163423000000001
 10
6.716473
 20
5.087391
 10
6.704024
 20
5.029761
  0
LWPOLYLINE
  5
282
330
18
100
AcDbEntity
  8
0
100
AcDbPolyline
 90
        4
 70
     0
 43
0.0
 10
6.813208
 20
4.866162
 10
6.853706
 20
4.830449
 10
6.882723
 20
4.81747
 10
6.923934
 20
4.780897
  0
LWPOLYLINE
  5
289
330
18
100
AcDbEntity
  8
0
100
AcDbPolyline
 90
        3
 70
     0
 43
0.0
 10
6.939153
 20
4.995307
 10
6.991649000000001
 20
4.936580999999999
 10
7.038764
 20
4.89717
  0
LWPOLYLINE
  5
28F
330
18
100
AcDbEntity
  8
0
100
AcDbPolyline
 90
        4
 70
     0
 43
0.0
 10
7.048716000000001
 20
5.107654
 10
7.093567
 20
5.064687999999999
 10
7.146615
 20
5.017721
 10
7.152164
 20
5.011997
  0
LWPOLYLINE
  5
296
330
18
100
AcDbEntity
  8
0
100
AcDbPolyline
 90
        5
 70
     0
 43
0.0
 10
7.114675999999999
 20
5.17529
 10
7.161519999999999
 20
5.140757
 10
7.187542
 20
5.118774
 10
7.212567
 20
5.094789
 10
7.222760000000001
 20
5.083481
  0
LWPOLYLINE
  5
29E
330
18
100
AcDbEntity
  8
0
100
AcDbPolyline
 90
        4
 70
     0
 43
0.0
 10
6.980805
 20
4.738841000000001
 10
6.958347
 20
4.744569
 10
6.940788
 20
4.750503
 10
6.912222
 20
4.769038
  0
LWPOLYLINE
  5
2A5
330
18
100
AcDbEntity
  8
0
100
AcDbPolyline
 90
        5
 70
     0
 43
0.0
 10
6.78677
 20
4.544395
 10
6.755903999999999
 20
4.559317
 10
6.726887
 20
4.573296
 10
6.676856
 20
4.599261
 10
6.643338000000001
 20
4.615367
  0
LWPOLYLINE
  5
2AD
330
18
100
AcDbEntity
  8
0
100
AcDbPolyline
 90
        5
 70
     0
 43
0.0
 10
6.87873
 20
4.63655
 10
6.848853999999999
 20
4.644408
 10
6.81095
 20
4.648292
 10
6.777838
 20
4.646351999999999
 10
6.750213000000001
 20
4.649207
  0
LWPOLYLINE
  5
2B5
330
18
100
AcDbEntity
  8
0
100
AcDbPolyline
 90
        4
 70
     0
 43
0.0
 10
7.098733999999999
 20
4.857019999999999
 10
7.076734
 20
4.863736
 10
7.049712
 20
4.872614
 10
7.026717
 20
4.884972
  0
LINE
  5
2BC
330
18
100
AcDbEntity
  8
0
100
AcDbLine
 10
3.931184
 20
3.940674
 30
0.0
 11
3.882759
 21
3.940674
 31
0.0
  0
LINE
  5
2BD
330
18
100
AcDbEntity
  8
0
100
AcDbLine
 10
5.328951999999999
 20
3.947071
 30
0.0
 11
5.379366
 21
3.962378
 31
0.0
  0
LINE
  5
2BE
330
18
100
AcDbEntity
  8
0
100
AcDbLine
 10
3.595536
 20
6.629396000000001
 30
0.0
 11
3.595536
 21
6.620242999999999
 31
0.0
  0
ARC
  5
2BF
330
18
100
AcDbEntity
  8
0
100
AcDbCircle
 10
3.605536
 20
6.621657000000001
 30
0.0
 40
0.01
100
AcDbArc
 50
73.457329
 51
180.0
  0
ARC
  5
2C0
330
18
100
AcDbEntity
  8
0
100
AcDbCircle
 10
3.605536
 20
6.629396000000001
 30
0.0
 40
0.01
100
AcDbArc
 50
120.951712
 51
180.0
  0
ARC
  5
2C1
330
18
100
AcDbEntity
  8
0
100
AcDbCircle
 10
3.899309
 20
3.990674
 30
0.0
 40
0.05
100
AcDbArc
 50
270.0
 51
0.0
  0
ARC
  5
2C2
330
18
100
AcDbEntity
  8
0
100
AcDbCircle
 10
3.931184
 20
3.990674
 30
0.0
 40
0.05
100
AcDbArc
 50
270.0
 51
309.851417
  0
ARC
  5
2C3
330
18
100
AcDbEntity
  8
0
100
AcDbCircle
 10
5.356175
 20
3.99714
 30
0.0
 40
0.04
100
AcDbArc
 50
180.0
 51
286.890158
  0
ARC
  5
2C4
330
18
100
AcDbEntity
  8
0
100
AcDbCircle
 10
5.31733
 20
3.985346
 30
0.0
 40
0.04
100
AcDbArc
 50
249.970246
 51
286.890158
  0
ARC
  5
2C5
330
18
100
AcDbEntity
  8
0
100
AcDbCircle
 10
4.193362000000001
 20
6.372989
 30
0.0
 40
0.150132
100
AcDbArc
 50
348.987098
 51
13.850747
  0
LINE
  5
2C6
330
18
100
AcDbEntity
  8
0
100
AcDbLine
 10
4.332239
 20
6.416241
 30
0.0
 11
3.608384
 21
6.631243
 31
0.0
  0
ARC
  5
2C7
330
18
100
AcDbEntity
  8
0
100
AcDbCircle
 10
4.405474
 20
5.82458
 30
0.0
 40
0.073435
100
AcDbArc
 50
55.26714499999999
 51
129.971266
  0
ARC
  5
2C8
330
18
100
AcDbEntity
  8
0
100
AcDbCircle
 10
4.428656
 20
5.806144000000001
 30
0.0
 40
0.03
100
AcDbArc
 50
72.925894
 51
180.0
  0
LINE
  5
2C9
330
18
100
AcDbEntity
  8
0
100
AcDbLine
 10
5.355957
 20
6.112173
 30
0.0
 11
4.422799
 21
6.389343
 31
0.0
  0
LINE
  5
2CA
330
18
100
AcDbEntity
  8
0
100
AcDbLine
 10
5.474368
 20
6.077001999999999
 30
0.0
 11
5.407344999999999
 21
6.096908999999999
 31
0.0
  0
LWPOLYLINE
  5
2CB
330
18
100
AcDbEntity
  8
0
100
AcDbPolyline
 90
       16
 70
     1
 43
0.0
 10
5.096676
 20
3.179713
 42
0.138452
 10
5.071216000000001
 20
3.18104
 42
0.107068
 10
5.041565
 20
3.167211
 42
0.080462
 10
5.017843
 20
3.142276
 42
0.068277
 10
4.99974
 20
3.106063
 42
0.068277
 10
4.992058999999999
 20
3.066312
 42
0.080462
 10
4.995702
 20
3.03209
 42
0.107068
 10
5.010808
 20
3.003068
 42
0.138452
 10
5.031815
 20
2.988623
 42
0.138452
 10
5.057275
 20
2.987296
 42
0.107068
 10
5.086926
 20
3.001126
 42
0.080462
 10
5.110649
 20
3.026061
 42
0.068277
 10
5.128751
 20
3.062274
 42
0.068277
 10
5.136432
 20
3.102024
 42
0.080462
 10
5.132789
 20
3.136247
 42
0.107068
 10
5.117683
 20
3.165268
 42
0.138452
  0
LWPOLYLINE
  5
2DE
330
18
100
AcDbEntity
  8
0
100
AcDbPolyline
 90
       16
 70
     1
 43
0.0
 10
5.096676
 20
3.74285
 42
0.138452
 10
5.071216000000001
 20
3.744177
 42
0.107068
 10
5.041565
 20
3.730347
 42
0.080462
 10
5.017843
 20
3.705413
 42
0.068277
 10
4.99974
 20
3.6692
 42
0.068277
 10
4.992058999999999
 20
3.629449
 42
0.080462
 10
4.995702
 20
3.595226
 42
0.107068
 10
5.010808
 20
3.566205
 42
0.138452
 10
5.031815
 20
3.55176
 42
0.138452
 10
5.057275
 20
3.550433
 42
0.107068
 10
5.086926
 20
3.564263
 42
0.080462
 10
5.110649
 20
3.589197
 42
0.068277
 10
5.128751
 20
3.62541
 42
0.068277
 10
5.136432
 20
3.665161
 42
0.080462
 10
5.132789
 20
3.699384
 42
0.107068
 10
5.117683
 20
3.728405
 42
0.138452
  0
LWPOLYLINE
  5
2F1
330
18
100
AcDbEntity
  8
0
100
AcDbPolyline
 90
       16
 70
     1
 43
0.0
 10
5.067076999999999
 20
5.170088
 42
0.118023
 10
5.045887000000001
 20
5.153446
 42
0.104553
 10
5.032376999999999
 20
5.126297
 42
0.089837
 10
5.030067
 20
5.095215000000001
 42
0.081629
 10
5.039134
 20
5.062182
 42
0.081629
 10
5.058296
 20
5.033789
 42
0.089837
 10
5.083387999999999
 20
5.0153
 42
0.104553
 10
5.112789
 20
5.007872
 42
0.118023
 10
5.139217
 20
5.013114
 42
0.118023
 10
5.160407
 20
5.029755000000001
 42
0.104553
 10
5.173916999999999
 20
5.056904
 42
0.089837
 10
5.176228
 20
5.087987
 42
0.081629
 10
5.167161
 20
5.12102
 42
0.081629
 10
5.147999
 20
5.149413
 42
0.089837
 10
5.122907
 20
5.167902
 42
0.104553
 10
5.093506
 20
5.175330000000001
 42
0.118023
  0
LWPOLYLINE
  5
304
330
18
100
AcDbEntity
  8
0
100
AcDbPolyline
 90
       16
 70
     1
 43
0.0
 10
5.067076999999999
 20
4.567242
 42
0.118023
 10
5.045887000000001
 20
4.550601
 42
0.104553
 10
5.032376999999999
 20
4.523452
 42
0.089837
 10
5.030067
 20
4.492369999999999
 42
0.081629
 10
5.039134
 20
4.459337000000001
 42
0.081629
 10
5.058296
 20
4.430944
 42
0.089837
 10
5.083387999999999
 20
4.412455000000001
 42
0.104553
 10
5.112789
 20
4.405026
 42
0.118023
 10
5.139217
 20
4.410269
 42
0.118023
 10
5.160407
 20
4.42691
 42
0.104553
 10
5.173916999999999
 20
4.454059
 42
0.089837
 10
5.176228
 20
4.485142
 42
0.081629
 10
5.167161
 20
4.518174
 42
0.081629
 10
5.147999
 20
4.546567
 42
0.089837
 10
5.122907
 20
4.565055999999999
 42
0.104553
 10
5.093506
 20
4.572485
 42
0.118023
  0
LWPOLYLINE
  5
317
330
18
100
AcDbEntity
  8
0
100
AcDbPolyline
 90
       16
 70
     1
 43
0.0
 10
4.120273
 20
4.689234
 42
0.147277
 10
4.113158
 20
4.691932
 42
0.107139
 10
4.10291
 20
4.690451
 42
0.07651
 10
4.093323000000001
 20
4.685093
 42
0.063465
 10
4.084013
 20
4.675713
 42
0.063465
 10
4.077353
 20
4.664297
 42
0.07651
 10
4.07465
 20
4.653652
 42
0.107139
 10
4.075864
 20
4.643369
 42
0.147277
 10
4.080306
 20
4.637192
 42
0.147277
 10
4.08742
 20
4.634494
 42
0.107139
 10
4.097668
 20
4.635974
 42
0.07651
 10
4.107256
 20
4.641333
 42
0.063465
 10
4.116566000000001
 20
4.650713
 42
0.063465
 10
4.123226
 20
4.662129
 42
0.07651
 10
4.125929
 20
4.672774
 42
0.107139
 10
4.124715
 20
4.683057
 42
0.147277
  0
LWPOLYLINE
  5
32A
330
18
100
AcDbEntity
  8
0
100
AcDbPolyline
 90
       16
 70
     1
 43
0.0
 10
5.101102
 20
6.398361
 42
0.159324
 10
5.103487
 20
6.390751
 42
0.106389
 10
5.112193
 20
6.382818
 42
0.071287
 10
5.123886
 20
6.378083999999999
 42
0.05761
 10
5.139344
 20
6.376106
 42
0.05761
 10
5.154845
 20
6.377706
 42
0.071287
 10
5.166651
 20
6.382155
 42
0.106389
 10
5.175547
 20
6.389873000000001
 42
0.159324
 10
5.178118
 20
6.397422
 42
0.159324
 10
5.175732
 20
6.405031
 42
0.106389
 10
5.167027
 20
6.412964
 42
0.071287
 10
5.155333000000001
 20
6.417699
 42
0.05761
 10
5.139875
 20
6.419677
 42
0.05761
 10
5.124374
 20
6.418076
 42
0.071287
 10
5.112568
 20
6.413628
 42
0.106389
 10
5.103672
 20
6.405908999999999
 42
0.159324
  0
LWPOLYLINE
  5
33D
330
18
100
AcDbEntity
  8
0
100
AcDbPolyline
 90
       16
 70
     1
 43
0.0
 10
4.492679
 20
6.560279
 42
0.159324
 10
4.495065
 20
6.55267
 42
0.106389
 10
4.503769999999999
 20
6.544736
 42
0.071287
 10
4.515464
 20
6.540001999999999
 42
0.05761
 10
4.530922
 20
6.538024
 42
0.05761
 10
4.546423
 20
6.539624
 42
0.071287
 10
4.558229
 20
6.544073
 42
0.106389
 10
4.567125
 20
6.551791000000001
 42
0.159324
 10
4.569694999999999
 20
6.55934
 42
0.159324
 10
4.56731
 20
6.566949
 42
0.106389
 10
4.558604
 20
6.574882000000001
 42
0.071287
 10
4.54691
 20
6.579617
 42
0.05761
 10
4.531453
 20
6.581595
 42
0.05761
 10
4.515951
 20
6.579994
 42
0.071287
 10
4.504146
 20
6.575546000000001
 42
0.106389
 10
4.495248999999999
 20
6.567827
 42
0.159324
  0
LWPOLYLINE
  5
350
330
18
100
AcDbEntity
  8
0
100
AcDbPolyline
 90
       16
 70
     1
 43
0.0
 10
4.011782
 20
6.742725
 42
0.159324
 10
4.014167
 20
6.735115
 42
0.106389
 10
4.022873000000001
 20
6.727182000000001
 42
0.071287
 10
4.034566000000001
 20
6.722448
 42
0.05761
 10
4.050024
 20
6.72047
 42
0.05761
 10
4.065525
 20
6.72207
 42
0.071287
 10
4.077331
 20
6.726519000000001
 42
0.106389
 10
4.086227
 20
6.734236999999999
 42
0.159324
 10
4.088798000000001
 20
6.741786
 42
0.159324
 10
4.086412
 20
6.749395
 42
0.106389
 10
4.077707
 20
6.757328
 42
0.071287
 10
4.066013
 20
6.762063
 42
0.05761
 10
4.050555
 20
6.764041000000001
 42
0.05761
 10
4.035054
 20
6.76244
 42
0.071287
 10
4.023248000000001
 20
6.757992
 42
0.106389
 10
4.014352
 20
6.750273
 42
0.159324
  0
LWPOLYLINE
  5
363
330
18
100
AcDbEntity
  8
0
100
AcDbPolyline
 90
       16
 70
     1
 43
0.0
 10
5.648635
 20
6.297475
 42
0.159324
 10
5.650782
 20
6.290626000000001
 42
0.106389
 10
5.658617
 20
6.283487
 42
0.071287
 10
5.669142
 20
6.279225
 42
0.05761
 10
5.683054
 20
6.277444999999999
 42
0.05761
 10
5.697005
 20
6.278886
 42
0.071287
 10
5.70763
 20
6.282889
 42
0.106389
 10
5.715637
 20
6.289836
 42
0.159324
 10
5.71795
 20
6.29663
 42
0.159324
 10
5.715803
 20
6.303478
 42
0.106389
 10
5.707968
 20
6.310618
 42
0.071287
 10
5.697444
 20
6.314879
 42
0.05761
 10
5.683532
 20
6.316659
 42
0.05761
 10
5.669581
 20
6.315219
 42
0.071287
 10
5.658955000000001
 20
6.311215
 42
0.106389
 10
5.650949
 20
6.304268
 42
0.159324
  0
ARC
  5
376
330
18
100
AcDbEntity
  8
0
100
AcDbCircle
 10
4.405474
 20
5.866172
 30
0.0
 40
0.073435
100
AcDbArc
 50
55.26714499999999
 51
129.971266
  0
ARC
  5
377
330
18
100
AcDbEntity
  8
0
100
AcDbCircle
 10
4.405474
 20
5.907765
 30
0.0
 40
0.073435
100
AcDbArc
 50
55.26714499999999
 51
129.971266
  0
ARC
  5
378
330
18
100
AcDbEntity
  8
0
100
AcDbCircle
 10
4.405474
 20
5.949358
 30
0.0
 40
0.073435
100
AcDbArc
 50
55.26714499999999
 51
129.971266
  0
ARC
  5
379
330
18
100
AcDbEntity
  8
0
100
AcDbCircle
 10
4.405474
 20
5.990951
 30
0.0
 40
0.073435
100
AcDbArc
 50
55.26714499999999
 51
129.971266
  0
ARC
  5
37A
330
18
100
AcDbEntity
  8
0
100
AcDbCircle
 10
4.405474
 20
6.032544000000001
 30
0.0
 40
0.073435
100
AcDbArc
 50
55.26714499999999
 51
129.971266
  0
ARC
  5
37B
330
18
100
AcDbEntity
  8
0
100
AcDbCircle
 10
4.405474
 20
6.074136
 30
0.0
 40
0.073435
100
AcDbArc
 50
55.26714499999999
 51
129.971266
  0
ARC
  5
37C
330
18
100
AcDbEntity
  8
0
100
AcDbCircle
 10
4.405474
 20
6.115729
 30
0.0
 40
0.073435
100
AcDbArc
 50
55.26714499999999
 51
129.971266
  0
ARC
  5
37D
330
18
100
AcDbEntity
  8
0
100
AcDbCircle
 10
4.405474
 20
6.157322
 30
0.0
 40
0.073435
100
AcDbArc
 50
55.26714499999999
 51
129.971266
  0
ARC
  5
37E
330
18
100
AcDbEntity
  8
0
100
AcDbCircle
 10
4.405474
 20
6.198915
 30
0.0
 40
0.073435
100
AcDbArc
 50
55.26714499999999
 51
129.971266
  0
ARC
  5
37F
330
18
100
AcDbEntity
  8
0
100
AcDbCircle
 10
4.405474
 20
6.240508
 30
0.0
 40
0.073435
100
AcDbArc
 50
55.26714499999999
 51
129.971266
  0
ARC
  5
380
330
18
100
AcDbEntity
  8
0
100
AcDbCircle
 10
4.405474
 20
6.2821
 30
0.0
 40
0.073435
100
AcDbArc
 50
55.26714499999999
 51
129.971266
  0
LINE
  5
381
330
18
100
AcDbEntity
  8
0
100
AcDbLine
 10
7.667275
 20
6.012280000000001
 30
0.0
 11
7.667275
 21
5.138157
 31
0.0
  0
LINE
  5
382
330
18
100
AcDbEntity
  8
0
100
AcDbLine
 10
7.189742999999999
 20
6.140437
 30
0.0
 11
4.153984
 21
6.955152
 31
0.0
  0
LINE
  5
383
330
18
100
AcDbEntity
  8
0
100
AcDbLine
 10
7.854997
 20
3.868648
 30
0.0
 11
7.345469000000001
 21
4.005392
 31
0.0
  0
ARC
  5
384
330
18
100
AcDbEntity
  8
0
100
AcDbCircle
 10
5.356175
 20
5.289391
 30
0.0
 40
0.04
100
AcDbArc
 50
106.890158
 51
180.0
  0
LINE
  5
385
330
18
100
AcDbEntity
  8
0
100
AcDbLine
 10
5.586387
 20
5.250973999999999
 30
0.0
 11
5.586387
 21
4.789429
 31
0.0
  0
LINE
  5
386
330
18
100
AcDbEntity
  8
0
100
AcDbLine
 10
5.344554000000001
 20
5.327666000000001
 30
0.0
 11
4.398656
 21
5.627635
 31
0.0
  0
TEXT
  5
387
330
18
100
AcDbEntity
  8
0
100
AcDbText
 10
7.566480888229216
 20
4.872218674681469
 30
0.0
 40
0.2
  1
HA
 50
344.977358
 41
0.8
 72
     1
 11
7.664351
 21
4.845953
 31
0.0
100
AcDbText
  0
LINE
  5
388
330
18
100
AcDbEntity
  8
0
100
AcDbLine
 10
7.667275
 20
4.734082
 30
0.0
 11
7.667275
 21
3.919028
 31
0.0
  0
SOLID
  5
389
330
18
100
AcDbEntity
  8
0
100
AcDbTrace
 10
7.580961
 20
5.76391
 30
0.0
 11
7.734667999999999
 21
5.722659999999999
 31
0.0
 12
7.667275
 22
6.012280000000001
 32
0.0
 13
7.667275
 23
6.012280000000001
 33
0.0
  0
SOLID
  5
38A
330
18
100
AcDbEntity
  8
0
100
AcDbTrace
 10
7.753589
 20
4.167398
 30
0.0
 11
7.599882000000001
 21
4.208648
 31
0.0
 12
7.667275
 22
3.919028
 32
0.0
 13
7.667275
 23
3.919028
 33
0.0
  0
SOLID
  5
38B
330
18
100
AcDbEntity
  8
0
100
AcDbTrace
 10
5.539043
 20
5.036947000000001
 30
0.0
 11
5.638357
 21
5.005452
 31
0.0
 12
5.586387
 22
5.250973999999999
 32
0.0
 13
5.586387
 23
5.250973999999999
 33
0.0
  0
LINE
  5
38C
330
18
100
AcDbEntity
  8
0
100
AcDbLine
 10
5.586387
 20
4.301330999999999
 30
0.0
 11
5.586387
 21
3.888564
 31
0.0
  0
SOLID
  5
38D
330
18
100
AcDbEntity
  8
0
100
AcDbTrace
 10
5.63373
 20
4.102591
 30
0.0
 11
5.534416
 21
4.134086
 31
0.0
 12
5.586387
 22
3.888564
 32
0.0
 13
5.586387
 23
3.888564
 33
0.0
  0
TEXT
  5
38E
330
18
100
AcDbEntity
  8
0
100
AcDbText
 10
5.491254473371856
 20
4.4535076353754
 30
0.0
 40
0.2
  1
H
 50
344.977358
 41
0.8
 72
     1
 11
5.537614
 21
4.441066
 31
0.0
100
AcDbText
  0
TEXT
  5
38F
330
18
100
AcDbEntity
  8
0
100
AcDbText
 10
5.650075355028892
 20
4.366053226531551
 30
0.0
 40
0.15
  1
1
 50
344.977358
 41
0.8
 72
     1
 11
5.684845
 21
4.356722
 31
0.0
100
AcDbText
  0
ARC
  5
390
330
18
100
AcDbEntity
  8
0
100
AcDbCircle
 10
4.329391
 20
6.406655000000001
 30
0.0
 40
0.01
100
AcDbArc
 50
13.146098
 51
73.457329
  0
ARC
  5
391
330
18
100
AcDbEntity
  8
0
100
AcDbCircle
 10
4.304651
 20
6.364062000000001
 30
0.0
 40
0.041132
100
AcDbArc
 50
296.656676
 51
331.299148
  0
TEXT
  5
392
330
18
100
AcDbEntity
  8
0
100
AcDbText
 10
2.223397
 20
1.558872
 30
0.0
 40
0.22
  1
Simpson Strong-Tie
100
AcDbText
  0
TEXT
  5
393
330
18
100
AcDbEntity
  8
0
100
AcDbText
 10
2.223397
 20
1.202682
 30
0.0
 40
0.22
  1
CC with HW
100
AcDbText
  0
LINE
  5
394
330
18
100
AcDbEntity
  8
0
 62
     0
100
AcDbLine
 10
4.52025
 20
6.539
 30
0.0
 11
4.543247
 21
6.539
 31
0.0
  0
LINE
  5
395
330
18
100
AcDbEntity
  8
0
 62
     0
100
AcDbLine
 10
4.515471
 20
6.54
 30
0.0
 11
4.547985
 21
6.54
 31
0.0
  0
LINE
  5
396
330
18
100
AcDbEntity
  8
0
 62
     0
100
AcDbLine
 10
4.512026000000001
 20
6.541
 30
0.0
 11
4.551299
 21
6.541
 31
0.0
  0
LINE
  5
397
330
18
100
AcDbEntity
  8
0
 62
     0
100
AcDbLine
 10
4.509331
 20
6.542000000000001
 30
0.0
 11
4.553927
 21
6.542000000000001
 31
0.0
  0
LINE
  5
398
330
18
100
AcDbEntity
  8
0
 62
     0
100
AcDbLine
 10
4.507064
 20
6.542999999999999
 30
0.0
 11
4.55615
 21
6.542999999999999
 31
0.0
  0
LINE
  5
399
330
18
100
AcDbEntity
  8
0
 62
     0
100
AcDbLine
 10
4.505086
 20
6.544
 30
0.0
 11
4.558096
 21
6.544
 31
0.0
  0
LINE
  5
39A
330
18
100
AcDbEntity
  8
0
 62
     0
100
AcDbLine
 10
4.503326
 20
6.545
 30
0.0
 11
4.559793
 21
6.545
 31
0.0
  0
LINE
  5
39B
330
18
100
AcDbEntity
  8
0
 62
     0
100
AcDbLine
 10
4.501794
 20
6.546
 30
0.0
 11
4.561257
 21
6.546
 31
0.0
  0
LINE
  5
39C
330
18
100
AcDbEntity
  8
0
 62
     0
100
AcDbLine
 10
4.500453
 20
6.547000000000001
 30
0.0
 11
4.562545
 21
6.547000000000001
 31
0.0
  0
LINE
  5
39D
330
18
100
AcDbEntity
  8
0
 62
     0
100
AcDbLine
 10
4.499262
 20
6.547999999999999
 30
0.0
 11
4.563693
 21
6.547999999999999
 31
0.0
  0
LINE
  5
39E
330
18
100
AcDbEntity
  8
0
 62
     0
100
AcDbLine
 10
4.498194
 20
6.549
 30
0.0
 11
4.564726
 21
6.549
 31
0.0
  0
LINE
  5
39F
330
18
100
AcDbEntity
  8
0
 62
     0
100
AcDbLine
 10
4.497229
 20
6.55
 30
0.0
 11
4.56566
 21
6.55
 31
0.0
  0
LINE
  5
3A0
330
18
100
AcDbEntity
  8
0
 62
     0
100
AcDbLine
 10
4.496354
 20
6.551
 30
0.0
 11
4.566508
 21
6.551
 31
0.0
  0
LINE
  5
3A1
330
18
100
AcDbEntity
  8
0
 62
     0
100
AcDbLine
 10
4.495558
 20
6.552000000000001
 30
0.0
 11
4.567278
 21
6.552000000000001
 31
0.0
  0
LINE
  5
3A2
330
18
100
AcDbEntity
  8
0
 62
     0
100
AcDbLine
 10
4.494837
 20
6.553
 30
0.0
 11
4.567930000000001
 21
6.553
 31
0.0
  0
LINE
  5
3A3
330
18
100
AcDbEntity
  8
0
 62
     0
100
AcDbLine
 10
4.494233
 20
6.553999999999999
 30
0.0
 11
4.568459
 21
6.553999999999999
 31
0.0
  0
LINE
  5
3A4
330
18
100
AcDbEntity
  8
0
 62
     0
100
AcDbLine
 10
4.493745
 20
6.555
 30
0.0
 11
4.568883000000001
 21
6.555
 31
0.0
  0
LINE
  5
3A5
330
18
100
AcDbEntity
  8
0
 62
     0
100
AcDbLine
 10
4.493358
 20
6.556
 30
0.0
 11
4.569211
 21
6.556
 31
0.0
  0
LINE
  5
3A6
330
18
100
AcDbEntity
  8
0
 62
     0
100
AcDbLine
 10
4.493064
 20
6.557
 30
0.0
 11
4.569451
 21
6.557
 31
0.0
  0
LINE
  5
3A7
330
18
100
AcDbEntity
  8
0
 62
     0
100
AcDbLine
 10
4.492855000000001
 20
6.558
 30
0.0
 11
4.569609
 21
6.558
 31
0.0
  0
LINE
  5
3A8
330
18
100
AcDbEntity
  8
0
 62
     0
100
AcDbLine
 10
4.492727
 20
6.559
 30
0.0
 11
4.569687
 21
6.559
 31
0.0
  0
LINE
  5
3A9
330
18
100
AcDbEntity
  8
0
 62
     0
100
AcDbLine
 10
4.492679
 20
6.56
 30
0.0
 11
4.569686
 21
6.56
 31
0.0
  0
LINE
  5
3AA
330
18
100
AcDbEntity
  8
0
 62
     0
100
AcDbLine
 10
4.492708
 20
6.561
 30
0.0
 11
4.569608000000001
 21
6.561
 31
0.0
  0
LINE
  5
3AB
330
18
100
AcDbEntity
  8
0
 62
     0
100
AcDbLine
 10
4.492816
 20
6.562
 30
0.0
 11
4.56945
 21
6.562
 31
0.0
  0
LINE
  5
3AC
330
18
100
AcDbEntity
  8
0
 62
     0
100
AcDbLine
 10
4.493005
 20
6.563
 30
0.0
 11
4.569209
 21
6.563
 31
0.0
  0
LINE
  5
3AD
330
18
100
AcDbEntity
  8
0
 62
     0
100
AcDbLine
 10
4.493278
 20
6.564
 30
0.0
 11
4.56888
 21
6.564
 31
0.0
  0
LINE
  5
3AE
330
18
100
AcDbEntity
  8
0
 62
     0
100
AcDbLine
 10
4.493642
 20
6.565
 30
0.0
 11
4.568455999999999
 21
6.565
 31
0.0
  0
LINE
  5
3AF
330
18
100
AcDbEntity
  8
0
 62
     0
100
AcDbLine
 10
4.494104
 20
6.566
 30
0.0
 11
4.567926
 21
6.566
 31
0.0
  0
LINE
  5
3B0
330
18
100
AcDbEntity
  8
0
 62
     0
100
AcDbLine
 10
4.494676999999999
 20
6.567
 30
0.0
 11
4.567273
 21
6.567
 31
0.0
  0
LINE
  5
3B1
330
18
100
AcDbEntity
  8
0
 62
     0
100
AcDbLine
 10
4.49538
 20
6.568
 30
0.0
 11
4.566522
 21
6.568
 31
0.0
  0
LINE
  5
3B2
330
18
100
AcDbEntity
  8
0
 62
     0
100
AcDbLine
 10
4.496180000000001
 20
6.569
 30
0.0
 11
4.565697
 21
6.569
 31
0.0
  0
LINE
  5
3B3
330
18
100
AcDbEntity
  8
0
 62
     0
100
AcDbLine
 10
4.49706
 20
6.57
 30
0.0
 11
4.564789
 21
6.57
 31
0.0
  0
LINE
  5
3B4
330
18
100
AcDbEntity
  8
0
 62
     0
100
AcDbLine
 10
4.49803
 20
6.571000000000001
 30
0.0
 11
4.563786
 21
6.571000000000001
 31
0.0
  0
LINE
  5
3B5
330
18
100
AcDbEntity
  8
0
 62
     0
100
AcDbLine
 10
4.499104
 20
6.572
 30
0.0
 11
4.562674
 21
6.572
 31
0.0
  0
LINE
  5
3B6
330
18
100
AcDbEntity
  8
0
 62
     0
100
AcDbLine
 10
4.500303
 20
6.573
 30
0.0
 11
4.561429
 21
6.573
 31
0.0
  0
LINE
  5
3B7
330
18
100
AcDbEntity
  8
0
 62
     0
100
AcDbLine
 10
4.501653
 20
6.574
 30
0.0
 11
4.560021
 21
6.574
 31
0.0
  0
LINE
  5
3B8
330
18
100
AcDbEntity
  8
0
 62
     0
100
AcDbLine
 10
4.503197
 20
6.575
 30
0.0
 11
4.558401
 21
6.575
 31
0.0
  0
LINE
  5
3B9
330
18
100
AcDbEntity
  8
0
 62
     0
100
AcDbLine
 10
4.504993
 20
6.576000000000001
 30
0.0
 11
4.556563
 21
6.576000000000001
 31
0.0
  0
LINE
  5
3BA
330
18
100
AcDbEntity
  8
0
 62
     0
100
AcDbLine
 10
4.507035
 20
6.577000000000001
 30
0.0
 11
4.554486
 21
6.577000000000001
 31
0.0
  0
LINE
  5
3BB
330
18
100
AcDbEntity
  8
0
 62
     0
100
AcDbLine
 10
4.509392
 20
6.577999999999999
 30
0.0
 11
4.552077
 21
6.577999999999999
 31
0.0
  0
LINE
  5
3BC
330
18
100
AcDbEntity
  8
0
 62
     0
100
AcDbLine
 10
4.512233
 20
6.579
 30
0.0
 11
4.549151999999999
 21
6.579
 31
0.0
  0
LINE
  5
3BD
330
18
100
AcDbEntity
  8
0
 62
     0
100
AcDbLine
 10
4.515978
 20
6.58
 30
0.0
 11
4.545274
 21
6.58
 31
0.0
  0
LINE
  5
3BE
330
18
100
AcDbEntity
  8
0
 62
     0
100
AcDbLine
 10
4.521622
 20
6.581
 30
0.0
 11
4.539630000000001
 21
6.581
 31
0.0
  0
LINE
  5
3BF
330
18
100
AcDbEntity
  8
0
 62
     0
100
AcDbLine
 10
4.042343
 20
6.721
 30
0.0
 11
4.059359
 21
6.721
 31
0.0
  0
LINE
  5
3C0
330
18
100
AcDbEntity
  8
0
 62
     0
100
AcDbLine
 10
4.036498
 20
6.722
 30
0.0
 11
4.065204000000001
 21
6.722
 31
0.0
  0
LINE
  5
3C1
330
18
100
AcDbEntity
  8
0
 62
     0
100
AcDbLine
 10
4.032539
 20
6.723
 30
0.0
 11
4.069036
 21
6.723
 31
0.0
  0
LINE
  5
3C2
330
18
100
AcDbEntity
  8
0
 62
     0
100
AcDbLine
 10
4.02957
 20
6.724
 30
0.0
 11
4.071918
 21
6.724
 31
0.0
  0
LINE
  5
3C3
330
18
100
AcDbEntity
  8
0
 62
     0
100
AcDbLine
 10
4.027135
 20
6.725
 30
0.0
 11
4.074301
 21
6.725
 31
0.0
  0
LINE
  5
3C4
330
18
100
AcDbEntity
  8
0
 62
     0
100
AcDbLine
 10
4.02504
 20
6.726
 30
0.0
 11
4.07636
 21
6.726
 31
0.0
  0
LINE
  5
3C5
330
18
100
AcDbEntity
  8
0
 62
     0
100
AcDbLine
 10
4.023189
 20
6.727
 30
0.0
 11
4.078172
 21
6.727
 31
0.0
  0
LINE
  5
3C6
330
18
100
AcDbEntity
  8
0
 62
     0
100
AcDbLine
 10
4.021553
 20
6.728
 30
0.0
 11
4.079731
 21
6.728
 31
0.0
  0
LINE
  5
3C7
330
18
100
AcDbEntity
  8
0
 62
     0
100
AcDbLine
 10
4.020133
 20
6.729
 30
0.0
 11
4.081092
 21
6.729
 31
0.0
  0
LINE
  5
3C8
330
18
100
AcDbEntity
  8
0
 62
     0
100
AcDbLine
 10
4.018879
 20
6.73
 30
0.0
 11
4.082299
 21
6.73
 31
0.0
  0
LINE
  5
3C9
330
18
100
AcDbEntity
  8
0
 62
     0
100
AcDbLine
 10
4.017759
 20
6.731
 30
0.0
 11
4.083381
 21
6.731
 31
0.0
  0
LINE
  5
3CA
330
18
100
AcDbEntity
  8
0
 62
     0
100
AcDbLine
 10
4.01675
 20
6.732
 30
0.0
 11
4.084357
 21
6.732
 31
0.0
  0
LINE
  5
3CB
330
18
100
AcDbEntity
  8
0
 62
     0
100
AcDbLine
 10
4.015836
 20
6.733
 30
0.0
 11
4.085242
 21
6.733
 31
0.0
  0
LINE
  5
3CC
330
18
100
AcDbEntity
  8
0
 62
     0
100
AcDbLine
 10
4.015006
 20
6.734
 30
0.0
 11
4.086047
 21
6.734
 31
0.0
  0
LINE
  5
3CD
330
18
100
AcDbEntity
  8
0
 62
     0
100
AcDbLine
 10
4.01425
 20
6.735
 30
0.0
 11
4.086758000000001
 21
6.735
 31
0.0
  0
LINE
  5
3CE
330
18
100
AcDbEntity
  8
0
 62
     0
100
AcDbLine
 10
4.013589
 20
6.736000000000001
 30
0.0
 11
4.08734
 21
6.736000000000001
 31
0.0
  0
LINE
  5
3CF
330
18
100
AcDbEntity
  8
0
 62
     0
100
AcDbLine
 10
4.013052
 20
6.737
 30
0.0
 11
4.087809
 21
6.737
 31
0.0
  0
LINE
  5
3D0
330
18
100
AcDbEntity
  8
0
 62
     0
100
AcDbLine
 10
4.012621
 20
6.738
 30
0.0
 11
4.088178
 21
6.738
 31
0.0
  0
LINE
  5
3D1
330
18
100
AcDbEntity
  8
0
 62
     0
100
AcDbLine
 10
4.012287000000001
 20
6.739
 30
0.0
 11
4.088457
 21
6.739
 31
0.0
  0
LINE
  5
3D2
330
18
100
AcDbEntity
  8
0
 62
     0
100
AcDbLine
 10
4.01204
 20
6.74
 30
0.0
 11
4.088651000000001
 21
6.74
 31
0.0
  0
LINE
  5
3D3
330
18
100
AcDbEntity
  8
0
 62
     0
100
AcDbLine
 10
4.011876999999999
 20
6.741000000000001
 30
0.0
 11
4.088764
 21
6.741000000000001
 31
0.0
  0
LINE
  5
3D4
330
18
100
AcDbEntity
  8
0
 62
     0
100
AcDbLine
 10
4.011793
 20
6.742000000000001
 30
0.0
 11
4.088799
 21
6.742000000000001
 31
0.0
  0
LINE
  5
3D5
330
18
100
AcDbEntity
  8
0
 62
     0
100
AcDbLine
 10
4.011788
 20
6.742999999999999
 30
0.0
 11
4.088755
 21
6.742999999999999
 31
0.0
  0
LINE
  5
3D6
330
18
100
AcDbEntity
  8
0
 62
     0
100
AcDbLine
 10
4.011861
 20
6.744
 30
0.0
 11
4.088633
 21
6.744
 31
0.0
  0
LINE
  5
3D7
330
18
100
AcDbEntity
  8
0
 62
     0
100
AcDbLine
 10
4.012013
 20
6.745
 30
0.0
 11
4.088429
 21
6.745
 31
0.0
  0
LINE
  5
3D8
330
18
100
AcDbEntity
  8
0
 62
     0
100
AcDbLine
 10
4.012248000000001
 20
6.746
 30
0.0
 11
4.08814
 21
6.746
 31
0.0
  0
LINE
  5
3D9
330
18
100
AcDbEntity
  8
0
 62
     0
100
AcDbLine
 10
4.012569999999999
 20
6.747000000000001
 30
0.0
 11
4.08776
 21
6.747000000000001
 31
0.0
  0
LINE
  5
3DA
330
18
100
AcDbEntity
  8
0
 62
     0
100
AcDbLine
 10
4.012987
 20
6.747999999999999
 30
0.0
 11
4.087279
 21
6.747999999999999
 31
0.0
  0
LINE
  5
3DB
330
18
100
AcDbEntity
  8
0
 62
     0
100
AcDbLine
 10
4.013509
 20
6.749
 30
0.0
 11
4.086683
 21
6.749
 31
0.0
  0
LINE
  5
3DC
330
18
100
AcDbEntity
  8
0
 62
     0
100
AcDbLine
 10
4.014151999999999
 20
6.75
 30
0.0
 11
4.085968
 21
6.75
 31
0.0
  0
LINE
  5
3DD
330
18
100
AcDbEntity
  8
0
 62
     0
100
AcDbLine
 10
4.014917
 20
6.751
 30
0.0
 11
4.085177
 21
6.751
 31
0.0
  0
LINE
  5
3DE
330
18
100
AcDbEntity
  8
0
 62
     0
100
AcDbLine
 10
4.01576
 20
6.752000000000001
 30
0.0
 11
4.084307
 21
6.752000000000001
 31
0.0
  0
LINE
  5
3DF
330
18
100
AcDbEntity
  8
0
 62
     0
100
AcDbLine
 10
4.016687999999999
 20
6.752999999999999
 30
0.0
 11
4.083348
 21
6.752999999999999
 31
0.0
  0
LINE
  5
3E0
330
18
100
AcDbEntity
  8
0
 62
     0
100
AcDbLine
 10
4.017714
 20
6.754
 30
0.0
 11
4.082287
 21
6.754
 31
0.0
  0
LINE
  5
3E1
330
18
100
AcDbEntity
  8
0
 62
     0
100
AcDbLine
 10
4.018854
 20
6.755
 30
0.0
 11
4.081105
 21
6.755
 31
0.0
  0
LINE
  5
3E2
330
18
100
AcDbEntity
  8
0
 62
     0
100
AcDbLine
 10
4.020132
 20
6.756
 30
0.0
 11
4.079775
 21
6.756
 31
0.0
  0
LINE
  5
3E3
330
18
100
AcDbEntity
  8
0
 62
     0
100
AcDbLine
 10
4.021583000000001
 20
6.757000000000001
 30
0.0
 11
4.078256
 21
6.757000000000001
 31
0.0
  0
LINE
  5
3E4
330
18
100
AcDbEntity
  8
0
 62
     0
100
AcDbLine
 10
4.023263
 20
6.757999999999999
 30
0.0
 11
4.07651
 21
6.757999999999999
 31
0.0
  0
LINE
  5
3E5
330
18
100
AcDbEntity
  8
0
 62
     0
100
AcDbLine
 10
4.025194
 20
6.759
 30
0.0
 11
4.074549
 21
6.759
 31
0.0
  0
LINE
  5
3E6
330
18
100
AcDbEntity
  8
0
 62
     0
100
AcDbLine
 10
4.027396
 20
6.76
 30
0.0
 11
4.072303
 21
6.76
 31
0.0
  0
LINE
  5
3E7
330
18
100
AcDbEntity
  8
0
 62
     0
100
AcDbLine
 10
4.029992
 20
6.761
 30
0.0
 11
4.069642
 21
6.761
 31
0.0
  0
LINE
  5
3E8
330
18
100
AcDbEntity
  8
0
 62
     0
100
AcDbLine
 10
4.033247
 20
6.762000000000001
 30
0.0
 11
4.066264
 21
6.762000000000001
 31
0.0
  0
LINE
  5
3E9
330
18
100
AcDbEntity
  8
0
 62
     0
100
AcDbLine
 10
4.03786
 20
6.763
 30
0.0
 11
4.061597
 21
6.763
 31
0.0
  0
LINE
  5
3EA
330
18
100
AcDbEntity
  8
0
 62
     0
100
AcDbLine
 10
4.047229
 20
6.763999999999999
 30
0.0
 11
4.052228
 21
6.763999999999999
 31
0.0
  0
LINE
  5
3EB
330
18
100
AcDbEntity
  8
0
 62
     0
100
AcDbLine
 10
5.129452
 20
6.419
 30
0.0
 11
5.148645
 21
6.419
 31
0.0
  0
LINE
  5
3EC
330
18
100
AcDbEntity
  8
0
 62
     0
100
AcDbLine
 10
5.124036
 20
6.417999999999999
 30
0.0
 11
5.154063
 21
6.417999999999999
 31
0.0
  0
LINE
  5
3ED
330
18
100
AcDbEntity
  8
0
 62
     0
100
AcDbLine
 10
5.120398000000001
 20
6.417000000000001
 30
0.0
 11
5.157842
 21
6.417000000000001
 31
0.0
  0
LINE
  5
3EE
330
18
100
AcDbEntity
  8
0
 62
     0
100
AcDbLine
 10
5.117605999999999
 20
6.416
 30
0.0
 11
5.160712999999999
 21
6.416
 31
0.0
  0
LINE
  5
3EF
330
18
100
AcDbEntity
  8
0
 62
     0
100
AcDbLine
 10
5.115279
 20
6.415
 30
0.0
 11
5.163089
 21
6.415
 31
0.0
  0
LINE
  5
3F0
330
18
100
AcDbEntity
  8
0
 62
     0
100
AcDbLine
 10
5.113258999999999
 20
6.414
 30
0.0
 11
5.165144000000001
 21
6.414
 31
0.0
  0
LINE
  5
3F1
330
18
100
AcDbEntity
  8
0
 62
     0
100
AcDbLine
 10
5.111484
 20
6.412999999999999
 30
0.0
 11
5.166965
 21
6.412999999999999
 31
0.0
  0
LINE
  5
3F2
330
18
100
AcDbEntity
  8
0
 62
     0
100
AcDbLine
 10
5.109958
 20
6.412000000000001
 30
0.0
 11
5.168566
 21
6.412000000000001
 31
0.0
  0
LINE
  5
3F3
330
18
100
AcDbEntity
  8
0
 62
     0
100
AcDbLine
 10
5.108621
 20
6.411000000000001
 30
0.0
 11
5.16996
 21
6.411000000000001
 31
0.0
  0
LINE
  5
3F4
330
18
100
AcDbEntity
  8
0
 62
     0
100
AcDbLine
 10
5.107434
 20
6.41
 30
0.0
 11
5.171192
 21
6.41
 31
0.0
  0
LINE
  5
3F5
330
18
100
AcDbEntity
  8
0
 62
     0
100
AcDbLine
 10
5.106369
 20
6.409
 30
0.0
 11
5.172295
 21
6.409
 31
0.0
  0
LINE
  5
3F6
330
18
100
AcDbEntity
  8
0
 62
     0
100
AcDbLine
 10
5.105407
 20
6.408
 30
0.0
 11
5.173289
 21
6.408
 31
0.0
  0
LINE
  5
3F7
330
18
100
AcDbEntity
  8
0
 62
     0
100
AcDbLine
 10
5.104533999999999
 20
6.407
 30
0.0
 11
5.17419
 21
6.407
 31
0.0
  0
LINE
  5
3F8
330
18
100
AcDbEntity
  8
0
 62
     0
100
AcDbLine
 10
5.10374
 20
6.406000000000001
 30
0.0
 11
5.175008999999999
 21
6.406000000000001
 31
0.0
  0
LINE
  5
3F9
330
18
100
AcDbEntity
  8
0
 62
     0
100
AcDbLine
 10
5.103048
 20
6.405
 30
0.0
 11
5.175754
 21
6.405
 31
0.0
  0
LINE
  5
3FA
330
18
100
AcDbEntity
  8
0
 62
     0
100
AcDbLine
 10
5.102484
 20
6.404
 30
0.0
 11
5.176396
 21
6.404
 31
0.0
  0
LINE
  5
3FB
330
18
100
AcDbEntity
  8
0
 62
     0
100
AcDbLine
 10
5.102031
 20
6.403
 30
0.0
 11
5.176917
 21
6.403
 31
0.0
  0
LINE
  5
3FC
330
18
100
AcDbEntity
  8
0
 62
     0
100
AcDbLine
 10
5.101675
 20
6.402
 30
0.0
 11
5.177333
 21
6.402
 31
0.0
  0
LINE
  5
3FD
330
18
100
AcDbEntity
  8
0
 62
     0
100
AcDbLine
 10
5.101408999999999
 20
6.401
 30
0.0
 11
5.177654
 21
6.401
 31
0.0
  0
LINE
  5
3FE
330
18
100
AcDbEntity
  8
0
 62
     0
100
AcDbLine
 10
5.101227
 20
6.4
 30
0.0
 11
5.177887999999999
 21
6.4
 31
0.0
  0
LINE
  5
3FF
330
18
100
AcDbEntity
  8
0
 62
     0
100
AcDbLine
 10
5.101125
 20
6.399
 30
0.0
 11
5.17804
 21
6.399
 31
0.0
  0
LINE
  5
400
330
18
100
AcDbEntity
  8
0
 62
     0
100
AcDbLine
 10
5.101102
 20
6.398
 30
0.0
 11
5.178112000000001
 21
6.398
 31
0.0
  0
LINE
  5
401
330
18
100
AcDbEntity
  8
0
 62
     0
100
AcDbLine
 10
5.101157
 20
6.397
 30
0.0
 11
5.178106
 21
6.397
 31
0.0
  0
LINE
  5
402
330
18
100
AcDbEntity
  8
0
 62
     0
100
AcDbLine
 10
5.101291000000001
 20
6.396
 30
0.0
 11
5.178021
 21
6.396
 31
0.0
  0
LINE
  5
403
330
18
100
AcDbEntity
  8
0
 62
     0
100
AcDbLine
 10
5.101507
 20
6.395
 30
0.0
 11
5.177857
 21
6.395
 31
0.0
  0
LINE
  5
404
330
18
100
AcDbEntity
  8
0
 62
     0
100
AcDbLine
 10
5.101808999999999
 20
6.394
 30
0.0
 11
5.17761
 21
6.394
 31
0.0
  0
LINE
  5
405
330
18
100
AcDbEntity
  8
0
 62
     0
100
AcDbLine
 10
5.102203
 20
6.393
 30
0.0
 11
5.177274
 21
6.393
 31
0.0
  0
LINE
  5
406
330
18
100
AcDbEntity
  8
0
 62
     0
100
AcDbLine
 10
5.1027
 20
6.392
 30
0.0
 11
5.176843
 21
6.392
 31
0.0
  0
LINE
  5
407
330
18
100
AcDbEntity
  8
0
 62
     0
100
AcDbLine
 10
5.103314
 20
6.391
 30
0.0
 11
5.176304
 21
6.391
 31
0.0
  0
LINE
  5
408
330
18
100
AcDbEntity
  8
0
 62
     0
100
AcDbLine
 10
5.104042
 20
6.39
 30
0.0
 11
5.175641000000001
 21
6.39
 31
0.0
  0
LINE
  5
409
330
18
100
AcDbEntity
  8
0
 62
     0
100
AcDbLine
 10
5.104845
 20
6.388999999999999
 30
0.0
 11
5.174864
 21
6.388999999999999
 31
0.0
  0
LINE
  5
40A
330
18
100
AcDbEntity
  8
0
 62
     0
100
AcDbLine
 10
5.105727
 20
6.388
 30
0.0
 11
5.174009
 21
6.388
 31
0.0
  0
LINE
  5
40B
330
18
100
AcDbEntity
  8
0
 62
     0
100
AcDbLine
 10
5.106699
 20
6.387000000000001
 30
0.0
 11
5.173068
 21
6.387000000000001
 31
0.0
  0
LINE
  5
40C
330
18
100
AcDbEntity
  8
0
 62
     0
100
AcDbLine
 10
5.107777
 20
6.386
 30
0.0
 11
5.172026
 21
6.386
 31
0.0
  0
LINE
  5
40D
330
18
100
AcDbEntity
  8
0
 62
     0
100
AcDbLine
 10
5.108979
 20
6.385
 30
0.0
 11
5.170866999999999
 21
6.385
 31
0.0
  0
LINE
  5
40E
330
18
100
AcDbEntity
  8
0
 62
     0
100
AcDbLine
 10
5.110334
 20
6.384
 30
0.0
 11
5.169567
 21
6.384
 31
0.0
  0
LINE
  5
40F
330
18
100
AcDbEntity
  8
0
 62
     0
100
AcDbLine
 10
5.111885
 20
6.382999999999999
 30
0.0
 11
5.168086
 21
6.382999999999999
 31
0.0
  0
LINE
  5
410
330
18
100
AcDbEntity
  8
0
 62
     0
100
AcDbLine
 10
5.113662000000001
 20
6.382000000000001
 30
0.0
 11
5.166368
 21
6.382000000000001
 31
0.0
  0
LINE
  5
411
330
18
100
AcDbEntity
  8
0
 62
     0
100
AcDbLine
 10
5.11566
 20
6.381
 30
0.0
 11
5.164402
 21
6.381
 31
0.0
  0
LINE
  5
412
330
18
100
AcDbEntity
  8
0
 62
     0
100
AcDbLine
 10
5.117955
 20
6.38
 30
0.0
 11
5.162151000000001
 21
6.38
 31
0.0
  0
LINE
  5
413
330
18
100
AcDbEntity
  8
0
 62
     0
100
AcDbLine
 10
5.120696
 20
6.379
 30
0.0
 11
5.159481
 21
6.379
 31
0.0
  0
LINE
  5
414
330
18
100
AcDbEntity
  8
0
 62
     0
100
AcDbLine
 10
5.124229
 20
6.377999999999999
 30
0.0
 11
5.156086
 21
6.377999999999999
 31
0.0
  0
LINE
  5
415
330
18
100
AcDbEntity
  8
0
 62
     0
100
AcDbLine
 10
5.129159
 20
6.377000000000001
 30
0.0
 11
5.151183000000001
 21
6.377000000000001
 31
0.0
  0
LINE
  5
416
330
18
100
AcDbEntity
  8
0
 62
     0
100
AcDbLine
 10
5.673807
 20
6.316
 30
0.0
 11
5.691768
 21
6.316
 31
0.0
  0
LINE
  5
417
330
18
100
AcDbEntity
  8
0
 62
     0
100
AcDbLine
 10
5.668647
 20
6.315
 30
0.0
 11
5.696946
 21
6.315
 31
0.0
  0
LINE
  5
418
330
18
100
AcDbEntity
  8
0
 62
     0
100
AcDbLine
 10
5.665249
 20
6.314
 30
0.0
 11
5.700479000000001
 21
6.314
 31
0.0
  0
LINE
  5
419
330
18
100
AcDbEntity
  8
0
 62
     0
100
AcDbLine
 10
5.662636
 20
6.313
 30
0.0
 11
5.70316
 21
6.313
 31
0.0
  0
LINE
  5
41A
330
18
100
AcDbEntity
  8
0
 62
     0
100
AcDbLine
 10
5.660457
 20
6.312
 30
0.0
 11
5.705379
 21
6.312
 31
0.0
  0
LINE
  5
41B
330
18
100
AcDbEntity
  8
0
 62
     0
100
AcDbLine
 10
5.658572
 20
6.311
 30
0.0
 11
5.707297000000001
 21
6.311
 31
0.0
  0
LINE
  5
41C
330
18
100
AcDbEntity
  8
0
 62
     0
100
AcDbLine
 10
5.656968
 20
6.31
 30
0.0
 11
5.708975
 21
6.31
 31
0.0
  0
LINE
  5
41D
330
18
100
AcDbEntity
  8
0
 62
     0
100
AcDbLine
 10
5.655594000000001
 20
6.309
 30
0.0
 11
5.71041
 21
6.309
 31
0.0
  0
LINE
  5
41E
330
18
100
AcDbEntity
  8
0
 62
     0
100
AcDbLine
 10
5.654391
 20
6.308
 30
0.0
 11
5.711659
 21
6.308
 31
0.0
  0
LINE
  5
41F
330
18
100
AcDbEntity
  8
0
 62
     0
100
AcDbLine
 10
5.653326
 20
6.307
 30
0.0
 11
5.712762000000001
 21
6.307
 31
0.0
  0
LINE
  5
420
330
18
100
AcDbEntity
  8
0
 62
     0
100
AcDbLine
 10
5.652374
 20
6.306
 30
0.0
 11
5.713744999999999
 21
6.306
 31
0.0
  0
LINE
  5
421
330
18
100
AcDbEntity
  8
0
 62
     0
100
AcDbLine
 10
5.65152
 20
6.305
 30
0.0
 11
5.714627
 21
6.305
 31
0.0
  0
LINE
  5
422
330
18
100
AcDbEntity
  8
0
 62
     0
100
AcDbLine
 10
5.650753
 20
6.303999999999999
 30
0.0
 11
5.71542
 21
6.303999999999999
 31
0.0
  0
LINE
  5
423
330
18
100
AcDbEntity
  8
0
 62
     0
100
AcDbLine
 10
5.650119999999999
 20
6.303
 30
0.0
 11
5.716126
 21
6.303
 31
0.0
  0
LINE
  5
424
330
18
100
AcDbEntity
  8
0
 62
     0
100
AcDbLine
 10
5.649619
 20
6.302000000000001
 30
0.0
 11
5.716699
 21
6.302000000000001
 31
0.0
  0
LINE
  5
425
330
18
100
AcDbEntity
  8
0
 62
     0
100
AcDbLine
 10
5.649232
 20
6.301
 30
0.0
 11
5.717148
 21
6.301
 31
0.0
  0
LINE
  5
426
330
18
100
AcDbEntity
  8
0
 62
     0
100
AcDbLine
 10
5.648947
 20
6.3
 30
0.0
 11
5.71749
 21
6.3
 31
0.0
  0
LINE
  5
427
330
18
100
AcDbEntity
  8
0
 62
     0
100
AcDbLine
 10
5.648755
 20
6.299
 30
0.0
 11
5.717734
 21
6.299
 31
0.0
  0
LINE
  5
428
330
18
100
AcDbEntity
  8
0
 62
     0
100
AcDbLine
 10
5.648654000000001
 20
6.297999999999999
 30
0.0
 11
5.717885
 21
6.297999999999999
 31
0.0
  0
LINE
  5
429
330
18
100
AcDbEntity
  8
0
 62
     0
100
AcDbLine
 10
5.648639
 20
6.297000000000001
 30
0.0
 11
5.717949
 21
6.297000000000001
 31
0.0
  0
LINE
  5
42A
330
18
100
AcDbEntity
  8
0
 62
     0
100
AcDbLine
 10
5.648712000000001
 20
6.296
 30
0.0
 11
5.717925
 21
6.296
 31
0.0
  0
LINE
  5
42B
330
18
100
AcDbEntity
  8
0
 62
     0
100
AcDbLine
 10
5.648873
 20
6.295
 30
0.0
 11
5.717814
 21
6.295
 31
0.0
  0
LINE
  5
42C
330
18
100
AcDbEntity
  8
0
 62
     0
100
AcDbLine
 10
5.649126
 20
6.294
 30
0.0
 11
5.717614
 21
6.294
 31
0.0
  0
LINE
  5
42D
330
18
100
AcDbEntity
  8
0
 62
     0
100
AcDbLine
 10
5.649479
 20
6.292999999999999
 30
0.0
 11
5.717318
 21
6.292999999999999
 31
0.0
  0
LINE
  5
42E
330
18
100
AcDbEntity
  8
0
 62
     0
100
AcDbLine
 10
5.64994
 20
6.292000000000001
 30
0.0
 11
5.716919
 21
6.292000000000001
 31
0.0
  0
LINE
  5
42F
330
18
100
AcDbEntity
  8
0
 62
     0
100
AcDbLine
 10
5.650526999999999
 20
6.291
 30
0.0
 11
5.716406
 21
6.291
 31
0.0
  0
LINE
  5
430
330
18
100
AcDbEntity
  8
0
 62
     0
100
AcDbLine
 10
5.651244
 20
6.29
 30
0.0
 11
5.715758
 21
6.29
 31
0.0
  0
LINE
  5
431
330
18
100
AcDbEntity
  8
0
 62
     0
100
AcDbLine
 10
5.652047000000001
 20
6.289
 30
0.0
 11
5.714981
 21
6.289
 31
0.0
  0
LINE
  5
432
330
18
100
AcDbEntity
  8
0
 62
     0
100
AcDbLine
 10
5.652938
 20
6.287999999999999
 30
0.0
 11
5.714117
 21
6.287999999999999
 31
0.0
  0
LINE
  5
433
330
18
100
AcDbEntity
  8
0
 62
     0
100
AcDbLine
 10
5.653933
 20
6.287000000000001
 30
0.0
 11
5.713154
 21
6.287000000000001
 31
0.0
  0
LINE
  5
434
330
18
100
AcDbEntity
  8
0
 62
     0
100
AcDbLine
 10
5.65505
 20
6.286000000000001
 30
0.0
 11
5.712076000000001
 21
6.286000000000001
 31
0.0
  0
LINE
  5
435
330
18
100
AcDbEntity
  8
0
 62
     0
100
AcDbLine
 10
5.656316
 20
6.285
 30
0.0
 11
5.710857
 21
6.285
 31
0.0
  0
LINE
  5
436
330
18
100
AcDbEntity
  8
0
 62
     0
100
AcDbLine
 10
5.657774
 20
6.284
 30
0.0
 11
5.709462
 21
6.284
 31
0.0
  0
LINE
  5
437
330
18
100
AcDbEntity
  8
0
 62
     0
100
AcDbLine
 10
5.659478
 20
6.283
 30
0.0
 11
5.70783
 21
6.283
 31
0.0
  0
LINE
  5
438
330
18
100
AcDbEntity
  8
0
 62
     0
100
AcDbLine
 10
5.661422
 20
6.282
 30
0.0
 11
5.705916
 21
6.282
 31
0.0
  0
LINE
  5
439
330
18
100
AcDbEntity
  8
0
 62
     0
100
AcDbLine
 10
5.66368
 20
6.281000000000001
 30
0.0
 11
5.703701000000001
 21
6.281000000000001
 31
0.0
  0
LINE
  5
43A
330
18
100
AcDbEntity
  8
0
 62
     0
100
AcDbLine
 10
5.666424
 20
6.28
 30
0.0
 11
5.701028
 21
6.28
 31
0.0
  0
LINE
  5
43B
330
18
100
AcDbEntity
  8
0
 62
     0
100
AcDbLine
 10
5.670086
 20
6.279
 30
0.0
 11
5.697505000000001
 21
6.279
 31
0.0
  0
LINE
  5
43C
330
18
100
AcDbEntity
  8
0
 62
     0
100
AcDbLine
 10
5.675551000000001
 20
6.278
 30
0.0
 11
5.692044999999999
 21
6.278
 31
0.0
  0
LINE
  5
43D
330
18
100
AcDbEntity
  8
0
 62
     0
100
AcDbLine
 10
4.076832
 20
4.663
 30
0.0
 11
4.123583
 21
4.663
 31
0.0
  0
LINE
  5
43E
330
18
100
AcDbEntity
  8
0
 62
     0
100
AcDbLine
 10
4.077228
 20
4.664
 30
0.0
 11
4.123958999999999
 21
4.664
 31
0.0
  0
LINE
  5
43F
330
18
100
AcDbEntity
  8
0
 62
     0
100
AcDbLine
 10
4.077657
 20
4.665
 30
0.0
 11
4.124303
 21
4.665
 31
0.0
  0
LINE
  5
440
330
18
100
AcDbEntity
  8
0
 62
     0
100
AcDbLine
 10
4.078112
 20
4.666
 30
0.0
 11
4.124615
 21
4.666
 31
0.0
  0
LINE
  5
441
330
18
100
AcDbEntity
  8
0
 62
     0
100
AcDbLine
 10
4.078592
 20
4.667
 30
0.0
 11
4.124895
 21
4.667
 31
0.0
  0
LINE
  5
442
330
18
100
AcDbEntity
  8
0
 62
     0
100
AcDbLine
 10
4.079098999999999
 20
4.668
 30
0.0
 11
4.125144000000001
 21
4.668
 31
0.0
  0
LINE
  5
443
330
18
100
AcDbEntity
  8
0
 62
     0
100
AcDbLine
 10
4.079633
 20
4.669
 30
0.0
 11
4.125363
 21
4.669
 31
0.0
  0
LINE
  5
444
330
18
100
AcDbEntity
  8
0
 62
     0
100
AcDbLine
 10
4.080195
 20
4.67
 30
0.0
 11
4.125553
 21
4.67
 31
0.0
  0
LINE
  5
445
330
18
100
AcDbEntity
  8
0
 62
     0
100
AcDbLine
 10
4.080787
 20
4.671
 30
0.0
 11
4.125714
 21
4.671
 31
0.0
  0
LINE
  5
446
330
18
100
AcDbEntity
  8
0
 62
     0
100
AcDbLine
 10
4.08141
 20
4.672
 30
0.0
 11
4.125846
 21
4.672
 31
0.0
  0
LINE
  5
447
330
18
100
AcDbEntity
  8
0
 62
     0
100
AcDbLine
 10
4.082064
 20
4.673
 30
0.0
 11
4.12595
 21
4.673
 31
0.0
  0
LINE
  5
448
330
18
100
AcDbEntity
  8
0
 62
     0
100
AcDbLine
 10
4.082751999999999
 20
4.674
 30
0.0
 11
4.126016
 21
4.674
 31
0.0
  0
LINE
  5
449
330
18
100
AcDbEntity
  8
0
 62
     0
100
AcDbLine
 10
4.083475
 20
4.675
 30
0.0
 11
4.126041000000001
 21
4.675
 31
0.0
  0
LINE
  5
44A
330
18
100
AcDbEntity
  8
0
 62
     0
100
AcDbLine
 10
4.084235
 20
4.676
 30
0.0
 11
4.126025
 21
4.676
 31
0.0
  0
LINE
  5
44B
330
18
100
AcDbEntity
  8
0
 62
     0
100
AcDbLine
 10
4.085033999999999
 20
4.677
 30
0.0
 11
4.125969
 21
4.677
 31
0.0
  0
LINE
  5
44C
330
18
100
AcDbEntity
  8
0
 62
     0
100
AcDbLine
 10
4.085874
 20
4.678
 30
0.0
 11
4.12587
 21
4.678
 31
0.0
  0
LINE
  5
44D
330
18
100
AcDbEntity
  8
0
 62
     0
100
AcDbLine
 10
4.086759
 20
4.678999999999999
 30
0.0
 11
4.125731
 21
4.678999999999999
 31
0.0
  0
LINE
  5
44E
330
18
100
AcDbEntity
  8
0
 62
     0
100
AcDbLine
 10
4.08769
 20
4.68
 30
0.0
 11
4.125548
 21
4.68
 31
0.0
  0
LINE
  5
44F
330
18
100
AcDbEntity
  8
0
 62
     0
100
AcDbLine
 10
4.088673
 20
4.681
 30
0.0
 11
4.125322
 21
4.681
 31
0.0
  0
LINE
  5
450
330
18
100
AcDbEntity
  8
0
 62
     0
100
AcDbLine
 10
4.08971
 20
4.682
 30
0.0
 11
4.125051
 21
4.682
 31
0.0
  0
LINE
  5
451
330
18
100
AcDbEntity
  8
0
 62
     0
100
AcDbLine
 10
4.090807
 20
4.683
 30
0.0
 11
4.124733999999999
 21
4.683
 31
0.0
  0
LINE
  5
452
330
18
100
AcDbEntity
  8
0
 62
     0
100
AcDbLine
 10
4.091969000000001
 20
4.684
 30
0.0
 11
4.12435
 21
4.684
 31
0.0
  0
LINE
  5
453
330
18
100
AcDbEntity
  8
0
 62
     0
100
AcDbLine
 10
4.093205
 20
4.685
 30
0.0
 11
4.123867
 21
4.685
 31
0.0
  0
LINE
  5
454
330
18
100
AcDbEntity
  8
0
 62
     0
100
AcDbLine
 10
4.094538
 20
4.686
 30
0.0
 11
4.123273
 21
4.686
 31
0.0
  0
LINE
  5
455
330
18
100
AcDbEntity
  8
0
 62
     0
100
AcDbLine
 10
4.096013
 20
4.687
 30
0.0
 11
4.122548999999999
 21
4.687
 31
0.0
  0
LINE
  5
456
330
18
100
AcDbEntity
  8
0
 62
     0
100
AcDbLine
 10
4.097666
 20
4.688
 30
0.0
 11
4.121664
 21
4.688
 31
0.0
  0
LINE
  5
457
330
18
100
AcDbEntity
  8
0
 62
     0
100
AcDbLine
 10
4.09955
 20
4.689
 30
0.0
 11
4.120569000000001
 21
4.689
 31
0.0
  0
LINE
  5
458
330
18
100
AcDbEntity
  8
0
 62
     0
100
AcDbLine
 10
4.101761
 20
4.69
 30
0.0
 11
4.119162
 21
4.69
 31
0.0
  0
LINE
  5
459
330
18
100
AcDbEntity
  8
0
 62
     0
100
AcDbLine
 10
4.104559
 20
4.691
 30
0.0
 11
4.117187
 21
4.691
 31
0.0
  0
LINE
  5
45A
330
18
100
AcDbEntity
  8
0
 62
     0
100
AcDbLine
 10
4.076469
 20
4.662
 30
0.0
 11
4.123171
 21
4.662
 31
0.0
  0
LINE
  5
45B
330
18
100
AcDbEntity
  8
0
 62
     0
100
AcDbLine
 10
4.076139
 20
4.661000000000001
 30
0.0
 11
4.122731
 21
4.661000000000001
 31
0.0
  0
LINE
  5
45C
330
18
100
AcDbEntity
  8
0
 62
     0
100
AcDbLine
 10
4.075841000000001
 20
4.66
 30
0.0
 11
4.122266000000001
 21
4.66
 31
0.0
  0
LINE
  5
45D
330
18
100
AcDbEntity
  8
0
 62
     0
100
AcDbLine
 10
4.075575
 20
4.659
 30
0.0
 11
4.121775
 21
4.659
 31
0.0
  0
LINE
  5
45E
330
18
100
AcDbEntity
  8
0
 62
     0
100
AcDbLine
 10
4.075338
 20
4.658
 30
0.0
 11
4.121256
 21
4.658
 31
0.0
  0
LINE
  5
45F
330
18
100
AcDbEntity
  8
0
 62
     0
100
AcDbLine
 10
4.075131
 20
4.657
 30
0.0
 11
4.12071
 21
4.657
 31
0.0
  0
LINE
  5
460
330
18
100
AcDbEntity
  8
0
 62
     0
100
AcDbLine
 10
4.074954
 20
4.656000000000001
 30
0.0
 11
4.120134999999999
 21
4.656000000000001
 31
0.0
  0
LINE
  5
461
330
18
100
AcDbEntity
  8
0
 62
     0
100
AcDbLine
 10
4.074805000000001
 20
4.655
 30
0.0
 11
4.119530999999999
 21
4.655
 31
0.0
  0
LINE
  5
462
330
18
100
AcDbEntity
  8
0
 62
     0
100
AcDbLine
 10
4.074685
 20
4.654
 30
0.0
 11
4.118894
 21
4.654
 31
0.0
  0
LINE
  5
463
330
18
100
AcDbEntity
  8
0
 62
     0
100
AcDbLine
 10
4.074596
 20
4.653000000000001
 30
0.0
 11
4.118226
 21
4.653000000000001
 31
0.0
  0
LINE
  5
464
330
18
100
AcDbEntity
  8
0
 62
     0
100
AcDbLine
 10
4.074547
 20
4.652
 30
0.0
 11
4.117523
 21
4.652
 31
0.0
  0
LINE
  5
465
330
18
100
AcDbEntity
  8
0
 62
     0
100
AcDbLine
 10
4.07454
 20
4.651
 30
0.0
 11
4.116785
 21
4.651
 31
0.0
  0
LINE
  5
466
330
18
100
AcDbEntity
  8
0
 62
     0
100
AcDbLine
 10
4.074573
 20
4.65
 30
0.0
 11
4.116008
 21
4.65
 31
0.0
  0
LINE
  5
467
330
18
100
AcDbEntity
  8
0
 62
     0
100
AcDbLine
 10
4.074647
 20
4.649
 30
0.0
 11
4.115192
 21
4.649
 31
0.0
  0
LINE
  5
468
330
18
100
AcDbEntity
  8
0
 62
     0
100
AcDbLine
 10
4.074763
 20
4.648
 30
0.0
 11
4.114334
 21
4.648
 31
0.0
  0
LINE
  5
469
330
18
100
AcDbEntity
  8
0
 62
     0
100
AcDbLine
 10
4.074921
 20
4.647
 30
0.0
 11
4.11343
 21
4.647
 31
0.0
  0
LINE
  5
46A
330
18
100
AcDbEntity
  8
0
 62
     0
100
AcDbLine
 10
4.075122
 20
4.646
 30
0.0
 11
4.112476999999999
 21
4.646
 31
0.0
  0
LINE
  5
46B
330
18
100
AcDbEntity
  8
0
 62
     0
100
AcDbLine
 10
4.075367
 20
4.645
 30
0.0
 11
4.111472
 21
4.645
 31
0.0
  0
LINE
  5
46C
330
18
100
AcDbEntity
  8
0
 62
     0
100
AcDbLine
 10
4.075657
 20
4.644
 30
0.0
 11
4.11041
 21
4.644
 31
0.0
  0
LINE
  5
46D
330
18
100
AcDbEntity
  8
0
 62
     0
100
AcDbLine
 10
4.075997
 20
4.643
 30
0.0
 11
4.109286
 21
4.643
 31
0.0
  0
LINE
  5
46E
330
18
100
AcDbEntity
  8
0
 62
     0
100
AcDbLine
 10
4.076422
 20
4.642
 30
0.0
 11
4.108093
 21
4.642
 31
0.0
  0
LINE
  5
46F
330
18
100
AcDbEntity
  8
0
 62
     0
100
AcDbLine
 10
4.07695
 20
4.641
 30
0.0
 11
4.106822
 21
4.641
 31
0.0
  0
LINE
  5
470
330
18
100
AcDbEntity
  8
0
 62
     0
100
AcDbLine
 10
4.077597
 20
4.64
 30
0.0
 11
4.105432
 21
4.64
 31
0.0
  0
LINE
  5
471
330
18
100
AcDbEntity
  8
0
 62
     0
100
AcDbLine
 10
4.078385
 20
4.638999999999999
 30
0.0
 11
4.103886
 21
4.638999999999999
 31
0.0
  0
LINE
  5
472
330
18
100
AcDbEntity
  8
0
 62
     0
100
AcDbLine
 10
4.079351
 20
4.638
 30
0.0
 11
4.102144
 21
4.638
 31
0.0
  0
LINE
  5
473
330
18
100
AcDbEntity
  8
0
 62
     0
100
AcDbLine
 10
4.080562000000001
 20
4.637
 30
0.0
 11
4.100136
 21
4.637
 31
0.0
  0
LINE
  5
474
330
18
100
AcDbEntity
  8
0
 62
     0
100
AcDbLine
 10
4.08216
 20
4.636
 30
0.0
 11
4.097737
 21
4.636
 31
0.0
  0
LINE
  5
475
330
18
100
AcDbEntity
  8
0
 62
     0
100
AcDbLine
 10
4.084613
 20
4.635
 30
0.0
 11
4.094358000000001
 21
4.635
 31
0.0
  0
ENDSEC
  0
SECTION
  2
OBJECTS
  0
DICTIONARY
  5
C
330
0
100
AcDbDictionary
281
     1
  3
ACAD_COLOR
350
47B
  3
ACAD_GROUP
350
D
  3
ACAD_LAYOUT
350
15
  3
ACAD_MATERIAL
350
47D
  3
ACAD_MLINESTYLE
350
12
  3
ACAD_PLOTSETTINGS
350
14
  3
ACAD_PLOTSTYLENAME
350
E
  3
ACDBHEADERROUNDTRIPXREC
350
47A
  0
DICTIONARY
  5
47B
102
{ACAD_REACTORS
330
C
102
}
330
C
100
AcDbDictionary
281
     1
  0
DICTIONARY
  5
D
102
{ACAD_REACTORS
330
C
102
}
330
C
100
AcDbDictionary
281
     1
  0
DICTIONARY
  5
15
102
{ACAD_REACTORS
330
C
102
}
330
C
100
AcDbDictionary
281
     1
  3
Layout1
350
17
  3
Model
350
19
  0
DICTIONARY
  5
47D
102
{ACAD_REACTORS
330
C
102
}
330
C
100
AcDbDictionary
281
     1
  0
DICTIONARY
  5
12
102
{ACAD_REACTORS
330
C
102
}
330
C
100
AcDbDictionary
281
     1
  3
Standard
350
13
  0
DICTIONARY
  5
14
102
{ACAD_REACTORS
330
C
102
}
330
C
100
AcDbDictionary
281
     1
  0
ACDBDICTIONARYWDFLT
  5
E
102
{ACAD_REACTORS
330
C
102
}
330
C
100
AcDbDictionary
281
     1
  3
Normal
350
F
100
AcDbDictionaryWithDefault
340
F
  0
DICTIONARY
  5
47A
102
{ACAD_REACTORS
330
C
102
}
330
C
100
AcDbDictionary
281
     1
  3
COLORDICT
350
47C
  3
MATERIALDICT
350
47E
  0
LAYOUT
  5
17
102
{ACAD_REACTORS
330
15
102
}
102
{ACAD_XDICTIONARY
360
47F
102
}
330
15
100
AcDbPlotSettings
  1

  2

  4

  6

 40
0.0
 41
0.0
 42
0.0
 43
0.0
 44
0.0
 45
0.0
 46
0.0
 47
0.0
 48
0.0
 49
0.0
140
0.0
141
0.0
142
1.0
143
1.0
 70
   688
 72
     0
 73
     0
 74
     5
  7

 75
    16
147
1.0
148
0.0
149
0.0
100
AcDbLayout
  1
Layout1
 70
     1
 71
     1
 10
0.0
 20
0.0
 11
12.0
 21
9.0
 12
0.0
 22
0.0
 32
0.0
 14
1.000000000000000E+20
 24
1.000000000000000E+20
 34
1.000000000000000E+20
 15
-1.000000000000000E+20
 25
-1.000000000000000E+20
 35
-1.000000000000000E+20
146
0.0
 13
0.0
 23
0.0
 33
0.0
 16
1.0
 26
0.0
 36
0.0
 17
0.0
 27
1.0
 37
0.0
 76
     0
330
16
  0
LAYOUT
  5
19
102
{ACAD_REACTORS
330
15
102
}
102
{ACAD_XDICTIONARY
360
481
102
}
330
15
100
AcDbPlotSettings
  1

  2

  4

  6

 40
0.0
 41
0.0
 42
0.0
 43
0.0
 44
0.0
 45
0.0
 46
0.0
 47
0.0
 48
0.0
 49
0.0
140
0.0
141
0.0
142
1.0
143
1.0
 70
  1712
 72
     0
 73
     0
 74
     0
  7

 75
     0
147
1.0
148
0.0
149
0.0
100
AcDbLayout
  1
Model
 70
     1
 71
     0
 10
0.0
 20
0.0
 11
0.0
 21
0.0
 12
0.0
 22
0.0
 32
0.0
 14
0.0
 24
0.0
 34
0.0
 15
0.0
 25
0.0
 35
0.0
146
0.0
 13
0.0
 23
0.0
 33
0.0
 16
1.0
 26
0.0
 36
0.0
 17
0.0
 27
1.0
 37
0.0
 76
     0
330
18
  0
MLINESTYLE
  5
13
102
{ACAD_REACTORS
330
12
102
}
330
12
100
AcDbMlineStyle
  2
Standard
 70
     0
  3

 62
   256
 51
90.0
 52
90.0
 71
     2
 49
0.5
 62
   256
  6
BYLAYER
 49
-0.5
 62
   256
  6
BYLAYER
  0
ACDBPLACEHOLDER
  5
F
102
{ACAD_REACTORS
330
E
102
}
330
E
  0
XRECORD
  5
47C
102
{ACAD_REACTORS
330
47A
102
}
330
47A
100
AcDbXrecord
340
47B
  0
XRECORD
  5
47E
102
{ACAD_REACTORS
330
47A
102
}
330
47A
100
AcDbXrecord
340
47D
  0
DICTIONARY
  5
47F
330
17
100
AcDbDictionary
280
     1
281
     1
  3
ACAD_XREC_ROUNDTRIP
360
480
  0
DICTIONARY
  5
481
330
19
100
AcDbDictionary
280
     1
281
     1
  3
ACAD_XREC_ROUNDTRIP
360
482
  0
XRECORD
  5
480
102
{ACAD_REACTORS
330
47F
102
}
330
47F
100
AcDbXrecord
102
SHADEPLOT
 70
     0
102
SHADEPLOTRESLEVEL
 70
     0
102
SHADEPLOTCUSTOMDPI
 70
     0
  0
XRECORD
  5
482
102
{ACAD_REACTORS
330
481
102
}
330
481
100
AcDbXrecord
102
SHADEPLOT
 70
     0
102
SHADEPLOTRESLEVEL
 70
     0
102
SHADEPLOTCUSTOMDPI
 70
     0
  0
ENDSEC
  0
EOF
