  0
SECTION
  2
HEADER
  9
$ACADVER
  1
AC1015
  9
$ACADMAINTVER
 70
     6
  9
$DWGCODEPAGE
  3
ISO8859-1
  9
$INSBASE
 10
0.0
 20
0.0
 30
0.0
  9
$EXTMIN
 10
1.391694
 20
1.656448
 30
0.0
  9
$EXTMAX
 10
8.268291
 20
7.688774
 30
0.0
  9
$LIMMIN
 10
0.0
 20
0.0
  9
$LIMMAX
 10
8.5
 20
11.0
  9
$ORTHOMODE
 70
     0
  9
$REGENMODE
 70
     0
  9
$FILLMODE
 70
     1
  9
$QTEXTMODE
 70
     0
  9
$MIRRTEXT
 70
     1
  9
$LTSCALE
 40
0.2
  9
$ATTMODE
 70
     1
  9
$TEXTSIZE
 40
0.22
  9
$TRACEWID
 40
0.05
  9
$TEXTSTYLE
  7
STANDARD
  9
$CLAYER
  8
0
  9
$CELTYPE
  6
ByLayer
  9
$CECOLOR
 62
   256
  9
$CELTSCALE
 40
1.0
  9
$DISPSILH
 70
     0
  9
$DIMSCALE
 40
1.0
  9
$DIMASZ
 40
0.2
  9
$DIMEXO
 40
0.0625
  9
$DIMDLI
 40
0.38
  9
$DIMRND
 40
0.0
  9
$DIMDLE
 40
0.0
  9
$DIMEXE
 40
0.075
  9
$DIMTP
 40
0.0
  9
$DIMTM
 40
0.0
  9
$DIMTXT
 40
0.1
  9
$DIMCEN
 40
0.09
  9
$DIMTSZ
 40
0.0
  9
$DIMTOL
 70
     0
  9
$DIMLIM
 70
     0
  9
$DIMTIH
 70
     0
  9
$DIMTOH
 70
     0
  9
$DIMSE1
 70
     0
  9
$DIMSE2
 70
     0
  9
$DIMTAD
 70
     1
  9
$DIMZIN
 70
     0
  9
$DIMBLK
  1

  9
$DIMASO
 70
     0
  9
$DIMSHO
 70
     1
  9
$DIMPOST
  1

  9
$DIMAPOST
  1

  9
$DIMALT
 70
     0
  9
$DIMALTD
 70
     2
  9
$DIMALTF
 40
25.4
  9
$DIMLFAC
 40
1.0
  9
$DIMTOFL
 70
     0
  9
$DIMTVP
 40
0.0
  9
$DIMTIX
 70
     0
  9
$DIMSOXD
 70
     0
  9
$DIMSAH
 70
     0
  9
$DIMBLK1
  1

  9
$DIMBLK2
  1

  9
$DIMSTYLE
  2
Standard
  9
$DIMCLRD
 70
     0
  9
$DIMCLRE
 70
     0
  9
$DIMCLRT
 70
     0
  9
$DIMTFAC
 40
1.0
  9
$DIMGAP
 40
0.09
  9
$DIMJUST
 70
     0
  9
$DIMSD1
 70
     0
  9
$DIMSD2
 70
     0
  9
$DIMTOLJ
 70
     1
  9
$DIMTZIN
 70
     0
  9
$DIMALTZ
 70
     0
  9
$DIMALTTZ
 70
     0
  9
$DIMUPT
 70
     0
  9
$DIMDEC
 70
     4
  9
$DIMTDEC
 70
     4
  9
$DIMALTU
 70
     2
  9
$DIMALTTD
 70
     2
  9
$DIMTXSTY
  7
STANDARD
  9
$DIMAUNIT
 70
     0
  9
$DIMADEC
 70
     0
  9
$DIMALTRND
 40
0.0
  9
$DIMAZIN
 70
     0
  9
$DIMDSEP
 70
    46
  9
$DIMATFIT
 70
     3
  9
$DIMFRAC
 70
     0
  9
$DIMLDRBLK
  1

  9
$DIMLUNIT
 70
     2
  9
$DIMLWD
 70
    -2
  9
$DIMLWE
 70
    -2
  9
$DIMTMOVE
 70
     0
  9
$LUNITS
 70
     2
  9
$LUPREC
 70
     4
  9
$SKETCHINC
 40
0.1
  9
$FILLETRAD
 40
0.0
  9
$AUNITS
 70
     0
  9
$AUPREC
 70
     0
  9
$MENU
  1
acad
  9
$ELEVATION
 40
0.0
  9
$PELEVATION
 40
0.0
  9
$THICKNESS
 40
0.0
  9
$LIMCHECK
 70
     0
  9
$CHAMFERA
 40
0.0
  9
$CHAMFERB
 40
0.0
  9
$CHAMFERC
 40
1.0
  9
$CHAMFERD
 40
0.0
  9
$SKPOLY
 70
     0
  9
$TDCREATE
 40
2453955.562526343
  9
$TDUCREATE
 40
2453955.895859676
  9
$TDUPDATE
 40
2453955.604193021
  9
$TDUUPDATE
 40
2453955.895859688
  9
$TDINDWG
 40
0.0000000116
  9
$TDUSRTIMER
 40
0.0000000116
  9
$USRTIMER
 70
     1
  9
$ANGBASE
 50
0.0
  9
$ANGDIR
 70
     0
  9
$PDMODE
 70
     0
  9
$PDSIZE
 40
0.0
  9
$PLINEWID
 40
0.0
  9
$SPLFRAME
 70
     0
  9
$SPLINETYPE
 70
     6
  9
$SPLINESEGS
 70
     8
  9
$HANDSEED
  5
51D
  9
$SURFTAB1
 70
     6
  9
$SURFTAB2
 70
     6
  9
$SURFTYPE
 70
     6
  9
$SURFU
 70
     6
  9
$SURFV
 70
     6
  9
$UCSBASE
  2

  9
$UCSNAME
  2

  9
$UCSORG
 10
0.0
 20
0.0
 30
0.0
  9
$UCSXDIR
 10
1.0
 20
0.0
 30
0.0
  9
$UCSYDIR
 10
0.0
 20
1.0
 30
0.0
  9
$UCSORTHOREF
  2

  9
$UCSORTHOVIEW
 70
     0
  9
$UCSORGTOP
 10
0.0
 20
0.0
 30
0.0
  9
$UCSORGBOTTOM
 10
0.0
 20
0.0
 30
0.0
  9
$UCSORGLEFT
 10
0.0
 20
0.0
 30
0.0
  9
$UCSORGRIGHT
 10
0.0
 20
0.0
 30
0.0
  9
$UCSORGFRONT
 10
0.0
 20
0.0
 30
0.0
  9
$UCSORGBACK
 10
0.0
 20
0.0
 30
0.0
  9
$PUCSBASE
  2

  9
$PUCSNAME
  2

  9
$PUCSORG
 10
0.0
 20
0.0
 30
0.0
  9
$PUCSXDIR
 10
1.0
 20
0.0
 30
0.0
  9
$PUCSYDIR
 10
0.0
 20
1.0
 30
0.0
  9
$PUCSORTHOREF
  2

  9
$PUCSORTHOVIEW
 70
     0
  9
$PUCSORGTOP
 10
0.0
 20
0.0
 30
0.0
  9
$PUCSORGBOTTOM
 10
0.0
 20
0.0
 30
0.0
  9
$PUCSORGLEFT
 10
0.0
 20
0.0
 30
0.0
  9
$PUCSORGRIGHT
 10
0.0
 20
0.0
 30
0.0
  9
$PUCSORGFRONT
 10
0.0
 20
0.0
 30
0.0
  9
$PUCSORGBACK
 10
0.0
 20
0.0
 30
0.0
  9
$USERI1
 70
     0
  9
$USERI2
 70
     0
  9
$USERI3
 70
     0
  9
$USERI4
 70
     0
  9
$USERI5
 70
     0
  9
$USERR1
 40
0.0
  9
$USERR2
 40
0.0
  9
$USERR3
 40
0.0
  9
$USERR4
 40
0.0
  9
$USERR5
 40
0.0
  9
$WORLDVIEW
 70
     1
  9
$SHADEDGE
 70
     3
  9
$SHADEDIF
 70
    70
  9
$TILEMODE
 70
     1
  9
$MAXACTVP
 70
    16
  9
$PINSBASE
 10
0.0
 20
0.0
 30
0.0
  9
$PLIMCHECK
 70
     0
  9
$PEXTMIN
 10
1.000000000000000E+20
 20
1.000000000000000E+20
 30
1.000000000000000E+20
  9
$PEXTMAX
 10
-1.000000000000000E+20
 20
-1.000000000000000E+20
 30
-1.000000000000000E+20
  9
$PLIMMIN
 10
0.0
 20
0.0
  9
$PLIMMAX
 10
12.0
 20
9.0
  9
$UNITMODE
 70
     0
  9
$VISRETAIN
 70
     0
  9
$PLINEGEN
 70
     0
  9
$PSLTSCALE
 70
     1
  9
$TREEDEPTH
 70
  3020
  9
$CMLSTYLE
  2
Standard
  9
$CMLJUST
 70
     0
  9
$CMLSCALE
 40
1.0
  9
$PROXYGRAPHICS
 70
     1
  9
$MEASUREMENT
 70
     0
  9
$CELWEIGHT
370
    -1
  9
$ENDCAPS
280
     0
  9
$JOINSTYLE
280
     0
  9
$LWDISPLAY
290
     0
  9
$INSUNITS
 70
     1
  9
$HYPERLINKBASE
  1

  9
$STYLESHEET
  1

  9
$XEDIT
290
     1
  9
$CEPSNTYPE
380
     0
  9
$PSTYLEMODE
290
     0
  9
$FINGERPRINTGUID
  2
{FAEB1C30-E019-11D5-929B-00C0DF256EC4}
  9
$VERSIONGUID
  2
{FAEB1C32-E019-11D5-929B-00C0DF256EC4}
  9
$EXTNAMES
290
     1
  9
$PSVPSCALE
 40
0.0
  9
$OLESTARTUP
290
     0
  0
ENDSEC
  0
SECTION
  2
CLASSES
  0
CLASS
  1
ACDBDICTIONARYWDFLT
  2
AcDbDictionaryWithDefault
  3
AutoCAD 2000
 90
        0
280
     0
281
     0
  0
CLASS
  1
ACDBPLACEHOLDER
  2
AcDbPlaceHolder
  3
ObjectDBX Classes
 90
        0
280
     0
281
     0
  0
CLASS
  1
LAYOUT
  2
AcDbLayout
  3
ObjectDBX Classes
 90
        0
280
     0
281
     0
  0
ENDSEC
  0
SECTION
  2
TABLES
  0
TABLE
  2
VPORT
  5
8
330
0
100
AcDbSymbolTable
 70
     2
  0
VPORT
  5
1E
330
8
100
AcDbSymbolTableRecord
100
AcDbViewportTableRecord
  2
*ACTIVE
 70
     0
 10
0.0
 20
0.0
 11
1.0
 21
1.0
 12
7.630750605326877
 22
5.5
 13
0.0
 23
0.0
 14
1.0
 24
1.0
 15
0.0
 25
0.0
 16
0.0
 26
0.0
 36
1.0
 17
0.0
 27
0.0
 37
0.0
 40
11.0
 41
0.7207678883071553
 42
50.0
 43
0.0
 44
0.0
 50
0.0
 51
0.0
 71
     0
 72
  2000
 73
     1
 74
     0
 75
     0
 76
     0
 77
     0
 78
     0
281
     0
 65
     1
110
0.0
120
0.0
130
0.0
111
1.0
121
0.0
131
0.0
112
0.0
122
1.0
132
0.0
 79
     0
146
0.0
  0
ENDTAB
  0
TABLE
  2
LTYPE
  5
5
330
0
100
AcDbSymbolTable
 70
     1
  0
LTYPE
  5
10
330
5
100
AcDbSymbolTableRecord
100
AcDbLinetypeTableRecord
  2
ByBlock
 70
     0
  3

 72
    65
 73
     0
 40
0.0
  0
LTYPE
  5
11
330
5
100
AcDbSymbolTableRecord
100
AcDbLinetypeTableRecord
  2
ByLayer
 70
     0
  3

 72
    65
 73
     0
 40
0.0
  0
LTYPE
  5
1B
330
5
100
AcDbSymbolTableRecord
100
AcDbLinetypeTableRecord
  2
CONTINUOUS
 70
     0
  3
Solid line
 72
    65
 73
     0
 40
0.0
  0
ENDTAB
  0
TABLE
  2
LAYER
  5
2
330
0
100
AcDbSymbolTable
 70
     1
  0
LAYER
  5
1C
330
2
100
AcDbSymbolTableRecord
100
AcDbLayerTableRecord
  2
0
 70
     0
 62
     7
  6
CONTINUOUS
370
    -3
390
F
  0
ENDTAB
  0
TABLE
  2
STYLE
  5
3
330
0
100
AcDbSymbolTable
 70
     1
  0
STYLE
  5
21
330
3
100
AcDbSymbolTableRecord
100
AcDbTextStyleTableRecord
  2
STANDARD
 70
     0
 40
0.0
 41
0.8
 50
0.0
 71
     0
 42
0.22
  3
ROMANS.shx
  4

  0
ENDTAB
  0
TABLE
  2
VIEW
  5
6
330
0
100
AcDbSymbolTable
 70
     1
  0
VIEW
  5
20
330
6
100
AcDbSymbolTableRecord
100
AcDbViewTableRecord
  2
1
 70
     0
 40
11.0
 10
7.225941000000001
 20
5.5
 41
14.451883
 11
0.0
 21
0.0
 31
1.0
 12
0.0
 22
0.0
 32
0.0
 42
50.0
 43
0.0
 44
0.0
 50
0.0
 71
     0
281
     0
 72
     0
  0
ENDTAB
  0
TABLE
  2
UCS
  5
7
330
0
100
AcDbSymbolTable
 70
     0
  0
ENDTAB
  0
TABLE
  2
APPID
  5
9
330
0
100
AcDbSymbolTable
 70
     1
  0
APPID
  5
1F
330
9
100
AcDbSymbolTableRecord
100
AcDbRegAppTableRecord
  2
ACAD
 70
     0
  0
ENDTAB
  0
TABLE
  2
DIMSTYLE
  5
A
330
0
100
AcDbSymbolTable
 70
     1
100
AcDbDimStyleTable
  0
DIMSTYLE
105
22
330
A
100
AcDbSymbolTableRecord
100
AcDbDimStyleTableRecord
  2
Standard
 70
     0
  3

  4

340
21
  0
ENDTAB
  0
TABLE
  2
BLOCK_RECORD
  5
1
330
0
100
AcDbSymbolTable
 70
     0
  0
BLOCK_RECORD
  5
18
330
1
100
AcDbSymbolTableRecord
100
AcDbBlockTableRecord
  2
*Model_Space
340
19
  0
BLOCK_RECORD
  5
16
330
1
100
AcDbSymbolTableRecord
100
AcDbBlockTableRecord
  2
*Paper_Space
340
17
  0
ENDTAB
  0
ENDSEC
  0
SECTION
  2
BLOCKS
  0
BLOCK
  5
512
330
18
100
AcDbEntity
  8
0
100
AcDbBlockBegin
  2
*Model_Space
 70
     0
 10
0.0
 20
0.0
 30
0.0
  3
*Model_Space
  1

  4

  0
ENDBLK
  5
513
330
18
100
AcDbEntity
  8
0
100
AcDbBlockEnd
  0
BLOCK
  5
510
330
16
100
AcDbEntity
 67
     1
  8
0
100
AcDbBlockBegin
  2
*Paper_Space
 70
     0
 10
0.0
 20
0.0
 30
0.0
  3
*Paper_Space
  1

  4

  0
ENDBLK
  5
511
330
16
100
AcDbEntity
 67
     1
  8
0
100
AcDbBlockEnd
  0
ENDSEC
  0
SECTION
  2
ENTITIES
  0
LINE
  5
23
330
18
100
AcDbEntity
  8
0
100
AcDbLine
 10
6.61437
 20
5.619438
 30
0.0
 11
6.61437
 21
4.681433999999999
 31
0.0
  0
LINE
  5
24
330
18
100
AcDbEntity
  8
0
100
AcDbLine
 10
7.12953
 20
6.042973
 30
0.0
 11
7.12953
 21
5.538009
 31
0.0
  0
LINE
  5
25
330
18
100
AcDbEntity
  8
0
100
AcDbLine
 10
4.516647
 20
4.028614
 30
0.0
 11
4.516647
 21
1.975157
 31
0.0
  0
LINE
  5
26
330
18
100
AcDbEntity
  8
0
100
AcDbLine
 10
5.023902
 20
3.837021
 30
0.0
 11
5.023902
 21
2.512199
 31
0.0
  0
LINE
  5
27
330
18
100
AcDbEntity
  8
0
100
AcDbLine
 10
3.407099
 20
3.473495
 30
0.0
 11
3.407099
 21
2.471519
 31
0.0
  0
LINE
  5
28
330
18
100
AcDbEntity
  8
0
100
AcDbLine
 10
6.162895
 20
7.542167
 30
0.0
 11
6.162895
 21
6.841439
 31
0.0
  0
LINE
  5
29
330
18
100
AcDbEntity
  8
0
100
AcDbLine
 10
1.542898
 20
7.11592
 30
0.0
 11
1.542898
 21
6.351143
 31
0.0
  0
LINE
  5
2A
330
18
100
AcDbEntity
  8
0
100
AcDbLine
 10
1.740719
 20
5.475992
 30
0.0
 11
1.740719
 21
4.462386
 31
0.0
  0
LINE
  5
2B
330
18
100
AcDbEntity
  8
0
100
AcDbLine
 10
2.512459
 20
5.199207
 30
0.0
 11
2.512459
 21
4.156715
 31
0.0
  0
LINE
  5
2C
330
18
100
AcDbEntity
  8
0
100
AcDbLine
 10
3.853665
 20
5.997836
 30
0.0
 11
3.853665
 21
3.810684
 31
0.0
  0
LINE
  5
2D
330
18
100
AcDbEntity
  8
0
100
AcDbLine
 10
4.657
 20
3.975602
 30
0.0
 11
4.657
 21
2.652508
 31
0.0
  0
LINE
  5
2E
330
18
100
AcDbEntity
  8
0
100
AcDbLine
 10
4.952729
 20
3.863903
 30
0.0
 11
4.952729
 21
2.909871
 31
0.0
  0
LINE
  5
2F
330
18
100
AcDbEntity
  8
0
100
AcDbLine
 10
5.042691000000001
 20
5.117474
 30
0.0
 11
5.042691000000001
 21
3.863048000000001
 31
0.0
  0
LINE
  5
30
330
18
100
AcDbEntity
  8
0
100
AcDbLine
 10
6.61437
 20
3.273821
 30
0.0
 11
5.042691000000001
 21
3.867451
 31
0.0
  0
LINE
  5
31
330
18
100
AcDbEntity
  8
0
100
AcDbLine
 10
5.023902
 20
2.512199
 30
0.0
 11
4.516647
 21
1.975157
 31
0.0
  0
LINE
  5
32
330
18
100
AcDbEntity
  8
0
100
AcDbLine
 10
4.516647
 20
1.975157
 30
0.0
 11
4.121873
 21
2.151761
 31
0.0
  0
LINE
  5
33
330
18
100
AcDbEntity
  8
0
100
AcDbLine
 10
4.121873
 20
2.151761
 30
0.0
 11
4.069904
 21
2.317175
 31
0.0
  0
LINE
  5
34
330
18
100
AcDbEntity
  8
0
100
AcDbLine
 10
4.069904
 20
2.317175
 30
0.0
 11
3.888503
 21
2.147732
 31
0.0
  0
LINE
  5
35
330
18
100
AcDbEntity
  8
0
100
AcDbLine
 10
3.888503
 20
2.147732
 30
0.0
 11
3.793073
 21
2.298851
 31
0.0
  0
LINE
  5
36
330
18
100
AcDbEntity
  8
0
100
AcDbLine
 10
1.542898
 20
6.351143
 30
0.0
 11
1.391694
 21
6.232035
 31
0.0
  0
LINE
  5
37
330
18
100
AcDbEntity
  8
0
100
AcDbLine
 10
1.391694
 20
6.232035
 30
0.0
 11
1.660377
 21
6.041632
 31
0.0
  0
LINE
  5
38
330
18
100
AcDbEntity
  8
0
100
AcDbLine
 10
1.660377
 20
6.041632
 30
0.0
 11
1.542898
 21
5.960974
 31
0.0
  0
LINE
  5
39
330
18
100
AcDbEntity
  8
0
100
AcDbLine
 10
6.162895
 20
6.841439
 30
0.0
 11
6.273304
 21
6.761282000000001
 31
0.0
  0
LINE
  5
3A
330
18
100
AcDbEntity
  8
0
100
AcDbLine
 10
6.273304
 20
6.761282000000001
 30
0.0
 11
6.052815
 21
6.556747000000001
 31
0.0
  0
LINE
  5
3B
330
18
100
AcDbEntity
  8
0
100
AcDbLine
 10
6.052815
 20
6.556747000000001
 30
0.0
 11
6.162895
 21
6.501179000000001
 31
0.0
  0
LINE
  5
3C
330
18
100
AcDbEntity
  8
0
100
AcDbLine
 10
8.268291
 20
5.729716000000001
 30
0.0
 11
7.234758
 21
6.014026
 31
0.0
  0
LINE
  5
3D
330
18
100
AcDbEntity
  8
0
100
AcDbLine
 10
7.591753999999999
 20
5.331033000000001
 30
0.0
 11
6.760708
 21
5.576257
 31
0.0
  0
LINE
  5
3E
330
18
100
AcDbEntity
  8
0
100
AcDbLine
 10
2.180437
 20
7.404396
 30
0.0
 11
1.542898
 21
7.11592
 31
0.0
  0
LINE
  5
3F
330
18
100
AcDbEntity
  8
0
100
AcDbLine
 10
7.12953
 20
6.042973
 30
0.0
 11
6.61437
 21
5.619438
 31
0.0
  0
LINE
  5
40
330
18
100
AcDbEntity
  8
0
100
AcDbLine
 10
7.12953
 20
3.873522
 30
0.0
 11
6.61437
 21
3.273821
 31
0.0
  0
LINE
  5
41
330
18
100
AcDbEntity
  8
0
100
AcDbLine
 10
3.853665
 20
3.846165
 30
0.0
 11
2.512459
 21
2.726897
 31
0.0
  0
LINE
  5
42
330
18
100
AcDbEntity
  8
0
100
AcDbLine
 10
2.512459
 20
2.726897
 30
0.0
 11
1.740719
 21
3.075348
 31
0.0
  0
LINE
  5
43
330
18
100
AcDbEntity
  8
0
100
AcDbLine
 10
1.740719
 20
5.110727
 30
0.0
 11
1.542898
 21
5.181755
 31
0.0
  0
LINE
  5
44
330
18
100
AcDbEntity
  8
0
100
AcDbLine
 10
5.511351
 20
7.688774
 30
0.0
 11
4.140792
 21
6.880159
 31
0.0
  0
LINE
  5
45
330
18
100
AcDbEntity
  8
0
100
AcDbLine
 10
6.162895
 20
7.542167
 30
0.0
 11
4.844914
 21
6.686464999999999
 31
0.0
  0
LINE
  5
46
330
18
100
AcDbEntity
  8
0
100
AcDbLine
 10
6.162895
 20
7.542167
 30
0.0
 11
5.511351
 21
7.688774
 31
0.0
  0
LINE
  5
47
330
18
100
AcDbEntity
  8
0
100
AcDbLine
 10
3.793073
 20
2.298851
 30
0.0
 11
3.407099
 21
2.471519
 31
0.0
  0
LINE
  5
48
330
18
100
AcDbEntity
  8
0
100
AcDbLine
 10
6.162895
 20
6.501179000000001
 30
0.0
 11
6.162895
 21
6.30888
 31
0.0
  0
LINE
  5
49
330
18
100
AcDbEntity
  8
0
100
AcDbLine
 10
1.542898
 20
5.960974
 30
0.0
 11
1.542898
 21
5.181755
 31
0.0
  0
LINE
  5
4A
330
18
100
AcDbEntity
  8
0
100
AcDbLine
 10
2.512459
 20
5.199207
 30
0.0
 11
1.740719
 21
5.475992
 31
0.0
  0
LINE
  5
4B
330
18
100
AcDbEntity
  8
0
100
AcDbLine
 10
4.237508
 20
6.290101
 30
0.0
 11
2.512459
 21
5.199207
 31
0.0
  0
LINE
  5
4C
330
18
100
AcDbEntity
  8
0
100
AcDbLine
 10
3.525903
 20
6.519053
 30
0.0
 11
1.740719
 21
5.475992
 31
0.0
  0
LINE
  5
4D
330
18
100
AcDbEntity
  8
0
100
AcDbLine
 10
5.460708
 20
4.98183
 30
0.0
 11
5.176001
 21
5.074216000000001
 31
0.0
  0
LINE
  5
4E
330
18
100
AcDbEntity
  8
0
100
AcDbLine
 10
4.53514
 20
5.779067
 30
0.0
 11
4.275840000000001
 21
5.864922
 31
0.0
  0
LINE
  5
4F
330
18
100
AcDbEntity
  8
0
100
AcDbLine
 10
4.548283000000001
 20
6.218396
 30
0.0
 11
4.548283000000001
 21
5.78856
 31
0.0
  0
LINE
  5
50
330
18
100
AcDbEntity
  8
0
100
AcDbLine
 10
5.109398000000001
 20
6.603453
 30
0.0
 11
4.557183
 21
6.235033000000001
 31
0.0
  0
LINE
  5
51
330
18
100
AcDbEntity
  8
0
100
AcDbLine
 10
3.8055
 20
6.969293
 30
0.0
 11
3.219953
 21
6.629778
 31
0.0
  0
LINE
  5
52
330
18
100
AcDbEntity
  8
0
100
AcDbLine
 10
4.657
 20
2.652508
 30
0.0
 11
4.753935
 21
2.589528
 31
0.0
  0
LINE
  5
53
330
18
100
AcDbEntity
  8
0
100
AcDbLine
 10
4.753935
 20
2.589528
 30
0.0
 11
4.919308999999999
 21
2.761431
 31
0.0
  0
LINE
  5
54
330
18
100
AcDbEntity
  8
0
100
AcDbLine
 10
4.919308999999999
 20
2.761431
 30
0.0
 11
4.952729
 21
2.909871
 31
0.0
  0
LINE
  5
55
330
18
100
AcDbEntity
  8
0
100
AcDbLine
 10
3.209985
 20
6.612475999999999
 30
0.0
 11
3.209985
 21
6.334466
 31
0.0
  0
LINE
  5
56
330
18
100
AcDbEntity
  8
0
100
AcDbLine
 10
7.12953
 20
5.182663
 30
0.0
 11
6.61437
 21
4.681433999999999
 31
0.0
  0
LINE
  5
57
330
18
100
AcDbEntity
  8
0
100
AcDbLine
 10
6.48144
 20
4.488898000000001
 30
0.0
 11
6.61437
 21
4.394841
 31
0.0
  0
LINE
  5
58
330
18
100
AcDbEntity
  8
0
100
AcDbLine
 10
6.737224
 20
4.577055000000001
 30
0.0
 11
6.48144
 21
4.488898000000001
 31
0.0
  0
LINE
  5
59
330
18
100
AcDbEntity
  8
0
100
AcDbLine
 10
7.253713
 20
5.077155
 30
0.0
 11
6.737224
 21
4.577055000000001
 31
0.0
  0
LINE
  5
5A
330
18
100
AcDbEntity
  8
0
100
AcDbLine
 10
7.12953
 20
4.89607
 30
0.0
 11
6.61437
 21
4.394841
 31
0.0
  0
LINE
  5
5B
330
18
100
AcDbEntity
  8
0
100
AcDbLine
 10
7.12953
 20
4.89607
 30
0.0
 11
7.12953
 21
3.873522
 31
0.0
  0
LINE
  5
5C
330
18
100
AcDbEntity
  8
0
100
AcDbLine
 10
6.61437
 20
4.394841
 30
0.0
 11
6.61437
 21
3.273821
 31
0.0
  0
LINE
  5
5D
330
18
100
AcDbEntity
  8
0
100
AcDbLine
 10
6.61437
 20
4.681433999999999
 30
0.0
 11
6.737224
 21
4.577055000000001
 31
0.0
  0
LINE
  5
5E
330
18
100
AcDbEntity
  8
0
100
AcDbLine
 10
7.12953
 20
5.182663
 30
0.0
 11
7.253713
 21
5.077155
 31
0.0
  0
LINE
  5
5F
330
18
100
AcDbEntity
  8
0
100
AcDbLine
 10
7.093224
 20
4.921759
 30
0.0
 11
7.12953
 21
4.89607
 31
0.0
  0
LINE
  5
60
330
18
100
AcDbEntity
  8
0
100
AcDbLine
 10
2.512459
 20
4.156715
 30
0.0
 11
1.740719
 21
4.462386
 31
0.0
  0
LINE
  5
61
330
18
100
AcDbEntity
  8
0
100
AcDbLine
 10
2.379309
 20
3.968004
 30
0.0
 11
1.590299
 21
4.299615
 31
0.0
  0
LINE
  5
62
330
18
100
AcDbEntity
  8
0
100
AcDbLine
 10
2.512459
 20
3.733241000000001
 30
0.0
 11
1.740719
 21
4.046729
 31
0.0
  0
LINE
  5
63
330
18
100
AcDbEntity
  8
0
100
AcDbLine
 10
2.512459
 20
4.156715
 30
0.0
 11
2.379309
 21
3.968004
 31
0.0
  0
LINE
  5
64
330
18
100
AcDbEntity
  8
0
100
AcDbLine
 10
2.637141
 20
3.870314
 30
0.0
 11
2.379309
 21
3.968004
 31
0.0
  0
LINE
  5
65
330
18
100
AcDbEntity
  8
0
100
AcDbLine
 10
2.637141
 20
3.870314
 30
0.0
 11
2.512459
 21
3.727763
 31
0.0
  0
LINE
  5
66
330
18
100
AcDbEntity
  8
0
100
AcDbLine
 10
1.841386
 20
4.195087
 30
0.0
 11
1.740719
 21
4.046729
 31
0.0
  0
LINE
  5
67
330
18
100
AcDbEntity
  8
0
100
AcDbLine
 10
1.740719
 20
4.462386
 30
0.0
 11
1.590299
 21
4.299615
 31
0.0
  0
LINE
  5
68
330
18
100
AcDbEntity
  8
0
100
AcDbLine
 10
1.740719
 20
4.046729
 30
0.0
 11
1.740719
 21
3.075348
 31
0.0
  0
LINE
  5
69
330
18
100
AcDbEntity
  8
0
100
AcDbLine
 10
2.512459
 20
3.733241000000001
 30
0.0
 11
2.512459
 21
2.726897
 31
0.0
  0
LWPOLYLINE
  5
6A
330
18
100
AcDbEntity
  8
0
100
AcDbPolyline
 90
       10
 70
     0
 43
0.0
 10
2.421906
 20
5.231685
 10
2.421369
 20
5.209788
 10
2.427395
 20
5.152652
 10
2.432421
 20
5.085492
 10
2.440451
 20
5.030361
 10
2.454499
 20
4.961198
 10
2.471548
 20
4.918098000000001
 10
2.487596
 20
4.872993
 10
2.507656
 20
4.812852
 10
2.512459
 20
4.79552
  0
LWPOLYLINE
  5
77
330
18
100
AcDbEntity
  8
0
100
AcDbPolyline
 90
       15
 70
     0
 43
0.0
 10
2.329734
 20
5.264742
 10
2.326135
 20
5.239841
 10
2.327147
 20
5.192728
 10
2.330164
 20
5.140603
 10
2.335188
 20
5.08447
 10
2.344223
 20
5.015306
 10
2.352252
 20
4.965187
 10
2.367297
 20
4.923089
 10
2.38635
 20
4.883999
 10
2.411424
 20
4.818848
 10
2.42647
 20
4.767728
 10
2.449542
 20
4.686538
 10
2.479632
 20
4.59733
 10
2.506712
 20
4.519147
 10
2.512459
 20
4.498364
  0
LWPOLYLINE
  5
89
330
18
100
AcDbEntity
  8
0
100
AcDbPolyline
 90
       15
 70
     0
 43
0.0
 10
2.170718
 20
4.292072
 10
2.169929
 20
4.392777
 10
2.170913
 20
4.483996
 10
2.172902
 20
4.564189
 10
2.168883
 20
4.611301
 10
2.143808
 20
4.685474
 10
2.115724
 20
4.767666
 10
2.090648
 20
4.849858
 10
2.075597
 20
4.923030000000001
 10
2.062549
 20
5.005225
 10
2.04649
 20
5.10847
 10
2.037455
 20
5.173624
 10
2.033435
 20
5.226751
 10
2.03442
 20
5.310953
 10
2.038214
 20
5.369296
  0
LWPOLYLINE
  5
9B
330
18
100
AcDbEntity
  8
0
100
AcDbPolyline
 90
       14
 70
     0
 43
0.0
 10
2.30711
 20
4.23805
 10
2.30225
 20
4.375762
 10
2.302227
 20
4.490037
 10
2.293185
 20
4.593283
 10
2.283142
 20
4.687507
 10
2.26308
 20
4.757671
 10
2.220958
 20
4.863918
 10
2.190865
 20
4.96315
 10
2.169799
 20
5.040331
 10
2.147731
 20
5.117512000000001
 10
2.132683
 20
5.178655
 10
2.124649
 20
5.249825
 10
2.120623
 20
5.330016000000001
 10
2.120735
 20
5.339699
  0
LWPOLYLINE
  5
AC
330
18
100
AcDbEntity
  8
0
100
AcDbPolyline
 90
       14
 70
     0
 43
0.0
 10
2.428182
 20
4.190095
 10
2.429579
 20
4.258506
 10
2.423536
 20
4.403854
 10
2.400454
 20
4.53316
 10
2.379383
 20
4.636403
 10
2.358313
 20
4.733632
 10
2.336244
 20
4.81382
 10
2.31518
 20
4.883985
 10
2.289102
 20
4.957155
 10
2.267032
 20
5.043357
 10
2.247971
 20
5.119536
 10
2.238939
 20
5.174667
 10
2.228903
 20
5.232805
 10
2.218345
 20
5.304692
  0
LWPOLYLINE
  5
BD
330
18
100
AcDbEntity
  8
0
100
AcDbPolyline
 90
       15
 70
     0
 43
0.0
 10
1.963831
 20
4.374016
 10
1.959422
 20
4.401756
 10
1.9584
 20
4.502999
 10
1.95638
 20
4.575172
 10
1.947342
 20
4.660374
 10
1.939309
 20
4.727534
 10
1.937293
 20
4.784671
 10
1.931266
 20
4.842809
 10
1.907193
 20
4.922997000000001
 10
1.877105
 20
5.000176000000001
 10
1.852026
 20
5.094397
 10
1.839978
 20
5.187618
 10
1.82793
 20
5.286854
 10
1.821898
 20
5.374062
 10
1.817675
 20
5.448392
  0
LWPOLYLINE
  5
CF
330
18
100
AcDbEntity
  8
0
100
AcDbPolyline
 90
       10
 70
     0
 43
0.0
 10
1.848688
 20
4.419622
 10
1.846143
 20
4.438822
 10
1.845129
 20
4.495959
 10
1.843114
 20
4.549086
 10
1.839094
 20
4.599206
 10
1.83507
 20
4.668371
 10
1.807993
 20
4.73252
 10
1.780913
 20
4.806692
 10
1.752831
 20
4.879862
 10
1.740719
 20
4.920573
  0
LWPOLYLINE
  5
DC
330
18
100
AcDbEntity
  8
0
100
AcDbPolyline
 90
       10
 70
     0
 43
0.0
 10
2.410086
 20
3.774826
 10
2.408629
 20
3.757299
 10
2.409644
 20
3.694148
 10
2.420687
 20
3.61095
 10
2.440753
 20
3.52174
 10
2.449784
 20
3.475631
 10
2.472855
 20
3.397448
 10
2.491917
 20
3.319265
 10
2.50897
 20
3.259124
 10
2.512459
 20
3.248662
  0
LWPOLYLINE
  5
E9
330
18
100
AcDbEntity
  8
0
100
AcDbPolyline
 90
       15
 70
     0
 43
0.0
 10
2.377566
 20
2.787803
 10
2.37875
 20
2.796989
 10
2.374731
 20
2.841094
 10
2.367697
 20
2.927299
 10
2.343619
 20
3.030542
 10
2.317533
 20
3.144811
 10
2.294457
 20
3.246049
 10
2.270376
 20
3.362324
 10
2.251313
 20
3.452536
 10
2.233255
 20
3.524706
 10
2.212194
 20
3.577829
 10
2.194136
 20
3.648996
 10
2.17808
 20
3.73921
 10
2.174053
 20
3.822409
 10
2.172699
 20
3.871255
  0
LWPOLYLINE
  5
FB
330
18
100
AcDbEntity
  8
0
100
AcDbPolyline
 90
       14
 70
     0
 43
0.0
 10
2.268641
 20
2.836984
 10
2.256431
 20
2.923267
 10
2.238376
 20
2.982405
 10
2.218309
 20
3.072618
 10
2.194233
 20
3.165837
 10
2.163137
 20
3.272086
 10
2.13104
 20
3.37232
 10
2.105963
 20
3.456517
 10
2.079879
 20
3.563769
 10
2.064822
 20
3.669019
 10
2.052776
 20
3.755223
 10
2.039728
 20
3.834411
 10
2.0327
 20
3.890544
 10
2.030758
 20
3.928912
  0
LWPOLYLINE
  5
10C
330
18
100
AcDbEntity
  8
0
100
AcDbPolyline
 90
       12
 70
     0
 43
0.0
 10
1.999486
 20
2.958511
 10
1.9978
 20
2.97534
 10
1.973717
 20
3.097629
 10
1.93861
 20
3.210894
 10
1.90952
 20
3.314136
 10
1.876419
 20
3.423391000000001
 10
1.844323
 20
3.518614
 10
1.821246
 20
3.624864
 10
1.809199
 20
3.713073000000001
 10
1.779106
 20
3.81832
 10
1.741996
 20
3.923565
 10
1.740719
 20
3.925817
  0
LWPOLYLINE
  5
11B
330
18
100
AcDbEntity
  8
0
100
AcDbPolyline
 90
        7
 70
     0
 43
0.0
 10
1.887851
 20
3.008916
 10
1.880504
 20
3.044483
 10
1.858433
 20
3.137702
 10
1.826331
 20
3.258987
 10
1.803257
 20
3.355213
 10
1.769153
 20
3.463466
 10
1.740719
 20
3.540034
  0
LWPOLYLINE
  5
125
330
18
100
AcDbEntity
  8
0
100
AcDbPolyline
 90
       14
 70
     0
 43
0.0
 10
2.117544
 20
2.905206
 10
2.108065
 20
2.973358
 10
2.089997
 20
3.093643
 10
2.067922
 20
3.203903
 10
2.04886
 20
3.285094
 10
2.03381
 20
3.355259
 10
2.000715
 20
3.431436
 10
1.973636
 20
3.502601
 10
1.950562
 20
3.596822
 10
1.943532
 20
3.663982
 10
1.932486
 20
3.760211
 10
1.914419
 20
3.877489
 10
1.892352
 20
3.94665
 10
1.885798
 20
3.987796
  0
LWPOLYLINE
  5
136
330
18
100
AcDbEntity
  8
0
100
AcDbPolyline
 90
       15
 70
     0
 43
0.0
 10
2.50794
 20
2.728938
 10
2.507069
 20
2.737872
 10
2.497027
 20
2.828087
 10
2.477957
 20
2.949374
 10
2.462897
 20
3.070662
 10
2.450849
 20
3.165888
 10
2.43279
 20
3.244072
 10
2.410724
 20
3.308222
 10
2.38264
 20
3.391416
 10
2.362577
 20
3.466592
 10
2.349534
 20
3.525732
 10
2.338492
 20
3.599907
 10
2.32745
 20
3.677091
 10
2.31139
 20
3.78635
 10
2.308027
 20
3.816283
  0
LWPOLYLINE
  5
148
330
18
100
AcDbEntity
  8
0
100
AcDbPolyline
 90
       15
 70
     0
 43
0.0
 10
2.061642
 20
4.335275
 10
2.058664
 20
4.385738
 10
2.05765
 20
4.440869999999999
 10
2.05964
 20
4.514046
 10
2.062633
 20
4.584215
 10
2.067628
 20
4.673430000000001
 10
2.054581
 20
4.74961
 10
2.043542
 20
4.814764
 10
2.017463
 20
4.894951
 10
1.975342
 20
4.994181
 10
1.946256
 20
5.07537
 10
1.930195
 20
5.186634
 10
1.921152
 20
5.291885
 10
1.919125
 20
5.403151
 10
1.91839
 20
5.412271
  0
LWPOLYLINE
  5
15A
330
18
100
AcDbEntity
  8
0
100
AcDbPolyline
 90
        2
 70
     0
 43
0.0
 10
2.170718
 20
4.292072
 10
2.024096
 20
4.117296
  0
LWPOLYLINE
  5
15F
330
18
100
AcDbEntity
  8
0
100
AcDbPolyline
 90
        2
 70
     0
 43
0.0
 10
1.963831
 20
4.374016
 10
1.80679
 20
4.208627
  0
LWPOLYLINE
  5
164
330
18
100
AcDbEntity
  8
0
100
AcDbPolyline
 90
        2
 70
     0
 43
0.0
 10
1.848688
 20
4.419622
 10
1.688638
 20
4.258285
  0
LWPOLYLINE
  5
169
330
18
100
AcDbEntity
  8
0
100
AcDbPolyline
 90
        2
 70
     0
 43
0.0
 10
2.061642
 20
4.335275
 10
1.926217
 20
4.158433000000001
  0
LWPOLYLINE
  5
16E
330
18
100
AcDbEntity
  8
0
100
AcDbPolyline
 90
        5
 70
     0
 43
0.0
 10
2.30711
 20
4.23805
 10
2.270212
 20
4.183294
 10
2.241148
 20
4.152214
 10
2.20106
 20
4.114114
 10
2.149898
 20
4.064423000000001
  0
LWPOLYLINE
  5
176
330
18
100
AcDbEntity
  8
0
100
AcDbPolyline
 90
        6
 70
     0
 43
0.0
 10
2.428182
 20
4.190095
 10
2.410554
 20
4.158262000000001
 10
2.37949
 20
4.104126
 10
2.355438
 20
4.076054
 10
2.310343
 20
4.010888
 10
2.295082
 20
4.003404
  0
LWPOLYLINE
  5
17F
330
18
100
AcDbEntity
  8
0
100
AcDbPolyline
 90
        2
 70
     0
 43
0.0
 10
1.885798
 20
3.987796
 10
1.984594
 20
4.133898
  0
LWPOLYLINE
  5
184
330
18
100
AcDbEntity
  8
0
100
AcDbPolyline
 90
        2
 70
     0
 43
0.0
 10
2.030758
 20
3.928912
 10
2.178368
 20
4.052457
  0
LWPOLYLINE
  5
189
330
18
100
AcDbEntity
  8
0
100
AcDbPolyline
 90
        2
 70
     0
 43
0.0
 10
2.172699
 20
3.871255
 10
2.318461
 20
3.993578
  0
LWPOLYLINE
  5
18E
330
18
100
AcDbEntity
  8
0
100
AcDbPolyline
 90
        2
 70
     0
 43
0.0
 10
2.308027
 20
3.816283
 10
2.450151
 20
3.941163
  0
LWPOLYLINE
  5
193
330
18
100
AcDbEntity
  8
0
100
AcDbPolyline
 90
        2
 70
     0
 43
0.0
 10
2.410086
 20
3.774826
 10
2.558946
 20
3.899941000000001
  0
LWPOLYLINE
  5
198
330
18
100
AcDbEntity
  8
0
100
AcDbPolyline
 90
        7
 70
     0
 43
0.0
 10
6.680325
 20
4.745606
 10
6.671658
 20
4.768579
 10
6.658611000000001
 20
4.848769
 10
6.643561
 20
4.919937
 10
6.627507000000001
 20
4.993109
 10
6.615460000000001
 20
5.083323
 10
6.61437
 20
5.087767
  0
LWPOLYLINE
  5
1A2
330
18
100
AcDbEntity
  8
0
100
AcDbPolyline
 90
        7
 70
     0
 43
0.0
 10
7.053911
 20
4.822496
 10
7.060592
 20
4.767654
 10
7.075647999999999
 20
4.669422
 10
7.085688
 20
4.590234
 10
7.100741999999999
 20
4.50002
 10
7.1178
 20
4.413817
 10
7.12953
 20
4.367775
  0
LWPOLYLINE
  5
1AC
330
18
100
AcDbEntity
  8
0
100
AcDbPolyline
 90
       13
 70
     0
 43
0.0
 10
7.004514
 20
4.774435
 10
7.005461
 20
4.762631
 10
7.006471
 20
4.721533
 10
7.007486
 20
4.660386
 10
7.012509
 20
4.60325
 10
7.023547
 20
4.547118
 10
7.037592999999999
 20
4.486976
 10
7.046624
 20
4.438863
 10
7.066687
 20
4.366693
 10
7.078727000000001
 20
4.309558999999999
 10
7.095782000000001
 20
4.238391
 10
7.11384
 20
4.168227
 10
7.12953
 20
4.110922
  0
LWPOLYLINE
  5
1BC
330
18
100
AcDbEntity
  8
0
100
AcDbPolyline
 90
       16
 70
     0
 43
0.0
 10
6.820898
 20
3.514242
 10
6.818258
 20
3.52763
 10
6.805215
 20
3.586769
 10
6.793164999999999
 20
3.695027
 10
6.787134
 20
3.77622
 10
6.7791
 20
3.848392
 10
6.767059
 20
3.908534
 10
6.754017
 20
3.964666
 10
6.733955
 20
4.03483
 10
6.715901
 20
4.087954
 10
6.702856
 20
4.15411
 10
6.693817999999999
 20
4.236306
 10
6.681774000000001
 20
4.313489
 10
6.673742999999999
 20
4.367617
 10
6.653683
 20
4.426755
 10
6.652728
 20
4.432162
  0
LWPOLYLINE
  5
1CF
330
18
100
AcDbEntity
  8
0
100
AcDbPolyline
 90
       16
 70
     0
 43
0.0
 10
6.913736
 20
3.622315
 10
6.911461
 20
3.631899
 10
6.896412
 20
3.69605
 10
6.886378
 20
3.74717
 10
6.878347
 20
3.804306
 10
6.872322000000001
 20
3.857432
 10
6.866297
 20
3.910559
 10
6.855255000000001
 20
3.986739
 10
6.839203
 20
4.053897
 10
6.823153
 20
4.112034
 10
6.807103999999999
 20
4.165158
 10
6.787039999999999
 20
4.243341
 10
6.777999
 20
4.340573
 10
6.764950999999999
 20
4.423769999999999
 10
6.751909
 20
4.4789
 10
6.745746000000001
 20
4.522664
  0
LWPOLYLINE
  5
1E2
330
18
100
AcDbEntity
  8
0
100
AcDbPolyline
 90
       14
 70
     0
 43
0.0
 10
6.985119
 20
3.705412
 10
6.984621000000001
 20
3.710101
 10
6.979594000000001
 20
3.783276
 10
6.961535000000001
 20
3.865469
 10
6.949488000000001
 20
3.951674
 10
6.941453
 20
4.032867
 10
6.929408000000001
 20
4.112055000000001
 10
6.910347
 20
4.191241000000001
 10
6.890286
 20
4.251380999999999
 10
6.872235000000001
 20
4.293479000000001
 10
6.862199
 20
4.350614
 10
6.855165
 20
4.436819
 10
6.846123
 20
4.537058
 10
6.841202
 20
4.61554
  0
LWPOLYLINE
  5
1F3
330
18
100
AcDbEntity
  8
0
100
AcDbPolyline
 90
       17
 70
     0
 43
0.0
 10
7.100836999999999
 20
3.840121
 10
7.098867
 20
3.851463
 10
7.087827000000001
 20
3.91762
 10
7.07378
 20
3.985781
 10
7.065749
 20
4.041914
 10
7.053707000000001
 20
4.111077
 10
7.044675999999999
 20
4.156184
 10
7.027626
 20
4.202291000000001
 10
7.011578999999999
 20
4.245391000000001
 10
6.991521000000001
 20
4.293503
 10
6.978478999999999
 20
4.345625
 10
6.965431
 20
4.42782
 10
6.955396
 20
4.485957
 10
6.947366000000001
 20
4.539083
 10
6.939334
 20
4.601230999999999
 10
6.933309
 20
4.653355
 10
6.924025
 20
4.696123
  0
LWPOLYLINE
  5
207
330
18
100
AcDbEntity
  8
0
100
AcDbPolyline
 90
       12
 70
     0
 43
0.0
 10
6.726402
 20
3.404237
 10
6.723045
 20
3.449423
 10
6.709999000000001
 20
3.522596
 10
6.698952
 20
3.628849
 10
6.693925
 20
3.702024
 10
6.687898
 20
3.765174
 10
6.675857000000001
 20
3.826318
 10
6.664817
 20
3.89047
 10
6.653777000000001
 20
3.960636
 10
6.643742
 20
4.016769
 10
6.628692
 20
4.081922000000001
 10
6.61437
 20
4.129628
  0
LWPOLYLINE
  5
216
330
18
100
AcDbEntity
  8
0
100
AcDbPolyline
 90
        2
 70
     0
 43
0.0
 10
6.745746000000001
 20
4.522664
 10
6.666261
 20
4.552597
  0
LWPOLYLINE
  5
21B
330
18
100
AcDbEntity
  8
0
100
AcDbPolyline
 90
        2
 70
     0
 43
0.0
 10
6.652728
 20
4.432162
 10
6.543619000000001
 20
4.510327999999999
  0
LWPOLYLINE
  5
220
330
18
100
AcDbEntity
  8
0
100
AcDbPolyline
 90
        2
 70
     0
 43
0.0
 10
7.004514
 20
4.774435
 10
6.953139999999999
 20
4.786119
  0
LWPOLYLINE
  5
225
330
18
100
AcDbEntity
  8
0
100
AcDbPolyline
 90
        2
 70
     0
 43
0.0
 10
6.841202
 20
4.61554
 10
6.786591000000001
 20
4.624855
  0
LWPOLYLINE
  5
22A
330
18
100
AcDbEntity
  8
0
100
AcDbPolyline
 90
        2
 70
     0
 43
0.0
 10
6.924025
 20
4.696123
 10
6.878182000000001
 20
4.71354
  0
LWPOLYLINE
  5
22F
330
18
100
AcDbEntity
  8
0
100
AcDbPolyline
 90
        2
 70
     0
 43
0.0
 10
7.053911
 20
4.822496
 10
7.008456
 20
4.839681
  0
LWPOLYLINE
  5
234
330
18
100
AcDbEntity
  8
0
100
AcDbPolyline
 90
        6
 70
     0
 43
0.0
 10
7.101753
 20
5.155638
 10
7.127682000000001
 20
5.121517
 10
7.149739
 20
5.100471
 10
7.185830999999999
 20
5.074416
 10
7.205882000000001
 20
5.058381
 10
7.220178999999999
 20
5.044684999999999
  0
LWPOLYLINE
  5
23D
330
18
100
AcDbEntity
  8
0
100
AcDbPolyline
 90
        7
 70
     0
 43
0.0
 10
7.012575999999999
 20
5.068872
 10
7.045501
 20
5.043313
 10
7.065550999999999
 20
5.031288
 10
7.089611
 20
5.019264
 10
7.106653999999999
 20
5.012251
 10
7.134726
 20
4.986194
 10
7.150643
 20
4.977355
  0
LWPOLYLINE
  5
247
330
18
100
AcDbEntity
  8
0
100
AcDbPolyline
 90
        7
 70
     0
 43
0.0
 10
6.922456
 20
4.981189
 10
6.954296
 20
4.970119
 10
6.970338000000001
 20
4.956089
 10
6.994397999999999
 20
4.945067
 10
7.01545
 20
4.934044999999999
 10
7.049536
 20
4.915006
 10
7.0673
 20
4.896657
  0
LWPOLYLINE
  5
251
330
18
100
AcDbEntity
  8
0
100
AcDbPolyline
 90
        5
 70
     0
 43
0.0
 10
6.680325
 20
4.745606
 10
6.704746000000001
 20
4.726485
 10
6.756877
 20
4.698428
 10
6.791966
 20
4.675379
 10
6.817386999999999
 20
4.654674
  0
LWPOLYLINE
  5
259
330
18
100
AcDbEntity
  8
0
100
AcDbPolyline
 90
        6
 70
     0
 43
0.0
 10
6.748994000000001
 20
4.812417
 10
6.771893
 20
4.795664
 10
6.799967999999999
 20
4.761588
 10
6.821021000000001
 20
4.747558000000001
 10
6.846085
 20
4.727515
 10
6.871842
 20
4.707401
  0
LWPOLYLINE
  5
262
330
18
100
AcDbEntity
  8
0
100
AcDbPolyline
 90
        6
 70
     0
 43
0.0
 10
6.853536999999999
 20
4.914134
 10
6.875124000000001
 20
4.880889
 10
6.894172999999999
 20
4.864854
 10
6.920239
 20
4.847819
 10
6.940291
 20
4.826772
 10
6.967721000000001
 20
4.800237999999999
  0
LINE
  5
26B
330
18
100
AcDbEntity
  8
0
100
AcDbLine
 10
4.259039
 20
4.125913
 30
0.0
 11
3.85898
 21
3.792055
 31
0.0
  0
LINE
  5
26C
330
18
100
AcDbEntity
  8
0
100
AcDbLine
 10
5.034274
 20
3.833103
 30
0.0
 11
4.259039
 21
4.125913
 31
0.0
  0
LINE
  5
26D
330
18
100
AcDbEntity
  8
0
100
AcDbLine
 10
4.228197
 20
6.234684
 30
0.0
 11
3.853665
 21
5.997836
 31
0.0
  0
LINE
  5
26E
330
18
100
AcDbEntity
  8
0
100
AcDbLine
 10
5.200315
 20
6.872839
 30
0.0
 11
4.892918
 21
6.673260000000001
 31
0.0
  0
LINE
  5
26F
330
18
100
AcDbEntity
  8
0
100
AcDbLine
 10
5.215761
 20
6.864451
 30
0.0
 11
5.215761
 21
6.569423
 31
0.0
  0
LINE
  5
270
330
18
100
AcDbEntity
  8
0
100
AcDbLine
 10
4.237508
 20
6.300684
 30
0.0
 11
4.237508
 21
6.251588
 31
0.0
  0
LINE
  5
271
330
18
100
AcDbEntity
  8
0
100
AcDbLine
 10
4.223168
 20
6.319866
 30
0.0
 11
3.541653
 21
6.520967
 31
0.0
  0
LINE
  5
272
330
18
100
AcDbEntity
  8
0
100
AcDbLine
 10
3.523044
 20
6.517383000000001
 30
0.0
 11
3.378392
 21
6.560067
 31
0.0
  0
LINE
  5
273
330
18
100
AcDbEntity
  8
0
100
AcDbLine
 10
3.213038
 20
6.623097000000001
 30
0.0
 11
1.542898
 21
7.11592
 31
0.0
  0
LINE
  5
274
330
18
100
AcDbEntity
  8
0
100
AcDbLine
 10
3.326257
 20
6.57545
 30
0.0
 11
3.283152
 21
6.58817
 31
0.0
  0
LINE
  5
275
330
18
100
AcDbEntity
  8
0
100
AcDbLine
 10
4.395894
 20
6.259824
 30
0.0
 11
4.236535
 21
6.306847
 31
0.0
  0
LINE
  5
276
330
18
100
AcDbEntity
  8
0
100
AcDbLine
 10
4.483108000000001
 20
6.234089
 30
0.0
 11
4.452033
 21
6.243258
 31
0.0
  0
ARC
  5
277
330
18
100
AcDbEntity
  8
0
100
AcDbCircle
 10
4.261382
 20
5.834899
 30
0.0
 40
0.098922
100
AcDbArc
 50
72.00043100000001
 51
106.476086
  0
LINE
  5
278
330
18
100
AcDbEntity
  8
0
100
AcDbLine
 10
4.262697
 20
5.855429
 30
0.0
 11
4.262697
 21
4.124532
 31
0.0
  0
ARC
  5
279
330
18
100
AcDbEntity
  8
0
100
AcDbCircle
 10
4.261382
 20
5.899437
 30
0.0
 40
0.098922
100
AcDbArc
 50
72.00043100000001
 51
106.476086
  0
ARC
  5
27A
330
18
100
AcDbEntity
  8
0
100
AcDbCircle
 10
4.261382
 20
5.963975
 30
0.0
 40
0.098922
100
AcDbArc
 50
72.00043100000001
 51
106.476086
  0
ARC
  5
27B
330
18
100
AcDbEntity
  8
0
100
AcDbCircle
 10
4.261382
 20
6.028512999999999
 30
0.0
 40
0.098922
100
AcDbArc
 50
72.00043100000001
 51
106.476086
  0
ARC
  5
27C
330
18
100
AcDbEntity
  8
0
100
AcDbCircle
 10
4.261382
 20
6.093051
 30
0.0
 40
0.098922
100
AcDbArc
 50
72.00043100000001
 51
106.476086
  0
ARC
  5
27D
330
18
100
AcDbEntity
  8
0
100
AcDbCircle
 10
4.272697
 20
5.855429
 30
0.0
 40
0.01
100
AcDbArc
 50
71.68014699999999
 51
180.0
  0
ARC
  5
27E
330
18
100
AcDbEntity
  8
0
100
AcDbCircle
 10
4.538283
 20
5.78856
 30
0.0
 40
0.01
100
AcDbArc
 50
251.680147
 51
0.0
  0
LINE
  5
27F
330
18
100
AcDbEntity
  8
0
100
AcDbLine
 10
3.841098
 20
3.788063
 30
0.0
 11
3.797672
 21
3.799437
 31
0.0
  0
LINE
  5
280
330
18
100
AcDbEntity
  8
0
100
AcDbLine
 10
5.050654
 20
3.834114
 30
0.0
 11
5.084208
 21
3.85177
 31
0.0
  0
ARC
  5
281
330
18
100
AcDbEntity
  8
0
100
AcDbCircle
 10
5.062691
 20
3.863048000000001
 30
0.0
 40
0.02
100
AcDbArc
 50
180.0
 51
297.753691
  0
ARC
  5
282
330
18
100
AcDbEntity
  8
0
100
AcDbCircle
 10
5.041341
 20
3.851813
 30
0.0
 40
0.02
100
AcDbArc
 50
249.308206
 51
297.753691
  0
ARC
  5
283
330
18
100
AcDbEntity
  8
0
100
AcDbCircle
 10
3.833665
 20
3.810684
 30
0.0
 40
0.02
100
AcDbArc
 50
255.322627
 51
0.0
  0
ARC
  5
284
330
18
100
AcDbEntity
  8
0
100
AcDbCircle
 10
3.846165
 20
3.80741
 30
0.0
 40
0.02
100
AcDbArc
 50
255.322627
 51
309.845799
  0
ARC
  5
285
330
18
100
AcDbEntity
  8
0
100
AcDbCircle
 10
4.568283
 20
6.218396
 30
0.0
 40
0.02
100
AcDbArc
 50
123.709947
 51
180.0
  0
ARC
  5
286
330
18
100
AcDbEntity
  8
0
100
AcDbCircle
 10
4.217508000000001
 20
6.251588
 30
0.0
 40
0.02
100
AcDbArc
 50
302.308618
 51
0.0
  0
ARC
  5
287
330
18
100
AcDbEntity
  8
0
100
AcDbCircle
 10
4.217508000000001
 20
6.300684
 30
0.0
 40
0.02
100
AcDbArc
 50
0.0
 51
73.55980500000001
  0
ARC
  5
288
330
18
100
AcDbEntity
  8
0
100
AcDbCircle
 10
3.535992
 20
6.501785
 30
0.0
 40
0.02
100
AcDbArc
 50
73.55980500000001
 51
120.297212
  0
ARC
  5
289
330
18
100
AcDbEntity
  8
0
100
AcDbCircle
 10
3.229985
 20
6.612475999999999
 30
0.0
 40
0.02
100
AcDbArc
 50
120.106207
 51
180.0
  0
LINE
  5
28A
330
18
100
AcDbEntity
  8
0
100
AcDbLine
 10
5.11514
 20
6.612130000000001
 30
0.0
 11
3.813168
 21
6.970284
 31
0.0
  0
LINE
  5
28B
330
18
100
AcDbEntity
  8
0
100
AcDbLine
 10
3.791548
 20
6.961203
 30
0.0
 11
2.180437
 21
7.404396
 31
0.0
  0
LINE
  5
28C
330
18
100
AcDbEntity
  8
0
100
AcDbLine
 10
5.120283000000001
 20
6.605381
 30
0.0
 11
5.120283000000001
 21
6.595687
 31
0.0
  0
ARC
  5
28D
330
18
100
AcDbEntity
  8
0
100
AcDbCircle
 10
5.113283
 20
6.597630000000001
 30
0.0
 40
0.007
100
AcDbArc
 50
0.0
 51
123.709947
  0
ARC
  5
28E
330
18
100
AcDbEntity
  8
0
100
AcDbCircle
 10
5.113283
 20
6.605381
 30
0.0
 40
0.007
100
AcDbArc
 50
0.0
 51
74.619199
  0
ARC
  5
28F
330
18
100
AcDbEntity
  8
0
100
AcDbCircle
 10
3.810516
 20
6.960642
 30
0.0
 40
0.01
100
AcDbArc
 50
74.619199
 51
120.106207
  0
ARC
  5
290
330
18
100
AcDbEntity
  8
0
100
AcDbCircle
 10
5.205761
 20
6.864451
 30
0.0
 40
0.01
100
AcDbArc
 50
0.0
 51
122.993716
  0
LWPOLYLINE
  5
291
330
18
100
AcDbEntity
  8
0
100
AcDbPolyline
 90
       16
 70
     1
 43
0.0
 10
4.851534
 20
3.546281
 42
0.131069
 10
4.826816
 20
3.548998000000001
 42
0.106561
 10
4.798393
 20
3.538186
 42
0.083829
 10
4.775018
 20
3.516709
 42
0.072706
 10
4.757013
 20
3.484917
 42
0.072706
 10
4.748863
 20
3.449301
 42
0.083829
 10
4.751636
 20
3.417679
 42
0.106561
 10
4.765328
 20
3.390525
 42
0.131069
 10
4.78541
 20
3.375859
 42
0.131069
 10
4.810128
 20
3.373142
 42
0.106561
 10
4.838551
 20
3.383955
 42
0.083829
 10
4.861927
 20
3.405431
 42
0.072706
 10
4.879931
 20
3.437224
 42
0.072706
 10
4.888081
 20
3.47284
 42
0.083829
 10
4.885309
 20
3.504462
 42
0.106561
 10
4.871616
 20
3.531616000000001
 42
0.131069
  0
LWPOLYLINE
  5
2A4
330
18
100
AcDbEntity
  8
0
100
AcDbPolyline
 90
       16
 70
     1
 43
0.0
 10
4.851534
 20
3.010553
 42
0.131069
 10
4.826816
 20
3.01327
 42
0.106561
 10
4.798393
 20
3.002458
 42
0.083829
 10
4.775018
 20
2.980981
 42
0.072706
 10
4.757013
 20
2.949189
 42
0.072706
 10
4.748863
 20
2.913573
 42
0.083829
 10
4.751636
 20
2.881951
 42
0.106561
 10
4.765328
 20
2.854797
 42
0.131069
 10
4.78541
 20
2.840131
 42
0.131069
 10
4.810128
 20
2.837414
 42
0.106561
 10
4.838551
 20
2.848227
 42
0.083829
 10
4.861927
 20
2.869704
 42
0.072706
 10
4.879931
 20
2.901496
 42
0.072706
 10
4.888081
 20
2.937112
 42
0.083829
 10
4.885309
 20
2.968734
 42
0.106561
 10
4.871616
 20
2.995888
 42
0.131069
  0
LWPOLYLINE
  5
2B7
330
18
100
AcDbEntity
  8
0
100
AcDbPolyline
 90
       16
 70
     1
 43
0.0
 10
4.833202
 20
4.990744
 42
0.118386
 10
4.811297
 20
4.978593
 42
0.104629
 10
4.794876
 20
4.955598
 42
0.08967
 10
4.788174
 20
4.927325
 42
0.081359
 10
4.791634999999999
 20
4.895534
 42
0.081359
 10
4.805059
 20
4.866509
 42
0.08967
 10
4.825377
 20
4.845739
 42
0.104629
 10
4.851303
 20
4.8345
 42
0.118386
 10
4.876336
 20
4.835380000000001
 42
0.118386
 10
4.89824
 20
4.847532
 42
0.104629
 10
4.914661
 20
4.870527
 42
0.08967
 10
4.921364
 20
4.898799
 42
0.081359
 10
4.917902
 20
4.930590000000001
 42
0.081359
 10
4.904479
 20
4.959616000000001
 42
0.08967
 10
4.884161
 20
4.980386
 42
0.104629
 10
4.858235
 20
4.991624
 42
0.118386
  0
LWPOLYLINE
  5
2CA
330
18
100
AcDbEntity
  8
0
100
AcDbPolyline
 90
       16
 70
     1
 43
0.0
 10
4.833202
 20
4.401021
 42
0.118386
 10
4.811297
 20
4.388869000000001
 42
0.104629
 10
4.794876
 20
4.365874
 42
0.08967
 10
4.788174
 20
4.337601
 42
0.081359
 10
4.791634999999999
 20
4.30581
 42
0.081359
 10
4.805059
 20
4.276785
 42
0.08967
 10
4.825377
 20
4.256015000000001
 42
0.104629
 10
4.851303
 20
4.244776
 42
0.118386
 10
4.876336
 20
4.245655999999999
 42
0.118386
 10
4.89824
 20
4.257808
 42
0.104629
 10
4.914661
 20
4.280803
 42
0.08967
 10
4.921364
 20
4.309076
 42
0.081359
 10
4.917902
 20
4.340867
 42
0.081359
 10
4.904479
 20
4.369892
 42
0.08967
 10
4.884161
 20
4.390662
 42
0.104629
 10
4.858235
 20
4.401901000000001
 42
0.118386
  0
LWPOLYLINE
  5
2DD
330
18
100
AcDbEntity
  8
0
100
AcDbPolyline
 90
       16
 70
     1
 43
0.0
 10
3.988737
 20
4.200485
 42
0.15504
 10
3.983984
 20
4.200606
 42
0.10676
 10
3.977983
 20
4.197367
 42
0.073119
 10
3.973198000000001
 20
4.19188
 42
0.059607
 10
3.969304
 20
4.183861
 42
0.059607
 10
3.967411
 20
4.175149
 42
0.073119
 10
3.967782
 20
4.167879
 42
0.10676
 10
3.970499
 20
4.161624
 42
0.15504
 10
3.974311
 20
4.158782
 42
0.15504
 10
3.979063
 20
4.158661
 42
0.10676
 10
3.985064
 20
4.1619
 42
0.073119
 10
3.989849
 20
4.167387000000001
 42
0.059607
 10
3.993744
 20
4.175406
 42
0.059607
 10
3.995637
 20
4.184118
 42
0.073119
 10
3.995265
 20
4.191389
 42
0.10676
 10
3.992548
 20
4.197643
 42
0.15504
  0
LWPOLYLINE
  5
2F0
330
18
100
AcDbEntity
  8
0
100
AcDbPolyline
 90
       16
 70
     1
 43
0.0
 10
3.960438
 20
4.04655
 42
0.15504
 10
3.955685
 20
4.046671
 42
0.10676
 10
3.949685
 20
4.043432
 42
0.073119
 10
3.9449
 20
4.037945
 42
0.059607
 10
3.941005
 20
4.029926000000001
 42
0.059607
 10
3.939112
 20
4.021214
 42
0.073119
 10
3.939484
 20
4.013944
 42
0.10676
 10
3.9422
 20
4.007689
 42
0.15504
 10
3.946012
 20
4.004847
 42
0.15504
 10
3.950765
 20
4.004726
 42
0.10676
 10
3.956765
 20
4.007965
 42
0.073119
 10
3.961551
 20
4.013452
 42
0.059607
 10
3.965445
 20
4.021471
 42
0.059607
 10
3.967338
 20
4.030183
 42
0.073119
 10
3.966966
 20
4.037454
 42
0.10676
 10
3.96425
 20
4.043708000000001
 42
0.15504
  0
LWPOLYLINE
  5
303
330
18
100
AcDbEntity
  8
0
100
AcDbPolyline
 90
       16
 70
     1
 43
0.0
 10
3.950324
 20
4.495626000000001
 42
0.15504
 10
3.945571
 20
4.495747
 42
0.10676
 10
3.93957
 20
4.492508
 42
0.073119
 10
3.934785
 20
4.487021
 42
0.059607
 10
3.930891
 20
4.479002
 42
0.059607
 10
3.928998
 20
4.47029
 42
0.073119
 10
3.92937
 20
4.463019
 42
0.10676
 10
3.932086
 20
4.456765
 42
0.15504
 10
3.935898
 20
4.453923000000001
 42
0.15504
 10
3.940651
 20
4.453802
 42
0.10676
 10
3.946651
 20
4.457041
 42
0.073119
 10
3.951436
 20
4.462528
 42
0.059607
 10
3.955331
 20
4.470547
 42
0.059607
 10
3.957224
 20
4.479259
 42
0.073119
 10
3.956852
 20
4.48653
 42
0.10676
 10
3.954136
 20
4.492783999999999
 42
0.15504
  0
LWPOLYLINE
  5
316
330
18
100
AcDbEntity
  8
0
100
AcDbPolyline
 90
       16
 70
     1
 43
0.0
 10
3.955305
 20
4.649997
 42
0.15504
 10
3.950552
 20
4.650118
 42
0.10676
 10
3.944552
 20
4.646879
 42
0.073119
 10
3.939767
 20
4.641392
 42
0.059607
 10
3.935872
 20
4.633373000000001
 42
0.059607
 10
3.933979
 20
4.624662
 42
0.073119
 10
3.934351
 20
4.617391000000001
 42
0.10676
 10
3.937067
 20
4.611136
 42
0.15504
 10
3.940879
 20
4.608294
 42
0.15504
 10
3.945632
 20
4.608174
 42
0.10676
 10
3.951632
 20
4.611413
 42
0.073119
 10
3.956418
 20
4.6169
 42
0.059607
 10
3.960312
 20
4.624919
 42
0.059607
 10
3.962205
 20
4.63363
 42
0.073119
 10
3.961833
 20
4.640901
 42
0.10676
 10
3.959117
 20
4.647156
 42
0.15504
  0
LWPOLYLINE
  5
329
330
18
100
AcDbEntity
  8
0
100
AcDbPolyline
 90
       16
 70
     1
 43
0.0
 10
4.881624
 20
6.567383
 42
0.176233
 10
4.878994000000001
 20
6.572735000000001
 42
0.103919
 10
4.870585
 20
6.577984
 42
0.06434
 10
4.860114
 20
6.580353
 42
0.050502
 10
4.846458999999999
 20
6.580257000000001
 42
0.050502
 10
4.8331
 20
6.577427
 42
0.06434
 10
4.823379
 20
6.572871000000001
 42
0.103919
 10
4.816289
 20
6.565942999999999
 42
0.176233
 10
4.814866
 20
6.560152
 42
0.176233
 10
4.817495
 20
6.554800999999999
 42
0.103919
 10
4.825905000000001
 20
6.549551
 42
0.06434
 10
4.836376000000001
 20
6.547183
 42
0.050502
 10
4.850031
 20
6.547278
 42
0.050502
 10
4.86339
 20
6.550109
 42
0.06434
 10
4.873111
 20
6.554664
 42
0.103919
 10
4.880201000000001
 20
6.561592999999999
 42
0.176233
  0
LWPOLYLINE
  5
33C
330
18
100
AcDbEntity
  8
0
100
AcDbPolyline
 90
       16
 70
     1
 43
0.0
 10
4.542155
 20
6.343361
 42
0.176233
 10
4.539526
 20
6.348713
 42
0.103919
 10
4.531116
 20
6.353962
 42
0.06434
 10
4.520645
 20
6.356331
 42
0.050502
 10
4.50699
 20
6.356235
 42
0.050502
 10
4.493631
 20
6.353405
 42
0.06434
 10
4.48391
 20
6.348849
 42
0.103919
 10
4.47682
 20
6.341921
 42
0.176233
 10
4.475397
 20
6.336130000000001
 42
0.176233
 10
4.478027
 20
6.330779
 42
0.103919
 10
4.486436
 20
6.325529
 42
0.06434
 10
4.496907
 20
6.323161
 42
0.050502
 10
4.510562
 20
6.323256
 42
0.050502
 10
4.523921
 20
6.326087
 42
0.06434
 10
4.533642
 20
6.330642
 42
0.103919
 10
4.540732
 20
6.337571
 42
0.176233
  0
LWPOLYLINE
  5
34F
330
18
100
AcDbEntity
  8
0
100
AcDbPolyline
 90
       16
 70
     1
 43
0.0
 10
3.581793
 20
6.628854
 42
0.176233
 10
3.579164
 20
6.634206
 42
0.103919
 10
3.570754
 20
6.639455
 42
0.06434
 10
3.560283
 20
6.641824000000001
 42
0.050502
 10
3.546628
 20
6.641729
 42
0.050502
 10
3.533269
 20
6.638897999999999
 42
0.06434
 10
3.523548
 20
6.634342
 42
0.103919
 10
3.516458
 20
6.627414
 42
0.176233
 10
3.515035
 20
6.621624000000001
 42
0.176233
 10
3.517665
 20
6.616272
 42
0.103919
 10
3.526074
 20
6.611022
 42
0.06434
 10
3.536545
 20
6.608654
 42
0.050502
 10
3.5502
 20
6.608749
 42
0.050502
 10
3.563559
 20
6.61158
 42
0.06434
 10
3.573280000000001
 20
6.616135000000001
 42
0.103919
 10
3.58037
 20
6.623064
 42
0.176233
  0
LWPOLYLINE
  5
362
330
18
100
AcDbEntity
  8
0
100
AcDbPolyline
 90
       16
 70
     1
 43
0.0
 10
3.873453
 20
6.829394000000001
 42
0.176233
 10
3.870823
 20
6.834745
 42
0.103919
 10
3.862414
 20
6.839995
 42
0.06434
 10
3.851943
 20
6.842363000000001
 42
0.050502
 10
3.838288
 20
6.842267999999999
 42
0.050502
 10
3.824929
 20
6.839436999999999
 42
0.06434
 10
3.815208
 20
6.834882
 42
0.103919
 10
3.808118
 20
6.827953999999999
 42
0.176233
 10
3.806695
 20
6.822163000000001
 42
0.176233
 10
3.809325
 20
6.816812
 42
0.103919
 10
3.817734
 20
6.811562
 42
0.06434
 10
3.828205
 20
6.809194000000001
 42
0.050502
 10
3.84186
 20
6.809289
 42
0.050502
 10
3.855219
 20
6.812119999999999
 42
0.06434
 10
3.86494
 20
6.816675
 42
0.103919
 10
3.87203
 20
6.823603
 42
0.176233
  0
LINE
  5
375
330
18
100
AcDbEntity
  8
0
100
AcDbLine
 10
8.026761000000001
 20
5.796157
 30
0.0
 11
8.026761000000001
 21
4.913196
 31
0.0
  0
LINE
  5
376
330
18
100
AcDbEntity
  8
0
100
AcDbLine
 10
5.359504
 20
5.01467
 30
0.0
 11
5.359504
 21
4.594903
 31
0.0
  0
LINE
  5
377
330
18
100
AcDbEntity
  8
0
100
AcDbLine
 10
7.12953
 20
6.042973
 30
0.0
 11
5.104334
 21
6.600075
 31
0.0
  0
LINE
  5
378
330
18
100
AcDbEntity
  8
0
100
AcDbLine
 10
8.268291
 20
3.560265
 30
0.0
 11
7.234758
 21
3.844575
 31
0.0
  0
LINE
  5
379
330
18
100
AcDbEntity
  8
0
100
AcDbLine
 10
6.61437
 20
5.619438
 30
0.0
 11
4.550918
 21
6.228318
 31
0.0
  0
LINE
  5
37A
330
18
100
AcDbEntity
  8
0
100
AcDbLine
 10
8.130891999999999
 20
6.014902999999999
 30
0.0
 11
7.905424000000001
 21
5.829536
 31
0.0
  0
SOLID
  5
37B
330
18
100
AcDbEntity
  8
0
100
AcDbTrace
 10
7.960127000000001
 20
5.597428
 30
0.0
 11
8.105410000000001
 21
5.557462
 31
0.0
 12
8.026761000000001
 22
5.796157
 32
0.0
 13
8.026761000000001
 23
5.796157
 33
0.0
  0
SOLID
  5
37C
330
18
100
AcDbEntity
  8
0
100
AcDbTrace
 10
8.093396
 20
3.825436
 30
0.0
 11
7.948113
 21
3.865402
 31
0.0
 12
8.026761000000001
 22
3.626707
 32
0.0
 13
8.026761000000001
 23
3.626707
 33
0.0
  0
LINE
  5
37D
330
18
100
AcDbEntity
  8
0
100
AcDbLine
 10
8.026761000000001
 20
4.518251
 30
0.0
 11
8.026761000000001
 21
3.626707
 31
0.0
  0
TEXT
  5
37E
330
18
100
AcDbEntity
  8
0
100
AcDbText
 10
7.882143732378816
 20
4.638967709331547
 30
0.0
 40
0.25
  1
HA
 50
344.619199
 41
0.9
 72
     1
 11
8.019539999999999
 21
4.601172
 31
0.0
100
AcDbText
  0
SOLID
  5
37F
330
18
100
AcDbEntity
  8
0
100
AcDbTrace
 10
8.089584
 20
5.896754000000001
 30
0.0
 11
7.947328999999999
 21
5.934427
 31
0.0
 12
7.905424000000001
 22
5.829536
 32
0.0
 13
7.905424000000001
 23
5.829536
 33
0.0
  0
LINE
  5
380
330
18
100
AcDbEntity
  8
0
100
AcDbLine
 10
7.37638
 20
5.394585
 30
0.0
 11
7.172905
 21
5.227299
 31
0.0
  0
SOLID
  5
381
330
18
100
AcDbEntity
  8
0
100
AcDbTrace
 10
7.192219000000001
 20
5.327367
 30
0.0
 11
7.334475
 21
5.289694
 31
0.0
 12
7.37638
 22
5.394585
 32
0.0
 13
7.37638
 23
5.394585
 33
0.0
  0
TEXT
  5
382
330
18
100
AcDbEntity
  8
0
100
AcDbText
 10
7.728690386471242
 20
5.531204313830402
 30
0.0
 40
0.25
  1
S
 50
51.336172
 41
0.9
 72
     1
 11
7.770861
 21
5.58391
 31
0.0
100
AcDbText
  0
LWPOLYLINE
  5
383
330
18
100
AcDbEntity
  8
0
100
AcDbPolyline
 90
        5
 70
     0
 43
0.0
 10
7.012575999999999
 20
5.068872
 10
7.002379
 20
5.135526000000001
 10
6.989329
 20
5.224737
 10
6.972268
 20
5.328983999999999
 10
6.958436999999999
 20
5.447327
  0
LWPOLYLINE
  5
38B
330
18
100
AcDbEntity
  8
0
100
AcDbPolyline
 90
        5
 70
     0
 43
0.0
 10
6.945286
 20
5.592375
 10
6.942131
 20
5.649748000000001
 10
6.941113000000001
 20
5.72593
 10
6.940096000000001
 20
5.802112999999999
 10
6.93734
 20
5.884965
  0
LWPOLYLINE
  5
393
330
18
100
AcDbEntity
  8
0
100
AcDbPolyline
 90
        6
 70
     0
 43
0.0
 10
7.101753
 20
5.155638
 10
7.100606
 20
5.175642
 10
7.087563
 20
5.237788
 10
7.081536
 20
5.299936
 10
7.0735
 20
5.381129000000001
 10
7.070658
 20
5.414213
  0
LWPOLYLINE
  5
39C
330
18
100
AcDbEntity
  8
0
100
AcDbPolyline
 90
        7
 70
     0
 43
0.0
 10
7.058
 20
5.559116
 10
7.051399000000001
 20
5.621702
 10
7.041357000000001
 20
5.710914
 10
7.034322
 20
5.804137
 10
7.027286
 20
5.896357
 10
7.023267999999999
 20
5.940462
 10
7.021843
 20
5.954439
  0
LWPOLYLINE
  5
3A6
330
18
100
AcDbEntity
  8
0
100
AcDbPolyline
 90
        8
 70
     0
 43
0.0
 10
6.922456
 20
4.981189
 10
6.9192
 20
5.028251999999999
 10
6.910164999999999
 20
5.097416
 10
6.899127
 20
5.153548000000001
 10
6.887089
 20
5.201661
 10
6.875045
 20
5.274835
 10
6.870016000000001
 20
5.362043
 10
6.868245
 20
5.473941
  0
LWPOLYLINE
  5
3B1
330
18
100
AcDbEntity
  8
0
100
AcDbPolyline
 90
        4
 70
     0
 43
0.0
 10
6.86068
 20
5.617341000000001
 10
6.859928999999999
 20
5.672787000000001
 10
6.8539
 20
5.747966
 10
6.849324
 20
5.812604
  0
LWPOLYLINE
  5
3B8
330
18
100
AcDbEntity
  8
0
100
AcDbPolyline
 90
        8
 70
     0
 43
0.0
 10
6.853536999999999
 20
4.914134
 10
6.853059
 20
4.942031
 10
6.839011
 20
5.013199
 10
6.820946000000001
 20
5.122458
 10
6.805882
 20
5.262792
 10
6.792825
 20
5.387087999999999
 10
6.780777000000001
 20
5.482314
 10
6.779858
 20
5.500022
  0
LWPOLYLINE
  5
3C3
330
18
100
AcDbEntity
  8
0
100
AcDbPolyline
 90
        3
 70
     0
 43
0.0
 10
6.771922
 20
5.643530999999999
 10
6.768706
 20
5.694821
 10
6.763847999999999
 20
5.74233
  0
LINE
  5
3C9
330
18
100
AcDbEntity
  8
0
100
AcDbLine
 10
7.12953
 20
5.396841
 30
0.0
 11
7.12953
 21
5.182663
 31
0.0
  0
LWPOLYLINE
  5
3CA
330
18
100
AcDbEntity
  8
0
100
AcDbPolyline
 90
        9
 70
     0
 43
0.0
 10
6.748994000000001
 20
4.812417
 10
6.742806
 20
4.881865
 10
6.727742999999999
 20
5.019191999999999
 10
6.715691000000001
 20
5.131459
 10
6.708653
 20
5.23671
 10
6.703619000000001
 20
5.346973
 10
6.693582000000001
 20
5.414133000000001
 10
6.688551
 20
5.508358
 10
6.685803
 20
5.527776
  0
TEXT
  5
3D6
330
18
100
AcDbEntity
  8
0
100
AcDbText
 10
5.199576501422607
 20
4.338714130436599
 30
0.0
 40
0.25
  1
H
 50
342.021977
 41
0.8
 72
     1
 11
5.256647
 21
4.320195
 31
0.0
100
AcDbText
  0
LINE
  5
3D7
330
18
100
AcDbEntity
  8
0
100
AcDbLine
 10
5.042691000000001
 20
5.117474
 30
0.0
 11
4.262697
 21
5.370579
 31
0.0
  0
LINE
  5
3D8
330
18
100
AcDbEntity
  8
0
100
AcDbLine
 10
5.359504
 20
4.230025
 30
0.0
 11
5.359504
 21
3.74779
 31
0.0
  0
TEXT
  5
3D9
330
18
100
AcDbEntity
  8
0
100
AcDbText
 10
5.360906700853565
 20
4.267756478261959
 30
0.0
 40
0.15
  1
1
 50
342.021977
 41
0.8
 72
     1
 11
5.395149
 21
4.256645
 31
0.0
100
AcDbText
  0
SOLID
  5
3DA
330
18
100
AcDbEntity
  8
0
100
AcDbTrace
 10
5.29277
 20
4.84475
 30
0.0
 11
5.417564
 21
4.804255
 31
0.0
 12
5.359504
 22
5.01467
 32
0.0
 13
5.359504
 23
5.01467
 33
0.0
  0
SOLID
  5
3DB
330
18
100
AcDbEntity
  8
0
100
AcDbTrace
 10
5.426239
 20
3.917708999999999
 30
0.0
 11
5.301444999999999
 21
3.958205
 31
0.0
 12
5.359504
 22
3.74779
 32
0.0
 13
5.359504
 23
3.74779
 33
0.0
  0
TEXT
  5
3DC
330
18
100
AcDbEntity
  8
0
100
AcDbText
 10
5.153288
 20
2.012639
 30
0.0
 40
0.22
  1
Simpson Strong-Tie
 41
0.8
100
AcDbText
  0
TEXT
  5
3DD
330
18
100
AcDbEntity
  8
0
100
AcDbText
 10
5.153288
 20
1.656448
 30
0.0
 40
0.22
  1
CC with WD
 41
0.8
100
AcDbText
  0
LINE
  5
3DE
330
18
100
AcDbEntity
  8
0
 62
     0
100
AcDbLine
 10
3.830788
 20
6.809
 30
0.0
 11
3.838337
 21
6.809
 31
0.0
  0
LINE
  5
3DF
330
18
100
AcDbEntity
  8
0
 62
     0
100
AcDbLine
 10
3.823077
 20
6.81
 30
0.0
 11
3.846752
 21
6.81
 31
0.0
  0
LINE
  5
3E0
330
18
100
AcDbEntity
  8
0
 62
     0
100
AcDbLine
 10
3.819374
 20
6.811
 30
0.0
 11
3.851323
 21
6.811
 31
0.0
  0
LINE
  5
3E1
330
18
100
AcDbEntity
  8
0
 62
     0
100
AcDbLine
 10
3.816624
 20
6.812
 30
0.0
 11
3.854841
 21
6.812
 31
0.0
  0
LINE
  5
3E2
330
18
100
AcDbEntity
  8
0
 62
     0
100
AcDbLine
 10
3.814545
 20
6.813
 30
0.0
 11
3.857699
 21
6.813
 31
0.0
  0
LINE
  5
3E3
330
18
100
AcDbEntity
  8
0
 62
     0
100
AcDbLine
 10
3.812864
 20
6.814
 30
0.0
 11
3.860044
 21
6.814
 31
0.0
  0
LINE
  5
3E4
330
18
100
AcDbEntity
  8
0
 62
     0
100
AcDbLine
 10
3.811444
 20
6.815
 30
0.0
 11
3.862061
 21
6.815
 31
0.0
  0
LINE
  5
3E5
330
18
100
AcDbEntity
  8
0
 62
     0
100
AcDbLine
 10
3.810213
 20
6.816
 30
0.0
 11
3.863842
 21
6.816
 31
0.0
  0
LINE
  5
3E6
330
18
100
AcDbEntity
  8
0
 62
     0
100
AcDbLine
 10
3.809134
 20
6.817
 30
0.0
 11
3.865437000000001
 21
6.817
 31
0.0
  0
LINE
  5
3E7
330
18
100
AcDbEntity
  8
0
 62
     0
100
AcDbLine
 10
3.808292
 20
6.818
 30
0.0
 11
3.866818
 21
6.818
 31
0.0
  0
LINE
  5
3E8
330
18
100
AcDbEntity
  8
0
 62
     0
100
AcDbLine
 10
3.807669
 20
6.819
 30
0.0
 11
3.868018
 21
6.819
 31
0.0
  0
LINE
  5
3E9
330
18
100
AcDbEntity
  8
0
 62
     0
100
AcDbLine
 10
3.807214
 20
6.82
 30
0.0
 11
3.869076
 21
6.82
 31
0.0
  0
LINE
  5
3EA
330
18
100
AcDbEntity
  8
0
 62
     0
100
AcDbLine
 10
3.806901
 20
6.821000000000001
 30
0.0
 11
3.870017
 21
6.821000000000001
 31
0.0
  0
LINE
  5
3EB
330
18
100
AcDbEntity
  8
0
 62
     0
100
AcDbLine
 10
3.806714
 20
6.822
 30
0.0
 11
3.870859
 21
6.822
 31
0.0
  0
LINE
  5
3EC
330
18
100
AcDbEntity
  8
0
 62
     0
100
AcDbLine
 10
3.806644
 20
6.823
 30
0.0
 11
3.871613
 21
6.823
 31
0.0
  0
LINE
  5
3ED
330
18
100
AcDbEntity
  8
0
 62
     0
100
AcDbLine
 10
3.80669
 20
6.824
 30
0.0
 11
3.872281
 21
6.824
 31
0.0
  0
LINE
  5
3EE
330
18
100
AcDbEntity
  8
0
 62
     0
100
AcDbLine
 10
3.806853
 20
6.825
 30
0.0
 11
3.872791
 21
6.825
 31
0.0
  0
LINE
  5
3EF
330
18
100
AcDbEntity
  8
0
 62
     0
100
AcDbLine
 10
3.807139
 20
6.826000000000001
 30
0.0
 11
3.873152
 21
6.826000000000001
 31
0.0
  0
LINE
  5
3F0
330
18
100
AcDbEntity
  8
0
 62
     0
100
AcDbLine
 10
3.807563
 20
6.827000000000001
 30
0.0
 11
3.873382
 21
6.827000000000001
 31
0.0
  0
LINE
  5
3F1
330
18
100
AcDbEntity
  8
0
 62
     0
100
AcDbLine
 10
3.808149
 20
6.827999999999999
 30
0.0
 11
3.873492
 21
6.827999999999999
 31
0.0
  0
LINE
  5
3F2
330
18
100
AcDbEntity
  8
0
 62
     0
100
AcDbLine
 10
3.808859
 20
6.829
 30
0.0
 11
3.873487
 21
6.829
 31
0.0
  0
LINE
  5
3F3
330
18
100
AcDbEntity
  8
0
 62
     0
100
AcDbLine
 10
3.809651
 20
6.83
 30
0.0
 11
3.873366
 21
6.83
 31
0.0
  0
LINE
  5
3F4
330
18
100
AcDbEntity
  8
0
 62
     0
100
AcDbLine
 10
3.810534
 20
6.831
 30
0.0
 11
3.873124
 21
6.831
 31
0.0
  0
LINE
  5
3F5
330
18
100
AcDbEntity
  8
0
 62
     0
100
AcDbLine
 10
3.811525
 20
6.832000000000001
 30
0.0
 11
3.872751
 21
6.832000000000001
 31
0.0
  0
LINE
  5
3F6
330
18
100
AcDbEntity
  8
0
 62
     0
100
AcDbLine
 10
3.812642
 20
6.832999999999999
 30
0.0
 11
3.872226
 21
6.832999999999999
 31
0.0
  0
LINE
  5
3F7
330
18
100
AcDbEntity
  8
0
 62
     0
100
AcDbLine
 10
3.813917
 20
6.834
 30
0.0
 11
3.871514
 21
6.834
 31
0.0
  0
LINE
  5
3F8
330
18
100
AcDbEntity
  8
0
 62
     0
100
AcDbLine
 10
3.815395
 20
6.835
 30
0.0
 11
3.870554
 21
6.835
 31
0.0
  0
LINE
  5
3F9
330
18
100
AcDbEntity
  8
0
 62
     0
100
AcDbLine
 10
3.81707
 20
6.836
 30
0.0
 11
3.86941
 21
6.836
 31
0.0
  0
LINE
  5
3FA
330
18
100
AcDbEntity
  8
0
 62
     0
100
AcDbLine
 10
3.818947
 20
6.837000000000001
 30
0.0
 11
3.868101
 21
6.837000000000001
 31
0.0
  0
LINE
  5
3FB
330
18
100
AcDbEntity
  8
0
 62
     0
100
AcDbLine
 10
3.821094
 20
6.837999999999999
 30
0.0
 11
3.866577
 21
6.837999999999999
 31
0.0
  0
LINE
  5
3FC
330
18
100
AcDbEntity
  8
0
 62
     0
100
AcDbLine
 10
3.823635
 20
6.839
 30
0.0
 11
3.864744
 21
6.839
 31
0.0
  0
LINE
  5
3FD
330
18
100
AcDbEntity
  8
0
 62
     0
100
AcDbLine
 10
3.826777
 20
6.84
 30
0.0
 11
3.8624
 21
6.84
 31
0.0
  0
LINE
  5
3FE
330
18
100
AcDbEntity
  8
0
 62
     0
100
AcDbLine
 10
3.830668
 20
6.841
 30
0.0
 11
3.859296
 21
6.841
 31
0.0
  0
LINE
  5
3FF
330
18
100
AcDbEntity
  8
0
 62
     0
100
AcDbLine
 10
3.836135
 20
6.842000000000001
 30
0.0
 11
3.854767
 21
6.842000000000001
 31
0.0
  0
LINE
  5
400
330
18
100
AcDbEntity
  8
0
 62
     0
100
AcDbLine
 10
3.549851
 20
6.642
 30
0.0
 11
3.558
 21
6.642
 31
0.0
  0
LINE
  5
401
330
18
100
AcDbEntity
  8
0
 62
     0
100
AcDbLine
 10
3.541642
 20
6.641
 30
0.0
 11
3.56549
 21
6.641
 31
0.0
  0
LINE
  5
402
330
18
100
AcDbEntity
  8
0
 62
     0
100
AcDbLine
 10
3.537097
 20
6.64
 30
0.0
 11
3.569169
 21
6.64
 31
0.0
  0
LINE
  5
403
330
18
100
AcDbEntity
  8
0
 62
     0
100
AcDbLine
 10
3.533591
 20
6.638999999999999
 30
0.0
 11
3.571905
 21
6.638999999999999
 31
0.0
  0
LINE
  5
404
330
18
100
AcDbEntity
  8
0
 62
     0
100
AcDbLine
 10
3.530745
 20
6.638
 30
0.0
 11
3.573975
 21
6.638
 31
0.0
  0
LINE
  5
405
330
18
100
AcDbEntity
  8
0
 62
     0
100
AcDbLine
 10
3.528406
 20
6.637000000000001
 30
0.0
 11
3.57565
 21
6.637000000000001
 31
0.0
  0
LINE
  5
406
330
18
100
AcDbEntity
  8
0
 62
     0
100
AcDbLine
 10
3.526394
 20
6.636
 30
0.0
 11
3.577067
 21
6.636
 31
0.0
  0
LINE
  5
407
330
18
100
AcDbEntity
  8
0
 62
     0
100
AcDbLine
 10
3.524617
 20
6.635
 30
0.0
 11
3.578295
 21
6.635
 31
0.0
  0
LINE
  5
408
330
18
100
AcDbEntity
  8
0
 62
     0
100
AcDbLine
 10
3.523025
 20
6.634
 30
0.0
 11
3.579371
 21
6.634
 31
0.0
  0
LINE
  5
409
330
18
100
AcDbEntity
  8
0
 62
     0
100
AcDbLine
 10
3.521648
 20
6.632999999999999
 30
0.0
 11
3.580208
 21
6.632999999999999
 31
0.0
  0
LINE
  5
40A
330
18
100
AcDbEntity
  8
0
 62
     0
100
AcDbLine
 10
3.52045
 20
6.632000000000001
 30
0.0
 11
3.580828
 21
6.632000000000001
 31
0.0
  0
LINE
  5
40B
330
18
100
AcDbEntity
  8
0
 62
     0
100
AcDbLine
 10
3.519394
 20
6.631
 30
0.0
 11
3.581280000000001
 21
6.631
 31
0.0
  0
LINE
  5
40C
330
18
100
AcDbEntity
  8
0
 62
     0
100
AcDbLine
 10
3.518455
 20
6.63
 30
0.0
 11
3.581591
 21
6.63
 31
0.0
  0
LINE
  5
40D
330
18
100
AcDbEntity
  8
0
 62
     0
100
AcDbLine
 10
3.517616
 20
6.629
 30
0.0
 11
3.581776
 21
6.629
 31
0.0
  0
LINE
  5
40E
330
18
100
AcDbEntity
  8
0
 62
     0
100
AcDbLine
 10
3.516863
 20
6.627999999999999
 30
0.0
 11
3.581844
 21
6.627999999999999
 31
0.0
  0
LINE
  5
40F
330
18
100
AcDbEntity
  8
0
 62
     0
100
AcDbLine
 10
3.516197
 20
6.627000000000001
 30
0.0
 11
3.581796
 21
6.627000000000001
 31
0.0
  0
LINE
  5
410
330
18
100
AcDbEntity
  8
0
 62
     0
100
AcDbLine
 10
3.51569
 20
6.626
 30
0.0
 11
3.581631
 21
6.626
 31
0.0
  0
LINE
  5
411
330
18
100
AcDbEntity
  8
0
 62
     0
100
AcDbLine
 10
3.515331
 20
6.625
 30
0.0
 11
3.581343
 21
6.625
 31
0.0
  0
LINE
  5
412
330
18
100
AcDbEntity
  8
0
 62
     0
100
AcDbLine
 10
3.515103
 20
6.624
 30
0.0
 11
3.580916
 21
6.624
 31
0.0
  0
LINE
  5
413
330
18
100
AcDbEntity
  8
0
 62
     0
100
AcDbLine
 10
3.514995
 20
6.622999999999999
 30
0.0
 11
3.580328
 21
6.622999999999999
 31
0.0
  0
LINE
  5
414
330
18
100
AcDbEntity
  8
0
 62
     0
100
AcDbLine
 10
3.515002
 20
6.622000000000001
 30
0.0
 11
3.579616
 21
6.622000000000001
 31
0.0
  0
LINE
  5
415
330
18
100
AcDbEntity
  8
0
 62
     0
100
AcDbLine
 10
3.515125
 20
6.621
 30
0.0
 11
3.578823
 21
6.621
 31
0.0
  0
LINE
  5
416
330
18
100
AcDbEntity
  8
0
 62
     0
100
AcDbLine
 10
3.515369
 20
6.62
 30
0.0
 11
3.577938
 21
6.62
 31
0.0
  0
LINE
  5
417
330
18
100
AcDbEntity
  8
0
 62
     0
100
AcDbLine
 10
3.515745
 20
6.619
 30
0.0
 11
3.576945
 21
6.619
 31
0.0
  0
LINE
  5
418
330
18
100
AcDbEntity
  8
0
 62
     0
100
AcDbLine
 10
3.516273
 20
6.617999999999999
 30
0.0
 11
3.575825
 21
6.617999999999999
 31
0.0
  0
LINE
  5
419
330
18
100
AcDbEntity
  8
0
 62
     0
100
AcDbLine
 10
3.516988
 20
6.617000000000001
 30
0.0
 11
3.574548000000001
 21
6.617000000000001
 31
0.0
  0
LINE
  5
41A
330
18
100
AcDbEntity
  8
0
 62
     0
100
AcDbLine
 10
3.517953
 20
6.616000000000001
 30
0.0
 11
3.573066
 21
6.616000000000001
 31
0.0
  0
LINE
  5
41B
330
18
100
AcDbEntity
  8
0
 62
     0
100
AcDbLine
 10
3.519099
 20
6.615
 30
0.0
 11
3.571387
 21
6.615
 31
0.0
  0
LINE
  5
41C
330
18
100
AcDbEntity
  8
0
 62
     0
100
AcDbLine
 10
3.520411
 20
6.614
 30
0.0
 11
3.569506
 21
6.614
 31
0.0
  0
LINE
  5
41D
330
18
100
AcDbEntity
  8
0
 62
     0
100
AcDbLine
 10
3.52194
 20
6.613
 30
0.0
 11
3.567353
 21
6.613
 31
0.0
  0
LINE
  5
41E
330
18
100
AcDbEntity
  8
0
 62
     0
100
AcDbLine
 10
3.52378
 20
6.612
 30
0.0
 11
3.564804
 21
6.612
 31
0.0
  0
LINE
  5
41F
330
18
100
AcDbEntity
  8
0
 62
     0
100
AcDbLine
 10
3.526136
 20
6.611000000000001
 30
0.0
 11
3.561651
 21
6.611000000000001
 31
0.0
  0
LINE
  5
420
330
18
100
AcDbEntity
  8
0
 62
     0
100
AcDbLine
 10
3.529255000000001
 20
6.61
 30
0.0
 11
3.557743
 21
6.61
 31
0.0
  0
LINE
  5
421
330
18
100
AcDbEntity
  8
0
 62
     0
100
AcDbLine
 10
3.533828
 20
6.609
 30
0.0
 11
3.552229
 21
6.609
 31
0.0
  0
LINE
  5
422
330
18
100
AcDbEntity
  8
0
 62
     0
100
AcDbLine
 10
4.838769999999999
 20
6.547000000000001
 30
0.0
 11
4.846697
 21
6.547000000000001
 31
0.0
  0
LINE
  5
423
330
18
100
AcDbEntity
  8
0
 62
     0
100
AcDbLine
 10
4.831199
 20
6.547999999999999
 30
0.0
 11
4.854982
 21
6.547999999999999
 31
0.0
  0
LINE
  5
424
330
18
100
AcDbEntity
  8
0
 62
     0
100
AcDbLine
 10
4.827511
 20
6.549
 30
0.0
 11
4.859536
 21
6.549
 31
0.0
  0
LINE
  5
425
330
18
100
AcDbEntity
  8
0
 62
     0
100
AcDbLine
 10
4.824769
 20
6.55
 30
0.0
 11
4.863047
 21
6.55
 31
0.0
  0
LINE
  5
426
330
18
100
AcDbEntity
  8
0
 62
     0
100
AcDbLine
 10
4.822696
 20
6.551
 30
0.0
 11
4.865897
 21
6.551
 31
0.0
  0
LINE
  5
427
330
18
100
AcDbEntity
  8
0
 62
     0
100
AcDbLine
 10
4.821019000000001
 20
6.552000000000001
 30
0.0
 11
4.868238
 21
6.552000000000001
 31
0.0
  0
LINE
  5
428
330
18
100
AcDbEntity
  8
0
 62
     0
100
AcDbLine
 10
4.819601000000001
 20
6.553
 30
0.0
 11
4.870252
 21
6.553
 31
0.0
  0
LINE
  5
429
330
18
100
AcDbEntity
  8
0
 62
     0
100
AcDbLine
 10
4.818372
 20
6.553999999999999
 30
0.0
 11
4.872031
 21
6.553999999999999
 31
0.0
  0
LINE
  5
42A
330
18
100
AcDbEntity
  8
0
 62
     0
100
AcDbLine
 10
4.817295
 20
6.555
 30
0.0
 11
4.873624
 21
6.555
 31
0.0
  0
LINE
  5
42B
330
18
100
AcDbEntity
  8
0
 62
     0
100
AcDbLine
 10
4.816455
 20
6.556
 30
0.0
 11
4.875003
 21
6.556
 31
0.0
  0
LINE
  5
42C
330
18
100
AcDbEntity
  8
0
 62
     0
100
AcDbLine
 10
4.815834
 20
6.557
 30
0.0
 11
4.876201
 21
6.557
 31
0.0
  0
LINE
  5
42D
330
18
100
AcDbEntity
  8
0
 62
     0
100
AcDbLine
 10
4.815381
 20
6.558
 30
0.0
 11
4.877258
 21
6.558
 31
0.0
  0
LINE
  5
42E
330
18
100
AcDbEntity
  8
0
 62
     0
100
AcDbLine
 10
4.815069
 20
6.559
 30
0.0
 11
4.878198
 21
6.559
 31
0.0
  0
LINE
  5
42F
330
18
100
AcDbEntity
  8
0
 62
     0
100
AcDbLine
 10
4.814883
 20
6.56
 30
0.0
 11
4.879038
 21
6.56
 31
0.0
  0
LINE
  5
430
330
18
100
AcDbEntity
  8
0
 62
     0
100
AcDbLine
 10
4.814815
 20
6.561
 30
0.0
 11
4.879792
 21
6.561
 31
0.0
  0
LINE
  5
431
330
18
100
AcDbEntity
  8
0
 62
     0
100
AcDbLine
 10
4.814862000000001
 20
6.562
 30
0.0
 11
4.880458
 21
6.562
 31
0.0
  0
LINE
  5
432
330
18
100
AcDbEntity
  8
0
 62
     0
100
AcDbLine
 10
4.815026000000001
 20
6.563
 30
0.0
 11
4.880966
 21
6.563
 31
0.0
  0
LINE
  5
433
330
18
100
AcDbEntity
  8
0
 62
     0
100
AcDbLine
 10
4.815314
 20
6.564
 30
0.0
 11
4.881326000000001
 21
6.564
 31
0.0
  0
LINE
  5
434
330
18
100
AcDbEntity
  8
0
 62
     0
100
AcDbLine
 10
4.81574
 20
6.565
 30
0.0
 11
4.881555000000001
 21
6.565
 31
0.0
  0
LINE
  5
435
330
18
100
AcDbEntity
  8
0
 62
     0
100
AcDbLine
 10
4.816326999999999
 20
6.566
 30
0.0
 11
4.881664
 21
6.566
 31
0.0
  0
LINE
  5
436
330
18
100
AcDbEntity
  8
0
 62
     0
100
AcDbLine
 10
4.817038
 20
6.567
 30
0.0
 11
4.881657
 21
6.567
 31
0.0
  0
LINE
  5
437
330
18
100
AcDbEntity
  8
0
 62
     0
100
AcDbLine
 10
4.817831
 20
6.568
 30
0.0
 11
4.881535
 21
6.568
 31
0.0
  0
LINE
  5
438
330
18
100
AcDbEntity
  8
0
 62
     0
100
AcDbLine
 10
4.818715
 20
6.569
 30
0.0
 11
4.881292
 21
6.569
 31
0.0
  0
LINE
  5
439
330
18
100
AcDbEntity
  8
0
 62
     0
100
AcDbLine
 10
4.819707
 20
6.57
 30
0.0
 11
4.880917
 21
6.57
 31
0.0
  0
LINE
  5
43A
330
18
100
AcDbEntity
  8
0
 62
     0
100
AcDbLine
 10
4.820826
 20
6.571000000000001
 30
0.0
 11
4.88039
 21
6.571000000000001
 31
0.0
  0
LINE
  5
43B
330
18
100
AcDbEntity
  8
0
 62
     0
100
AcDbLine
 10
4.822102
 20
6.572
 30
0.0
 11
4.879676
 21
6.572
 31
0.0
  0
LINE
  5
43C
330
18
100
AcDbEntity
  8
0
 62
     0
100
AcDbLine
 10
4.823583
 20
6.573
 30
0.0
 11
4.878714
 21
6.573
 31
0.0
  0
LINE
  5
43D
330
18
100
AcDbEntity
  8
0
 62
     0
100
AcDbLine
 10
4.82526
 20
6.574
 30
0.0
 11
4.877568
 21
6.574
 31
0.0
  0
LINE
  5
43E
330
18
100
AcDbEntity
  8
0
 62
     0
100
AcDbLine
 10
4.82714
 20
6.575
 30
0.0
 11
4.876257
 21
6.575
 31
0.0
  0
LINE
  5
43F
330
18
100
AcDbEntity
  8
0
 62
     0
100
AcDbLine
 10
4.82929
 20
6.576000000000001
 30
0.0
 11
4.874730000000001
 21
6.576000000000001
 31
0.0
  0
LINE
  5
440
330
18
100
AcDbEntity
  8
0
 62
     0
100
AcDbLine
 10
4.831837
 20
6.577000000000001
 30
0.0
 11
4.872893
 21
6.577000000000001
 31
0.0
  0
LINE
  5
441
330
18
100
AcDbEntity
  8
0
 62
     0
100
AcDbLine
 10
4.834986
 20
6.577999999999999
 30
0.0
 11
4.870541
 21
6.577999999999999
 31
0.0
  0
LINE
  5
442
330
18
100
AcDbEntity
  8
0
 62
     0
100
AcDbLine
 10
4.838887000000001
 20
6.579
 30
0.0
 11
4.867428
 21
6.579
 31
0.0
  0
LINE
  5
443
330
18
100
AcDbEntity
  8
0
 62
     0
100
AcDbLine
 10
4.844383000000001
 20
6.58
 30
0.0
 11
4.862872
 21
6.58
 31
0.0
  0
LINE
  5
444
330
18
100
AcDbEntity
  8
0
 62
     0
100
AcDbLine
 10
4.505072
 20
6.356
 30
0.0
 11
4.523266000000001
 21
6.356
 31
0.0
  0
LINE
  5
445
330
18
100
AcDbEntity
  8
0
 62
     0
100
AcDbLine
 10
4.499516000000001
 20
6.355
 30
0.0
 11
4.527880000000001
 21
6.355
 31
0.0
  0
LINE
  5
446
330
18
100
AcDbEntity
  8
0
 62
     0
100
AcDbLine
 10
4.495593
 20
6.354
 30
0.0
 11
4.531012000000001
 21
6.354
 31
0.0
  0
LINE
  5
447
330
18
100
AcDbEntity
  8
0
 62
     0
100
AcDbLine
 10
4.492430000000001
 20
6.353
 30
0.0
 11
4.533379
 21
6.353
 31
0.0
  0
LINE
  5
448
330
18
100
AcDbEntity
  8
0
 62
     0
100
AcDbLine
 10
4.489873
 20
6.352
 30
0.0
 11
4.535225
 21
6.352
 31
0.0
  0
LINE
  5
449
330
18
100
AcDbEntity
  8
0
 62
     0
100
AcDbLine
 10
4.487715000000001
 20
6.351
 30
0.0
 11
4.536757
 21
6.351
 31
0.0
  0
LINE
  5
44A
330
18
100
AcDbEntity
  8
0
 62
     0
100
AcDbLine
 10
4.48583
 20
6.35
 30
0.0
 11
4.538072000000001
 21
6.35
 31
0.0
  0
LINE
  5
44B
330
18
100
AcDbEntity
  8
0
 62
     0
100
AcDbLine
 10
4.484149
 20
6.349
 30
0.0
 11
4.539221
 21
6.349
 31
0.0
  0
LINE
  5
44C
330
18
100
AcDbEntity
  8
0
 62
     0
100
AcDbLine
 10
4.482664
 20
6.348
 30
0.0
 11
4.540189
 21
6.348
 31
0.0
  0
LINE
  5
44D
330
18
100
AcDbEntity
  8
0
 62
     0
100
AcDbLine
 10
4.481383
 20
6.347
 30
0.0
 11
4.540908
 21
6.347
 31
0.0
  0
LINE
  5
44E
330
18
100
AcDbEntity
  8
0
 62
     0
100
AcDbLine
 10
4.480261000000001
 20
6.346
 30
0.0
 11
4.541437999999999
 21
6.346
 31
0.0
  0
LINE
  5
44F
330
18
100
AcDbEntity
  8
0
 62
     0
100
AcDbLine
 10
4.479267
 20
6.345
 30
0.0
 11
4.541816000000001
 21
6.345
 31
0.0
  0
LINE
  5
450
330
18
100
AcDbEntity
  8
0
 62
     0
100
AcDbLine
 10
4.478380000000001
 20
6.343999999999999
 30
0.0
 11
4.542062000000001
 21
6.343999999999999
 31
0.0
  0
LINE
  5
451
330
18
100
AcDbEntity
  8
0
 62
     0
100
AcDbLine
 10
4.477586
 20
6.343
 30
0.0
 11
4.542187
 21
6.343
 31
0.0
  0
LINE
  5
452
330
18
100
AcDbEntity
  8
0
 62
     0
100
AcDbLine
 10
4.476873
 20
6.342000000000001
 30
0.0
 11
4.542196
 21
6.342000000000001
 31
0.0
  0
LINE
  5
453
330
18
100
AcDbEntity
  8
0
 62
     0
100
AcDbLine
 10
4.476282
 20
6.341
 30
0.0
 11
4.542089
 21
6.341
 31
0.0
  0
LINE
  5
454
330
18
100
AcDbEntity
  8
0
 62
     0
100
AcDbLine
 10
4.475853
 20
6.34
 30
0.0
 11
4.541862999999999
 21
6.34
 31
0.0
  0
LINE
  5
455
330
18
100
AcDbEntity
  8
0
 62
     0
100
AcDbLine
 10
4.475562
 20
6.339
 30
0.0
 11
4.541507
 21
6.339
 31
0.0
  0
LINE
  5
456
330
18
100
AcDbEntity
  8
0
 62
     0
100
AcDbLine
 10
4.475396
 20
6.337999999999999
 30
0.0
 11
4.541002
 21
6.337999999999999
 31
0.0
  0
LINE
  5
457
330
18
100
AcDbEntity
  8
0
 62
     0
100
AcDbLine
 10
4.475346
 20
6.337000000000001
 30
0.0
 11
4.540337999999999
 21
6.337000000000001
 31
0.0
  0
LINE
  5
458
330
18
100
AcDbEntity
  8
0
 62
     0
100
AcDbLine
 10
4.475412
 20
6.336
 30
0.0
 11
4.539587
 21
6.336
 31
0.0
  0
LINE
  5
459
330
18
100
AcDbEntity
  8
0
 62
     0
100
AcDbLine
 10
4.475594999999999
 20
6.335
 30
0.0
 11
4.538748
 21
6.335
 31
0.0
  0
LINE
  5
45A
330
18
100
AcDbEntity
  8
0
 62
     0
100
AcDbLine
 10
4.475904
 20
6.334
 30
0.0
 11
4.537811000000001
 21
6.334
 31
0.0
  0
LINE
  5
45B
330
18
100
AcDbEntity
  8
0
 62
     0
100
AcDbLine
 10
4.476354
 20
6.332999999999999
 30
0.0
 11
4.536757
 21
6.332999999999999
 31
0.0
  0
LINE
  5
45C
330
18
100
AcDbEntity
  8
0
 62
     0
100
AcDbLine
 10
4.476971
 20
6.332000000000001
 30
0.0
 11
4.535562000000001
 21
6.332000000000001
 31
0.0
  0
LINE
  5
45D
330
18
100
AcDbEntity
  8
0
 62
     0
100
AcDbLine
 10
4.477804
 20
6.331
 30
0.0
 11
4.534187
 21
6.331
 31
0.0
  0
LINE
  5
45E
330
18
100
AcDbEntity
  8
0
 62
     0
100
AcDbLine
 10
4.478878
 20
6.33
 30
0.0
 11
4.532598999999999
 21
6.33
 31
0.0
  0
LINE
  5
45F
330
18
100
AcDbEntity
  8
0
 62
     0
100
AcDbLine
 10
4.480103
 20
6.329
 30
0.0
 11
4.530825
 21
6.329
 31
0.0
  0
LINE
  5
460
330
18
100
AcDbEntity
  8
0
 62
     0
100
AcDbLine
 10
4.481516
 20
6.327999999999999
 30
0.0
 11
4.528817
 21
6.327999999999999
 31
0.0
  0
LINE
  5
461
330
18
100
AcDbEntity
  8
0
 62
     0
100
AcDbLine
 10
4.483187
 20
6.327000000000001
 30
0.0
 11
4.526484
 21
6.327000000000001
 31
0.0
  0
LINE
  5
462
330
18
100
AcDbEntity
  8
0
 62
     0
100
AcDbLine
 10
4.485249
 20
6.326000000000001
 30
0.0
 11
4.523648000000001
 21
6.326000000000001
 31
0.0
  0
LINE
  5
463
330
18
100
AcDbEntity
  8
0
 62
     0
100
AcDbLine
 10
4.487974
 20
6.325
 30
0.0
 11
4.520153
 21
6.325
 31
0.0
  0
LINE
  5
464
330
18
100
AcDbEntity
  8
0
 62
     0
100
AcDbLine
 10
4.491632
 20
6.324
 30
0.0
 11
4.515632
 21
6.324
 31
0.0
  0
LINE
  5
465
330
18
100
AcDbEntity
  8
0
 62
     0
100
AcDbLine
 10
4.498943
 20
6.323
 30
0.0
 11
4.507586
 21
6.323
 31
0.0
  0
LINE
  5
466
330
18
100
AcDbEntity
  8
0
 62
     0
100
AcDbLine
 10
3.935685
 20
4.454
 30
0.0
 11
3.941284
 21
4.454
 31
0.0
  0
LINE
  5
467
330
18
100
AcDbEntity
  8
0
 62
     0
100
AcDbLine
 10
3.933837000000001
 20
4.455
 30
0.0
 11
3.943633
 21
4.455
 31
0.0
  0
LINE
  5
468
330
18
100
AcDbEntity
  8
0
 62
     0
100
AcDbLine
 10
3.932712
 20
4.456
 30
0.0
 11
3.945295
 21
4.456
 31
0.0
  0
LINE
  5
469
330
18
100
AcDbEntity
  8
0
 62
     0
100
AcDbLine
 10
3.931921
 20
4.457
 30
0.0
 11
3.946603
 21
4.457
 31
0.0
  0
LINE
  5
46A
330
18
100
AcDbEntity
  8
0
 62
     0
100
AcDbLine
 10
3.931283
 20
4.458
 30
0.0
 11
3.94771
 21
4.458
 31
0.0
  0
LINE
  5
46B
330
18
100
AcDbEntity
  8
0
 62
     0
100
AcDbLine
 10
3.930741
 20
4.459
 30
0.0
 11
3.948695
 21
4.459
 31
0.0
  0
LINE
  5
46C
330
18
100
AcDbEntity
  8
0
 62
     0
100
AcDbLine
 10
3.930287
 20
4.46
 30
0.0
 11
3.949578
 21
4.46
 31
0.0
  0
LINE
  5
46D
330
18
100
AcDbEntity
  8
0
 62
     0
100
AcDbLine
 10
3.929911
 20
4.461
 30
0.0
 11
3.950372
 21
4.461
 31
0.0
  0
LINE
  5
46E
330
18
100
AcDbEntity
  8
0
 62
     0
100
AcDbLine
 10
3.929608
 20
4.462
 30
0.0
 11
3.951088
 21
4.462
 31
0.0
  0
LINE
  5
46F
330
18
100
AcDbEntity
  8
0
 62
     0
100
AcDbLine
 10
3.929373
 20
4.463
 30
0.0
 11
3.951735
 21
4.463
 31
0.0
  0
LINE
  5
470
330
18
100
AcDbEntity
  8
0
 62
     0
100
AcDbLine
 10
3.929194
 20
4.464
 30
0.0
 11
3.952335
 21
4.464
 31
0.0
  0
LINE
  5
471
330
18
100
AcDbEntity
  8
0
 62
     0
100
AcDbLine
 10
3.929056
 20
4.465
 30
0.0
 11
3.952895
 21
4.465
 31
0.0
  0
LINE
  5
472
330
18
100
AcDbEntity
  8
0
 62
     0
100
AcDbLine
 10
3.928959
 20
4.466
 30
0.0
 11
3.953415
 21
4.466
 31
0.0
  0
LINE
  5
473
330
18
100
AcDbEntity
  8
0
 62
     0
100
AcDbLine
 10
3.928902
 20
4.467
 30
0.0
 11
3.953898
 21
4.467
 31
0.0
  0
LINE
  5
474
330
18
100
AcDbEntity
  8
0
 62
     0
100
AcDbLine
 10
3.928885
 20
4.468
 30
0.0
 11
3.954345
 21
4.468
 31
0.0
  0
LINE
  5
475
330
18
100
AcDbEntity
  8
0
 62
     0
100
AcDbLine
 10
3.928909
 20
4.468999999999999
 30
0.0
 11
3.954757
 21
4.468999999999999
 31
0.0
  0
LINE
  5
476
330
18
100
AcDbEntity
  8
0
 62
     0
100
AcDbLine
 10
3.928972
 20
4.47
 30
0.0
 11
3.955137
 21
4.47
 31
0.0
  0
LINE
  5
477
330
18
100
AcDbEntity
  8
0
 62
     0
100
AcDbLine
 10
3.929072
 20
4.471
 30
0.0
 11
3.955484
 21
4.471
 31
0.0
  0
LINE
  5
478
330
18
100
AcDbEntity
  8
0
 62
     0
100
AcDbLine
 10
3.9292
 20
4.472
 30
0.0
 11
3.955801
 21
4.472
 31
0.0
  0
LINE
  5
479
330
18
100
AcDbEntity
  8
0
 62
     0
100
AcDbLine
 10
3.929356
 20
4.473
 30
0.0
 11
3.956087
 21
4.473
 31
0.0
  0
LINE
  5
47A
330
18
100
AcDbEntity
  8
0
 62
     0
100
AcDbLine
 10
3.929539
 20
4.474
 30
0.0
 11
3.956343
 21
4.474
 31
0.0
  0
LINE
  5
47B
330
18
100
AcDbEntity
  8
0
 62
     0
100
AcDbLine
 10
3.929751
 20
4.475
 30
0.0
 11
3.95657
 21
4.475
 31
0.0
  0
LINE
  5
47C
330
18
100
AcDbEntity
  8
0
 62
     0
100
AcDbLine
 10
3.929991
 20
4.476
 30
0.0
 11
3.956769
 21
4.476
 31
0.0
  0
LINE
  5
47D
330
18
100
AcDbEntity
  8
0
 62
     0
100
AcDbLine
 10
3.93026
 20
4.477
 30
0.0
 11
3.95694
 21
4.477
 31
0.0
  0
LINE
  5
47E
330
18
100
AcDbEntity
  8
0
 62
     0
100
AcDbLine
 10
3.93056
 20
4.478
 30
0.0
 11
3.957083
 21
4.478
 31
0.0
  0
LINE
  5
47F
330
18
100
AcDbEntity
  8
0
 62
     0
100
AcDbLine
 10
3.93089
 20
4.479
 30
0.0
 11
3.957199
 21
4.479
 31
0.0
  0
LINE
  5
480
330
18
100
AcDbEntity
  8
0
 62
     0
100
AcDbLine
 10
3.931252
 20
4.48
 30
0.0
 11
3.957284
 21
4.48
 31
0.0
  0
LINE
  5
481
330
18
100
AcDbEntity
  8
0
 62
     0
100
AcDbLine
 10
3.931646
 20
4.481
 30
0.0
 11
3.957329
 21
4.481
 31
0.0
  0
LINE
  5
482
330
18
100
AcDbEntity
  8
0
 62
     0
100
AcDbLine
 10
3.932074
 20
4.482
 30
0.0
 11
3.957334
 21
4.482
 31
0.0
  0
LINE
  5
483
330
18
100
AcDbEntity
  8
0
 62
     0
100
AcDbLine
 10
3.932538
 20
4.483000000000001
 30
0.0
 11
3.957299
 21
4.483000000000001
 31
0.0
  0
LINE
  5
484
330
18
100
AcDbEntity
  8
0
 62
     0
100
AcDbLine
 10
3.933037
 20
4.484
 30
0.0
 11
3.957224
 21
4.484
 31
0.0
  0
LINE
  5
485
330
18
100
AcDbEntity
  8
0
 62
     0
100
AcDbLine
 10
3.933575
 20
4.485
 30
0.0
 11
3.957109
 21
4.485
 31
0.0
  0
LINE
  5
486
330
18
100
AcDbEntity
  8
0
 62
     0
100
AcDbLine
 10
3.934152
 20
4.486000000000001
 30
0.0
 11
3.956952
 21
4.486000000000001
 31
0.0
  0
LINE
  5
487
330
18
100
AcDbEntity
  8
0
 62
     0
100
AcDbLine
 10
3.934772
 20
4.487
 30
0.0
 11
3.956751
 21
4.487
 31
0.0
  0
LINE
  5
488
330
18
100
AcDbEntity
  8
0
 62
     0
100
AcDbLine
 10
3.935448000000001
 20
4.488
 30
0.0
 11
3.956486
 21
4.488
 31
0.0
  0
LINE
  5
489
330
18
100
AcDbEntity
  8
0
 62
     0
100
AcDbLine
 10
3.936198000000001
 20
4.489
 30
0.0
 11
3.956151
 21
4.489
 31
0.0
  0
LINE
  5
48A
330
18
100
AcDbEntity
  8
0
 62
     0
100
AcDbLine
 10
3.937030000000001
 20
4.49
 30
0.0
 11
3.95574
 21
4.49
 31
0.0
  0
LINE
  5
48B
330
18
100
AcDbEntity
  8
0
 62
     0
100
AcDbLine
 10
3.937958
 20
4.491000000000001
 30
0.0
 11
3.955248000000001
 21
4.491000000000001
 31
0.0
  0
LINE
  5
48C
330
18
100
AcDbEntity
  8
0
 62
     0
100
AcDbLine
 10
3.938995
 20
4.492
 30
0.0
 11
3.954664
 21
4.492
 31
0.0
  0
LINE
  5
48D
330
18
100
AcDbEntity
  8
0
 62
     0
100
AcDbLine
 10
3.940175
 20
4.493
 30
0.0
 11
3.953975
 21
4.493
 31
0.0
  0
LINE
  5
48E
330
18
100
AcDbEntity
  8
0
 62
     0
100
AcDbLine
 10
3.941621
 20
4.494
 30
0.0
 11
3.953056
 21
4.494
 31
0.0
  0
LINE
  5
48F
330
18
100
AcDbEntity
  8
0
 62
     0
100
AcDbLine
 10
3.943524
 20
4.495
 30
0.0
 11
3.951692
 21
4.495
 31
0.0
  0
LINE
  5
490
330
18
100
AcDbEntity
  8
0
 62
     0
100
AcDbLine
 10
3.946811
 20
4.496
 30
0.0
 11
3.948705
 21
4.496
 31
0.0
  0
LINE
  5
491
330
18
100
AcDbEntity
  8
0
 62
     0
100
AcDbLine
 10
3.941986
 20
4.608000000000001
 30
0.0
 11
3.944905
 21
4.608000000000001
 31
0.0
  0
LINE
  5
492
330
18
100
AcDbEntity
  8
0
 62
     0
100
AcDbLine
 10
3.939376
 20
4.609
 30
0.0
 11
3.947856
 21
4.609
 31
0.0
  0
LINE
  5
493
330
18
100
AcDbEntity
  8
0
 62
     0
100
AcDbLine
 10
3.938062
 20
4.61
 30
0.0
 11
3.94971
 21
4.61
 31
0.0
  0
LINE
  5
494
330
18
100
AcDbEntity
  8
0
 62
     0
100
AcDbLine
 10
3.937167
 20
4.611000000000001
 30
0.0
 11
3.951130000000001
 21
4.611000000000001
 31
0.0
  0
LINE
  5
495
330
18
100
AcDbEntity
  8
0
 62
     0
100
AcDbLine
 10
3.936489
 20
4.612
 30
0.0
 11
3.952295
 21
4.612
 31
0.0
  0
LINE
  5
496
330
18
100
AcDbEntity
  8
0
 62
     0
100
AcDbLine
 10
3.935913
 20
4.613
 30
0.0
 11
3.953323
 21
4.613
 31
0.0
  0
LINE
  5
497
330
18
100
AcDbEntity
  8
0
 62
     0
100
AcDbLine
 10
3.935427
 20
4.614
 30
0.0
 11
3.954242
 21
4.614
 31
0.0
  0
LINE
  5
498
330
18
100
AcDbEntity
  8
0
 62
     0
100
AcDbLine
 10
3.935023
 20
4.615
 30
0.0
 11
3.955068
 21
4.615
 31
0.0
  0
LINE
  5
499
330
18
100
AcDbEntity
  8
0
 62
     0
100
AcDbLine
 10
3.934693
 20
4.616000000000001
 30
0.0
 11
3.955811
 21
4.616000000000001
 31
0.0
  0
LINE
  5
49A
330
18
100
AcDbEntity
  8
0
 62
     0
100
AcDbLine
 10
3.934434
 20
4.617
 30
0.0
 11
3.956482
 21
4.617
 31
0.0
  0
LINE
  5
49B
330
18
100
AcDbEntity
  8
0
 62
     0
100
AcDbLine
 10
3.934237
 20
4.618
 30
0.0
 11
3.957098
 21
4.618
 31
0.0
  0
LINE
  5
49C
330
18
100
AcDbEntity
  8
0
 62
     0
100
AcDbLine
 10
3.934084
 20
4.619
 30
0.0
 11
3.957673
 21
4.619
 31
0.0
  0
LINE
  5
49D
330
18
100
AcDbEntity
  8
0
 62
     0
100
AcDbLine
 10
3.933971
 20
4.62
 30
0.0
 11
3.958207
 21
4.62
 31
0.0
  0
LINE
  5
49E
330
18
100
AcDbEntity
  8
0
 62
     0
100
AcDbLine
 10
3.9339
 20
4.621
 30
0.0
 11
3.958704
 21
4.621
 31
0.0
  0
LINE
  5
49F
330
18
100
AcDbEntity
  8
0
 62
     0
100
AcDbLine
 10
3.933868
 20
4.622
 30
0.0
 11
3.959164
 21
4.622
 31
0.0
  0
LINE
  5
4A0
330
18
100
AcDbEntity
  8
0
 62
     0
100
AcDbLine
 10
3.933876
 20
4.623
 30
0.0
 11
3.959589
 21
4.623
 31
0.0
  0
LINE
  5
4A1
330
18
100
AcDbEntity
  8
0
 62
     0
100
AcDbLine
 10
3.933925
 20
4.624
 30
0.0
 11
3.959981
 21
4.624
 31
0.0
  0
LINE
  5
4A2
330
18
100
AcDbEntity
  8
0
 62
     0
100
AcDbLine
 10
3.934013
 20
4.625
 30
0.0
 11
3.96034
 21
4.625
 31
0.0
  0
LINE
  5
4A3
330
18
100
AcDbEntity
  8
0
 62
     0
100
AcDbLine
 10
3.934131
 20
4.626
 30
0.0
 11
3.960668
 21
4.626
 31
0.0
  0
LINE
  5
4A4
330
18
100
AcDbEntity
  8
0
 62
     0
100
AcDbLine
 10
3.934276
 20
4.627
 30
0.0
 11
3.960965
 21
4.627
 31
0.0
  0
LINE
  5
4A5
330
18
100
AcDbEntity
  8
0
 62
     0
100
AcDbLine
 10
3.934449
 20
4.628
 30
0.0
 11
3.961232
 21
4.628
 31
0.0
  0
LINE
  5
4A6
330
18
100
AcDbEntity
  8
0
 62
     0
100
AcDbLine
 10
3.93465
 20
4.629
 30
0.0
 11
3.96147
 21
4.629
 31
0.0
  0
LINE
  5
4A7
330
18
100
AcDbEntity
  8
0
 62
     0
100
AcDbLine
 10
3.934879
 20
4.63
 30
0.0
 11
3.96168
 21
4.63
 31
0.0
  0
LINE
  5
4A8
330
18
100
AcDbEntity
  8
0
 62
     0
100
AcDbLine
 10
3.935138
 20
4.631
 30
0.0
 11
3.961861
 21
4.631
 31
0.0
  0
LINE
  5
4A9
330
18
100
AcDbEntity
  8
0
 62
     0
100
AcDbLine
 10
3.935426
 20
4.632
 30
0.0
 11
3.962014
 21
4.632
 31
0.0
  0
LINE
  5
4AA
330
18
100
AcDbEntity
  8
0
 62
     0
100
AcDbLine
 10
3.935745
 20
4.633
 30
0.0
 11
3.96214
 21
4.633
 31
0.0
  0
LINE
  5
4AB
330
18
100
AcDbEntity
  8
0
 62
     0
100
AcDbLine
 10
3.936095
 20
4.634
 30
0.0
 11
3.962238
 21
4.634
 31
0.0
  0
LINE
  5
4AC
330
18
100
AcDbEntity
  8
0
 62
     0
100
AcDbLine
 10
3.936477
 20
4.635
 30
0.0
 11
3.962298000000001
 21
4.635
 31
0.0
  0
LINE
  5
4AD
330
18
100
AcDbEntity
  8
0
 62
     0
100
AcDbLine
 10
3.936893
 20
4.636
 30
0.0
 11
3.962318
 21
4.636
 31
0.0
  0
LINE
  5
4AE
330
18
100
AcDbEntity
  8
0
 62
     0
100
AcDbLine
 10
3.937342
 20
4.637
 30
0.0
 11
3.962298000000001
 21
4.637
 31
0.0
  0
LINE
  5
4AF
330
18
100
AcDbEntity
  8
0
 62
     0
100
AcDbLine
 10
3.937828
 20
4.638
 30
0.0
 11
3.962238
 21
4.638
 31
0.0
  0
LINE
  5
4B0
330
18
100
AcDbEntity
  8
0
 62
     0
100
AcDbLine
 10
3.938351
 20
4.638999999999999
 30
0.0
 11
3.962137
 21
4.638999999999999
 31
0.0
  0
LINE
  5
4B1
330
18
100
AcDbEntity
  8
0
 62
     0
100
AcDbLine
 10
3.938914
 20
4.64
 30
0.0
 11
3.961996
 21
4.64
 31
0.0
  0
LINE
  5
4B2
330
18
100
AcDbEntity
  8
0
 62
     0
100
AcDbLine
 10
3.939518
 20
4.641
 30
0.0
 11
3.961813
 21
4.641
 31
0.0
  0
LINE
  5
4B3
330
18
100
AcDbEntity
  8
0
 62
     0
100
AcDbLine
 10
3.94017
 20
4.642
 30
0.0
 11
3.961574
 21
4.642
 31
0.0
  0
LINE
  5
4B4
330
18
100
AcDbEntity
  8
0
 62
     0
100
AcDbLine
 10
3.940891
 20
4.643
 30
0.0
 11
3.961265
 21
4.643
 31
0.0
  0
LINE
  5
4B5
330
18
100
AcDbEntity
  8
0
 62
     0
100
AcDbLine
 10
3.941692
 20
4.644
 30
0.0
 11
3.960883
 21
4.644
 31
0.0
  0
LINE
  5
4B6
330
18
100
AcDbEntity
  8
0
 62
     0
100
AcDbLine
 10
3.942582
 20
4.645
 30
0.0
 11
3.960422
 21
4.645
 31
0.0
  0
LINE
  5
4B7
330
18
100
AcDbEntity
  8
0
 62
     0
100
AcDbLine
 10
3.943577
 20
4.646
 30
0.0
 11
3.959873
 21
4.646
 31
0.0
  0
LINE
  5
4B8
330
18
100
AcDbEntity
  8
0
 62
     0
100
AcDbLine
 10
3.944694
 20
4.647
 30
0.0
 11
3.959227
 21
4.647
 31
0.0
  0
LINE
  5
4B9
330
18
100
AcDbEntity
  8
0
 62
     0
100
AcDbLine
 10
3.946025
 20
4.648
 30
0.0
 11
3.958416
 21
4.648
 31
0.0
  0
LINE
  5
4BA
330
18
100
AcDbEntity
  8
0
 62
     0
100
AcDbLine
 10
3.947724
 20
4.649
 30
0.0
 11
3.957254
 21
4.649
 31
0.0
  0
LINE
  5
4BB
330
18
100
AcDbEntity
  8
0
 62
     0
100
AcDbLine
 10
3.950163
 20
4.65
 30
0.0
 11
3.955298
 21
4.65
 31
0.0
  0
LINE
  5
4BC
330
18
100
AcDbEntity
  8
0
 62
     0
100
AcDbLine
 10
3.982264
 20
4.2
 30
0.0
 11
3.989852
 21
4.2
 31
0.0
  0
LINE
  5
4BD
330
18
100
AcDbEntity
  8
0
 62
     0
100
AcDbLine
 10
3.980268
 20
4.199
 30
0.0
 11
3.99131
 21
4.199
 31
0.0
  0
LINE
  5
4BE
330
18
100
AcDbEntity
  8
0
 62
     0
100
AcDbLine
 10
3.978772
 20
4.198
 30
0.0
 11
3.992277
 21
4.198
 31
0.0
  0
LINE
  5
4BF
330
18
100
AcDbEntity
  8
0
 62
     0
100
AcDbLine
 10
3.977564
 20
4.197
 30
0.0
 11
3.992987
 21
4.197
 31
0.0
  0
LINE
  5
4C0
330
18
100
AcDbEntity
  8
0
 62
     0
100
AcDbLine
 10
3.976509
 20
4.196000000000001
 30
0.0
 11
3.993584
 21
4.196000000000001
 31
0.0
  0
LINE
  5
4C1
330
18
100
AcDbEntity
  8
0
 62
     0
100
AcDbLine
 10
3.975568
 20
4.195
 30
0.0
 11
3.994089
 21
4.195
 31
0.0
  0
LINE
  5
4C2
330
18
100
AcDbEntity
  8
0
 62
     0
100
AcDbLine
 10
3.974723000000001
 20
4.194
 30
0.0
 11
3.994511
 21
4.194
 31
0.0
  0
LINE
  5
4C3
330
18
100
AcDbEntity
  8
0
 62
     0
100
AcDbLine
 10
3.973962
 20
4.193000000000001
 30
0.0
 11
3.994856
 21
4.193000000000001
 31
0.0
  0
LINE
  5
4C4
330
18
100
AcDbEntity
  8
0
 62
     0
100
AcDbLine
 10
3.973276
 20
4.192
 30
0.0
 11
3.995131
 21
4.192
 31
0.0
  0
LINE
  5
4C5
330
18
100
AcDbEntity
  8
0
 62
     0
100
AcDbLine
 10
3.97265
 20
4.191
 30
0.0
 11
3.99534
 21
4.191
 31
0.0
  0
LINE
  5
4C6
330
18
100
AcDbEntity
  8
0
 62
     0
100
AcDbLine
 10
3.972066
 20
4.19
 30
0.0
 11
3.995502
 21
4.19
 31
0.0
  0
LINE
  5
4C7
330
18
100
AcDbEntity
  8
0
 62
     0
100
AcDbLine
 10
3.971523
 20
4.189
 30
0.0
 11
3.995623
 21
4.189
 31
0.0
  0
LINE
  5
4C8
330
18
100
AcDbEntity
  8
0
 62
     0
100
AcDbLine
 10
3.971019
 20
4.188
 30
0.0
 11
3.995704
 21
4.188
 31
0.0
  0
LINE
  5
4C9
330
18
100
AcDbEntity
  8
0
 62
     0
100
AcDbLine
 10
3.97055
 20
4.187
 30
0.0
 11
3.995744
 21
4.187
 31
0.0
  0
LINE
  5
4CA
330
18
100
AcDbEntity
  8
0
 62
     0
100
AcDbLine
 10
3.970117
 20
4.186
 30
0.0
 11
3.995745
 21
4.186
 31
0.0
  0
LINE
  5
4CB
330
18
100
AcDbEntity
  8
0
 62
     0
100
AcDbLine
 10
3.969718
 20
4.185
 30
0.0
 11
3.995705000000001
 21
4.185
 31
0.0
  0
LINE
  5
4CC
330
18
100
AcDbEntity
  8
0
 62
     0
100
AcDbLine
 10
3.969352
 20
4.184
 30
0.0
 11
3.995626
 21
4.184
 31
0.0
  0
LINE
  5
4CD
330
18
100
AcDbEntity
  8
0
 62
     0
100
AcDbLine
 10
3.969017
 20
4.183
 30
0.0
 11
3.995514
 21
4.183
 31
0.0
  0
LINE
  5
4CE
330
18
100
AcDbEntity
  8
0
 62
     0
100
AcDbLine
 10
3.968714
 20
4.182
 30
0.0
 11
3.995374
 21
4.182
 31
0.0
  0
LINE
  5
4CF
330
18
100
AcDbEntity
  8
0
 62
     0
100
AcDbLine
 10
3.96844
 20
4.181
 30
0.0
 11
3.995208
 21
4.181
 31
0.0
  0
LINE
  5
4D0
330
18
100
AcDbEntity
  8
0
 62
     0
100
AcDbLine
 10
3.968196
 20
4.18
 30
0.0
 11
3.995013
 21
4.18
 31
0.0
  0
LINE
  5
4D1
330
18
100
AcDbEntity
  8
0
 62
     0
100
AcDbLine
 10
3.96798
 20
4.178999999999999
 30
0.0
 11
3.99479
 21
4.178999999999999
 31
0.0
  0
LINE
  5
4D2
330
18
100
AcDbEntity
  8
0
 62
     0
100
AcDbLine
 10
3.967793
 20
4.178
 30
0.0
 11
3.994537
 21
4.178
 31
0.0
  0
LINE
  5
4D3
330
18
100
AcDbEntity
  8
0
 62
     0
100
AcDbLine
 10
3.967633
 20
4.177
 30
0.0
 11
3.994256
 21
4.177
 31
0.0
  0
LINE
  5
4D4
330
18
100
AcDbEntity
  8
0
 62
     0
100
AcDbLine
 10
3.967501
 20
4.176
 30
0.0
 11
3.993944
 21
4.176
 31
0.0
  0
LINE
  5
4D5
330
18
100
AcDbEntity
  8
0
 62
     0
100
AcDbLine
 10
3.967397
 20
4.175
 30
0.0
 11
3.993601
 21
4.175
 31
0.0
  0
LINE
  5
4D6
330
18
100
AcDbEntity
  8
0
 62
     0
100
AcDbLine
 10
3.967328
 20
4.174
 30
0.0
 11
3.993226
 21
4.174
 31
0.0
  0
LINE
  5
4D7
330
18
100
AcDbEntity
  8
0
 62
     0
100
AcDbLine
 10
3.967299
 20
4.173
 30
0.0
 11
3.992818
 21
4.173
 31
0.0
  0
LINE
  5
4D8
330
18
100
AcDbEntity
  8
0
 62
     0
100
AcDbLine
 10
3.96731
 20
4.172
 30
0.0
 11
3.992376
 21
4.172
 31
0.0
  0
LINE
  5
4D9
330
18
100
AcDbEntity
  8
0
 62
     0
100
AcDbLine
 10
3.967361
 20
4.171
 30
0.0
 11
3.991898
 21
4.171
 31
0.0
  0
LINE
  5
4DA
330
18
100
AcDbEntity
  8
0
 62
     0
100
AcDbLine
 10
3.967453
 20
4.17
 30
0.0
 11
3.991383
 21
4.17
 31
0.0
  0
LINE
  5
4DB
330
18
100
AcDbEntity
  8
0
 62
     0
100
AcDbLine
 10
3.967585
 20
4.169
 30
0.0
 11
3.990829
 21
4.169
 31
0.0
  0
LINE
  5
4DC
330
18
100
AcDbEntity
  8
0
 62
     0
100
AcDbLine
 10
3.967759
 20
4.168
 30
0.0
 11
3.990235
 21
4.168
 31
0.0
  0
LINE
  5
4DD
330
18
100
AcDbEntity
  8
0
 62
     0
100
AcDbLine
 10
3.967984
 20
4.167
 30
0.0
 11
3.989595
 21
4.167
 31
0.0
  0
LINE
  5
4DE
330
18
100
AcDbEntity
  8
0
 62
     0
100
AcDbLine
 10
3.968277
 20
4.166
 30
0.0
 11
3.98889
 21
4.166
 31
0.0
  0
LINE
  5
4DF
330
18
100
AcDbEntity
  8
0
 62
     0
100
AcDbLine
 10
3.968642
 20
4.165
 30
0.0
 11
3.988108
 21
4.165
 31
0.0
  0
LINE
  5
4E0
330
18
100
AcDbEntity
  8
0
 62
     0
100
AcDbLine
 10
3.969085
 20
4.164
 30
0.0
 11
3.987238
 21
4.164
 31
0.0
  0
LINE
  5
4E1
330
18
100
AcDbEntity
  8
0
 62
     0
100
AcDbLine
 10
3.969614
 20
4.163
 30
0.0
 11
3.986268
 21
4.163
 31
0.0
  0
LINE
  5
4E2
330
18
100
AcDbEntity
  8
0
 62
     0
100
AcDbLine
 10
3.970237000000001
 20
4.162
 30
0.0
 11
3.98518
 21
4.162
 31
0.0
  0
LINE
  5
4E3
330
18
100
AcDbEntity
  8
0
 62
     0
100
AcDbLine
 10
3.970997
 20
4.161000000000001
 30
0.0
 11
3.98391
 21
4.161000000000001
 31
0.0
  0
LINE
  5
4E4
330
18
100
AcDbEntity
  8
0
 62
     0
100
AcDbLine
 10
3.972063
 20
4.16
 30
0.0
 11
3.982308999999999
 21
4.16
 31
0.0
  0
LINE
  5
4E5
330
18
100
AcDbEntity
  8
0
 62
     0
100
AcDbLine
 10
3.973751
 20
4.159
 30
0.0
 11
3.980099
 21
4.159
 31
0.0
  0
LINE
  5
4E6
330
18
100
AcDbEntity
  8
0
 62
     0
100
AcDbLine
 10
3.953812
 20
4.046
 30
0.0
 11
3.961673
 21
4.046
 31
0.0
  0
LINE
  5
4E7
330
18
100
AcDbEntity
  8
0
 62
     0
100
AcDbLine
 10
3.95186
 20
4.045
 30
0.0
 11
3.963086
 21
4.045
 31
0.0
  0
LINE
  5
4E8
330
18
100
AcDbEntity
  8
0
 62
     0
100
AcDbLine
 10
3.950387
 20
4.044
 30
0.0
 11
3.96403
 21
4.044
 31
0.0
  0
LINE
  5
4E9
330
18
100
AcDbEntity
  8
0
 62
     0
100
AcDbLine
 10
3.949193
 20
4.043
 30
0.0
 11
3.96473
 21
4.043
 31
0.0
  0
LINE
  5
4EA
330
18
100
AcDbEntity
  8
0
 62
     0
100
AcDbLine
 10
3.948146
 20
4.042
 30
0.0
 11
3.965321
 21
4.042
 31
0.0
  0
LINE
  5
4EB
330
18
100
AcDbEntity
  8
0
 62
     0
100
AcDbLine
 10
3.947211
 20
4.041
 30
0.0
 11
3.96582
 21
4.041
 31
0.0
  0
LINE
  5
4EC
330
18
100
AcDbEntity
  8
0
 62
     0
100
AcDbLine
 10
3.946372
 20
4.04
 30
0.0
 11
3.966237000000001
 21
4.04
 31
0.0
  0
LINE
  5
4ED
330
18
100
AcDbEntity
  8
0
 62
     0
100
AcDbLine
 10
3.945616
 20
4.039
 30
0.0
 11
3.966577
 21
4.039
 31
0.0
  0
LINE
  5
4EE
330
18
100
AcDbEntity
  8
0
 62
     0
100
AcDbLine
 10
3.944935
 20
4.038
 30
0.0
 11
3.966848
 21
4.038
 31
0.0
  0
LINE
  5
4EF
330
18
100
AcDbEntity
  8
0
 62
     0
100
AcDbLine
 10
3.944312
 20
4.037
 30
0.0
 11
3.967053
 21
4.037
 31
0.0
  0
LINE
  5
4F0
330
18
100
AcDbEntity
  8
0
 62
     0
100
AcDbLine
 10
3.943731
 20
4.036000000000001
 30
0.0
 11
3.967212
 21
4.036000000000001
 31
0.0
  0
LINE
  5
4F1
330
18
100
AcDbEntity
  8
0
 62
     0
100
AcDbLine
 10
3.943191000000001
 20
4.035
 30
0.0
 11
3.967331
 21
4.035
 31
0.0
  0
LINE
  5
4F2
330
18
100
AcDbEntity
  8
0
 62
     0
100
AcDbLine
 10
3.942688
 20
4.034
 30
0.0
 11
3.967409
 21
4.034
 31
0.0
  0
LINE
  5
4F3
330
18
100
AcDbEntity
  8
0
 62
     0
100
AcDbLine
 10
3.942222
 20
4.033
 30
0.0
 11
3.967447
 21
4.033
 31
0.0
  0
LINE
  5
4F4
330
18
100
AcDbEntity
  8
0
 62
     0
100
AcDbLine
 10
3.941792
 20
4.032
 30
0.0
 11
3.967445
 21
4.032
 31
0.0
  0
LINE
  5
4F5
330
18
100
AcDbEntity
  8
0
 62
     0
100
AcDbLine
 10
3.941395
 20
4.031000000000001
 30
0.0
 11
3.967402
 21
4.031000000000001
 31
0.0
  0
LINE
  5
4F6
330
18
100
AcDbEntity
  8
0
 62
     0
100
AcDbLine
 10
3.941031
 20
4.03
 30
0.0
 11
3.96732
 21
4.03
 31
0.0
  0
LINE
  5
4F7
330
18
100
AcDbEntity
  8
0
 62
     0
100
AcDbLine
 10
3.940698
 20
4.029
 30
0.0
 11
3.967207
 21
4.029
 31
0.0
  0
LINE
  5
4F8
330
18
100
AcDbEntity
  8
0
 62
     0
100
AcDbLine
 10
3.940396
 20
4.028000000000001
 30
0.0
 11
3.967066
 21
4.028000000000001
 31
0.0
  0
LINE
  5
4F9
330
18
100
AcDbEntity
  8
0
 62
     0
100
AcDbLine
 10
3.940124
 20
4.027
 30
0.0
 11
3.966897
 21
4.027
 31
0.0
  0
LINE
  5
4FA
330
18
100
AcDbEntity
  8
0
 62
     0
100
AcDbLine
 10
3.939882
 20
4.026
 30
0.0
 11
3.9667
 21
4.026
 31
0.0
  0
LINE
  5
4FB
330
18
100
AcDbEntity
  8
0
 62
     0
100
AcDbLine
 10
3.939668
 20
4.025
 30
0.0
 11
3.966475
 21
4.025
 31
0.0
  0
LINE
  5
4FC
330
18
100
AcDbEntity
  8
0
 62
     0
100
AcDbLine
 10
3.939483
 20
4.024
 30
0.0
 11
3.966221
 21
4.024
 31
0.0
  0
LINE
  5
4FD
330
18
100
AcDbEntity
  8
0
 62
     0
100
AcDbLine
 10
3.939325
 20
4.023
 30
0.0
 11
3.965938
 21
4.023
 31
0.0
  0
LINE
  5
4FE
330
18
100
AcDbEntity
  8
0
 62
     0
100
AcDbLine
 10
3.939195
 20
4.022
 30
0.0
 11
3.965624
 21
4.022
 31
0.0
  0
LINE
  5
4FF
330
18
100
AcDbEntity
  8
0
 62
     0
100
AcDbLine
 10
3.939092
 20
4.021
 30
0.0
 11
3.965279
 21
4.021
 31
0.0
  0
LINE
  5
500
330
18
100
AcDbEntity
  8
0
 62
     0
100
AcDbLine
 10
3.939026
 20
4.02
 30
0.0
 11
3.964901
 21
4.02
 31
0.0
  0
LINE
  5
501
330
18
100
AcDbEntity
  8
0
 62
     0
100
AcDbLine
 10
3.939
 20
4.019
 30
0.0
 11
3.964491
 21
4.019
 31
0.0
  0
LINE
  5
502
330
18
100
AcDbEntity
  8
0
 62
     0
100
AcDbLine
 10
3.939014
 20
4.018
 30
0.0
 11
3.964047
 21
4.018
 31
0.0
  0
LINE
  5
503
330
18
100
AcDbEntity
  8
0
 62
     0
100
AcDbLine
 10
3.939067
 20
4.017
 30
0.0
 11
3.963567
 21
4.017
 31
0.0
  0
LINE
  5
504
330
18
100
AcDbEntity
  8
0
 62
     0
100
AcDbLine
 10
3.939161
 20
4.016
 30
0.0
 11
3.963049
 21
4.016
 31
0.0
  0
LINE
  5
505
330
18
100
AcDbEntity
  8
0
 62
     0
100
AcDbLine
 10
3.939296
 20
4.015
 30
0.0
 11
3.962493
 21
4.015
 31
0.0
  0
LINE
  5
506
330
18
100
AcDbEntity
  8
0
 62
     0
100
AcDbLine
 10
3.939472
 20
4.013999999999999
 30
0.0
 11
3.961896
 21
4.013999999999999
 31
0.0
  0
LINE
  5
507
330
18
100
AcDbEntity
  8
0
 62
     0
100
AcDbLine
 10
3.939702
 20
4.013
 30
0.0
 11
3.961253
 21
4.013
 31
0.0
  0
LINE
  5
508
330
18
100
AcDbEntity
  8
0
 62
     0
100
AcDbLine
 10
3.939999
 20
4.012
 30
0.0
 11
3.960543
 21
4.012
 31
0.0
  0
LINE
  5
509
330
18
100
AcDbEntity
  8
0
 62
     0
100
AcDbLine
 10
3.94037
 20
4.011
 30
0.0
 11
3.959755
 21
4.011
 31
0.0
  0
LINE
  5
50A
330
18
100
AcDbEntity
  8
0
 62
     0
100
AcDbLine
 10
3.940818
 20
4.01
 30
0.0
 11
3.958879
 21
4.01
 31
0.0
  0
LINE
  5
50B
330
18
100
AcDbEntity
  8
0
 62
     0
100
AcDbLine
 10
3.941352
 20
4.009
 30
0.0
 11
3.957902
 21
4.009
 31
0.0
  0
LINE
  5
50C
330
18
100
AcDbEntity
  8
0
 62
     0
100
AcDbLine
 10
3.941983
 20
4.008
 30
0.0
 11
3.956806
 21
4.008
 31
0.0
  0
LINE
  5
50D
330
18
100
AcDbEntity
  8
0
 62
     0
100
AcDbLine
 10
3.942756
 20
4.007
 30
0.0
 11
3.955519
 21
4.007
 31
0.0
  0
LINE
  5
50E
330
18
100
AcDbEntity
  8
0
 62
     0
100
AcDbLine
 10
3.943849
 20
4.006
 30
0.0
 11
3.95389
 21
4.006
 31
0.0
  0
LINE
  5
50F
330
18
100
AcDbEntity
  8
0
 62
     0
100
AcDbLine
 10
3.945607
 20
4.005
 30
0.0
 11
3.951619
 21
4.005
 31
0.0
  0
ENDSEC
  0
SECTION
  2
OBJECTS
  0
DICTIONARY
  5
C
330
0
100
AcDbDictionary
281
     1
  3
ACAD_COLOR
350
515
  3
ACAD_GROUP
350
D
  3
ACAD_LAYOUT
350
15
  3
ACAD_MATERIAL
350
517
  3
ACAD_MLINESTYLE
350
12
  3
ACAD_PLOTSETTINGS
350
14
  3
ACAD_PLOTSTYLENAME
350
E
  3
ACDBHEADERROUNDTRIPXREC
350
514
  0
DICTIONARY
  5
515
102
{ACAD_REACTORS
330
C
102
}
330
C
100
AcDbDictionary
281
     1
  0
DICTIONARY
  5
D
102
{ACAD_REACTORS
330
C
102
}
330
C
100
AcDbDictionary
281
     1
  0
DICTIONARY
  5
15
102
{ACAD_REACTORS
330
C
102
}
330
C
100
AcDbDictionary
281
     1
  3
Layout1
350
17
  3
Model
350
19
  0
DICTIONARY
  5
517
102
{ACAD_REACTORS
330
C
102
}
330
C
100
AcDbDictionary
281
     1
  0
DICTIONARY
  5
12
102
{ACAD_REACTORS
330
C
102
}
330
C
100
AcDbDictionary
281
     1
  3
Standard
350
13
  0
DICTIONARY
  5
14
102
{ACAD_REACTORS
330
C
102
}
330
C
100
AcDbDictionary
281
     1
  0
ACDBDICTIONARYWDFLT
  5
E
102
{ACAD_REACTORS
330
C
102
}
330
C
100
AcDbDictionary
281
     1
  3
Normal
350
F
100
AcDbDictionaryWithDefault
340
F
  0
DICTIONARY
  5
514
102
{ACAD_REACTORS
330
C
102
}
330
C
100
AcDbDictionary
281
     1
  3
COLORDICT
350
516
  3
MATERIALDICT
350
518
  0
LAYOUT
  5
17
102
{ACAD_REACTORS
330
15
102
}
102
{ACAD_XDICTIONARY
360
519
102
}
330
15
100
AcDbPlotSettings
  1

  2

  4

  6

 40
0.0
 41
0.0
 42
0.0
 43
0.0
 44
0.0
 45
0.0
 46
0.0
 47
0.0
 48
0.0
 49
0.0
140
0.0
141
0.0
142
1.0
143
1.0
 70
   688
 72
     0
 73
     0
 74
     5
  7

 75
    16
147
1.0
148
0.0
149
0.0
100
AcDbLayout
  1
Layout1
 70
     1
 71
     1
 10
0.0
 20
0.0
 11
12.0
 21
9.0
 12
0.0
 22
0.0
 32
0.0
 14
1.000000000000000E+20
 24
1.000000000000000E+20
 34
1.000000000000000E+20
 15
-1.000000000000000E+20
 25
-1.000000000000000E+20
 35
-1.000000000000000E+20
146
0.0
 13
0.0
 23
0.0
 33
0.0
 16
1.0
 26
0.0
 36
0.0
 17
0.0
 27
1.0
 37
0.0
 76
     0
330
16
  0
LAYOUT
  5
19
102
{ACAD_REACTORS
330
15
102
}
102
{ACAD_XDICTIONARY
360
51B
102
}
330
15
100
AcDbPlotSettings
  1

  2

  4

  6

 40
0.0
 41
0.0
 42
0.0
 43
0.0
 44
0.0
 45
0.0
 46
0.0
 47
0.0
 48
0.0
 49
0.0
140
0.0
141
0.0
142
1.0
143
1.0
 70
  1712
 72
     0
 73
     0
 74
     0
  7

 75
     0
147
1.0
148
0.0
149
0.0
100
AcDbLayout
  1
Model
 70
     1
 71
     0
 10
0.0
 20
0.0
 11
0.0
 21
0.0
 12
0.0
 22
0.0
 32
0.0
 14
0.0
 24
0.0
 34
0.0
 15
0.0
 25
0.0
 35
0.0
146
0.0
 13
0.0
 23
0.0
 33
0.0
 16
1.0
 26
0.0
 36
0.0
 17
0.0
 27
1.0
 37
0.0
 76
     0
330
18
  0
MLINESTYLE
  5
13
102
{ACAD_REACTORS
330
12
102
}
330
12
100
AcDbMlineStyle
  2
Standard
 70
     0
  3

 62
   256
 51
90.0
 52
90.0
 71
     2
 49
0.5
 62
   256
  6
BYLAYER
 49
-0.5
 62
   256
  6
BYLAYER
  0
ACDBPLACEHOLDER
  5
F
102
{ACAD_REACTORS
330
E
102
}
330
E
  0
XRECORD
  5
516
102
{ACAD_REACTORS
330
514
102
}
330
514
100
AcDbXrecord
340
515
  0
XRECORD
  5
518
102
{ACAD_REACTORS
330
514
102
}
330
514
100
AcDbXrecord
340
517
  0
DICTIONARY
  5
519
330
17
100
AcDbDictionary
280
     1
281
     1
  3
ACAD_XREC_ROUNDTRIP
360
51A
  0
DICTIONARY
  5
51B
330
19
100
AcDbDictionary
280
     1
281
     1
  3
ACAD_XREC_ROUNDTRIP
360
51C
  0
XRECORD
  5
51A
102
{ACAD_REACTORS
330
519
102
}
330
519
100
AcDbXrecord
102
SHADEPLOT
 70
     0
102
SHADEPLOTRESLEVEL
 70
     0
102
SHADEPLOTCUSTOMDPI
 70
     0
  0
XRECORD
  5
51C
102
{ACAD_REACTORS
330
51B
102
}
330
51B
100
AcDbXrecord
102
SHADEPLOT
 70
     0
102
SHADEPLOTRESLEVEL
 70
     0
102
SHADEPLOTCUSTOMDPI
 70
     0
  0
ENDSEC
  0
EOF
