  0
SECTION
  2
HEADER
  9
$ACADVER
  1
AC1015
  9
$ACADMAINTVER
 70
     6
  9
$DWGCODEPAGE
  3
ANSI_1252
  9
$INSBASE
 10
0.0
 20
0.0
 30
0.0
  9
$EXTMIN
 10
1.721740752600297
 20
1.84553039935593
 30
-0.0000000000000004
  9
$EXTMAX
 10
8.417907738613323
 20
9.807213975296325
 30
0.0000000000000003
  9
$LIMMIN
 10
0.0
 20
0.0
  9
$LIMMAX
 10
12.0
 20
9.0
  9
$ORTHOMODE
 70
     0
  9
$REGENMODE
 70
     1
  9
$FILLMODE
 70
     1
  9
$QTEXTMODE
 70
     0
  9
$MIRRTEXT
 70
     1
  9
$LTSCALE
 40
0.3
  9
$ATTMODE
 70
     1
  9
$TEXTSIZE
 40
0.2
  9
$TRACEWID
 40
0.05
  9
$TEXTSTYLE
  7
STANDARD
  9
$CLAYER
  8
0
  9
$CELTYPE
  6
BYLAYER
  9
$CECOLOR
 62
   256
  9
$CELTSCALE
 40
1.0
  9
$DISPSILH
 70
     0
  9
$DIMSCALE
 40
1.0
  9
$DIMASZ
 40
0.18
  9
$DIMEXO
 40
0.0625
  9
$DIMDLI
 40
0.38
  9
$DIMRND
 40
0.0
  9
$DIMDLE
 40
0.0
  9
$DIMEXE
 40
0.18
  9
$DIMTP
 40
0.0
  9
$DIMTM
 40
0.0
  9
$DIMTXT
 40
0.18
  9
$DIMCEN
 40
0.09
  9
$DIMTSZ
 40
0.0
  9
$DIMTOL
 70
     0
  9
$DIMLIM
 70
     0
  9
$DIMTIH
 70
     1
  9
$DIMTOH
 70
     1
  9
$DIMSE1
 70
     0
  9
$DIMSE2
 70
     0
  9
$DIMTAD
 70
     0
  9
$DIMZIN
 70
     0
  9
$DIMBLK
  1

  9
$DIMASO
 70
     1
  9
$DIMSHO
 70
     1
  9
$DIMPOST
  1

  9
$DIMAPOST
  1

  9
$DIMALT
 70
     0
  9
$DIMALTD
 70
     2
  9
$DIMALTF
 40
25.4
  9
$DIMLFAC
 40
1.0
  9
$DIMTOFL
 70
     0
  9
$DIMTVP
 40
0.0
  9
$DIMTIX
 70
     0
  9
$DIMSOXD
 70
     0
  9
$DIMSAH
 70
     0
  9
$DIMBLK1
  1

  9
$DIMBLK2
  1

  9
$DIMSTYLE
  2
STANDARD
  9
$DIMCLRD
 70
     0
  9
$DIMCLRE
 70
     0
  9
$DIMCLRT
 70
     0
  9
$DIMTFAC
 40
1.0
  9
$DIMGAP
 40
0.09
  9
$DIMJUST
 70
     0
  9
$DIMSD1
 70
     0
  9
$DIMSD2
 70
     0
  9
$DIMTOLJ
 70
     1
  9
$DIMTZIN
 70
     0
  9
$DIMALTZ
 70
     0
  9
$DIMALTTZ
 70
     0
  9
$DIMUPT
 70
     0
  9
$DIMDEC
 70
     4
  9
$DIMTDEC
 70
     4
  9
$DIMALTU
 70
     2
  9
$DIMALTTD
 70
     2
  9
$DIMTXSTY
  7
STANDARD
  9
$DIMAUNIT
 70
     0
  9
$DIMADEC
 70
     0
  9
$DIMALTRND
 40
0.0
  9
$DIMAZIN
 70
     0
  9
$DIMDSEP
 70
    46
  9
$DIMATFIT
 70
     3
  9
$DIMFRAC
 70
     0
  9
$DIMLDRBLK
  1

  9
$DIMLUNIT
 70
     2
  9
$DIMLWD
 70
    -2
  9
$DIMLWE
 70
    -2
  9
$DIMTMOVE
 70
     0
  9
$LUNITS
 70
     2
  9
$LUPREC
 70
     4
  9
$SKETCHINC
 40
0.1
  9
$FILLETRAD
 40
0.0
  9
$AUNITS
 70
     0
  9
$AUPREC
 70
     0
  9
$MENU
  1
.
  9
$ELEVATION
 40
0.0
  9
$PELEVATION
 40
0.0
  9
$THICKNESS
 40
0.0
  9
$LIMCHECK
 70
     0
  9
$CHAMFERA
 40
0.5
  9
$CHAMFERB
 40
0.5
  9
$CHAMFERC
 40
1.0
  9
$CHAMFERD
 40
0.0
  9
$SKPOLY
 70
     1
  9
$TDCREATE
 40
2451890.387299803
  9
$TDUCREATE
 40
2451890.720633137
  9
$TDUPDATE
 40
2451893.659798623
  9
$TDUUPDATE
 40
2451893.993131956
  9
$TDINDWG
 40
0.1967680093
  9
$TDUSRTIMER
 40
0.1967680093
  9
$USRTIMER
 70
     1
  9
$ANGBASE
 50
0.0
  9
$ANGDIR
 70
     0
  9
$PDMODE
 70
     0
  9
$PDSIZE
 40
0.0
  9
$PLINEWID
 40
0.0
  9
$SPLFRAME
 70
     0
  9
$SPLINETYPE
 70
     6
  9
$SPLINESEGS
 70
     8
  9
$HANDSEED
  5
452
  9
$SURFTAB1
 70
     6
  9
$SURFTAB2
 70
     6
  9
$SURFTYPE
 70
     6
  9
$SURFU
 70
     6
  9
$SURFV
 70
     6
  9
$UCSBASE
  2

  9
$UCSNAME
  2

  9
$UCSORG
 10
0.0
 20
0.0
 30
0.0
  9
$UCSXDIR
 10
1.0
 20
0.0
 30
0.0
  9
$UCSYDIR
 10
0.0
 20
1.0
 30
0.0
  9
$UCSORTHOREF
  2

  9
$UCSORTHOVIEW
 70
     0
  9
$UCSORGTOP
 10
0.0
 20
0.0
 30
0.0
  9
$UCSORGBOTTOM
 10
0.0
 20
0.0
 30
0.0
  9
$UCSORGLEFT
 10
0.0
 20
0.0
 30
0.0
  9
$UCSORGRIGHT
 10
0.0
 20
0.0
 30
0.0
  9
$UCSORGFRONT
 10
0.0
 20
0.0
 30
0.0
  9
$UCSORGBACK
 10
0.0
 20
0.0
 30
0.0
  9
$PUCSBASE
  2

  9
$PUCSNAME
  2

  9
$PUCSORG
 10
0.0
 20
0.0
 30
0.0
  9
$PUCSXDIR
 10
1.0
 20
0.0
 30
0.0
  9
$PUCSYDIR
 10
0.0
 20
1.0
 30
0.0
  9
$PUCSORTHOREF
  2

  9
$PUCSORTHOVIEW
 70
     0
  9
$PUCSORGTOP
 10
0.0
 20
0.0
 30
0.0
  9
$PUCSORGBOTTOM
 10
0.0
 20
0.0
 30
0.0
  9
$PUCSORGLEFT
 10
0.0
 20
0.0
 30
0.0
  9
$PUCSORGRIGHT
 10
0.0
 20
0.0
 30
0.0
  9
$PUCSORGFRONT
 10
0.0
 20
0.0
 30
0.0
  9
$PUCSORGBACK
 10
0.0
 20
0.0
 30
0.0
  9
$USERI1
 70
     0
  9
$USERI2
 70
     0
  9
$USERI3
 70
     0
  9
$USERI4
 70
     0
  9
$USERI5
 70
     0
  9
$USERR1
 40
0.0
  9
$USERR2
 40
0.0
  9
$USERR3
 40
0.0
  9
$USERR4
 40
0.0
  9
$USERR5
 40
0.0
  9
$WORLDVIEW
 70
     1
  9
$SHADEDGE
 70
     3
  9
$SHADEDIF
 70
    70
  9
$TILEMODE
 70
     1
  9
$MAXACTVP
 70
    48
  9
$PINSBASE
 10
0.0
 20
0.0
 30
0.0
  9
$PLIMCHECK
 70
     0
  9
$PEXTMIN
 10
1.000000000000000E+20
 20
1.000000000000000E+20
 30
1.000000000000000E+20
  9
$PEXTMAX
 10
-1.000000000000000E+20
 20
-1.000000000000000E+20
 30
-1.000000000000000E+20
  9
$PLIMMIN
 10
0.0
 20
0.0
  9
$PLIMMAX
 10
12.0
 20
9.0
  9
$UNITMODE
 70
     0
  9
$VISRETAIN
 70
     1
  9
$PLINEGEN
 70
     0
  9
$PSLTSCALE
 70
     1
  9
$TREEDEPTH
 70
  3020
  9
$CMLSTYLE
  2
STANDARD
  9
$CMLJUST
 70
     0
  9
$CMLSCALE
 40
1.0
  9
$PROXYGRAPHICS
 70
     1
  9
$MEASUREMENT
 70
     0
  9
$CELWEIGHT
370
    -1
  9
$ENDCAPS
280
     0
  9
$JOINSTYLE
280
     0
  9
$LWDISPLAY
290
     0
  9
$INSUNITS
 70
     1
  9
$HYPERLINKBASE
  1

  9
$STYLESHEET
  1

  9
$XEDIT
290
     1
  9
$CEPSNTYPE
380
     0
  9
$PSTYLEMODE
290
     0
  9
$FINGERPRINTGUID
  2
{FAEB1C30-E019-11D5-929B-00C0DF256EC4}
  9
$VERSIONGUID
  2
{FAEB1C32-E019-11D5-929B-00C0DF256EC4}
  9
$EXTNAMES
290
     1
  9
$PSVPSCALE
 40
0.0
  9
$OLESTARTUP
290
     0
  0
ENDSEC
  0
SECTION
  2
CLASSES
  0
CLASS
  1
LWPOLYLINE
  2
AcDbPolyline
  3
AutoCAD 2000
 90
        0
280
     0
281
     1
  0
CLASS
  1
DICTIONARYVAR
  2
AcDbDictionaryVar
  3
AutoCAD 2000
 90
        0
280
     0
281
     0
  0
CLASS
  1
HATCH
  2
AcDbHatch
  3
AutoCAD 2000
 90
        0
280
     0
281
     1
  0
CLASS
  1
ACDBPLACEHOLDER
  2
AcDbPlaceHolder
  3
ObjectDBX Classes
 90
        0
280
     0
281
     0
  0
CLASS
  1
LAYOUT
  2
AcDbLayout
  3
ObjectDBX Classes
 90
        0
280
     0
281
     0
  0
ENDSEC
  0
SECTION
  2
TABLES
  0
TABLE
  2
VPORT
  5
8
330
0
100
AcDbSymbolTable
 70
     4
  0
VPORT
  5
444
330
8
100
AcDbSymbolTableRecord
100
AcDbViewportTableRecord
  2
*ACTIVE
 70
     0
 10
0.0
 20
0.0
 11
1.0
 21
1.0
 12
5.06982424560681
 22
5.826372187326126
 13
0.0
 23
0.0
 14
0.5
 24
0.5
 15
0.5
 25
0.5
 16
0.0
 26
0.0
 36
1.0
 17
0.0
 27
0.0
 37
0.0
 40
8.033735011016777
 41
1.519637462235649
 42
50.0
 43
0.0
 44
0.0
 50
0.0
 51
0.0
 71
     0
 72
  2000
 73
     1
 74
     1
 75
     0
 76
     0
 77
     0
 78
     0
281
     0
 65
     1
110
0.0
120
0.0
130
0.0
111
1.0
121
0.0
131
0.0
112
0.0
122
1.0
132
0.0
 79
     0
146
0.0
  0
ENDTAB
  0
TABLE
  2
LTYPE
  5
5
330
0
100
AcDbSymbolTable
 70
     2
  0
LTYPE
  5
13
330
5
100
AcDbSymbolTableRecord
100
AcDbLinetypeTableRecord
  2
BYBLOCK
 70
     0
  3

 72
    65
 73
     0
 40
0.0
  0
LTYPE
  5
14
330
5
100
AcDbSymbolTableRecord
100
AcDbLinetypeTableRecord
  2
BYLAYER
 70
     0
  3

 72
    65
 73
     0
 40
0.0
  0
LTYPE
  5
15
330
5
100
AcDbSymbolTableRecord
100
AcDbLinetypeTableRecord
  2
CONTINUOUS
 70
     0
  3
Solid line
 72
    65
 73
     0
 40
0.0
  0
LTYPE
  5
2BF
330
5
100
AcDbSymbolTableRecord
100
AcDbLinetypeTableRecord
  2
HIDDEN
 70
     0
  3
Hidden __ __ __ __ __ __ __ __ __ __ __ __ __ _
 72
    65
 73
     2
 40
0.375
 49
0.25
 74
     0
 49
-0.125
 74
     0
  0
ENDTAB
  0
TABLE
  2
LAYER
  5
2
330
0
100
AcDbSymbolTable
 70
     1
  0
LAYER
  5
F
330
2
100
AcDbSymbolTableRecord
100
AcDbLayerTableRecord
  2
0
 70
     0
 62
     7
  6
CONTINUOUS
370
    -3
390
0
  0
ENDTAB
  0
TABLE
  2
STYLE
  5
3
330
0
100
AcDbSymbolTable
 70
     1
  0
STYLE
  5
10
330
3
100
AcDbSymbolTableRecord
100
AcDbTextStyleTableRecord
  2
STANDARD
 70
     0
 40
0.0
 41
1.0
 50
0.0
 71
     0
 42
0.2
  3
romans.shx
  4

  0
ENDTAB
  0
TABLE
  2
VIEW
  5
6
330
0
100
AcDbSymbolTable
 70
     1
  0
VIEW
  5
1D7
330
6
100
AcDbSymbolTableRecord
100
AcDbViewTableRecord
  2
INITIAL
 70
     0
 40
8.033735011016777
 10
5.06982424560681
 20
5.826372187326126
 41
12.20836468441522
 11
0.0
 21
0.0
 31
1.0
 12
0.0
 22
0.0
 32
0.0
 42
50.0
 43
0.0
 44
0.0
 50
0.0
 71
     0
281
     0
 72
     0
  0
ENDTAB
  0
TABLE
  2
UCS
  5
7
330
0
100
AcDbSymbolTable
 70
     0
  0
ENDTAB
  0
TABLE
  2
APPID
  5
9
330
0
100
AcDbSymbolTable
 70
     1
  0
APPID
  5
11
330
9
100
AcDbSymbolTableRecord
100
AcDbRegAppTableRecord
  2
ACAD
 70
     0
  0
ENDTAB
  0
TABLE
  2
DIMSTYLE
  5
A
330
0
100
AcDbSymbolTable
 70
     1
100
AcDbDimStyleTable
  0
DIMSTYLE
105
1D
330
A
100
AcDbSymbolTableRecord
100
AcDbDimStyleTableRecord
  2
STANDARD
 70
     0
  3

  4

340
10
  0
ENDTAB
  0
TABLE
  2
BLOCK_RECORD
  5
1
330
0
100
AcDbSymbolTable
 70
     0
  0
BLOCK_RECORD
  5
19
330
1
100
AcDbSymbolTableRecord
100
AcDbBlockTableRecord
  2
*MODEL_SPACE
340
446
  0
BLOCK_RECORD
  5
16
330
1
100
AcDbSymbolTableRecord
100
AcDbBlockTableRecord
  2
*PAPER_SPACE
340
447
  0
ENDTAB
  0
ENDSEC
  0
SECTION
  2
BLOCKS
  0
BLOCK
  5
1A
330
19
100
AcDbEntity
  8
0
100
AcDbBlockBegin
  2
*MODEL_SPACE
 70
     0
 10
0.0
 20
0.0
 30
0.0
  3
*MODEL_SPACE
  1

  4

  0
ENDBLK
  5
1B
330
19
100
AcDbEntity
  8
0
100
AcDbBlockEnd
  0
BLOCK
  5
17
330
16
100
AcDbEntity
 67
     1
  8
0
100
AcDbBlockBegin
  2
*PAPER_SPACE
 70
     0
 10
0.0
 20
0.0
 30
0.0
  3
*PAPER_SPACE
  1

  4

  0
ENDBLK
  5
18
330
16
100
AcDbEntity
 67
     1
  8
0
100
AcDbBlockEnd
  0
ENDSEC
  0
SECTION
  2
ENTITIES
  0
LINE
  5
271
330
19
100
AcDbEntity
  8
0
100
AcDbLine
 10
1.722082321651208
 20
5.481253260288765
 30
0.0
 11
4.117490709295587
 21
3.393983902154535
 31
0.0
  0
LINE
  5
272
330
19
100
AcDbEntity
  8
0
100
AcDbLine
 10
4.117490709295587
 20
3.393983902154535
 30
0.0
 11
8.417066939136326
 21
4.475586262467223
 31
0.0
  0
LINE
  5
273
330
19
100
AcDbEntity
  8
0
100
AcDbLine
 10
4.117490709295587
 20
3.393983902154535
 30
0.0
 11
4.117490709295587
 21
1.898091303023548
 31
0.0
  0
LINE
  5
279
330
19
100
AcDbEntity
  8
0
100
AcDbLine
 10
2.827782480088164
 20
9.523654169162805
 30
0.0
 11
2.827782480088164
 21
5.994548189447533
 31
0.0
  0
LINE
  5
27A
330
19
100
AcDbEntity
  8
0
100
AcDbLine
 10
2.827782480088164
 20
5.994548189447533
 30
0.0
 11
4.343643047216813
 21
5.134019862087249
 31
0.0
  0
LINE
  5
27B
330
19
100
AcDbEntity
  8
0
100
AcDbLine
 10
4.343643047216813
 20
5.134019862087249
 30
0.0
 11
6.959208240248669
 21
5.591266530280674
 31
0.0
  0
LINE
  5
27D
330
19
100
AcDbEntity
  8
0
100
AcDbLine
 10
6.959208240248669
 20
5.591266530280674
 30
0.0
 11
6.959208240248669
 21
9.605662316347768
 31
0.0
  0
LINE
  5
27F
330
19
100
AcDbEntity
  8
0
100
AcDbLine
 10
6.959208240248669
 20
9.605662316347768
 30
0.0
 11
4.343643047216813
 21
9.626376366286738
 31
0.0
  0
LINE
  5
280
330
19
100
AcDbEntity
  8
0
100
AcDbLine
 10
4.343643047216813
 20
9.626376366286738
 30
0.0
 11
3.706087116833757
 21
9.583172428287087
 31
0.0
  0
LINE
  5
281
330
19
100
AcDbEntity
  8
0
100
AcDbLine
 10
4.343643047216813
 20
5.134019862087249
 30
0.0
 11
4.343643047216813
 21
9.626376366286738
 31
0.0
  0
LINE
  5
285
330
19
100
AcDbEntity
  8
0
100
AcDbLine
 10
3.590240244834412
 20
9.806815497511073
 30
0.0
 11
6.029695636217626
 21
9.791782133049697
 31
0.0
  0
LINE
  5
286
330
19
100
AcDbEntity
  8
0
100
AcDbLine
 10
6.029695636217626
 20
9.791782133049697
 30
0.0
 11
6.086632095737427
 21
9.612572710277583
 31
0.0
  0
LINE
  5
287
330
19
100
AcDbEntity
  8
0
100
AcDbLine
 10
3.368318300141321
 20
9.560283545415544
 30
0.0
 11
3.445149781883617
 21
9.417584707377589
 31
0.0
  0
LINE
  5
288
330
19
100
AcDbEntity
  8
0
100
AcDbLine
 10
3.445149781883617
 20
9.417584707377589
 30
0.0
 11
3.590240244834412
 21
9.806815497511073
 31
0.0
  0
LINE
  5
289
330
19
100
AcDbEntity
  8
0
100
AcDbLine
 10
3.590240244834412
 20
9.806815497511073
 30
0.0
 11
3.706087116833758
 21
9.583172428287089
 31
0.0
  0
LINE
  5
28A
330
19
100
AcDbEntity
  8
0
100
AcDbLine
 10
3.36831830014132
 20
9.560283545415544
 30
0.0
 11
2.827782480088164
 21
9.523654169162805
 31
0.0
  0
LINE
  5
28B
330
19
100
AcDbEntity
  8
0
100
AcDbLine
 10
3.368318300141321
 20
9.560283545415544
 30
0.0
 11
3.494116842501917
 21
9.548947495167706
 31
0.0
  0
LINE
  5
28C
330
19
100
AcDbEntity
  8
0
100
AcDbLine
 10
3.850391763149704
 20
9.805212290252671
 30
0.0
 11
3.920484048836474
 21
9.597701023059933
 31
0.0
  0
LINE
  5
28D
330
19
100
AcDbEntity
  8
0
100
AcDbLine
 10
3.940429768818138
 20
9.804657422900158
 30
0.0
 11
4.008324033019718
 21
9.603653494129043
 31
0.0
  0
LINE
  5
28E
330
19
100
AcDbEntity
  8
0
100
AcDbLine
 10
4.359750210076265
 20
9.802073322759689
 30
0.0
 11
4.419298772325984
 21
9.625777208417434
 31
0.0
  0
LINE
  5
28F
330
19
100
AcDbEntity
  8
0
100
AcDbLine
 10
4.540771376283703
 20
9.800957763452299
 30
0.0
 11
4.600427654058672
 21
9.624342752602074
 31
0.0
  0
LINE
  5
290
330
19
100
AcDbEntity
  8
0
100
AcDbLine
 10
4.671863084586855
 20
9.800149898944614
 30
0.0
 11
4.731597367671988
 21
9.623303949973293
 31
0.0
  0
LINE
  5
291
330
19
100
AcDbEntity
  8
0
100
AcDbLine
 10
5.04811023696707
 20
9.797831241842186
 30
0.0
 11
5.108068403592963
 21
9.620322475889063
 31
0.0
  0
LINE
  5
292
330
19
100
AcDbEntity
  8
0
100
AcDbLine
 10
5.260271855310474
 20
9.796523776682323
 30
0.0
 11
5.320356267395044
 21
9.618641255545578
 31
0.0
  0
LINE
  5
293
330
19
100
AcDbEntity
  8
0
100
AcDbLine
 10
5.552361236058528
 20
9.794723749458381
 30
0.0
 11
5.612619454122402
 21
9.616326668143467
 31
0.0
  0
LINE
  5
294
330
19
100
AcDbEntity
  8
0
100
AcDbLine
 10
5.710541911963441
 20
9.793748946738058
 30
0.0
 11
5.770894254460091
 21
9.6150732059369
 31
0.0
  0
LINE
  5
296
330
19
100
AcDbEntity
  8
0
100
AcDbLine
 10
2.934398337961938
 20
5.934024175672318
 30
0.0
 11
2.875155843482987
 21
5.284477032511433
 31
0.0
  0
LINE
  5
297
330
19
100
AcDbEntity
  8
0
100
AcDbLine
 10
2.89559686036337
 20
5.239457917952137
 30
0.0
 11
3.148229110958929
 21
5.056262110027792
 31
0.0
  0
LINE
  5
298
330
19
100
AcDbEntity
  8
0
100
AcDbLine
 10
4.433157795752024
 20
4.228386174210097
 30
0.0
 11
6.90982998920101
 21
4.77645939281018
 31
0.0
  0
LINE
  5
299
330
19
100
AcDbEntity
  8
0
100
AcDbLine
 10
6.843987494572667
 20
5.571123923165596
 30
0.0
 11
6.94853347962098
 21
4.832283542764985
 31
0.0
  0
ARC
  5
29B
330
19
100
AcDbEntity
  8
0
100
AcDbCircle
 10
6.899026643095503
 20
4.825278320624345
 30
0.0
 40
0.05
100
AcDbArc
 50
282.4781287993993
 51
8.053889945664341
  0
ARC
  5
29C
330
19
100
AcDbEntity
  8
0
100
AcDbCircle
 10
2.924949169364769
 20
5.279935590270174
 30
0.0
 40
0.05
100
AcDbArc
 50
174.7887082920964
 51
234.0523248386376
  0
ARC
  5
29E
330
19
100
AcDbEntity
  8
0
100
AcDbCircle
 10
4.37914106522449
 20
4.47248081328092
 30
0.0
 40
0.25
100
AcDbArc
 50
234.0523248386377
 51
282.4781287993993
  0
LINE
  5
29F
330
19
100
AcDbEntity
  8
0
100
AcDbLine
 10
3.148229110958929
 20
5.056262110027793
 30
0.0
 11
3.148229110958928
 21
5.134717483800331
 31
0.0
  0
LINE
  5
2A0
330
19
100
AcDbEntity
  8
0
100
AcDbLine
 10
3.252734002946981
 20
4.980480581443594
 30
0.0
 11
3.252734002946981
 21
5.134717483800331
 31
0.0
  0
LWPOLYLINE
  5
2A8
330
19
100
AcDbEntity
  8
0
100
AcDbPolyline
 90
      101
 70
     0
 43
0.0
 10
2.923601148460642
 20
5.815641523888038
 10
2.755702169919962
 20
5.793429189061116
 10
2.653641433786472
 20
5.809439762644049
 10
2.553580960587768
 20
5.73239479308361
 10
2.297428252908763
 20
5.74540511743755
 10
2.222382424945379
 20
5.640343180940387
 10
2.013256676023669
 20
5.543287362226043
 10
1.722082321651208
 20
5.481253260288765
 10
1.789119168415781
 20
5.16606452730962
 10
1.833144426212201
 20
5.065003787482278
 10
1.793119694285354
 20
4.979953441022877
 10
1.832142017027543
 20
4.883895736369206
 10
1.825136896745274
 20
4.789839686310541
 10
1.87616731487174
 20
4.786837384633024
 10
1.94120565079173
 20
4.739808673785526
 10
1.968220849308214
 20
4.647753477366344
 10
2.015248689116582
 20
4.625739872303592
 10
2.02325298472559
 20
4.577711135114113
 10
1.986230113950722
 20
4.499664937778411
 10
2.055269796719694
 20
4.348574096512961
 10
2.076281002609732
 20
4.215494482231048
 10
2.06827470461192
 20
4.063403814862498
 10
2.162329102699822
 20
3.891300185819854
 10
2.254383978736795
 20
3.886296279607054
 10
2.285401335069727
 20
3.771227311615923
 10
2.330427109793385
 20
3.662161785594316
 10
2.380456069869875
 20
3.573108149968792
 10
2.355438300908019
 20
3.288938845794991
 10
2.39646246847215
 20
3.257919927598791
 10
2.433483957598745
 20
3.197883735789454
 10
2.446491208285871
 20
3.146853157471884
 10
2.454495193524615
 20
3.067805912575911
 10
2.788693587930177
 20
2.966742269284803
 10
2.840723952303071
 20
2.898701151113984
 10
2.939780514525515
 20
2.644548516142829
 10
2.986808003915842
 20
2.587514015282422
 10
3.078862879952815
 20
2.582510109069621
 10
3.187926193334793
 20
2.406403941756657
 10
3.32100561738977
 20
2.408403804213683
 10
3.441076589324339
 20
2.341362602253461
 10
3.500112043943669
 20
2.364375743072937
 10
3.653203238251401
 20
2.349365255903649
 10
3.674215104929745
 20
2.282325045125885
 10
3.722243531748959
 20
2.259310833028399
 10
3.772272852255433
 20
2.20627869022332
 10
3.921361988866157
 20
2.224287944853884
 10
4.117490709295587
 20
1.898091303023548
 10
4.423658981069981
 20
1.953121125681856
 10
4.554737871867684
 20
2.021160411666918
 10
4.659800328985936
 20
1.998145628888624
 10
4.712832501826847
 20
2.051176740463468
 10
4.909949995173178
 20
2.039167603837014
 10
5.122074631699491
 20
1.846050255906383
 10
5.175106414074586
 20
1.860058083592412
 10
5.231140458079419
 20
1.921093941313746
 10
5.255154586387502
 20
1.901081760571287
 10
5.413248375343368
 20
1.847047939453463
 10
5.51631045939545
 20
1.906082132567848
 10
5.634381198431064
 20
1.935098264819367
 10
5.728437518812218
 20
1.955109264152432
 10
5.76545969876295
 20
1.964114266915615
 10
5.837502804547168
 20
1.976120710329127
 10
5.923554228602672
 20
1.984124625484262
 10
6.005602814029536
 20
1.947101714661617
 10
6.133679633424436
 20
1.987124314044388
 10
6.464877618409902
 20
2.024143089934153
 10
6.601959450579928
 20
2.028144106388982
 10
6.703021582067488
 20
2.211252350353233
 10
6.803081404489831
 20
2.223258513432313
 10
7.097258671268394
 20
2.397359451886256
 10
7.183311366840789
 20
2.532439188935739
 10
7.323395991273588
 20
2.636499877633752
 10
7.357416660490381
 20
2.67352162707089
 10
7.582551120773436
 20
2.686527135679757
 10
7.664600216809444
 20
2.700534673019409
 10
7.763659782615093
 20
2.746561144885298
 10
7.829699636656724
 20
2.791587350122549
 10
7.860718765103748
 20
2.853624055165274
 10
7.961780976686861
 20
3.044737075311845
 10
8.057840603633784
 20
3.275874026429742
 10
8.146893888841266
 20
3.290882090708577
 10
8.280974380480403
 20
3.339910003224795
 10
8.334006473225763
 20
3.384936338617318
 10
8.35702302811815
 20
3.667104468769427
 10
8.390043500789915
 20
3.744150109130115
 10
8.279979259990993
 20
3.887236584702948
 10
8.277978946996486
 20
3.975289142732369
 10
8.350023604632028
 20
4.142388124678354
 10
8.417066939136326
 20
4.475586262467223
 10
8.120892783448115
 20
4.731742063836931
 10
8.044849712463186
 20
4.96188013998641
 10
8.018305596352871
 20
4.968274625658864
 10
7.970808165917995
 20
5.225037897864075
 10
7.887760415176336
 20
5.405146192957655
 10
7.712656987442182
 20
5.510210632440824
 10
7.634610409652607
 20
5.509210816349667
 10
7.592586165686775
 20
5.592260789742898
 10
7.442496662327973
 20
5.597265276648453
 10
7.317423436151368
 20
5.737350111332075
 10
7.214361972839816
 20
5.740352933630679
 10
6.959208240248669
 20
5.843416970011846
  0
LWPOLYLINE
  5
2A9
330
19
100
AcDbEntity
  8
0
100
AcDbPolyline
 90
       10
 70
     0
 43
0.0
 10
2.840723952303071
 20
2.898701151113984
 10
3.129895450647245
 20
2.794636167291987
 10
3.151907834252826
 20
2.719591170319958
 10
3.196934810409767
 20
2.730597287033168
 10
3.316005335500706
 20
2.678565050426742
 10
3.346022515312496
 20
2.605521167404741
 10
3.367034552193888
 20
2.555491106014409
 10
3.37303771382898
 20
2.513465970985559
 10
3.37303741347066
 20
2.483448060301855
 10
3.653203238251401
 20
2.349365255903649
  0
LINE
  5
2AA
330
19
100
AcDbEntity
  8
0
100
AcDbLine
 10
8.018305596352871
 20
4.968274625658864
 30
0.0
 11
7.804706346898001
 21
4.953877766670653
 31
0.0
  0
LINE
  5
2AB
330
19
100
AcDbEntity
  8
0
100
AcDbLine
 10
7.804706346898001
 20
4.953877766670653
 30
0.0
 11
7.648613932202707
 21
5.025922314174811
 31
0.0
  0
LINE
  5
2AC
330
19
100
AcDbEntity
  8
0
100
AcDbLine
 10
7.648613932202707
 20
5.025922314174811
 30
0.0
 11
7.647613515394909
 21
5.043933070596977
 31
0.0
  0
LINE
  5
2AD
330
19
100
AcDbEntity
  8
0
100
AcDbLine
 10
7.647613515394909
 20
5.043933070596977
 30
0.0
 11
7.736667651617635
 21
5.143991881812974
 31
0.0
  0
LINE
  5
2AE
330
19
100
AcDbEntity
  8
0
100
AcDbLine
 10
7.736667651617635
 20
5.143991881812974
 30
0.0
 11
7.803708132717888
 21
5.192019868106652
 31
0.0
  0
LINE
  5
2AF
330
19
100
AcDbEntity
  8
0
100
AcDbLine
 10
7.803708132717888
 20
5.192019868106652
 30
0.0
 11
7.970808165917995
 21
5.225037897864075
 31
0.0
  0
LINE
  5
2B0
330
19
100
AcDbEntity
  8
0
  6
HIDDEN
100
AcDbLine
 10
3.104911882486166
 20
5.928506292969321
 30
0.0
 11
4.357652226515285
 21
5.216068677788824
 31
0.0
  0
LINE
  5
2B1
330
19
100
AcDbEntity
  8
0
  6
HIDDEN
100
AcDbLine
 10
4.357652226515285
 20
5.216068677788824
 30
0.0
 11
6.74508085782545
 21
5.629291359702719
 31
0.0
  0
LINE
  5
2B2
330
19
100
AcDbEntity
  8
0
  6
HIDDEN
100
AcDbLine
 10
6.74508085782545
 20
5.629291359702719
 30
0.0
 11
5.186156543293714
 21
6.213655619620949
 31
0.0
  0
LINE
  5
2B3
330
19
100
AcDbEntity
  8
0
  6
HIDDEN
100
AcDbLine
 10
5.186156543293714
 20
6.213655619620949
 30
0.0
 11
4.9660378934249
 21
6.183497375385886
 31
0.0
  0
ELLIPSE
  5
2B4
330
19
100
AcDbEntity
  8
0
  6
HIDDEN
100
AcDbEllipse
 10
4.823936231045108
 20
5.794909389907009
 30
0.0
 11
-0.4662780974828511
 21
0.01151153132800076
 31
0.0
210
0.0
220
0.0
230
1.0
 40
0.3572131567671074
 41
4.992831876917836
 42
10.69472180789397
  0
LINE
  5
2B5
330
19
100
AcDbEntity
  8
0
  6
HIDDEN
100
AcDbLine
 10
4.698830611223623
 20
2.697562557353118
 30
0.0
 11
4.698830611223623
 21
4.287178030255968
 31
0.0
  0
LINE
  5
2B6
330
19
100
AcDbEntity
  8
0
  6
HIDDEN
100
AcDbLine
 10
4.9660378934249
 20
2.697562557353117
 30
0.0
 11
4.9660378934249
 21
4.34630945490587
 31
0.0
  0
ELLIPSE
  5
2B7
330
19
100
AcDbEntity
  8
0
  6
HIDDEN
100
AcDbEllipse
 10
4.832434252324262
 20
7.462405860214221
 30
0.0
 11
-0.1336036411006392
 21
0.0
 31
0.0
210
0.0
220
0.0
230
1.0
 40
0.4630166412390516
 41
0.0
 42
6.283185307179586
  0
LINE
  5
2B9
330
19
100
AcDbEntity
  8
0
100
AcDbLine
 10
4.521724948201711
 20
2.69856492649
 30
0.0
 11
4.7598669795541
 21
2.69856492649
 31
0.0
  0
LINE
  5
2BA
330
19
100
AcDbEntity
  8
0
100
AcDbLine
 10
4.7598669795541
 20
2.69856492649
 30
0.0
 11
4.811898915802206
 21
2.784613266866745
 31
0.0
  0
LINE
  5
2BB
330
19
100
AcDbEntity
  8
0
100
AcDbLine
 10
4.811898915802206
 20
2.784613266866745
 30
0.0
 11
4.855922842010071
 21
2.552473796432806
 31
0.0
  0
LINE
  5
2BC
330
19
100
AcDbEntity
  8
0
100
AcDbLine
 10
4.855922842010071
 20
2.552473796432806
 30
0.0
 11
4.907955338927041
 21
2.69856492649
 31
0.0
  0
LINE
  5
2BD
330
19
100
AcDbEntity
  8
0
100
AcDbLine
 10
4.907955338927041
 20
2.69856492649
 30
0.0
 11
5.164107195590805
 21
2.69856492649
 31
0.0
  0
LINE
  5
2C0
330
19
100
AcDbEntity
  8
0
  6
HIDDEN
100
AcDbLine
 10
4.698830611223623
 20
5.637058179754436
 30
0.0
 11
4.698830611223623
 21
7.462405860214221
 31
0.0
  0
LINE
  5
2C1
330
19
100
AcDbEntity
  8
0
  6
HIDDEN
100
AcDbLine
 10
4.9660378934249
 20
5.633120522164052
 30
0.0
 11
4.9660378934249
 21
7.462405860214221
 31
0.0
  0
LINE
  5
2C2
330
19
100
AcDbEntity
  8
0
  6
HIDDEN
100
AcDbLine
 10
4.698830611223623
 20
6.146887562983272
 30
0.0
 11
3.104911882486166
 21
5.928506292969321
 31
0.0
  0
ELLIPSE
  5
2C3
330
19
100
AcDbEntity
  8
0
  6
HIDDEN
100
AcDbEllipse
 10
3.773310528512906
 20
5.908488225203779
 30
0.0
 11
-0.05603346831805167
 21
0.0
 31
0.0
210
0.0
220
0.0
230
1.0
 40
0.3571521037256506
 41
0.0
 42
6.283185307179586
  0
ELLIPSE
  5
2C4
330
19
100
AcDbEntity
  8
0
  6
HIDDEN
100
AcDbEllipse
 10
5.037066185225819
 20
6.073573528209988
 30
0.0
 11
-0.05603346831805167
 21
0.0
 31
0.0
210
0.0
220
0.0
230
1.0
 40
0.3571521037256506
 41
0.0
 42
6.283185307179586
  0
ELLIPSE
  5
2C5
330
19
100
AcDbEntity
  8
0
  6
HIDDEN
100
AcDbEllipse
 10
5.893573802637384
 20
5.730360179168886
 30
0.0
 11
-0.05603346831805167
 21
0.0
 31
0.0
210
0.0
220
0.0
230
1.0
 40
0.3571521037256506
 41
0.0
 42
6.283185307179586
  0
ELLIPSE
  5
2C6
330
19
100
AcDbEntity
  8
0
  6
HIDDEN
100
AcDbEllipse
 10
4.59479621389061
 20
5.465214963632838
 30
0.0
 11
-0.05603346831805167
 21
0.0
 31
0.0
210
0.0
220
0.0
230
1.0
 40
0.3571521037256506
 41
0.0
 42
6.283185307179586
  0
ARC
  5
2C9
330
19
100
AcDbEntity
  8
0
100
AcDbCircle
 10
3.200481556952955
 20
5.135337340146161
 30
0.0
 40
0.0522561224570677
100
AcDbArc
 50
359.3203478605042
 51
180.6796521394958
  0
LINE
  5
2CB
330
19
100
AcDbEntity
  8
0
100
AcDbLine
 10
3.148229110958929
 20
5.056262110027793
 30
0.0
 11
3.218971653194592
 21
5.100010816737464
 31
0.0
  0
LINE
  5
2CC
330
19
100
AcDbEntity
  8
0
100
AcDbLine
 10
3.218971653194592
 20
5.100010816737464
 30
0.0
 11
3.218971653194592
 21
5.184212882856427
 31
0.0
  0
LINE
  5
2CD
330
19
100
AcDbEntity
  8
0
100
AcDbLine
 10
3.887249721072196
 20
4.52036268537681
 30
0.0
 11
3.95799226330786
 21
4.564111392086481
 31
0.0
  0
ARC
  5
2CE
330
19
100
AcDbEntity
  8
0
100
AcDbCircle
 10
3.939502167066222
 20
4.599437915495178
 30
0.0
 40
0.0522561224570677
100
AcDbArc
 50
359.3203478605042
 51
180.6796521394958
  0
LINE
  5
2CF
330
19
100
AcDbEntity
  8
0
100
AcDbLine
 10
3.887249721072196
 20
4.52036268537681
 30
0.0
 11
3.887249721072196
 21
4.598818059149348
 31
0.0
  0
LINE
  5
2D0
330
19
100
AcDbEntity
  8
0
100
AcDbLine
 10
3.991754613060248
 20
4.444581156792611
 30
0.0
 11
3.991754613060248
 21
4.598818059149348
 31
0.0
  0
LINE
  5
2D1
330
19
100
AcDbEntity
  8
0
100
AcDbLine
 10
3.95799226330786
 20
4.564111392086481
 30
0.0
 11
3.95799226330786
 21
4.648313458205444
 31
0.0
  0
LINE
  5
2D2
330
19
100
AcDbEntity
  8
0
100
AcDbLine
 10
3.252734002946981
 20
4.980480581443593
 30
0.0
 11
3.887249721072196
 21
4.520362685376811
 31
0.0
  0
LINE
  5
2D3
330
19
100
AcDbEntity
  8
0
100
AcDbLine
 10
3.991754613060248
 20
4.444581156792612
 30
0.0
 11
4.232379520217495
 21
4.270092451690735
 31
0.0
  0
LINE
  5
2DA
330
19
100
AcDbEntity
  8
0
100
AcDbLine
 10
4.389911841832063
 20
4.294716943193631
 30
0.0
 11
4.389911841832063
 21
4.36421328924575
 31
0.0
  0
LINE
  5
2DB
330
19
100
AcDbEntity
  8
0
100
AcDbLine
 10
4.315399739021395
 20
5.086975323360086
 30
0.0
 11
4.315399739021395
 21
5.031378254334445
 31
0.0
  0
LINE
  5
2DF
330
19
100
AcDbEntity
  8
0
100
AcDbLine
 10
4.389911841832062
 20
4.415462187309675
 30
0.0
 11
4.389911841832063
 21
4.989158115155653
 31
0.0
  0
LINE
  5
2E0
330
19
100
AcDbEntity
  8
0
100
AcDbLine
 10
4.315399739021395
 20
4.36421328924575
 30
0.0
 11
4.315399739021395
 21
4.294716943193631
 31
0.0
  0
LINE
  5
2E3
330
19
100
AcDbEntity
  8
0
100
AcDbLine
 10
4.315399739021395
 20
4.989158115155653
 30
0.0
 11
4.315399739021395
 21
4.415462187309675
 31
0.0
  0
LINE
  5
2E4
330
19
100
AcDbEntity
  8
0
100
AcDbLine
 10
4.389911841832063
 20
5.031378254334445
 30
0.0
 11
4.389911841832063
 21
5.086975323360086
 31
0.0
  0
LWPOLYLINE
  5
2E7
330
19
100
AcDbEntity
  8
0
100
AcDbPolyline
 90
       11
 70
     1
 43
0.0
 10
3.021672228209535
 20
2.765703999437521
 10
3.053079115871803
 20
2.765703999437521
 10
3.078779048136359
 20
2.733233330844782
 10
3.083035883090366
 20
2.714288330608511
 10
3.070074410158699
 20
2.694194020805766
 10
3.049943874437425
 20
2.681030574994735
 10
3.021577396727283
 20
2.679783985009932
 10
2.99717934420896
 20
2.686564506536953
 10
2.985603900662731
 20
2.726425910189875
 10
2.989433461894974
 20
2.747439594024859
 10
2.998415827791781
 20
2.760505759417559
  0
LWPOLYLINE
  5
2E8
330
19
100
AcDbEntity
  8
0
100
AcDbPolyline
 90
       10
 70
     1
 43
0.0
 10
3.216772498716922
 20
2.624540845691981
 10
3.251369342133935
 20
2.611854958298208
 10
3.249716266672392
 20
2.576873422387074
 10
3.235687914541462
 20
2.561765104418842
 10
3.214490499620926
 20
2.553587650442325
 10
3.201261980613155
 20
2.558467518184114
 10
3.18693453687699
 20
2.57133027906576
 10
3.183723217436157
 20
2.58728722167108
 10
3.190497052033131
 20
2.617318140445276
 10
3.200578342658333
 20
2.622401412698119
  0
LWPOLYLINE
  5
2E9
330
19
100
AcDbEntity
  8
0
100
AcDbPolyline
 90
       14
 70
     1
 43
0.0
 10
7.856533640150541
 20
5.025807540435369
 10
7.887855073068456
 20
5.035072398257604
 10
7.930474221613453
 20
5.030448997073233
 10
7.956952623315083
 20
5.018691327386091
 10
7.957144896489876
 20
5.000709919554027
 10
7.943127226201989
 20
4.984602634484015
 10
7.923967433092582
 20
4.975443900754503
 10
7.901692457129739
 20
4.973251405714279
 10
7.888517347337189
 20
4.973136437947161
 10
7.876345025685637
 20
4.974029280956219
 10
7.858017111228522
 20
4.981861831631384
 10
7.847764911114615
 20
4.992762033007042
 10
7.845620470873046
 20
5.003732983777849
 10
7.850581002362816
 20
5.013766873167631
  0
LWPOLYLINE
  5
2EA
330
19
100
AcDbEntity
  8
0
100
AcDbPolyline
 90
       11
 70
     1
 43
0.0
 10
7.929662401542103
 20
5.106370496808614
 10
7.956044666656338
 20
5.103603531037504
 10
7.96636095782851
 20
5.086709527051159
 10
7.962552760282355
 20
5.063697909012613
 10
7.944406437156989
 20
5.054548018957495
 10
7.927177447428271
 20
5.054397676492803
 10
7.905830486705117
 20
5.060205761941224
 10
7.897615908402337
 20
5.070124683563887
 10
7.89446868001977
 20
5.08008782355852
 10
7.899407847823451
 20
5.092119647151864
 10
7.91045988106052
 20
5.101207631486227
  0
LWPOLYLINE
  5
2EB
330
19
100
AcDbEntity
  8
0
100
AcDbPolyline
 90
        7
 70
     1
 43
0.0
 10
7.957761833176141
 20
5.132591264337951
 10
7.942591828944639
 20
5.129461707916703
 10
7.930334052548734
 20
5.138346287740011
 10
7.930120415687851
 20
5.158325629775638
 10
7.940180342626968
 20
5.165406836232044
 10
7.958444166025817
 20
5.163568088167566
 10
7.969677790594636
 20
5.155673631771647
  0
LWPOLYLINE
  5
2ED
330
19
100
AcDbEntity
  8
0
100
AcDbPolyline
 90
        7
 70
     1
 43
0.0
 10
7.982503009777021
 20
4.998933077210307
 10
7.999742681348785
 20
4.998084452573218
 10
8.007989305180697
 20
4.98516862964521
 10
7.994931695661631
 20
4.974065023758498
 10
7.971632567871703
 20
4.972862652145661
 10
7.969466763944045
 20
4.985831537120031
 10
7.969391991042736
 20
4.9928243068325
  0
LWPOLYLINE
  5
2EE
330
19
100
AcDbEntity
  8
0
100
AcDbPolyline
 90
        9
 70
     1
 43
0.0
 10
6.177318907913961
 20
3.579501059996487
 10
6.190547426921732
 20
3.574621192254697
 10
6.192777321907654
 20
3.555658504669639
 10
6.176754075337769
 20
3.537535598047277
 10
6.15254829599424
 20
3.526334711742234
 10
6.134231063380168
 20
3.533168295315616
 10
6.13508430571855
 20
3.54816164551673
 10
6.142050413490315
 20
3.560211156458862
 10
6.148045778650218
 20
3.568255955319475
  0
CIRCLE
  5
2F0
102
{ACAD_REACTORS
330
2F5
102
}
330
19
100
AcDbEntity
  8
0
100
AcDbCircle
 10
3.817672616303124
 20
4.344171877403293
 30
0.0
 40
0.0068878989737587
  0
HATCH
  5
2F5
330
19
100
AcDbEntity
  8
0
100
AcDbHatch
 10
0.0
 20
0.0
 30
0.0
210
0.0
220
0.0
230
1.0
  2
SOLID
 70
     1
 71
     1
 91
        1
 92
        7
 72
     1
 73
     1
 93
        2
 10
3.824560515276883
 20
4.344171877403293
 42
1.0
 10
3.810784717329365
 20
4.344171877403293
 42
1.0
 97
        1
330
2F0
 75
     0
 76
     1
 47
0.0003546046884304
 98
        1
 10
3.815210775651467
 20
4.343881489719777
  0
HATCH
  5
2F6
330
19
100
AcDbEntity
  8
0
100
AcDbHatch
 10
0.0
 20
0.0
 30
0.0
210
0.0
220
0.0
230
1.0
  2
SOLID
 70
     1
 71
     1
 91
        1
 92
        7
 72
     1
 73
     1
 93
        2
 10
3.553419255542334
 20
4.39275793853103
 42
1.0
 10
3.539643457594816
 20
4.39275793853103
 42
1.0
 97
        1
330
2F7
 75
     0
 76
     1
 47
0.0003546046884304
 98
        1
 10
3.544069515916918
 20
4.392467550847514
  0
CIRCLE
  5
2F7
102
{ACAD_REACTORS
330
2F6
102
}
330
19
100
AcDbEntity
  8
0
100
AcDbCircle
 10
3.546531356568575
 20
4.39275793853103
 30
0.0
 40
0.0068878989737587
  0
HATCH
  5
2F8
330
19
100
AcDbEntity
  8
0
100
AcDbHatch
 10
0.0
 20
0.0
 30
0.0
210
0.0
220
0.0
230
1.0
  2
SOLID
 70
     1
 71
     1
 91
        1
 92
        7
 72
     1
 73
     1
 93
        2
 10
3.436207933108734
 20
4.453676876286202
 42
1.0
 10
3.422432135161216
 20
4.453676876286202
 42
1.0
 97
        1
330
2F9
 75
     0
 76
     1
 47
0.0003546046884304
 98
        1
 10
3.426858193483318
 20
4.453386488602686
  0
CIRCLE
  5
2F9
102
{ACAD_REACTORS
330
2F8
102
}
330
19
100
AcDbEntity
  8
0
100
AcDbCircle
 10
3.429320034134975
 20
4.453676876286202
 30
0.0
 40
0.0068878989737587
  0
HATCH
  5
2FA
330
19
100
AcDbEntity
  8
0
100
AcDbHatch
 10
0.0
 20
0.0
 30
0.0
210
0.0
220
0.0
230
1.0
  2
SOLID
 70
     1
 71
     1
 91
        1
 92
        7
 72
     1
 73
     1
 93
        2
 10
3.361787973813983
 20
4.399078220884877
 42
1.0
 10
3.348012175866465
 20
4.399078220884877
 42
1.0
 97
        1
330
2FB
 75
     0
 76
     1
 47
0.0003546046884304
 98
        1
 10
3.352438234188567
 20
4.398787833201361
  0
CIRCLE
  5
2FB
102
{ACAD_REACTORS
330
2FA
102
}
330
19
100
AcDbEntity
  8
0
100
AcDbCircle
 10
3.354900074840224
 20
4.399078220884877
 30
0.0
 40
0.0068878989737587
  0
HATCH
  5
2FC
330
19
100
AcDbEntity
  8
0
100
AcDbHatch
 10
0.0
 20
0.0
 30
0.0
210
0.0
220
0.0
230
1.0
  2
SOLID
 70
     1
 71
     1
 91
        1
 92
        7
 72
     1
 73
     1
 93
        2
 10
2.616409703818061
 20
5.00599698274563
 42
1.0
 10
2.602633905870543
 20
5.00599698274563
 42
1.0
 97
        1
330
2FD
 75
     0
 76
     1
 47
0.0003546046884304
 98
        1
 10
2.607059964192645
 20
5.005706595062114
  0
CIRCLE
  5
2FD
102
{ACAD_REACTORS
330
2FC
102
}
330
19
100
AcDbEntity
  8
0
100
AcDbCircle
 10
2.609521804844302
 20
5.00599698274563
 30
0.0
 40
0.0068878989737587
  0
HATCH
  5
2FE
330
19
100
AcDbEntity
  8
0
100
AcDbHatch
 10
0.0
 20
0.0
 30
0.0
210
0.0
220
0.0
230
1.0
  2
SOLID
 70
     1
 71
     1
 91
        1
 92
        7
 72
     1
 73
     1
 93
        2
 10
5.793032913050785
 20
4.047644092093288
 42
1.0
 10
5.779257115103269
 20
4.047644092093288
 42
1.0
 97
        1
330
2FF
 75
     0
 76
     1
 47
0.0003546046884304
 98
        1
 10
5.78368317342537
 20
4.047353704409772
  0
CIRCLE
  5
2FF
102
{ACAD_REACTORS
330
2FE
102
}
330
19
100
AcDbEntity
  8
0
100
AcDbCircle
 10
5.786145014077027
 20
4.047644092093288
 30
0.0
 40
0.0068878989737587
  0
HATCH
  5
300
330
19
100
AcDbEntity
  8
0
100
AcDbHatch
 10
0.0
 20
0.0
 30
0.0
210
0.0
220
0.0
230
1.0
  2
SOLID
 70
     1
 71
     1
 91
        1
 92
        7
 72
     1
 73
     1
 93
        2
 10
5.829390955464925
 20
3.965039351249216
 42
1.0
 10
5.815615157517408
 20
3.965039351249216
 42
1.0
 97
        1
330
301
 75
     0
 76
     1
 47
0.0003546046884304
 98
        1
 10
5.82004121583951
 20
3.964748963565699
  0
CIRCLE
  5
301
102
{ACAD_REACTORS
330
300
102
}
330
19
100
AcDbEntity
  8
0
100
AcDbCircle
 10
5.822503056491167
 20
3.965039351249216
 30
0.0
 40
0.0068878989737587
  0
HATCH
  5
302
330
19
100
AcDbEntity
  8
0
100
AcDbHatch
 10
0.0
 20
0.0
 30
0.0
210
0.0
220
0.0
230
1.0
  2
SOLID
 70
     1
 71
     1
 91
        1
 92
        7
 72
     1
 73
     1
 93
        2
 10
5.875465800735624
 20
4.016393482462172
 42
1.0
 10
5.861690002788107
 20
4.016393482462172
 42
1.0
 97
        1
330
303
 75
     0
 76
     1
 47
0.0003546046884304
 98
        1
 10
5.866116061110208
 20
4.016103094778656
  0
CIRCLE
  5
303
102
{ACAD_REACTORS
330
302
102
}
330
19
100
AcDbEntity
  8
0
100
AcDbCircle
 10
5.868577901761865
 20
4.016393482462172
 30
0.0
 40
0.0068878989737587
  0
HATCH
  5
304
330
19
100
AcDbEntity
  8
0
100
AcDbHatch
 10
0.0
 20
0.0
 30
0.0
210
0.0
220
0.0
230
1.0
  2
SOLID
 70
     1
 71
     1
 91
        1
 92
        7
 72
     1
 73
     1
 93
        2
 10
5.976301375778885
 20
3.970317552443424
 42
1.0
 10
5.962525577831368
 20
3.970317552443424
 42
1.0
 97
        1
330
305
 75
     0
 76
     1
 47
0.0003546046884304
 98
        1
 10
5.966951636153469
 20
3.970027164759908
  0
CIRCLE
  5
305
102
{ACAD_REACTORS
330
304
102
}
330
19
100
AcDbEntity
  8
0
100
AcDbCircle
 10
5.969413476805126
 20
3.970317552443424
 30
0.0
 40
0.0068878989737587
  0
HATCH
  5
306
330
19
100
AcDbEntity
  8
0
100
AcDbHatch
 10
0.0
 20
0.0
 30
0.0
210
0.0
220
0.0
230
1.0
  2
SOLID
 70
     1
 71
     1
 91
        1
 92
        7
 72
     1
 73
     1
 93
        2
 10
6.198770797277875
 20
4.208037084179216
 42
1.0
 10
6.184994999330359
 20
4.208037084179216
 42
1.0
 97
        1
330
307
 75
     0
 76
     1
 47
0.0003546046884304
 98
        1
 10
6.18942105765246
 20
4.2077466964957
  0
CIRCLE
  5
307
102
{ACAD_REACTORS
330
306
102
}
330
19
100
AcDbEntity
  8
0
100
AcDbCircle
 10
6.191882898304117
 20
4.208037084179216
 30
0.0
 40
0.0068878989737587
  0
HATCH
  5
308
330
19
100
AcDbEntity
  8
0
100
AcDbHatch
 10
0.0
 20
0.0
 30
0.0
210
0.0
220
0.0
230
1.0
  2
SOLID
 70
     1
 71
     1
 91
        1
 92
        7
 72
     1
 73
     1
 93
        2
 10
6.997731119997949
 20
4.656593576960751
 42
1.0
 10
6.983955322050433
 20
4.656593576960751
 42
1.0
 97
        1
330
309
 75
     0
 76
     1
 47
0.0003546046884304
 98
        1
 10
6.988381380372534
 20
4.656303189277235
  0
CIRCLE
  5
309
102
{ACAD_REACTORS
330
308
102
}
330
19
100
AcDbEntity
  8
0
100
AcDbCircle
 10
6.990843221024191
 20
4.656593576960751
 30
0.0
 40
0.0068878989737587
  0
HATCH
  5
30A
330
19
100
AcDbEntity
  8
0
100
AcDbHatch
 10
0.0
 20
0.0
 30
0.0
210
0.0
220
0.0
230
1.0
  2
SOLID
 70
     1
 71
     1
 91
        1
 92
        7
 72
     1
 73
     1
 93
        2
 10
7.240782324836355
 20
4.675698499545516
 42
1.0
 10
7.227006526888838
 20
4.675698499545516
 42
1.0
 97
        1
330
30B
 75
     0
 76
     1
 47
0.0003546046884304
 98
        1
 10
7.231432585210939
 20
4.675408111862
  0
CIRCLE
  5
30B
102
{ACAD_REACTORS
330
30A
102
}
330
19
100
AcDbEntity
  8
0
100
AcDbCircle
 10
7.233894425862596
 20
4.675698499545516
 30
0.0
 40
0.0068878989737587
  0
HATCH
  5
30C
330
19
100
AcDbEntity
  8
0
100
AcDbHatch
 10
0.0
 20
0.0
 30
0.0
210
0.0
220
0.0
230
1.0
  2
SOLID
 70
     1
 71
     1
 91
        1
 92
        7
 72
     1
 73
     1
 93
        2
 10
7.279462483508377
 20
4.849872522231216
 42
1.0
 10
7.26568668556086
 20
4.849872522231216
 42
1.0
 97
        1
330
30D
 75
     0
 76
     1
 47
0.0003546046884304
 98
        1
 10
7.270112743882962
 20
4.8495821345477
  0
CIRCLE
  5
30D
102
{ACAD_REACTORS
330
30C
102
}
330
19
100
AcDbEntity
  8
0
100
AcDbCircle
 10
7.272574584534619
 20
4.849872522231216
 30
0.0
 40
0.0068878989737587
  0
HATCH
  5
30E
330
19
100
AcDbEntity
  8
0
100
AcDbHatch
 10
0.0
 20
0.0
 30
0.0
210
0.0
220
0.0
230
1.0
  2
SOLID
 70
     1
 71
     1
 91
        1
 92
        7
 72
     1
 73
     1
 93
        2
 10
7.126866471482794
 20
4.807579476224736
 42
1.0
 10
7.113090673535277
 20
4.807579476224736
 42
1.0
 97
        1
330
30F
 75
     0
 76
     1
 47
0.0003546046884304
 98
        1
 10
7.117516731857378
 20
4.80728908854122
  0
CIRCLE
  5
30F
102
{ACAD_REACTORS
330
30E
102
}
330
19
100
AcDbEntity
  8
0
100
AcDbCircle
 10
7.119978572509035
 20
4.807579476224736
 30
0.0
 40
0.0068878989737587
  0
HATCH
  5
310
330
19
100
AcDbEntity
  8
0
100
AcDbHatch
 10
0.0
 20
0.0
 30
0.0
210
0.0
220
0.0
230
1.0
  2
SOLID
 70
     1
 71
     1
 91
        1
 92
        7
 72
     1
 73
     1
 93
        2
 10
7.195727716077306
 20
4.908086399936034
 42
1.0
 10
7.181951918129789
 20
4.908086399936034
 42
1.0
 97
        1
330
311
 75
     0
 76
     1
 47
0.0003546046884304
 98
        1
 10
7.18637797645189
 20
4.907796012252518
  0
CIRCLE
  5
311
102
{ACAD_REACTORS
330
310
102
}
330
19
100
AcDbEntity
  8
0
100
AcDbCircle
 10
7.188839817103547
 20
4.908086399936034
 30
0.0
 40
0.0068878989737587
  0
HATCH
  5
312
330
19
100
AcDbEntity
  8
0
100
AcDbHatch
 10
0.0
 20
0.0
 30
0.0
210
0.0
220
0.0
230
1.0
  2
SOLID
 70
     1
 71
     1
 91
        1
 92
        7
 72
     1
 73
     1
 93
        2
 10
7.288944285817966
 20
5.005808670527435
 42
1.0
 10
7.275168487870449
 20
5.005808670527435
 42
1.0
 97
        1
330
313
 75
     0
 76
     1
 47
0.0003546046884304
 98
        1
 10
7.27959454619255
 20
5.005518282843919
  0
CIRCLE
  5
313
102
{ACAD_REACTORS
330
312
102
}
330
19
100
AcDbEntity
  8
0
100
AcDbCircle
 10
7.282056386844207
 20
5.005808670527435
 30
0.0
 40
0.0068878989737587
  0
CIRCLE
  5
314
102
{ACAD_REACTORS
330
315
102
}
330
19
100
AcDbEntity
  8
0
100
AcDbCircle
 10
7.881282888384174
 20
5.080971822893184
 30
0.0
 40
0.0068878989737587
  0
HATCH
  5
315
330
19
100
AcDbEntity
  8
0
100
AcDbHatch
 10
0.0
 20
0.0
 30
0.0
210
0.0
220
0.0
230
1.0
  2
SOLID
 70
     1
 71
     1
 91
        1
 92
        7
 72
     1
 73
     1
 93
        2
 10
7.888170787357932
 20
5.080971822893184
 42
1.0
 10
7.874394989410416
 20
5.080971822893184
 42
1.0
 97
        1
330
314
 75
     0
 76
     1
 47
0.0003546046884304
 98
        1
 10
7.878821047732517
 20
5.080681435209668
  0
CIRCLE
  5
316
102
{ACAD_REACTORS
330
317
102
}
330
19
100
AcDbEntity
  8
0
100
AcDbCircle
 10
7.823963736701613
 20
5.038511115177928
 30
0.0
 40
0.0068878989737587
  0
HATCH
  5
317
330
19
100
AcDbEntity
  8
0
100
AcDbHatch
 10
0.0
 20
0.0
 30
0.0
210
0.0
220
0.0
230
1.0
  2
SOLID
 70
     1
 71
     1
 91
        1
 92
        7
 72
     1
 73
     1
 93
        2
 10
7.830851635675371
 20
5.038511115177928
 42
1.0
 10
7.817075837727854
 20
5.038511115177928
 42
1.0
 97
        1
330
316
 75
     0
 76
     1
 47
0.0003546046884304
 98
        1
 10
7.821501896049956
 20
5.038220727494412
  0
HATCH
  5
318
330
19
100
AcDbEntity
  8
0
100
AcDbHatch
 10
0.0
 20
0.0
 30
0.0
210
0.0
220
0.0
230
1.0
  2
SOLID
 70
     1
 71
     1
 91
        1
 92
        7
 72
     1
 73
     1
 93
        2
 10
7.765146996201326
 20
5.021952802713838
 42
1.0
 10
7.751371198253809
 20
5.021952802713838
 42
1.0
 97
        1
330
319
 75
     0
 76
     1
 47
0.0003546046884304
 98
        1
 10
7.75579725657591
 20
5.021662415030322
  0
CIRCLE
  5
319
102
{ACAD_REACTORS
330
318
102
}
330
19
100
AcDbEntity
  8
0
100
AcDbCircle
 10
7.758259097227567
 20
5.021952802713838
 30
0.0
 40
0.0068878989737587
  0
HATCH
  5
31A
330
19
100
AcDbEntity
  8
0
100
AcDbHatch
 10
0.0
 20
0.0
 30
0.0
210
0.0
220
0.0
230
1.0
  2
SOLID
 70
     1
 71
     1
 91
        1
 92
        7
 72
     1
 73
     1
 93
        2
 10
7.752547400828011
 20
5.062804329794149
 42
1.0
 10
7.738771602880494
 20
5.062804329794149
 42
1.0
 97
        1
330
31B
 75
     0
 76
     1
 47
0.0003546046884304
 98
        1
 10
7.743197661202595
 20
5.062513942110633
  0
CIRCLE
  5
31B
102
{ACAD_REACTORS
330
31A
102
}
330
19
100
AcDbEntity
  8
0
100
AcDbCircle
 10
7.745659501854252
 20
5.062804329794149
 30
0.0
 40
0.0068878989737587
  0
CIRCLE
  5
31C
102
{ACAD_REACTORS
330
31D
102
}
330
19
100
AcDbEntity
  8
0
100
AcDbCircle
 10
6.810679018304604
 20
3.969666065375923
 30
0.0
 40
0.0068878989737587
  0
HATCH
  5
31D
330
19
100
AcDbEntity
  8
0
100
AcDbHatch
 10
0.0
 20
0.0
 30
0.0
210
0.0
220
0.0
230
1.0
  2
SOLID
 70
     1
 71
     1
 91
        1
 92
        7
 72
     1
 73
     1
 93
        2
 10
6.817566917278363
 20
3.969666065375923
 42
1.0
 10
6.803791119330846
 20
3.969666065375923
 42
1.0
 97
        1
330
31C
 75
     0
 76
     1
 47
0.0003546046884304
 98
        1
 10
6.808217177652947
 20
3.969375677692407
  0
CIRCLE
  5
31E
102
{ACAD_REACTORS
330
31F
102
}
330
19
100
AcDbEntity
  8
0
100
AcDbCircle
 10
7.534854652959407
 20
3.734212722913135
 30
0.0
 40
0.0068878989737587
  0
HATCH
  5
31F
330
19
100
AcDbEntity
  8
0
100
AcDbHatch
 10
0.0
 20
0.0
 30
0.0
210
0.0
220
0.0
230
1.0
  2
SOLID
 70
     1
 71
     1
 91
        1
 92
        7
 72
     1
 73
     1
 93
        2
 10
7.541742551933165
 20
3.734212722913135
 42
1.0
 10
7.527966753985648
 20
3.734212722913135
 42
1.0
 97
        1
330
31E
 75
     0
 76
     1
 47
0.0003546046884304
 98
        1
 10
7.53239281230775
 20
3.733922335229619
  0
CIRCLE
  5
320
102
{ACAD_REACTORS
330
321
102
}
330
19
100
AcDbEntity
  8
0
100
AcDbCircle
 10
7.316322916228248
 20
3.412606485650891
 30
0.0
 40
0.0068878989737587
  0
HATCH
  5
321
330
19
100
AcDbEntity
  8
0
100
AcDbHatch
 10
0.0
 20
0.0
 30
0.0
210
0.0
220
0.0
230
1.0
  2
SOLID
 70
     1
 71
     1
 91
        1
 92
        7
 72
     1
 73
     1
 93
        2
 10
7.323210815202007
 20
3.412606485650891
 42
1.0
 10
7.30943501725449
 20
3.412606485650891
 42
1.0
 97
        1
330
320
 75
     0
 76
     1
 47
0.0003546046884304
 98
        1
 10
7.313861075576591
 20
3.412316097967375
  0
CIRCLE
  5
322
102
{ACAD_REACTORS
330
323
102
}
330
19
100
AcDbEntity
  8
0
100
AcDbCircle
 10
6.422863138498954
 20
3.839401272482522
 30
0.0
 40
0.0068878989737587
  0
HATCH
  5
323
330
19
100
AcDbEntity
  8
0
100
AcDbHatch
 10
0.0
 20
0.0
 30
0.0
210
0.0
220
0.0
230
1.0
  2
SOLID
 70
     1
 71
     1
 91
        1
 92
        7
 72
     1
 73
     1
 93
        2
 10
6.429751037472713
 20
3.839401272482522
 42
1.0
 10
6.415975239525196
 20
3.839401272482522
 42
1.0
 97
        1
330
322
 75
     0
 76
     1
 47
0.0003546046884304
 98
        1
 10
6.420401297847297
 20
3.839110884799005
  0
CIRCLE
  5
324
102
{ACAD_REACTORS
330
325
102
}
330
19
100
AcDbEntity
  8
0
100
AcDbCircle
 10
6.617457206065957
 20
3.271634947904382
 30
0.0
 40
0.0068878989737587
  0
HATCH
  5
325
330
19
100
AcDbEntity
  8
0
100
AcDbHatch
 10
0.0
 20
0.0
 30
0.0
210
0.0
220
0.0
230
1.0
  2
SOLID
 70
     1
 71
     1
 91
        1
 92
        7
 72
     1
 73
     1
 93
        2
 10
6.624345105039716
 20
3.271634947904382
 42
1.0
 10
6.610569307092199
 20
3.271634947904382
 42
1.0
 97
        1
330
324
 75
     0
 76
     1
 47
0.0003546046884304
 98
        1
 10
6.6149953654143
 20
3.271344560220866
  0
CIRCLE
  5
326
102
{ACAD_REACTORS
330
327
102
}
330
19
100
AcDbEntity
  8
0
100
AcDbCircle
 10
6.537681487088804
 20
3.243964185879185
 30
0.0
 40
0.0068878989737587
  0
HATCH
  5
327
330
19
100
AcDbEntity
  8
0
100
AcDbHatch
 10
0.0
 20
0.0
 30
0.0
210
0.0
220
0.0
230
1.0
  2
SOLID
 70
     1
 71
     1
 91
        1
 92
        7
 72
     1
 73
     1
 93
        2
 10
6.544569386062562
 20
3.243964185879185
 42
1.0
 10
6.530793588115046
 20
3.243964185879185
 42
1.0
 97
        1
330
326
 75
     0
 76
     1
 47
0.0003546046884304
 98
        1
 10
6.535219646437147
 20
3.243673798195669
  0
CIRCLE
  5
328
102
{ACAD_REACTORS
330
329
102
}
330
19
100
AcDbEntity
  8
0
100
AcDbCircle
 10
6.408619603400121
 20
3.180896235246352
 30
0.0
 40
0.0068878989737587
  0
HATCH
  5
329
330
19
100
AcDbEntity
  8
0
100
AcDbHatch
 10
0.0
 20
0.0
 30
0.0
210
0.0
220
0.0
230
1.0
  2
SOLID
 70
     1
 71
     1
 91
        1
 92
        7
 72
     1
 73
     1
 93
        2
 10
6.415507502373879
 20
3.180896235246352
 42
1.0
 10
6.401731704426362
 20
3.180896235246352
 42
1.0
 97
        1
330
328
 75
     0
 76
     1
 47
0.0003546046884304
 98
        1
 10
6.406157762748464
 20
3.180605847562836
  0
CIRCLE
  5
32A
102
{ACAD_REACTORS
330
32B
102
}
330
19
100
AcDbEntity
  8
0
100
AcDbCircle
 10
6.662802834797489
 20
2.822453499078526
 30
0.0
 40
0.0068878989737587
  0
HATCH
  5
32B
330
19
100
AcDbEntity
  8
0
100
AcDbHatch
 10
0.0
 20
0.0
 30
0.0
210
0.0
220
0.0
230
1.0
  2
SOLID
 70
     1
 71
     1
 91
        1
 92
        7
 72
     1
 73
     1
 93
        2
 10
6.669690733771247
 20
2.822453499078526
 42
1.0
 10
6.655914935823731
 20
2.822453499078526
 42
1.0
 97
        1
330
32A
 75
     0
 76
     1
 47
0.0003546046884304
 98
        1
 10
6.660340994145832
 20
2.82216311139501
  0
CIRCLE
  5
32C
102
{ACAD_REACTORS
330
32D
102
}
330
19
100
AcDbEntity
  8
0
100
AcDbCircle
 10
6.67071962660018
 20
2.745594937962118
 30
0.0
 40
0.0068878989737587
  0
HATCH
  5
32D
330
19
100
AcDbEntity
  8
0
100
AcDbHatch
 10
0.0
 20
0.0
 30
0.0
210
0.0
220
0.0
230
1.0
  2
SOLID
 70
     1
 71
     1
 91
        1
 92
        7
 72
     1
 73
     1
 93
        2
 10
6.677607525573938
 20
2.745594937962118
 42
1.0
 10
6.663831727626421
 20
2.745594937962118
 42
1.0
 97
        1
330
32C
 75
     0
 76
     1
 47
0.0003546046884304
 98
        1
 10
6.668257785948523
 20
2.745304550278602
  0
CIRCLE
  5
32E
102
{ACAD_REACTORS
330
32F
102
}
330
19
100
AcDbEntity
  8
0
100
AcDbCircle
 10
6.749002497761452
 20
2.723299657549461
 30
0.0
 40
0.0068878989737587
  0
HATCH
  5
32F
330
19
100
AcDbEntity
  8
0
100
AcDbHatch
 10
0.0
 20
0.0
 30
0.0
210
0.0
220
0.0
230
1.0
  2
SOLID
 70
     1
 71
     1
 91
        1
 92
        7
 72
     1
 73
     1
 93
        2
 10
6.755890396735211
 20
2.723299657549461
 42
1.0
 10
6.742114598787694
 20
2.723299657549461
 42
1.0
 97
        1
330
32E
 75
     0
 76
     1
 47
0.0003546046884304
 98
        1
 10
6.746540657109795
 20
2.723009269865945
  0
CIRCLE
  5
330
102
{ACAD_REACTORS
330
331
102
}
330
19
100
AcDbEntity
  8
0
100
AcDbCircle
 10
6.758207877257041
 20
2.810298232148375
 30
0.0
 40
0.0068878989737587
  0
HATCH
  5
331
330
19
100
AcDbEntity
  8
0
100
AcDbHatch
 10
0.0
 20
0.0
 30
0.0
210
0.0
220
0.0
230
1.0
  2
SOLID
 70
     1
 71
     1
 91
        1
 92
        7
 72
     1
 73
     1
 93
        2
 10
6.765095776230799
 20
2.810298232148375
 42
1.0
 10
6.751319978283283
 20
2.810298232148375
 42
1.0
 97
        1
330
330
 75
     0
 76
     1
 47
0.0003546046884304
 98
        1
 10
6.755746036605384
 20
2.810007844464859
  0
CIRCLE
  5
332
102
{ACAD_REACTORS
330
333
102
}
330
19
100
AcDbEntity
  8
0
100
AcDbCircle
 10
6.985096971565993
 20
2.824266820433933
 30
0.0
 40
0.0068878989737587
  0
HATCH
  5
333
330
19
100
AcDbEntity
  8
0
100
AcDbHatch
 10
0.0
 20
0.0
 30
0.0
210
0.0
220
0.0
230
1.0
  2
SOLID
 70
     1
 71
     1
 91
        1
 92
        7
 72
     1
 73
     1
 93
        2
 10
6.991984870539751
 20
2.824266820433933
 42
1.0
 10
6.978209072592234
 20
2.824266820433933
 42
1.0
 97
        1
330
332
 75
     0
 76
     1
 47
0.0003546046884304
 98
        1
 10
6.982635130914336
 20
2.823976432750417
  0
CIRCLE
  5
334
102
{ACAD_REACTORS
330
335
102
}
330
19
100
AcDbEntity
  8
0
100
AcDbCircle
 10
6.97833120860177
 20
2.983058371245199
 30
0.0
 40
0.0068878989737587
  0
HATCH
  5
335
330
19
100
AcDbEntity
  8
0
100
AcDbHatch
 10
0.0
 20
0.0
 30
0.0
210
0.0
220
0.0
230
1.0
  2
SOLID
 70
     1
 71
     1
 91
        1
 92
        7
 72
     1
 73
     1
 93
        2
 10
6.985219107575528
 20
2.983058371245199
 42
1.0
 10
6.971443309628011
 20
2.983058371245199
 42
1.0
 97
        1
330
334
 75
     0
 76
     1
 47
0.0003546046884304
 98
        1
 10
6.975869367950113
 20
2.982767983561683
  0
CIRCLE
  5
336
102
{ACAD_REACTORS
330
337
102
}
330
19
100
AcDbEntity
  8
0
100
AcDbCircle
 10
6.879724223439284
 20
3.10508233202251
 30
0.0
 40
0.0068878989737587
  0
HATCH
  5
337
330
19
100
AcDbEntity
  8
0
100
AcDbHatch
 10
0.0
 20
0.0
 30
0.0
210
0.0
220
0.0
230
1.0
  2
SOLID
 70
     1
 71
     1
 91
        1
 92
        7
 72
     1
 73
     1
 93
        2
 10
6.886612122413043
 20
3.10508233202251
 42
1.0
 10
6.872836324465526
 20
3.10508233202251
 42
1.0
 97
        1
330
336
 75
     0
 76
     1
 47
0.0003546046884304
 98
        1
 10
6.877262382787627
 20
3.104791944338994
  0
CIRCLE
  5
338
102
{ACAD_REACTORS
330
339
102
}
330
19
100
AcDbEntity
  8
0
100
AcDbCircle
 10
6.348772529229674
 20
2.332171795975225
 30
0.0
 40
0.0068878989737587
  0
HATCH
  5
339
330
19
100
AcDbEntity
  8
0
100
AcDbHatch
 10
0.0
 20
0.0
 30
0.0
210
0.0
220
0.0
230
1.0
  2
SOLID
 70
     1
 71
     1
 91
        1
 92
        7
 72
     1
 73
     1
 93
        2
 10
6.355660428203432
 20
2.332171795975225
 42
1.0
 10
6.341884630255915
 20
2.332171795975225
 42
1.0
 97
        1
330
338
 75
     0
 76
     1
 47
0.0003546046884304
 98
        1
 10
6.346310688578017
 20
2.331881408291709
  0
CIRCLE
  5
33A
102
{ACAD_REACTORS
330
33B
102
}
330
19
100
AcDbEntity
  8
0
100
AcDbCircle
 10
6.027247485160347
 20
2.258432843291562
 30
0.0
 40
0.0068878989737587
  0
HATCH
  5
33B
330
19
100
AcDbEntity
  8
0
100
AcDbHatch
 10
0.0
 20
0.0
 30
0.0
210
0.0
220
0.0
230
1.0
  2
SOLID
 70
     1
 71
     1
 91
        1
 92
        7
 72
     1
 73
     1
 93
        2
 10
6.034135384134105
 20
2.258432843291562
 42
1.0
 10
6.020359586186588
 20
2.258432843291562
 42
1.0
 97
        1
330
33A
 75
     0
 76
     1
 47
0.0003546046884304
 98
        1
 10
6.02478564450869
 20
2.258142455608046
  0
CIRCLE
  5
33C
102
{ACAD_REACTORS
330
33D
102
}
330
19
100
AcDbEntity
  8
0
100
AcDbCircle
 10
5.654838397242063
 20
3.530983171530971
 30
0.0
 40
0.0068878989737587
  0
HATCH
  5
33D
330
19
100
AcDbEntity
  8
0
100
AcDbHatch
 10
0.0
 20
0.0
 30
0.0
210
0.0
220
0.0
230
1.0
  2
SOLID
 70
     1
 71
     1
 91
        1
 92
        7
 72
     1
 73
     1
 93
        2
 10
5.661726296215822
 20
3.530983171530971
 42
1.0
 10
5.647950498268305
 20
3.530983171530971
 42
1.0
 97
        1
330
33C
 75
     0
 76
     1
 47
0.0003546046884304
 98
        1
 10
5.652376556590406
 20
3.530692783847455
  0
CIRCLE
  5
33E
102
{ACAD_REACTORS
330
33F
102
}
330
19
100
AcDbEntity
  8
0
100
AcDbCircle
 10
5.791619338136185
 20
3.156530062606758
 30
0.0
 40
0.0068878989737587
  0
HATCH
  5
33F
330
19
100
AcDbEntity
  8
0
100
AcDbHatch
 10
0.0
 20
0.0
 30
0.0
210
0.0
220
0.0
230
1.0
  2
SOLID
 70
     1
 71
     1
 91
        1
 92
        7
 72
     1
 73
     1
 93
        2
 10
5.798507237109943
 20
3.156530062606758
 42
1.0
 10
5.784731439162426
 20
3.156530062606758
 42
1.0
 97
        1
330
33E
 75
     0
 76
     1
 47
0.0003546046884304
 98
        1
 10
5.789157497484528
 20
3.156239674923242
  0
CIRCLE
  5
340
102
{ACAD_REACTORS
330
341
102
}
330
19
100
AcDbEntity
  8
0
100
AcDbCircle
 10
5.73550592961246
 20
3.096096790733832
 30
0.0
 40
0.0068878989737587
  0
HATCH
  5
341
330
19
100
AcDbEntity
  8
0
100
AcDbHatch
 10
0.0
 20
0.0
 30
0.0
210
0.0
220
0.0
230
1.0
  2
SOLID
 70
     1
 71
     1
 91
        1
 92
        7
 72
     1
 73
     1
 93
        2
 10
5.742393828586218
 20
3.096096790733832
 42
1.0
 10
5.728618030638701
 20
3.096096790733832
 42
1.0
 97
        1
330
340
 75
     0
 76
     1
 47
0.0003546046884304
 98
        1
 10
5.733044088960803
 20
3.095806403050316
  0
CIRCLE
  5
342
102
{ACAD_REACTORS
330
343
102
}
330
19
100
AcDbEntity
  8
0
100
AcDbCircle
 10
5.705829500523334
 20
2.932990999237271
 30
0.0
 40
0.0068878989737587
  0
HATCH
  5
343
330
19
100
AcDbEntity
  8
0
100
AcDbHatch
 10
0.0
 20
0.0
 30
0.0
210
0.0
220
0.0
230
1.0
  2
SOLID
 70
     1
 71
     1
 91
        1
 92
        7
 72
     1
 73
     1
 93
        2
 10
5.712717399497093
 20
2.932990999237271
 42
1.0
 10
5.698941601549576
 20
2.932990999237271
 42
1.0
 97
        1
330
342
 75
     0
 76
     1
 47
0.0003546046884304
 98
        1
 10
5.703367659871677
 20
2.932700611553755
  0
CIRCLE
  5
344
102
{ACAD_REACTORS
330
345
102
}
330
19
100
AcDbEntity
  8
0
100
AcDbCircle
 10
5.60793012721205
 20
2.799261694609772
 30
0.0
 40
0.0068878989737587
  0
HATCH
  5
345
330
19
100
AcDbEntity
  8
0
100
AcDbHatch
 10
0.0
 20
0.0
 30
0.0
210
0.0
220
0.0
230
1.0
  2
SOLID
 70
     1
 71
     1
 91
        1
 92
        7
 72
     1
 73
     1
 93
        2
 10
5.614818026185809
 20
2.799261694609772
 42
1.0
 10
5.601042228238292
 20
2.799261694609772
 42
1.0
 97
        1
330
344
 75
     0
 76
     1
 47
0.0003546046884304
 98
        1
 10
5.605468286560393
 20
2.798971306926256
  0
CIRCLE
  5
346
102
{ACAD_REACTORS
330
347
102
}
330
19
100
AcDbEntity
  8
0
100
AcDbCircle
 10
5.43671518075687
 20
2.981594747713795
 30
0.0
 40
0.0068878989737587
  0
HATCH
  5
347
330
19
100
AcDbEntity
  8
0
100
AcDbHatch
 10
0.0
 20
0.0
 30
0.0
210
0.0
220
0.0
230
1.0
  2
SOLID
 70
     1
 71
     1
 91
        1
 92
        7
 72
     1
 73
     1
 93
        2
 10
5.443603079730629
 20
2.981594747713795
 42
1.0
 10
5.429827281783112
 20
2.981594747713795
 42
1.0
 97
        1
330
346
 75
     0
 76
     1
 47
0.0003546046884304
 98
        1
 10
5.434253340105213
 20
2.981304360030279
  0
CIRCLE
  5
348
102
{ACAD_REACTORS
330
349
102
}
330
19
100
AcDbEntity
  8
0
100
AcDbCircle
 10
5.356107583127425
 20
2.936932701283922
 30
0.0
 40
0.0068878989737587
  0
HATCH
  5
349
330
19
100
AcDbEntity
  8
0
100
AcDbHatch
 10
0.0
 20
0.0
 30
0.0
210
0.0
220
0.0
230
1.0
  2
SOLID
 70
     1
 71
     1
 91
        1
 92
        7
 72
     1
 73
     1
 93
        2
 10
5.362995482101184
 20
2.936932701283922
 42
1.0
 10
5.349219684153667
 20
2.936932701283922
 42
1.0
 97
        1
330
348
 75
     0
 76
     1
 47
0.0003546046884304
 98
        1
 10
5.353645742475768
 20
2.936642313600406
  0
CIRCLE
  5
34A
102
{ACAD_REACTORS
330
34B
102
}
330
19
100
AcDbEntity
  8
0
100
AcDbCircle
 10
5.297453201064354
 20
3.019342881291334
 30
0.0
 40
0.0068878989737587
  0
HATCH
  5
34B
330
19
100
AcDbEntity
  8
0
100
AcDbHatch
 10
0.0
 20
0.0
 30
0.0
210
0.0
220
0.0
230
1.0
  2
SOLID
 70
     1
 71
     1
 91
        1
 92
        7
 72
     1
 73
     1
 93
        2
 10
5.304341100038112
 20
3.019342881291334
 42
1.0
 10
5.290565302090595
 20
3.019342881291334
 42
1.0
 97
        1
330
34A
 75
     0
 76
     1
 47
0.0003546046884304
 98
        1
 10
5.294991360412697
 20
3.019052493607818
  0
CIRCLE
  5
34C
102
{ACAD_REACTORS
330
34D
102
}
330
19
100
AcDbEntity
  8
0
100
AcDbCircle
 10
5.256209400061751
 20
3.084920963033156
 30
0.0
 40
0.0068878989737587
  0
HATCH
  5
34D
330
19
100
AcDbEntity
  8
0
100
AcDbHatch
 10
0.0
 20
0.0
 30
0.0
210
0.0
220
0.0
230
1.0
  2
SOLID
 70
     1
 71
     1
 91
        1
 92
        7
 72
     1
 73
     1
 93
        2
 10
5.263097299035509
 20
3.084920963033156
 42
1.0
 10
5.249321501087993
 20
3.084920963033156
 42
1.0
 97
        1
330
34C
 75
     0
 76
     1
 47
0.0003546046884304
 98
        1
 10
5.253747559410094
 20
3.08463057534964
  0
CIRCLE
  5
34E
102
{ACAD_REACTORS
330
34F
102
}
330
19
100
AcDbEntity
  8
0
100
AcDbCircle
 10
5.27860994793083
 20
3.264947289539244
 30
0.0
 40
0.0068878989737587
  0
HATCH
  5
34F
330
19
100
AcDbEntity
  8
0
100
AcDbHatch
 10
0.0
 20
0.0
 30
0.0
210
0.0
220
0.0
230
1.0
  2
SOLID
 70
     1
 71
     1
 91
        1
 92
        7
 72
     1
 73
     1
 93
        2
 10
5.285497846904589
 20
3.264947289539244
 42
1.0
 10
5.271722048957072
 20
3.264947289539244
 42
1.0
 97
        1
330
34E
 75
     0
 76
     1
 47
0.0003546046884304
 98
        1
 10
5.276148107279173
 20
3.264656901855728
  0
CIRCLE
  5
350
102
{ACAD_REACTORS
330
351
102
}
330
19
100
AcDbEntity
  8
0
100
AcDbCircle
 10
4.428482151018322
 20
3.051722536407208
 30
0.0
 40
0.0068878989737587
  0
HATCH
  5
351
330
19
100
AcDbEntity
  8
0
100
AcDbHatch
 10
0.0
 20
0.0
 30
0.0
210
0.0
220
0.0
230
1.0
  2
SOLID
 70
     1
 71
     1
 91
        1
 92
        7
 72
     1
 73
     1
 93
        2
 10
4.435370049992081
 20
3.051722536407208
 42
1.0
 10
4.421594252044564
 20
3.051722536407208
 42
1.0
 97
        1
330
350
 75
     0
 76
     1
 47
0.0003546046884304
 98
        1
 10
4.426020310366665
 20
3.051432148723692
  0
CIRCLE
  5
352
102
{ACAD_REACTORS
330
353
102
}
330
19
100
AcDbEntity
  8
0
100
AcDbCircle
 10
4.482058501318138
 20
2.97026710512961
 30
0.0
 40
0.0068878989737587
  0
HATCH
  5
353
330
19
100
AcDbEntity
  8
0
100
AcDbHatch
 10
0.0
 20
0.0
 30
0.0
210
0.0
220
0.0
230
1.0
  2
SOLID
 70
     1
 71
     1
 91
        1
 92
        7
 72
     1
 73
     1
 93
        2
 10
4.488946400291896
 20
2.97026710512961
 42
1.0
 10
4.475170602344379
 20
2.97026710512961
 42
1.0
 97
        1
330
352
 75
     0
 76
     1
 47
0.0003546046884304
 98
        1
 10
4.479596660666481
 20
2.969976717446094
  0
CIRCLE
  5
354
102
{ACAD_REACTORS
330
355
102
}
330
19
100
AcDbEntity
  8
0
100
AcDbCircle
 10
4.437543205131876
 20
2.773063777056577
 30
0.0
 40
0.0068878989737587
  0
HATCH
  5
355
330
19
100
AcDbEntity
  8
0
100
AcDbHatch
 10
0.0
 20
0.0
 30
0.0
210
0.0
220
0.0
230
1.0
  2
SOLID
 70
     1
 71
     1
 91
        1
 92
        7
 72
     1
 73
     1
 93
        2
 10
4.444431104105634
 20
2.773063777056577
 42
1.0
 10
4.430655306158117
 20
2.773063777056577
 42
1.0
 97
        1
330
354
 75
     0
 76
     1
 47
0.0003546046884304
 98
        1
 10
4.435081364480219
 20
2.772773389373061
  0
CIRCLE
  5
356
102
{ACAD_REACTORS
330
357
102
}
330
19
100
AcDbEntity
  8
0
100
AcDbCircle
 10
4.209497620561997
 20
2.298518292803458
 30
0.0
 40
0.0068878989737587
  0
HATCH
  5
357
330
19
100
AcDbEntity
  8
0
100
AcDbHatch
 10
0.0
 20
0.0
 30
0.0
210
0.0
220
0.0
230
1.0
  2
SOLID
 70
     1
 71
     1
 91
        1
 92
        7
 72
     1
 73
     1
 93
        2
 10
4.216385519535756
 20
2.298518292803458
 42
1.0
 10
4.202609721588239
 20
2.298518292803458
 42
1.0
 97
        1
330
356
 75
     0
 76
     1
 47
0.0003546046884304
 98
        1
 10
4.20703577991034
 20
2.298227905119942
  0
CIRCLE
  5
358
102
{ACAD_REACTORS
330
359
102
}
330
19
100
AcDbEntity
  8
0
100
AcDbCircle
 10
4.415082481519971
 20
2.314299098130314
 30
0.0
 40
0.0068878989737587
  0
HATCH
  5
359
330
19
100
AcDbEntity
  8
0
100
AcDbHatch
 10
0.0
 20
0.0
 30
0.0
210
0.0
220
0.0
230
1.0
  2
SOLID
 70
     1
 71
     1
 91
        1
 92
        7
 72
     1
 73
     1
 93
        2
 10
4.421970380493729
 20
2.314299098130314
 42
1.0
 10
4.408194582546212
 20
2.314299098130314
 42
1.0
 97
        1
330
358
 75
     0
 76
     1
 47
0.0003546046884304
 98
        1
 10
4.412620640868314
 20
2.314008710446798
  0
CIRCLE
  5
35A
102
{ACAD_REACTORS
330
35B
102
}
330
19
100
AcDbEntity
  8
0
100
AcDbCircle
 10
4.603770794988739
 20
2.204050862493634
 30
0.0
 40
0.0068878989737587
  0
HATCH
  5
35B
330
19
100
AcDbEntity
  8
0
100
AcDbHatch
 10
0.0
 20
0.0
 30
0.0
210
0.0
220
0.0
230
1.0
  2
SOLID
 70
     1
 71
     1
 91
        1
 92
        7
 72
     1
 73
     1
 93
        2
 10
4.610658693962497
 20
2.204050862493634
 42
1.0
 10
4.59688289601498
 20
2.204050862493634
 42
1.0
 97
        1
330
35A
 75
     0
 76
     1
 47
0.0003546046884304
 98
        1
 10
4.601308954337082
 20
2.203760474810117
  0
CIRCLE
  5
35C
102
{ACAD_REACTORS
330
35D
102
}
330
19
100
AcDbEntity
  8
0
100
AcDbCircle
 10
4.577706374955536
 20
2.366670251898543
 30
0.0
 40
0.0068878989737587
  0
HATCH
  5
35D
330
19
100
AcDbEntity
  8
0
100
AcDbHatch
 10
0.0
 20
0.0
 30
0.0
210
0.0
220
0.0
230
1.0
  2
SOLID
 70
     1
 71
     1
 91
        1
 92
        7
 72
     1
 73
     1
 93
        2
 10
4.584594273929294
 20
2.366670251898543
 42
1.0
 10
4.570818475981778
 20
2.366670251898543
 42
1.0
 97
        1
330
35C
 75
     0
 76
     1
 47
0.0003546046884304
 98
        1
 10
4.575244534303879
 20
2.366379864215027
  0
CIRCLE
  5
35E
102
{ACAD_REACTORS
330
35F
102
}
330
19
100
AcDbEntity
  8
0
100
AcDbCircle
 10
4.536718938185992
 20
2.408273123197612
 30
0.0
 40
0.0068878989737587
  0
HATCH
  5
35F
330
19
100
AcDbEntity
  8
0
100
AcDbHatch
 10
0.0
 20
0.0
 30
0.0
210
0.0
220
0.0
230
1.0
  2
SOLID
 70
     1
 71
     1
 91
        1
 92
        7
 72
     1
 73
     1
 93
        2
 10
4.54360683715975
 20
2.408273123197612
 42
1.0
 10
4.529831039212233
 20
2.408273123197612
 42
1.0
 97
        1
330
35E
 75
     0
 76
     1
 47
0.0003546046884304
 98
        1
 10
4.534257097534335
 20
2.407982735514096
  0
CIRCLE
  5
360
102
{ACAD_REACTORS
330
361
102
}
330
19
100
AcDbEntity
  8
0
100
AcDbCircle
 10
4.441771909872189
 20
2.472383523094788
 30
0.0
 40
0.0068878989737587
  0
HATCH
  5
361
330
19
100
AcDbEntity
  8
0
100
AcDbHatch
 10
0.0
 20
0.0
 30
0.0
210
0.0
220
0.0
230
1.0
  2
SOLID
 70
     1
 71
     1
 91
        1
 92
        7
 72
     1
 73
     1
 93
        2
 10
4.448659808845948
 20
2.472383523094788
 42
1.0
 10
4.434884010898431
 20
2.472383523094788
 42
1.0
 97
        1
330
360
 75
     0
 76
     1
 47
0.0003546046884304
 98
        1
 10
4.439310069220532
 20
2.472093135411272
  0
CIRCLE
  5
362
102
{ACAD_REACTORS
330
363
102
}
330
19
100
AcDbEntity
  8
0
100
AcDbCircle
 10
4.412422702601992
 20
2.563041906473866
 30
0.0
 40
0.0068878989737587
  0
HATCH
  5
363
330
19
100
AcDbEntity
  8
0
100
AcDbHatch
 10
0.0
 20
0.0
 30
0.0
210
0.0
220
0.0
230
1.0
  2
SOLID
 70
     1
 71
     1
 91
        1
 92
        7
 72
     1
 73
     1
 93
        2
 10
4.41931060157575
 20
2.563041906473866
 42
1.0
 10
4.405534803628234
 20
2.563041906473866
 42
1.0
 97
        1
330
362
 75
     0
 76
     1
 47
0.0003546046884304
 98
        1
 10
4.409960861950335
 20
2.56275151879035
  0
CIRCLE
  5
364
102
{ACAD_REACTORS
330
365
102
}
330
19
100
AcDbEntity
  8
0
100
AcDbCircle
 10
4.574406990560059
 20
2.580440368005355
 30
0.0
 40
0.0068878989737587
  0
HATCH
  5
365
330
19
100
AcDbEntity
  8
0
100
AcDbHatch
 10
0.0
 20
0.0
 30
0.0
210
0.0
220
0.0
230
1.0
  2
SOLID
 70
     1
 71
     1
 91
        1
 92
        7
 72
     1
 73
     1
 93
        2
 10
4.581294889533817
 20
2.580440368005355
 42
1.0
 10
4.5675190915863
 20
2.580440368005355
 42
1.0
 97
        1
330
364
 75
     0
 76
     1
 47
0.0003546046884304
 98
        1
 10
4.571945149908402
 20
2.580149980321839
  0
CIRCLE
  5
366
102
{ACAD_REACTORS
330
367
102
}
330
19
100
AcDbEntity
  8
0
100
AcDbCircle
 10
4.75495419352221
 20
2.568029002622491
 30
0.0
 40
0.0068878989737587
  0
HATCH
  5
367
330
19
100
AcDbEntity
  8
0
100
AcDbHatch
 10
0.0
 20
0.0
 30
0.0
210
0.0
220
0.0
230
1.0
  2
SOLID
 70
     1
 71
     1
 91
        1
 92
        7
 72
     1
 73
     1
 93
        2
 10
4.761842092495968
 20
2.568029002622491
 42
1.0
 10
4.748066294548451
 20
2.568029002622491
 42
1.0
 97
        1
330
366
 75
     0
 76
     1
 47
0.0003546046884304
 98
        1
 10
4.752492352870553
 20
2.567738614938975
  0
CIRCLE
  5
368
102
{ACAD_REACTORS
330
369
102
}
330
19
100
AcDbEntity
  8
0
100
AcDbCircle
 10
5.265529428618656
 20
2.59246555655253
 30
0.0
 40
0.0068878989737587
  0
HATCH
  5
369
330
19
100
AcDbEntity
  8
0
100
AcDbHatch
 10
0.0
 20
0.0
 30
0.0
210
0.0
220
0.0
230
1.0
  2
SOLID
 70
     1
 71
     1
 91
        1
 92
        7
 72
     1
 73
     1
 93
        2
 10
5.272417327592414
 20
2.59246555655253
 42
1.0
 10
5.258641529644898
 20
2.59246555655253
 42
1.0
 97
        1
330
368
 75
     0
 76
     1
 47
0.0003546046884304
 98
        1
 10
5.263067587966999
 20
2.592175168869014
  0
CIRCLE
  5
36A
102
{ACAD_REACTORS
330
36B
102
}
330
19
100
AcDbEntity
  8
0
100
AcDbCircle
 10
5.321475842969113
 20
2.384150147023095
 30
0.0
 40
0.0068878989737587
  0
HATCH
  5
36B
330
19
100
AcDbEntity
  8
0
100
AcDbHatch
 10
0.0
 20
0.0
 30
0.0
210
0.0
220
0.0
230
1.0
  2
SOLID
 70
     1
 71
     1
 91
        1
 92
        7
 72
     1
 73
     1
 93
        2
 10
5.328363741942871
 20
2.384150147023095
 42
1.0
 10
5.314587943995354
 20
2.384150147023095
 42
1.0
 97
        1
330
36A
 75
     0
 76
     1
 47
0.0003546046884304
 98
        1
 10
5.319014002317456
 20
2.383859759339579
  0
CIRCLE
  5
36C
102
{ACAD_REACTORS
330
36D
102
}
330
19
100
AcDbEntity
  8
0
100
AcDbCircle
 10
5.555640818498111
 20
2.381198200299127
 30
0.0
 40
0.0068878989737587
  0
HATCH
  5
36D
330
19
100
AcDbEntity
  8
0
100
AcDbHatch
 10
0.0
 20
0.0
 30
0.0
210
0.0
220
0.0
230
1.0
  2
SOLID
 70
     1
 71
     1
 91
        1
 92
        7
 72
     1
 73
     1
 93
        2
 10
5.562528717471869
 20
2.381198200299127
 42
1.0
 10
5.548752919524352
 20
2.381198200299127
 42
1.0
 97
        1
330
36C
 75
     0
 76
     1
 47
0.0003546046884304
 98
        1
 10
5.553178977846454
 20
2.380907812615611
  0
CIRCLE
  5
36E
102
{ACAD_REACTORS
330
36F
102
}
330
19
100
AcDbEntity
  8
0
100
AcDbCircle
 10
4.982070216745377
 20
2.3711978450834
 30
0.0
 40
0.0068878989737587
  0
HATCH
  5
36F
330
19
100
AcDbEntity
  8
0
100
AcDbHatch
 10
0.0
 20
0.0
 30
0.0
210
0.0
220
0.0
230
1.0
  2
SOLID
 70
     1
 71
     1
 91
        1
 92
        7
 72
     1
 73
     1
 93
        2
 10
4.988958115719136
 20
2.3711978450834
 42
1.0
 10
4.975182317771619
 20
2.3711978450834
 42
1.0
 97
        1
330
36E
 75
     0
 76
     1
 47
0.0003546046884304
 98
        1
 10
4.97960837609372
 20
2.370907457399884
  0
CIRCLE
  5
370
102
{ACAD_REACTORS
330
371
102
}
330
19
100
AcDbEntity
  8
0
100
AcDbCircle
 10
4.939345554875084
 20
2.290900198941966
 30
0.0
 40
0.0068878989737587
  0
HATCH
  5
371
330
19
100
AcDbEntity
  8
0
100
AcDbHatch
 10
0.0
 20
0.0
 30
0.0
210
0.0
220
0.0
230
1.0
  2
SOLID
 70
     1
 71
     1
 91
        1
 92
        7
 72
     1
 73
     1
 93
        2
 10
4.946233453848842
 20
2.290900198941966
 42
1.0
 10
4.932457655901326
 20
2.290900198941966
 42
1.0
 97
        1
330
370
 75
     0
 76
     1
 47
0.0003546046884304
 98
        1
 10
4.936883714223427
 20
2.29060981125845
  0
CIRCLE
  5
372
102
{ACAD_REACTORS
330
373
102
}
330
19
100
AcDbEntity
  8
0
100
AcDbCircle
 10
4.825410948045727
 20
2.234957673137506
 30
0.0
 40
0.0068878989737587
  0
HATCH
  5
373
330
19
100
AcDbEntity
  8
0
100
AcDbHatch
 10
0.0
 20
0.0
 30
0.0
210
0.0
220
0.0
230
1.0
  2
SOLID
 70
     1
 71
     1
 91
        1
 92
        7
 72
     1
 73
     1
 93
        2
 10
4.832298847019485
 20
2.234957673137506
 42
1.0
 10
4.818523049071969
 20
2.234957673137506
 42
1.0
 97
        1
330
372
 75
     0
 76
     1
 47
0.0003546046884304
 98
        1
 10
4.82294910739407
 20
2.23466728545399
  0
CIRCLE
  5
374
102
{ACAD_REACTORS
330
375
102
}
330
19
100
AcDbEntity
  8
0
100
AcDbCircle
 10
4.87686161157977
 20
2.352296695114394
 30
0.0
 40
0.0068878989737587
  0
HATCH
  5
375
330
19
100
AcDbEntity
  8
0
100
AcDbHatch
 10
0.0
 20
0.0
 30
0.0
210
0.0
220
0.0
230
1.0
  2
SOLID
 70
     1
 71
     1
 91
        1
 92
        7
 72
     1
 73
     1
 93
        2
 10
4.883749510553528
 20
2.352296695114394
 42
1.0
 10
4.869973712606011
 20
2.352296695114394
 42
1.0
 97
        1
330
374
 75
     0
 76
     1
 47
0.0003546046884304
 98
        1
 10
4.874399770928113
 20
2.352006307430878
  0
CIRCLE
  5
376
102
{ACAD_REACTORS
330
377
102
}
330
19
100
AcDbEntity
  8
0
100
AcDbCircle
 10
4.864240652520365
 20
2.395146156398268
 30
0.0
 40
0.0068878989737587
  0
HATCH
  5
377
330
19
100
AcDbEntity
  8
0
100
AcDbHatch
 10
0.0
 20
0.0
 30
0.0
210
0.0
220
0.0
230
1.0
  2
SOLID
 70
     1
 71
     1
 91
        1
 92
        7
 72
     1
 73
     1
 93
        2
 10
4.871128551494124
 20
2.395146156398268
 42
1.0
 10
4.857352753546607
 20
2.395146156398268
 42
1.0
 97
        1
330
376
 75
     0
 76
     1
 47
0.0003546046884304
 98
        1
 10
4.861778811868708
 20
2.394855768714752
  0
CIRCLE
  5
378
102
{ACAD_REACTORS
330
379
102
}
330
19
100
AcDbEntity
  8
0
100
AcDbCircle
 10
4.912139482741312
 20
2.465498349893858
 30
0.0
 40
0.0068878989737587
  0
HATCH
  5
379
330
19
100
AcDbEntity
  8
0
100
AcDbHatch
 10
0.0
 20
0.0
 30
0.0
210
0.0
220
0.0
230
1.0
  2
SOLID
 70
     1
 71
     1
 91
        1
 92
        7
 72
     1
 73
     1
 93
        2
 10
4.91902738171507
 20
2.465498349893858
 42
1.0
 10
4.905251583767553
 20
2.465498349893858
 42
1.0
 97
        1
330
378
 75
     0
 76
     1
 47
0.0003546046884304
 98
        1
 10
4.909677642089655
 20
2.465207962210342
  0
HATCH
  5
37A
330
19
100
AcDbEntity
  8
0
100
AcDbHatch
 10
0.0
 20
0.0
 30
0.0
210
0.0
220
0.0
230
1.0
  2
SOLID
 70
     1
 71
     1
 91
        1
 92
        7
 72
     1
 73
     1
 93
        2
 10
2.379817098705888
 20
4.667249118614018
 42
1.0
 10
2.366041300758372
 20
4.667249118614018
 42
1.0
 97
        1
330
37B
 75
     0
 76
     1
 47
0.0003546046884304
 98
        1
 10
2.370467359080473
 20
4.666958730930502
  0
CIRCLE
  5
37B
102
{ACAD_REACTORS
330
37A
102
}
330
19
100
AcDbEntity
  8
0
100
AcDbCircle
 10
2.37292919973213
 20
4.667249118614018
 30
0.0
 40
0.0068878989737587
  0
HATCH
  5
37C
330
19
100
AcDbEntity
  8
0
100
AcDbHatch
 10
0.0
 20
0.0
 30
0.0
210
0.0
220
0.0
230
1.0
  2
SOLID
 70
     1
 71
     1
 91
        1
 92
        7
 72
     1
 73
     1
 93
        2
 10
2.648462722483558
 20
4.567689204272252
 42
1.0
 10
2.634686924536041
 20
4.567689204272252
 42
1.0
 97
        1
330
37D
 75
     0
 76
     1
 47
0.0003546046884304
 98
        1
 10
2.639112982858143
 20
4.567398816588736
  0
CIRCLE
  5
37D
102
{ACAD_REACTORS
330
37C
102
}
330
19
100
AcDbEntity
  8
0
100
AcDbCircle
 10
2.6415748235098
 20
4.567689204272252
 30
0.0
 40
0.0068878989737587
  0
HATCH
  5
37E
330
19
100
AcDbEntity
  8
0
100
AcDbHatch
 10
0.0
 20
0.0
 30
0.0
210
0.0
220
0.0
230
1.0
  2
SOLID
 70
     1
 71
     1
 91
        1
 92
        7
 72
     1
 73
     1
 93
        2
 10
2.635908464692711
 20
4.414723426258195
 42
1.0
 10
2.622132666745194
 20
4.414723426258195
 42
1.0
 97
        1
330
37F
 75
     0
 76
     1
 47
0.0003546046884304
 98
        1
 10
2.626558725067296
 20
4.414433038574679
  0
CIRCLE
  5
37F
102
{ACAD_REACTORS
330
37E
102
}
330
19
100
AcDbEntity
  8
0
100
AcDbCircle
 10
2.629020565718953
 20
4.414723426258195
 30
0.0
 40
0.0068878989737587
  0
HATCH
  5
380
330
19
100
AcDbEntity
  8
0
100
AcDbHatch
 10
0.0
 20
0.0
 30
0.0
210
0.0
220
0.0
230
1.0
  2
SOLID
 70
     1
 71
     1
 91
        1
 92
        7
 72
     1
 73
     1
 93
        2
 10
2.643377924192696
 20
4.284910765072984
 42
1.0
 10
2.629602126245179
 20
4.284910765072984
 42
1.0
 97
        1
330
381
 75
     0
 76
     1
 47
0.0003546046884304
 98
        1
 10
2.634028184567281
 20
4.284620377389468
  0
CIRCLE
  5
381
102
{ACAD_REACTORS
330
380
102
}
330
19
100
AcDbEntity
  8
0
100
AcDbCircle
 10
2.636490025218938
 20
4.284910765072984
 30
0.0
 40
0.0068878989737587
  0
HATCH
  5
382
330
19
100
AcDbEntity
  8
0
100
AcDbHatch
 10
0.0
 20
0.0
 30
0.0
210
0.0
220
0.0
230
1.0
  2
SOLID
 70
     1
 71
     1
 91
        1
 92
        7
 72
     1
 73
     1
 93
        2
 10
2.698651382431377
 20
4.139530282955772
 42
1.0
 10
2.68487558448386
 20
4.139530282955772
 42
1.0
 97
        1
330
383
 75
     0
 76
     1
 47
0.0003546046884304
 98
        1
 10
2.689301642805961
 20
4.139239895272256
  0
CIRCLE
  5
383
102
{ACAD_REACTORS
330
382
102
}
330
19
100
AcDbEntity
  8
0
100
AcDbCircle
 10
2.691763483457618
 20
4.139530282955772
 30
0.0
 40
0.0068878989737587
  0
HATCH
  5
384
330
19
100
AcDbEntity
  8
0
100
AcDbHatch
 10
0.0
 20
0.0
 30
0.0
210
0.0
220
0.0
230
1.0
  2
SOLID
 70
     1
 71
     1
 91
        1
 92
        7
 72
     1
 73
     1
 93
        2
 10
2.864584037000317
 20
4.07204307185903
 42
1.0
 10
2.8508082390528
 20
4.07204307185903
 42
1.0
 97
        1
330
385
 75
     0
 76
     1
 47
0.0003546046884304
 98
        1
 10
2.855234297374901
 20
4.071752684175514
  0
CIRCLE
  5
385
102
{ACAD_REACTORS
330
384
102
}
330
19
100
AcDbEntity
  8
0
100
AcDbCircle
 10
2.857696138026558
 20
4.07204307185903
 30
0.0
 40
0.0068878989737587
  0
HATCH
  5
386
330
19
100
AcDbEntity
  8
0
100
AcDbHatch
 10
0.0
 20
0.0
 30
0.0
210
0.0
220
0.0
230
1.0
  2
SOLID
 70
     1
 71
     1
 91
        1
 92
        7
 72
     1
 73
     1
 93
        2
 10
3.297123388430653
 20
4.000887944517134
 42
1.0
 10
3.283347590483136
 20
4.000887944517134
 42
1.0
 97
        1
330
387
 75
     0
 76
     1
 47
0.0003546046884304
 98
        1
 10
3.287773648805237
 20
4.000597556833618
  0
CIRCLE
  5
387
102
{ACAD_REACTORS
330
386
102
}
330
19
100
AcDbEntity
  8
0
100
AcDbCircle
 10
3.290235489456894
 20
4.000887944517134
 30
0.0
 40
0.0068878989737587
  0
HATCH
  5
388
330
19
100
AcDbEntity
  8
0
100
AcDbHatch
 10
0.0
 20
0.0
 30
0.0
210
0.0
220
0.0
230
1.0
  2
SOLID
 70
     1
 71
     1
 91
        1
 92
        7
 72
     1
 73
     1
 93
        2
 10
3.495937025001945
 20
3.796816394382551
 42
1.0
 10
3.482161227054428
 20
3.796816394382551
 42
1.0
 97
        1
330
389
 75
     0
 76
     1
 47
0.0003546046884304
 98
        1
 10
3.486587285376529
 20
3.796526006699035
  0
CIRCLE
  5
389
102
{ACAD_REACTORS
330
388
102
}
330
19
100
AcDbEntity
  8
0
100
AcDbCircle
 10
3.489049126028186
 20
3.796816394382551
 30
0.0
 40
0.0068878989737587
  0
HATCH
  5
38A
330
19
100
AcDbEntity
  8
0
100
AcDbHatch
 10
0.0
 20
0.0
 30
0.0
210
0.0
220
0.0
230
1.0
  2
SOLID
 70
     1
 71
     1
 91
        1
 92
        7
 72
     1
 73
     1
 93
        2
 10
3.281125420862295
 20
3.696034948660347
 42
1.0
 10
3.267349622914778
 20
3.696034948660347
 42
1.0
 97
        1
330
38B
 75
     0
 76
     1
 47
0.0003546046884304
 98
        1
 10
3.27177568123688
 20
3.695744560976831
  0
CIRCLE
  5
38B
102
{ACAD_REACTORS
330
38A
102
}
330
19
100
AcDbEntity
  8
0
100
AcDbCircle
 10
3.274237521888537
 20
3.696034948660347
 30
0.0
 40
0.0068878989737587
  0
HATCH
  5
38C
330
19
100
AcDbEntity
  8
0
100
AcDbHatch
 10
0.0
 20
0.0
 30
0.0
210
0.0
220
0.0
230
1.0
  2
SOLID
 70
     1
 71
     1
 91
        1
 92
        7
 72
     1
 73
     1
 93
        2
 10
3.208218367964367
 20
3.784315119836935
 42
1.0
 10
3.19444257001685
 20
3.784315119836935
 42
1.0
 97
        1
330
38D
 75
     0
 76
     1
 47
0.0003546046884304
 98
        1
 10
3.198868628338951
 20
3.784024732153418
  0
CIRCLE
  5
38D
102
{ACAD_REACTORS
330
38C
102
}
330
19
100
AcDbEntity
  8
0
100
AcDbCircle
 10
3.201330468990608
 20
3.784315119836935
 30
0.0
 40
0.0068878989737587
  0
HATCH
  5
38E
330
19
100
AcDbEntity
  8
0
100
AcDbHatch
 10
0.0
 20
0.0
 30
0.0
210
0.0
220
0.0
230
1.0
  2
SOLID
 70
     1
 71
     1
 91
        1
 92
        7
 72
     1
 73
     1
 93
        2
 10
3.189461874680343
 20
3.927017072926973
 42
1.0
 10
3.175686076732826
 20
3.927017072926973
 42
1.0
 97
        1
330
38F
 75
     0
 76
     1
 47
0.0003546046884304
 98
        1
 10
3.180112135054927
 20
3.926726685243457
  0
CIRCLE
  5
38F
102
{ACAD_REACTORS
330
38E
102
}
330
19
100
AcDbEntity
  8
0
100
AcDbCircle
 10
3.182573975706584
 20
3.927017072926973
 30
0.0
 40
0.0068878989737587
  0
HATCH
  5
390
330
19
100
AcDbEntity
  8
0
100
AcDbHatch
 10
0.0
 20
0.0
 30
0.0
210
0.0
220
0.0
230
1.0
  2
SOLID
 70
     1
 71
     1
 91
        1
 92
        7
 72
     1
 73
     1
 93
        2
 10
2.959822085286601
 20
3.791139123526516
 42
1.0
 10
2.946046287339085
 20
3.791139123526516
 42
1.0
 97
        1
330
391
 75
     0
 76
     1
 47
0.0003546046884304
 98
        1
 10
2.950472345661186
 20
3.790848735842999
  0
CIRCLE
  5
391
102
{ACAD_REACTORS
330
390
102
}
330
19
100
AcDbEntity
  8
0
100
AcDbCircle
 10
2.952934186312843
 20
3.791139123526516
 30
0.0
 40
0.0068878989737587
  0
HATCH
  5
392
330
19
100
AcDbEntity
  8
0
100
AcDbHatch
 10
0.0
 20
0.0
 30
0.0
210
0.0
220
0.0
230
1.0
  2
SOLID
 70
     1
 71
     1
 91
        1
 92
        7
 72
     1
 73
     1
 93
        2
 10
3.124572970593086
 20
3.549805105696638
 42
1.0
 10
3.110797172645569
 20
3.549805105696638
 42
1.0
 97
        1
330
393
 75
     0
 76
     1
 47
0.0003546046884304
 98
        1
 10
3.115223230967671
 20
3.549514718013122
  0
CIRCLE
  5
393
102
{ACAD_REACTORS
330
392
102
}
330
19
100
AcDbEntity
  8
0
100
AcDbCircle
 10
3.117685071619328
 20
3.549805105696638
 30
0.0
 40
0.0068878989737587
  0
HATCH
  5
394
330
19
100
AcDbEntity
  8
0
100
AcDbHatch
 10
0.0
 20
0.0
 30
0.0
210
0.0
220
0.0
230
1.0
  2
SOLID
 70
     1
 71
     1
 91
        1
 92
        7
 72
     1
 73
     1
 93
        2
 10
3.26042198093208
 20
3.452083571314645
 42
1.0
 10
3.246646182984563
 20
3.452083571314645
 42
1.0
 97
        1
330
395
 75
     0
 76
     1
 47
0.0003546046884304
 98
        1
 10
3.251072241306665
 20
3.451793183631128
  0
CIRCLE
  5
395
102
{ACAD_REACTORS
330
394
102
}
330
19
100
AcDbEntity
  8
0
100
AcDbCircle
 10
3.253534081958322
 20
3.452083571314645
 30
0.0
 40
0.0068878989737587
  0
HATCH
  5
396
330
19
100
AcDbEntity
  8
0
100
AcDbHatch
 10
0.0
 20
0.0
 30
0.0
210
0.0
220
0.0
230
1.0
  2
SOLID
 70
     1
 71
     1
 91
        1
 92
        7
 72
     1
 73
     1
 93
        2
 10
3.456972371883171
 20
3.364882328414085
 42
1.0
 10
3.443196573935655
 20
3.364882328414085
 42
1.0
 97
        1
330
397
 75
     0
 76
     1
 47
0.0003546046884304
 98
        1
 10
3.447622632257756
 20
3.364591940730569
  0
CIRCLE
  5
397
102
{ACAD_REACTORS
330
396
102
}
330
19
100
AcDbEntity
  8
0
100
AcDbCircle
 10
3.450084472909413
 20
3.364882328414085
 30
0.0
 40
0.0068878989737587
  0
HATCH
  5
398
330
19
100
AcDbEntity
  8
0
100
AcDbHatch
 10
0.0
 20
0.0
 30
0.0
210
0.0
220
0.0
230
1.0
  2
SOLID
 70
     1
 71
     1
 91
        1
 92
        7
 72
     1
 73
     1
 93
        2
 10
3.602163015467033
 20
3.530994232995089
 42
1.0
 10
3.588387217519517
 20
3.530994232995089
 42
1.0
 97
        1
330
399
 75
     0
 76
     1
 47
0.0003546046884304
 98
        1
 10
3.592813275841618
 20
3.530703845311573
  0
CIRCLE
  5
399
102
{ACAD_REACTORS
330
398
102
}
330
19
100
AcDbEntity
  8
0
100
AcDbCircle
 10
3.595275116493275
 20
3.530994232995089
 30
0.0
 40
0.0068878989737587
  0
HATCH
  5
39A
330
19
100
AcDbEntity
  8
0
100
AcDbHatch
 10
0.0
 20
0.0
 30
0.0
210
0.0
220
0.0
230
1.0
  2
SOLID
 70
     1
 71
     1
 91
        1
 92
        7
 72
     1
 73
     1
 93
        2
 10
3.682694535090024
 20
3.677559767481052
 42
1.0
 10
3.668918737142507
 20
3.677559767481052
 42
1.0
 97
        1
330
39B
 75
     0
 76
     1
 47
0.0003546046884304
 98
        1
 10
3.673344795464609
 20
3.677269379797536
  0
CIRCLE
  5
39B
102
{ACAD_REACTORS
330
39A
102
}
330
19
100
AcDbEntity
  8
0
100
AcDbCircle
 10
3.675806636116266
 20
3.677559767481052
 30
0.0
 40
0.0068878989737587
  0
CIRCLE
  5
39C
102
{ACAD_REACTORS
330
39D
102
}
330
19
100
AcDbEntity
  8
0
100
AcDbCircle
 10
3.16524445207128
 20
2.704016030114803
 30
0.0
 40
0.0068878989737587
  0
HATCH
  5
39D
330
19
100
AcDbEntity
  8
0
100
AcDbHatch
 10
0.0
 20
0.0
 30
0.0
210
0.0
220
0.0
230
1.0
  2
SOLID
 70
     1
 71
     1
 91
        1
 92
        7
 72
     1
 73
     1
 93
        2
 10
3.172132351045039
 20
2.704016030114803
 42
1.0
 10
3.158356553097521
 20
2.704016030114803
 42
1.0
 97
        1
330
39C
 75
     0
 76
     1
 47
0.0003546046884304
 98
        1
 10
3.162782611419623
 20
2.703725642431287
  0
CIRCLE
  5
39E
102
{ACAD_REACTORS
330
39F
102
}
330
19
100
AcDbEntity
  8
0
100
AcDbCircle
 10
3.227055439254816
 20
2.705554461354599
 30
0.0
 40
0.0068878989737587
  0
HATCH
  5
39F
330
19
100
AcDbEntity
  8
0
100
AcDbHatch
 10
0.0
 20
0.0
 30
0.0
210
0.0
220
0.0
230
1.0
  2
SOLID
 70
     1
 71
     1
 91
        1
 92
        7
 72
     1
 73
     1
 93
        2
 10
3.233943338228575
 20
2.705554461354599
 42
1.0
 10
3.220167540281057
 20
2.705554461354599
 42
1.0
 97
        1
330
39E
 75
     0
 76
     1
 47
0.0003546046884304
 98
        1
 10
3.224593598603159
 20
2.705264073671083
  0
CIRCLE
  5
3A0
102
{ACAD_REACTORS
330
3A1
102
}
330
19
100
AcDbEntity
  8
0
100
AcDbCircle
 10
3.188074883872415
 20
2.654262235862398
 30
0.0
 40
0.0068878989737587
  0
HATCH
  5
3A1
330
19
100
AcDbEntity
  8
0
100
AcDbHatch
 10
0.0
 20
0.0
 30
0.0
210
0.0
220
0.0
230
1.0
  2
SOLID
 70
     1
 71
     1
 91
        1
 92
        7
 72
     1
 73
     1
 93
        2
 10
3.194962782846174
 20
2.654262235862398
 42
1.0
 10
3.181186984898656
 20
2.654262235862398
 42
1.0
 97
        1
330
3A0
 75
     0
 76
     1
 47
0.0003546046884304
 98
        1
 10
3.185613043220758
 20
2.653971848178882
  0
CIRCLE
  5
3A2
102
{ACAD_REACTORS
330
3A3
102
}
330
19
100
AcDbEntity
  8
0
100
AcDbCircle
 10
3.218660574725434
 20
2.637545105363926
 30
0.0
 40
0.0068878989737587
  0
HATCH
  5
3A3
330
19
100
AcDbEntity
  8
0
100
AcDbHatch
 10
0.0
 20
0.0
 30
0.0
210
0.0
220
0.0
230
1.0
  2
SOLID
 70
     1
 71
     1
 91
        1
 92
        7
 72
     1
 73
     1
 93
        2
 10
3.225548473699193
 20
2.637545105363926
 42
1.0
 10
3.211772675751675
 20
2.637545105363926
 42
1.0
 97
        1
330
3A2
 75
     0
 76
     1
 47
0.0003546046884304
 98
        1
 10
3.216198734073777
 20
2.63725471768041
  0
CIRCLE
  5
3A4
102
{ACAD_REACTORS
330
3A5
102
}
330
19
100
AcDbEntity
  8
0
100
AcDbCircle
 10
3.277473879329021
 20
2.635061137173414
 30
0.0
 40
0.0068878989737587
  0
HATCH
  5
3A5
330
19
100
AcDbEntity
  8
0
100
AcDbHatch
 10
0.0
 20
0.0
 30
0.0
210
0.0
220
0.0
230
1.0
  2
SOLID
 70
     1
 71
     1
 91
        1
 92
        7
 72
     1
 73
     1
 93
        2
 10
3.28436177830278
 20
2.635061137173414
 42
1.0
 10
3.270585980355262
 20
2.635061137173414
 42
1.0
 97
        1
330
3A4
 75
     0
 76
     1
 47
0.0003546046884304
 98
        1
 10
3.275012038677364
 20
2.634770749489898
  0
CIRCLE
  5
3A6
102
{ACAD_REACTORS
330
3A7
102
}
330
19
100
AcDbEntity
  8
0
100
AcDbCircle
 10
3.312242937339885
 20
2.51148105780752
 30
0.0
 40
0.0068878989737587
  0
HATCH
  5
3A7
330
19
100
AcDbEntity
  8
0
100
AcDbHatch
 10
0.0
 20
0.0
 30
0.0
210
0.0
220
0.0
230
1.0
  2
SOLID
 70
     1
 71
     1
 91
        1
 92
        7
 72
     1
 73
     1
 93
        2
 10
3.319130836313644
 20
2.51148105780752
 42
1.0
 10
3.305355038366126
 20
2.51148105780752
 42
1.0
 97
        1
330
3A6
 75
     0
 76
     1
 47
0.0003546046884304
 98
        1
 10
3.309781096688228
 20
2.511190670124003
  0
CIRCLE
  5
3A8
102
{ACAD_REACTORS
330
3A9
102
}
330
19
100
AcDbEntity
  8
0
100
AcDbCircle
 10
3.366683211821126
 20
2.444020009629253
 30
0.0
 40
0.0068878989737587
  0
HATCH
  5
3A9
330
19
100
AcDbEntity
  8
0
100
AcDbHatch
 10
0.0
 20
0.0
 30
0.0
210
0.0
220
0.0
230
1.0
  2
SOLID
 70
     1
 71
     1
 91
        1
 92
        7
 72
     1
 73
     1
 93
        2
 10
3.373571110794885
 20
2.444020009629253
 42
1.0
 10
3.359795312847367
 20
2.444020009629253
 42
1.0
 97
        1
330
3A8
 75
     0
 76
     1
 47
0.0003546046884304
 98
        1
 10
3.364221371169469
 20
2.443729621945737
  0
CIRCLE
  5
3AA
102
{ACAD_REACTORS
330
3AB
102
}
330
19
100
AcDbEntity
  8
0
100
AcDbCircle
 10
3.24577051027181
 20
2.471937658328065
 30
0.0
 40
0.0068878989737587
  0
HATCH
  5
3AB
330
19
100
AcDbEntity
  8
0
100
AcDbHatch
 10
0.0
 20
0.0
 30
0.0
210
0.0
220
0.0
230
1.0
  2
SOLID
 70
     1
 71
     1
 91
        1
 92
        7
 72
     1
 73
     1
 93
        2
 10
3.252658409245569
 20
2.471937658328065
 42
1.0
 10
3.238882611298052
 20
2.471937658328065
 42
1.0
 97
        1
330
3AA
 75
     0
 76
     1
 47
0.0003546046884304
 98
        1
 10
3.243308669620153
 20
2.471647270644549
  0
LWPOLYLINE
  5
3AC
330
19
100
AcDbEntity
  8
0
100
AcDbPolyline
 90
        6
 70
     1
 43
0.0
 10
2.978529669355377
 20
2.819276788609178
 10
3.011024799902995
 20
2.813565983579088
 10
3.017329938511174
 20
2.792640736488042
 10
2.995193826507905
 20
2.777461669124661
 10
2.976769775463394
 20
2.794284923715857
 10
2.973611865237781
 20
2.805247030812271
  0
CIRCLE
  5
3AD
102
{ACAD_REACTORS
330
3AE
102
}
330
19
100
AcDbEntity
  8
0
100
AcDbCircle
 10
3.85170438614207
 20
3.531233748413126
 30
0.0
 40
0.0068878989737587
  0
HATCH
  5
3AE
330
19
100
AcDbEntity
  8
0
100
AcDbHatch
 10
0.0
 20
0.0
 30
0.0
210
0.0
220
0.0
230
1.0
  2
SOLID
 70
     1
 71
     1
 91
        1
 92
        7
 72
     1
 73
     1
 93
        2
 10
3.858592285115828
 20
3.531233748413126
 42
1.0
 10
3.844816487168311
 20
3.531233748413126
 42
1.0
 97
        1
330
3AD
 75
     0
 76
     1
 47
0.0003546046884304
 98
        1
 10
3.849242545490413
 20
3.53094336072961
  0
CIRCLE
  5
3AF
102
{ACAD_REACTORS
330
3B0
102
}
330
19
100
AcDbEntity
  8
0
100
AcDbCircle
 10
3.84166712799419
 20
3.427243889409536
 30
0.0
 40
0.0068878989737587
  0
HATCH
  5
3B0
330
19
100
AcDbEntity
  8
0
100
AcDbHatch
 10
0.0
 20
0.0
 30
0.0
210
0.0
220
0.0
230
1.0
  2
SOLID
 70
     1
 71
     1
 91
        1
 92
        7
 72
     1
 73
     1
 93
        2
 10
3.848555026967949
 20
3.427243889409536
 42
1.0
 10
3.834779229020432
 20
3.427243889409536
 42
1.0
 97
        1
330
3AF
 75
     0
 76
     1
 47
0.0003546046884304
 98
        1
 10
3.839205287342533
 20
3.42695350172602
  0
CIRCLE
  5
3B1
102
{ACAD_REACTORS
330
3B2
102
}
330
19
100
AcDbEntity
  8
0
100
AcDbCircle
 10
3.915564982084927
 20
3.435881214454525
 30
0.0
 40
0.0068878989737587
  0
HATCH
  5
3B2
330
19
100
AcDbEntity
  8
0
100
AcDbHatch
 10
0.0
 20
0.0
 30
0.0
210
0.0
220
0.0
230
1.0
  2
SOLID
 70
     1
 71
     1
 91
        1
 92
        7
 72
     1
 73
     1
 93
        2
 10
3.922452881058685
 20
3.435881214454525
 42
1.0
 10
3.908677083111168
 20
3.435881214454525
 42
1.0
 97
        1
330
3B1
 75
     0
 76
     1
 47
0.0003546046884304
 98
        1
 10
3.91310314143327
 20
3.435590826771009
  0
CIRCLE
  5
3B3
102
{ACAD_REACTORS
330
3B4
102
}
330
19
100
AcDbEntity
  8
0
100
AcDbCircle
 10
4.009945872717392
 20
3.42471607095176
 30
0.0
 40
0.0068878989737587
  0
HATCH
  5
3B4
330
19
100
AcDbEntity
  8
0
100
AcDbHatch
 10
0.0
 20
0.0
 30
0.0
210
0.0
220
0.0
230
1.0
  2
SOLID
 70
     1
 71
     1
 91
        1
 92
        7
 72
     1
 73
     1
 93
        2
 10
4.01683377169115
 20
3.42471607095176
 42
1.0
 10
4.003057973743633
 20
3.42471607095176
 42
1.0
 97
        1
330
3B3
 75
     0
 76
     1
 47
0.0003546046884304
 98
        1
 10
4.007484032065735
 20
3.424425683268244
  0
CIRCLE
  5
3B5
102
{ACAD_REACTORS
330
3B6
102
}
330
19
100
AcDbEntity
  8
0
100
AcDbCircle
 10
4.040852018861733
 20
3.378029927399847
 30
0.0
 40
0.0068878989737587
  0
HATCH
  5
3B6
330
19
100
AcDbEntity
  8
0
100
AcDbHatch
 10
0.0
 20
0.0
 30
0.0
210
0.0
220
0.0
230
1.0
  2
SOLID
 70
     1
 71
     1
 91
        1
 92
        7
 72
     1
 73
     1
 93
        2
 10
4.047739917835491
 20
3.378029927399847
 42
1.0
 10
4.033964119887974
 20
3.378029927399847
 42
1.0
 97
        1
330
3B5
 75
     0
 76
     1
 47
0.0003546046884304
 98
        1
 10
4.038390178210076
 20
3.377739539716331
  0
CIRCLE
  5
3B7
102
{ACAD_REACTORS
330
3B8
102
}
330
19
100
AcDbEntity
  8
0
100
AcDbCircle
 10
4.070265317190195
 20
3.281377741410081
 30
0.0
 40
0.0068878989737587
  0
HATCH
  5
3B8
330
19
100
AcDbEntity
  8
0
100
AcDbHatch
 10
0.0
 20
0.0
 30
0.0
210
0.0
220
0.0
230
1.0
  2
SOLID
 70
     1
 71
     1
 91
        1
 92
        7
 72
     1
 73
     1
 93
        2
 10
4.077153216163953
 20
3.281377741410081
 42
1.0
 10
4.063377418216437
 20
3.281377741410081
 42
1.0
 97
        1
330
3B7
 75
     0
 76
     1
 47
0.0003546046884304
 98
        1
 10
4.067803476538538
 20
3.281087353726565
  0
CIRCLE
  5
3B9
102
{ACAD_REACTORS
330
3BA
102
}
330
19
100
AcDbEntity
  8
0
100
AcDbCircle
 10
4.035433473226213
 20
3.316040905043042
 30
0.0
 40
0.0068878989737587
  0
HATCH
  5
3BA
330
19
100
AcDbEntity
  8
0
100
AcDbHatch
 10
0.0
 20
0.0
 30
0.0
210
0.0
220
0.0
230
1.0
  2
SOLID
 70
     1
 71
     1
 91
        1
 92
        7
 72
     1
 73
     1
 93
        2
 10
4.042321372199972
 20
3.316040905043042
 42
1.0
 10
4.028545574252455
 20
3.316040905043042
 42
1.0
 97
        1
330
3B9
 75
     0
 76
     1
 47
0.0003546046884304
 98
        1
 10
4.032971632574556
 20
3.315750517359526
  0
CIRCLE
  5
3BB
102
{ACAD_REACTORS
330
3BC
102
}
330
19
100
AcDbEntity
  8
0
100
AcDbCircle
 10
3.995577006714195
 20
3.346663981896911
 30
0.0
 40
0.0068878989737587
  0
HATCH
  5
3BC
330
19
100
AcDbEntity
  8
0
100
AcDbHatch
 10
0.0
 20
0.0
 30
0.0
210
0.0
220
0.0
230
1.0
  2
SOLID
 70
     1
 71
     1
 91
        1
 92
        7
 72
     1
 73
     1
 93
        2
 10
4.002464905687953
 20
3.346663981896911
 42
1.0
 10
3.988689107740437
 20
3.346663981896911
 42
1.0
 97
        1
330
3BB
 75
     0
 76
     1
 47
0.0003546046884304
 98
        1
 10
3.993115166062538
 20
3.346373594213395
  0
CIRCLE
  5
3BD
102
{ACAD_REACTORS
330
3BE
102
}
330
19
100
AcDbEntity
  8
0
100
AcDbCircle
 10
3.953949964467152
 20
3.353294160959239
 30
0.0
 40
0.0068878989737587
  0
HATCH
  5
3BE
330
19
100
AcDbEntity
  8
0
100
AcDbHatch
 10
0.0
 20
0.0
 30
0.0
210
0.0
220
0.0
230
1.0
  2
SOLID
 70
     1
 71
     1
 91
        1
 92
        7
 72
     1
 73
     1
 93
        2
 10
3.96083786344091
 20
3.353294160959239
 42
1.0
 10
3.947062065493393
 20
3.353294160959239
 42
1.0
 97
        1
330
3BD
 75
     0
 76
     1
 47
0.0003546046884304
 98
        1
 10
3.951488123815495
 20
3.353003773275723
  0
CIRCLE
  5
3BF
102
{ACAD_REACTORS
330
3C0
102
}
330
19
100
AcDbEntity
  8
0
100
AcDbCircle
 10
3.905004313627886
 20
3.38084074343822
 30
0.0
 40
0.0068878989737587
  0
HATCH
  5
3C0
330
19
100
AcDbEntity
  8
0
100
AcDbHatch
 10
0.0
 20
0.0
 30
0.0
210
0.0
220
0.0
230
1.0
  2
SOLID
 70
     1
 71
     1
 91
        1
 92
        7
 72
     1
 73
     1
 93
        2
 10
3.911892212601644
 20
3.38084074343822
 42
1.0
 10
3.898116414654127
 20
3.38084074343822
 42
1.0
 97
        1
330
3BF
 75
     0
 76
     1
 47
0.0003546046884304
 98
        1
 10
3.902542472976229
 20
3.380550355754704
  0
CIRCLE
  5
3C1
102
{ACAD_REACTORS
330
3C2
102
}
330
19
100
AcDbEntity
  8
0
100
AcDbCircle
 10
3.851482677648436
 20
3.362390620863292
 30
0.0
 40
0.0068878989737587
  0
HATCH
  5
3C2
330
19
100
AcDbEntity
  8
0
100
AcDbHatch
 10
0.0
 20
0.0
 30
0.0
210
0.0
220
0.0
230
1.0
  2
SOLID
 70
     1
 71
     1
 91
        1
 92
        7
 72
     1
 73
     1
 93
        2
 10
3.858370576622195
 20
3.362390620863292
 42
1.0
 10
3.844594778674678
 20
3.362390620863292
 42
1.0
 97
        1
330
3C1
 75
     0
 76
     1
 47
0.0003546046884304
 98
        1
 10
3.849020836996779
 20
3.362100233179776
  0
CIRCLE
  5
3C3
102
{ACAD_REACTORS
330
3C4
102
}
330
19
100
AcDbEntity
  8
0
100
AcDbCircle
 10
3.668300974769835
 20
3.336814705355285
 30
0.0
 40
0.0068878989737587
  0
HATCH
  5
3C4
330
19
100
AcDbEntity
  8
0
100
AcDbHatch
 10
0.0
 20
0.0
 30
0.0
210
0.0
220
0.0
230
1.0
  2
SOLID
 70
     1
 71
     1
 91
        1
 92
        7
 72
     1
 73
     1
 93
        2
 10
3.675188873743593
 20
3.336814705355285
 42
1.0
 10
3.661413075796076
 20
3.336814705355285
 42
1.0
 97
        1
330
3C3
 75
     0
 76
     1
 47
0.0003546046884304
 98
        1
 10
3.665839134118178
 20
3.336524317671769
  0
CIRCLE
  5
3C5
102
{ACAD_REACTORS
330
3C6
102
}
330
19
100
AcDbEntity
  8
0
100
AcDbCircle
 10
3.757113773964162
 20
3.277646078920654
 30
0.0
 40
0.0068878989737587
  0
HATCH
  5
3C6
330
19
100
AcDbEntity
  8
0
100
AcDbHatch
 10
0.0
 20
0.0
 30
0.0
210
0.0
220
0.0
230
1.0
  2
SOLID
 70
     1
 71
     1
 91
        1
 92
        7
 72
     1
 73
     1
 93
        2
 10
3.76400167293792
 20
3.277646078920654
 42
1.0
 10
3.750225874990404
 20
3.277646078920654
 42
1.0
 97
        1
330
3C5
 75
     0
 76
     1
 47
0.0003546046884304
 98
        1
 10
3.754651933312505
 20
3.277355691237138
  0
CIRCLE
  5
3C7
102
{ACAD_REACTORS
330
3C8
102
}
330
19
100
AcDbEntity
  8
0
100
AcDbCircle
 10
3.778141584501138
 20
3.206896288182052
 30
0.0
 40
0.0068878989737587
  0
HATCH
  5
3C8
330
19
100
AcDbEntity
  8
0
100
AcDbHatch
 10
0.0
 20
0.0
 30
0.0
210
0.0
220
0.0
230
1.0
  2
SOLID
 70
     1
 71
     1
 91
        1
 92
        7
 72
     1
 73
     1
 93
        2
 10
3.785029483474897
 20
3.206896288182052
 42
1.0
 10
3.77125368552738
 20
3.206896288182052
 42
1.0
 97
        1
330
3C7
 75
     0
 76
     1
 47
0.0003546046884304
 98
        1
 10
3.775679743849481
 20
3.206605900498536
  0
CIRCLE
  5
3C9
102
{ACAD_REACTORS
330
3CA
102
}
330
19
100
AcDbEntity
  8
0
100
AcDbCircle
 10
3.657421156126617
 20
3.2168325290488
 30
0.0
 40
0.0068878989737587
  0
HATCH
  5
3CA
330
19
100
AcDbEntity
  8
0
100
AcDbHatch
 10
0.0
 20
0.0
 30
0.0
210
0.0
220
0.0
230
1.0
  2
SOLID
 70
     1
 71
     1
 91
        1
 92
        7
 72
     1
 73
     1
 93
        2
 10
3.664309055100376
 20
3.2168325290488
 42
1.0
 10
3.650533257152859
 20
3.2168325290488
 42
1.0
 97
        1
330
3C9
 75
     0
 76
     1
 47
0.0003546046884304
 98
        1
 10
3.65495931547496
 20
3.216542141365284
  0
CIRCLE
  5
3CB
102
{ACAD_REACTORS
330
3CC
102
}
330
19
100
AcDbEntity
  8
0
100
AcDbCircle
 10
3.559764854995055
 20
3.249948417767572
 30
0.0
 40
0.0068878989737587
  0
HATCH
  5
3CC
330
19
100
AcDbEntity
  8
0
100
AcDbHatch
 10
0.0
 20
0.0
 30
0.0
210
0.0
220
0.0
230
1.0
  2
SOLID
 70
     1
 71
     1
 91
        1
 92
        7
 72
     1
 73
     1
 93
        2
 10
3.566652753968814
 20
3.249948417767572
 42
1.0
 10
3.552876956021297
 20
3.249948417767572
 42
1.0
 97
        1
330
3CB
 75
     0
 76
     1
 47
0.0003546046884304
 98
        1
 10
3.557303014343398
 20
3.249658030084056
  0
CIRCLE
  5
3CD
102
{ACAD_REACTORS
330
3CE
102
}
330
19
100
AcDbEntity
  8
0
100
AcDbCircle
 10
3.39436629257832
 20
3.26748727377525
 30
0.0
 40
0.0068878989737587
  0
HATCH
  5
3CE
330
19
100
AcDbEntity
  8
0
100
AcDbHatch
 10
0.0
 20
0.0
 30
0.0
210
0.0
220
0.0
230
1.0
  2
SOLID
 70
     1
 71
     1
 91
        1
 92
        7
 72
     1
 73
     1
 93
        2
 10
3.401254191552078
 20
3.26748727377525
 42
1.0
 10
3.387478393604562
 20
3.26748727377525
 42
1.0
 97
        1
330
3CD
 75
     0
 76
     1
 47
0.0003546046884304
 98
        1
 10
3.391904451926663
 20
3.267196886091734
  0
CIRCLE
  5
3CF
102
{ACAD_REACTORS
330
3D0
102
}
330
19
100
AcDbEntity
  8
0
100
AcDbCircle
 10
3.449981569794411
 20
3.090139844401035
 30
0.0
 40
0.0068878989737587
  0
HATCH
  5
3D0
330
19
100
AcDbEntity
  8
0
100
AcDbHatch
 10
0.0
 20
0.0
 30
0.0
210
0.0
220
0.0
230
1.0
  2
SOLID
 70
     1
 71
     1
 91
        1
 92
        7
 72
     1
 73
     1
 93
        2
 10
3.456869468768169
 20
3.090139844401035
 42
1.0
 10
3.443093670820652
 20
3.090139844401035
 42
1.0
 97
        1
330
3CF
 75
     0
 76
     1
 47
0.0003546046884304
 98
        1
 10
3.447519729142754
 20
3.089849456717519
  0
CIRCLE
  5
3D1
102
{ACAD_REACTORS
330
3D2
102
}
330
19
100
AcDbEntity
  8
0
100
AcDbCircle
 10
3.347824056423974
 20
3.07026625835343
 30
0.0
 40
0.0068878989737587
  0
HATCH
  5
3D2
330
19
100
AcDbEntity
  8
0
100
AcDbHatch
 10
0.0
 20
0.0
 30
0.0
210
0.0
220
0.0
230
1.0
  2
SOLID
 70
     1
 71
     1
 91
        1
 92
        7
 72
     1
 73
     1
 93
        2
 10
3.354711955397732
 20
3.07026625835343
 42
1.0
 10
3.340936157450215
 20
3.07026625835343
 42
1.0
 97
        1
330
3D1
 75
     0
 76
     1
 47
0.0003546046884304
 98
        1
 10
3.345362215772317
 20
3.069975870669913
  0
CIRCLE
  5
3D3
102
{ACAD_REACTORS
330
3D4
102
}
330
19
100
AcDbEntity
  8
0
100
AcDbCircle
 10
3.363657640029355
 20
2.916549136120614
 30
0.0
 40
0.0068878989737587
  0
HATCH
  5
3D4
330
19
100
AcDbEntity
  8
0
100
AcDbHatch
 10
0.0
 20
0.0
 30
0.0
210
0.0
220
0.0
230
1.0
  2
SOLID
 70
     1
 71
     1
 91
        1
 92
        7
 72
     1
 73
     1
 93
        2
 10
3.370545539003114
 20
2.916549136120614
 42
1.0
 10
3.356769741055597
 20
2.916549136120614
 42
1.0
 97
        1
330
3D3
 75
     0
 76
     1
 47
0.0003546046884304
 98
        1
 10
3.361195799377698
 20
2.916258748437098
  0
CIRCLE
  5
3D5
102
{ACAD_REACTORS
330
3D6
102
}
330
19
100
AcDbEntity
  8
0
100
AcDbCircle
 10
3.163704961567785
 20
2.942778011114937
 30
0.0
 40
0.0068878989737587
  0
HATCH
  5
3D6
330
19
100
AcDbEntity
  8
0
100
AcDbHatch
 10
0.0
 20
0.0
 30
0.0
210
0.0
220
0.0
230
1.0
  2
SOLID
 70
     1
 71
     1
 91
        1
 92
        7
 72
     1
 73
     1
 93
        2
 10
3.170592860541543
 20
2.942778011114937
 42
1.0
 10
3.156817062594027
 20
2.942778011114937
 42
1.0
 97
        1
330
3D5
 75
     0
 76
     1
 47
0.0003546046884304
 98
        1
 10
3.161243120916128
 20
2.942487623431421
  0
CIRCLE
  5
3D7
102
{ACAD_REACTORS
330
3D8
102
}
330
19
100
AcDbEntity
  8
0
100
AcDbCircle
 10
3.515735462166363
 20
2.628148696739896
 30
0.0
 40
0.0068878989737587
  0
HATCH
  5
3D8
330
19
100
AcDbEntity
  8
0
100
AcDbHatch
 10
0.0
 20
0.0
 30
0.0
210
0.0
220
0.0
230
1.0
  2
SOLID
 70
     1
 71
     1
 91
        1
 92
        7
 72
     1
 73
     1
 93
        2
 10
3.522623361140121
 20
2.628148696739896
 42
1.0
 10
3.508847563192604
 20
2.628148696739896
 42
1.0
 97
        1
330
3D7
 75
     0
 76
     1
 47
0.0003546046884304
 98
        1
 10
3.513273621514706
 20
2.627858309056379
  0
CIRCLE
  5
3D9
102
{ACAD_REACTORS
330
3DA
102
}
330
19
100
AcDbEntity
  8
0
100
AcDbCircle
 10
4.039556423639356
 20
2.17215282410826
 30
0.0
 40
0.0068878989737587
  0
HATCH
  5
3DA
330
19
100
AcDbEntity
  8
0
100
AcDbHatch
 10
0.0
 20
0.0
 30
0.0
210
0.0
220
0.0
230
1.0
  2
SOLID
 70
     1
 71
     1
 91
        1
 92
        7
 72
     1
 73
     1
 93
        2
 10
4.046444322613114
 20
2.17215282410826
 42
1.0
 10
4.032668524665597
 20
2.17215282410826
 42
1.0
 97
        1
330
3D9
 75
     0
 76
     1
 47
0.0003546046884304
 98
        1
 10
4.037094582987699
 20
2.171862436424743
  0
CIRCLE
  5
3DB
102
{ACAD_REACTORS
330
3DC
102
}
330
19
100
AcDbEntity
  8
0
100
AcDbCircle
 10
4.098443196039105
 20
2.2575868045489
 30
0.0
 40
0.0068878989737587
  0
HATCH
  5
3DC
330
19
100
AcDbEntity
  8
0
100
AcDbHatch
 10
0.0
 20
0.0
 30
0.0
210
0.0
220
0.0
230
1.0
  2
SOLID
 70
     1
 71
     1
 91
        1
 92
        7
 72
     1
 73
     1
 93
        2
 10
4.105331095012863
 20
2.2575868045489
 42
1.0
 10
4.091555297065346
 20
2.2575868045489
 42
1.0
 97
        1
330
3DB
 75
     0
 76
     1
 47
0.0003546046884304
 98
        1
 10
4.095981355387448
 20
2.257296416865384
  0
CIRCLE
  5
3DD
102
{ACAD_REACTORS
330
3DE
102
}
330
19
100
AcDbEntity
  8
0
100
AcDbCircle
 10
4.037132950373495
 20
2.304007637869002
 30
0.0
 40
0.0068878989737587
  0
HATCH
  5
3DE
330
19
100
AcDbEntity
  8
0
100
AcDbHatch
 10
0.0
 20
0.0
 30
0.0
210
0.0
220
0.0
230
1.0
  2
SOLID
 70
     1
 71
     1
 91
        1
 92
        7
 72
     1
 73
     1
 93
        2
 10
4.044020849347254
 20
2.304007637869002
 42
1.0
 10
4.030245051399737
 20
2.304007637869002
 42
1.0
 97
        1
330
3DD
 75
     0
 76
     1
 47
0.0003546046884304
 98
        1
 10
4.034671109721838
 20
2.303717250185486
  0
CIRCLE
  5
3DF
102
{ACAD_REACTORS
330
3E0
102
}
330
19
100
AcDbEntity
  8
0
100
AcDbCircle
 10
3.862538385199068
 20
2.328459670519606
 30
0.0
 40
0.0068878989737587
  0
HATCH
  5
3E0
330
19
100
AcDbEntity
  8
0
100
AcDbHatch
 10
0.0
 20
0.0
 30
0.0
210
0.0
220
0.0
230
1.0
  2
SOLID
 70
     1
 71
     1
 91
        1
 92
        7
 72
     1
 73
     1
 93
        2
 10
3.869426284172827
 20
2.328459670519606
 42
1.0
 10
3.85565048622531
 20
2.328459670519606
 42
1.0
 97
        1
330
3DF
 75
     0
 76
     1
 47
0.0003546046884304
 98
        1
 10
3.860076544547411
 20
2.32816928283609
  0
CIRCLE
  5
3E1
102
{ACAD_REACTORS
330
3E2
102
}
330
19
100
AcDbEntity
  8
0
100
AcDbCircle
 10
3.962156230135304
 20
2.396265990103929
 30
0.0
 40
0.0068878989737587
  0
HATCH
  5
3E2
330
19
100
AcDbEntity
  8
0
100
AcDbHatch
 10
0.0
 20
0.0
 30
0.0
210
0.0
220
0.0
230
1.0
  2
SOLID
 70
     1
 71
     1
 91
        1
 92
        7
 72
     1
 73
     1
 93
        2
 10
3.969044129109063
 20
2.396265990103929
 42
1.0
 10
3.955268331161546
 20
2.396265990103929
 42
1.0
 97
        1
330
3E1
 75
     0
 76
     1
 47
0.0003546046884304
 98
        1
 10
3.959694389483647
 20
2.395975602420413
  0
CIRCLE
  5
3E3
102
{ACAD_REACTORS
330
3E4
102
}
330
19
100
AcDbEntity
  8
0
100
AcDbCircle
 10
4.031157643794535
 20
2.388875623148448
 30
0.0
 40
0.0068878989737587
  0
HATCH
  5
3E4
330
19
100
AcDbEntity
  8
0
100
AcDbHatch
 10
0.0
 20
0.0
 30
0.0
210
0.0
220
0.0
230
1.0
  2
SOLID
 70
     1
 71
     1
 91
        1
 92
        7
 72
     1
 73
     1
 93
        2
 10
4.038045542768293
 20
2.388875623148448
 42
1.0
 10
4.024269744820776
 20
2.388875623148448
 42
1.0
 97
        1
330
3E3
 75
     0
 76
     1
 47
0.0003546046884304
 98
        1
 10
4.028695803142878
 20
2.388585235464932
  0
CIRCLE
  5
3E5
102
{ACAD_REACTORS
330
3E6
102
}
330
19
100
AcDbEntity
  8
0
100
AcDbCircle
 10
4.085212066821043
 20
2.452288108977931
 30
0.0
 40
0.0068878989737587
  0
HATCH
  5
3E6
330
19
100
AcDbEntity
  8
0
100
AcDbHatch
 10
0.0
 20
0.0
 30
0.0
210
0.0
220
0.0
230
1.0
  2
SOLID
 70
     1
 71
     1
 91
        1
 92
        7
 72
     1
 73
     1
 93
        2
 10
4.092099965794802
 20
2.452288108977931
 42
1.0
 10
4.078324167847285
 20
2.452288108977931
 42
1.0
 97
        1
330
3E5
 75
     0
 76
     1
 47
0.0003546046884304
 98
        1
 10
4.082750226169386
 20
2.451997721294415
  0
CIRCLE
  5
3E7
102
{ACAD_REACTORS
330
3E8
102
}
330
19
100
AcDbEntity
  8
0
100
AcDbCircle
 10
4.054038874600598
 20
2.523948430074378
 30
0.0
 40
0.0068878989737587
  0
HATCH
  5
3E8
330
19
100
AcDbEntity
  8
0
100
AcDbHatch
 10
0.0
 20
0.0
 30
0.0
210
0.0
220
0.0
230
1.0
  2
SOLID
 70
     1
 71
     1
 91
        1
 92
        7
 72
     1
 73
     1
 93
        2
 10
4.060926773574357
 20
2.523948430074378
 42
1.0
 10
4.04715097562684
 20
2.523948430074378
 42
1.0
 97
        1
330
3E7
 75
     0
 76
     1
 47
0.0003546046884304
 98
        1
 10
4.051577033948941
 20
2.523658042390862
  0
CIRCLE
  5
3E9
102
{ACAD_REACTORS
330
3EA
102
}
330
19
100
AcDbEntity
  8
0
100
AcDbCircle
 10
4.005009074122127
 20
2.464576031023989
 30
0.0
 40
0.0068878989737587
  0
HATCH
  5
3EA
330
19
100
AcDbEntity
  8
0
100
AcDbHatch
 10
0.0
 20
0.0
 30
0.0
210
0.0
220
0.0
230
1.0
  2
SOLID
 70
     1
 71
     1
 91
        1
 92
        7
 72
     1
 73
     1
 93
        2
 10
4.011896973095885
 20
2.464576031023989
 42
1.0
 10
3.998121175148368
 20
2.464576031023989
 42
1.0
 97
        1
330
3E9
 75
     0
 76
     1
 47
0.0003546046884304
 98
        1
 10
4.00254723347047
 20
2.464285643340473
  0
CIRCLE
  5
3EB
102
{ACAD_REACTORS
330
3EC
102
}
330
19
100
AcDbEntity
  8
0
100
AcDbCircle
 10
3.984152173073854
 20
2.519342348134089
 30
0.0
 40
0.0068878989737587
  0
HATCH
  5
3EC
330
19
100
AcDbEntity
  8
0
100
AcDbHatch
 10
0.0
 20
0.0
 30
0.0
210
0.0
220
0.0
230
1.0
  2
SOLID
 70
     1
 71
     1
 91
        1
 92
        7
 72
     1
 73
     1
 93
        2
 10
3.991040072047613
 20
2.519342348134089
 42
1.0
 10
3.977264274100096
 20
2.519342348134089
 42
1.0
 97
        1
330
3EB
 75
     0
 76
     1
 47
0.0003546046884304
 98
        1
 10
3.981690332422197
 20
2.519051960450573
  0
CIRCLE
  5
3ED
102
{ACAD_REACTORS
330
3EE
102
}
330
19
100
AcDbEntity
  8
0
100
AcDbCircle
 10
3.916996108050959
 20
2.543732843168639
 30
0.0
 40
0.0068878989737587
  0
HATCH
  5
3EE
330
19
100
AcDbEntity
  8
0
100
AcDbHatch
 10
0.0
 20
0.0
 30
0.0
210
0.0
220
0.0
230
1.0
  2
SOLID
 70
     1
 71
     1
 91
        1
 92
        7
 72
     1
 73
     1
 93
        2
 10
3.923884007024717
 20
2.543732843168639
 42
1.0
 10
3.910108209077201
 20
2.543732843168639
 42
1.0
 97
        1
330
3ED
 75
     0
 76
     1
 47
0.0003546046884304
 98
        1
 10
3.914534267399302
 20
2.543442455485123
  0
CIRCLE
  5
3EF
102
{ACAD_REACTORS
330
3F0
102
}
330
19
100
AcDbEntity
  8
0
100
AcDbCircle
 10
3.877139641538942
 20
2.574355920022508
 30
0.0
 40
0.0068878989737587
  0
HATCH
  5
3F0
330
19
100
AcDbEntity
  8
0
100
AcDbHatch
 10
0.0
 20
0.0
 30
0.0
210
0.0
220
0.0
230
1.0
  2
SOLID
 70
     1
 71
     1
 91
        1
 92
        7
 72
     1
 73
     1
 93
        2
 10
3.884027540512701
 20
2.574355920022508
 42
1.0
 10
3.870251742565184
 20
2.574355920022508
 42
1.0
 97
        1
330
3EF
 75
     0
 76
     1
 47
0.0003546046884304
 98
        1
 10
3.874677800887285
 20
2.574065532338992
  0
CIRCLE
  5
3F1
102
{ACAD_REACTORS
330
3F2
102
}
330
19
100
AcDbEntity
  8
0
100
AcDbCircle
 10
3.891987885373976
 20
2.702365207840818
 30
0.0
 40
0.0068878989737587
  0
HATCH
  5
3F2
330
19
100
AcDbEntity
  8
0
100
AcDbHatch
 10
0.0
 20
0.0
 30
0.0
210
0.0
220
0.0
230
1.0
  2
SOLID
 70
     1
 71
     1
 91
        1
 92
        7
 72
     1
 73
     1
 93
        2
 10
3.898875784347734
 20
2.702365207840818
 42
1.0
 10
3.885099986400217
 20
2.702365207840818
 42
1.0
 97
        1
330
3F1
 75
     0
 76
     1
 47
0.0003546046884304
 98
        1
 10
3.889526044722319
 20
2.702074820157302
  0
CIRCLE
  5
3F3
102
{ACAD_REACTORS
330
3F4
102
}
330
19
100
AcDbEntity
  8
0
100
AcDbCircle
 10
3.935567094687796
 20
2.702745485839746
 30
0.0
 40
0.0068878989737587
  0
HATCH
  5
3F4
330
19
100
AcDbEntity
  8
0
100
AcDbHatch
 10
0.0
 20
0.0
 30
0.0
210
0.0
220
0.0
230
1.0
  2
SOLID
 70
     1
 71
     1
 91
        1
 92
        7
 72
     1
 73
     1
 93
        2
 10
3.942454993661554
 20
2.702745485839746
 42
1.0
 10
3.928679195714037
 20
2.702745485839746
 42
1.0
 97
        1
330
3F3
 75
     0
 76
     1
 47
0.0003546046884304
 98
        1
 10
3.933105254036139
 20
2.70245509815623
  0
CIRCLE
  5
3F5
102
{ACAD_REACTORS
330
3F6
102
}
330
19
100
AcDbEntity
  8
0
100
AcDbCircle
 10
3.972351105718554
 20
2.675092779268041
 30
0.0
 40
0.0068878989737587
  0
HATCH
  5
3F6
330
19
100
AcDbEntity
  8
0
100
AcDbHatch
 10
0.0
 20
0.0
 30
0.0
210
0.0
220
0.0
230
1.0
  2
SOLID
 70
     1
 71
     1
 91
        1
 92
        7
 72
     1
 73
     1
 93
        2
 10
3.979239004692313
 20
2.675092779268041
 42
1.0
 10
3.965463206744796
 20
2.675092779268041
 42
1.0
 97
        1
330
3F5
 75
     0
 76
     1
 47
0.0003546046884304
 98
        1
 10
3.969889265066897
 20
2.674802391584525
  0
CIRCLE
  5
3F7
102
{ACAD_REACTORS
330
3F8
102
}
330
19
100
AcDbEntity
  8
0
100
AcDbCircle
 10
4.002147645291457
 20
2.637388495957767
 30
0.0
 40
0.0068878989737587
  0
HATCH
  5
3F8
330
19
100
AcDbEntity
  8
0
100
AcDbHatch
 10
0.0
 20
0.0
 30
0.0
210
0.0
220
0.0
230
1.0
  2
SOLID
 70
     1
 71
     1
 91
        1
 92
        7
 72
     1
 73
     1
 93
        2
 10
4.009035544265215
 20
2.637388495957767
 42
1.0
 10
3.995259746317698
 20
2.637388495957767
 42
1.0
 97
        1
330
3F7
 75
     0
 76
     1
 47
0.0003546046884304
 98
        1
 10
3.9996858046398
 20
2.637098108274251
  0
CIRCLE
  5
3F9
102
{ACAD_REACTORS
330
3FA
102
}
330
19
100
AcDbEntity
  8
0
100
AcDbCircle
 10
4.052031993213456
 20
2.616843526865648
 30
0.0
 40
0.0068878989737587
  0
HATCH
  5
3FA
330
19
100
AcDbEntity
  8
0
100
AcDbHatch
 10
0.0
 20
0.0
 30
0.0
210
0.0
220
0.0
230
1.0
  2
SOLID
 70
     1
 71
     1
 91
        1
 92
        7
 72
     1
 73
     1
 93
        2
 10
4.058919892187214
 20
2.616843526865648
 42
1.0
 10
4.045144094239698
 20
2.616843526865648
 42
1.0
 97
        1
330
3F9
 75
     0
 76
     1
 47
0.0003546046884304
 98
        1
 10
4.049570152561799
 20
2.616553139182132
  0
CIRCLE
  5
3FB
102
{ACAD_REACTORS
330
3FC
102
}
330
19
100
AcDbEntity
  8
0
100
AcDbCircle
 10
4.059306569328356
 20
2.694833710199743
 30
0.0
 40
0.0068878989737587
  0
HATCH
  5
3FC
330
19
100
AcDbEntity
  8
0
100
AcDbHatch
 10
0.0
 20
0.0
 30
0.0
210
0.0
220
0.0
230
1.0
  2
SOLID
 70
     1
 71
     1
 91
        1
 92
        7
 72
     1
 73
     1
 93
        2
 10
4.066194468302115
 20
2.694833710199743
 42
1.0
 10
4.052418670354598
 20
2.694833710199743
 42
1.0
 97
        1
330
3FB
 75
     0
 76
     1
 47
0.0003546046884304
 98
        1
 10
4.056844728676699
 20
2.694543322516227
  0
CIRCLE
  5
3FD
102
{ACAD_REACTORS
330
3FE
102
}
330
19
100
AcDbEntity
  8
0
100
AcDbCircle
 10
4.071062299101188
 20
2.732900584160158
 30
0.0
 40
0.0068878989737587
  0
HATCH
  5
3FE
330
19
100
AcDbEntity
  8
0
100
AcDbHatch
 10
0.0
 20
0.0
 30
0.0
210
0.0
220
0.0
230
1.0
  2
SOLID
 70
     1
 71
     1
 91
        1
 92
        7
 72
     1
 73
     1
 93
        2
 10
4.077950198074946
 20
2.732900584160158
 42
1.0
 10
4.064174400127429
 20
2.732900584160158
 42
1.0
 97
        1
330
3FD
 75
     0
 76
     1
 47
0.0003546046884304
 98
        1
 10
4.068600458449531
 20
2.732610196476641
  0
CIRCLE
  5
3FF
102
{ACAD_REACTORS
330
400
102
}
330
19
100
AcDbEntity
  8
0
100
AcDbCircle
 10
4.04641856419285
 20
2.762657349028149
 30
0.0
 40
0.0068878989737587
  0
HATCH
  5
400
330
19
100
AcDbEntity
  8
0
100
AcDbHatch
 10
0.0
 20
0.0
 30
0.0
210
0.0
220
0.0
230
1.0
  2
SOLID
 70
     1
 71
     1
 91
        1
 92
        7
 72
     1
 73
     1
 93
        2
 10
4.053306463166608
 20
2.762657349028149
 42
1.0
 10
4.039530665219091
 20
2.762657349028149
 42
1.0
 97
        1
330
3FF
 75
     0
 76
     1
 47
0.0003546046884304
 98
        1
 10
4.043956723541193
 20
2.762366961344633
  0
CIRCLE
  5
401
102
{ACAD_REACTORS
330
402
102
}
330
19
100
AcDbEntity
  8
0
100
AcDbCircle
 10
3.984137575915371
 20
2.805073470266732
 30
0.0
 40
0.0068878989737587
  0
HATCH
  5
402
330
19
100
AcDbEntity
  8
0
100
AcDbHatch
 10
0.0
 20
0.0
 30
0.0
210
0.0
220
0.0
230
1.0
  2
SOLID
 70
     1
 71
     1
 91
        1
 92
        7
 72
     1
 73
     1
 93
        2
 10
3.99102547488913
 20
2.805073470266732
 42
1.0
 10
3.977249676941613
 20
2.805073470266732
 42
1.0
 97
        1
330
401
 75
     0
 76
     1
 47
0.0003546046884304
 98
        1
 10
3.981675735263714
 20
2.804783082583216
  0
CIRCLE
  5
403
102
{ACAD_REACTORS
330
404
102
}
330
19
100
AcDbEntity
  8
0
100
AcDbCircle
 10
3.891890443681433
 20
2.80626663010047
 30
0.0
 40
0.0068878989737587
  0
HATCH
  5
404
330
19
100
AcDbEntity
  8
0
100
AcDbHatch
 10
0.0
 20
0.0
 30
0.0
210
0.0
220
0.0
230
1.0
  2
SOLID
 70
     1
 71
     1
 91
        1
 92
        7
 72
     1
 73
     1
 93
        2
 10
3.898778342655191
 20
2.80626663010047
 42
1.0
 10
3.885002544707674
 20
2.80626663010047
 42
1.0
 97
        1
330
403
 75
     0
 76
     1
 47
0.0003546046884304
 98
        1
 10
3.889428603029776
 20
2.805976242416954
  0
CIRCLE
  5
405
102
{ACAD_REACTORS
330
406
102
}
330
19
100
AcDbEntity
  8
0
100
AcDbCircle
 10
3.802555539283091
 20
2.819473926178767
 30
0.0
 40
0.0068878989737587
  0
HATCH
  5
406
330
19
100
AcDbEntity
  8
0
100
AcDbHatch
 10
0.0
 20
0.0
 30
0.0
210
0.0
220
0.0
230
1.0
  2
SOLID
 70
     1
 71
     1
 91
        1
 92
        7
 72
     1
 73
     1
 93
        2
 10
3.80944343825685
 20
2.819473926178767
 42
1.0
 10
3.795667640309333
 20
2.819473926178767
 42
1.0
 97
        1
330
405
 75
     0
 76
     1
 47
0.0003546046884304
 98
        1
 10
3.800093698631434
 20
2.819183538495251
  0
CIRCLE
  5
407
102
{ACAD_REACTORS
330
408
102
}
330
19
100
AcDbEntity
  8
0
100
AcDbCircle
 10
3.820489530652721
 20
2.75369243992589
 30
0.0
 40
0.0068878989737587
  0
HATCH
  5
408
330
19
100
AcDbEntity
  8
0
100
AcDbHatch
 10
0.0
 20
0.0
 30
0.0
210
0.0
220
0.0
230
1.0
  2
SOLID
 70
     1
 71
     1
 91
        1
 92
        7
 72
     1
 73
     1
 93
        2
 10
3.827377429626479
 20
2.75369243992589
 42
1.0
 10
3.813601631678962
 20
2.75369243992589
 42
1.0
 97
        1
330
407
 75
     0
 76
     1
 47
0.0003546046884304
 98
        1
 10
3.818027690001064
 20
2.753402052242373
  0
CIRCLE
  5
409
102
{ACAD_REACTORS
330
40A
102
}
330
19
100
AcDbEntity
  8
0
100
AcDbCircle
 10
3.767694260000269
 20
2.66731255442983
 30
0.0
 40
0.0068878989737587
  0
HATCH
  5
40A
330
19
100
AcDbEntity
  8
0
100
AcDbHatch
 10
0.0
 20
0.0
 30
0.0
210
0.0
220
0.0
230
1.0
  2
SOLID
 70
     1
 71
     1
 91
        1
 92
        7
 72
     1
 73
     1
 93
        2
 10
3.774582158974028
 20
2.66731255442983
 42
1.0
 10
3.760806361026511
 20
2.66731255442983
 42
1.0
 97
        1
330
409
 75
     0
 76
     1
 47
0.0003546046884304
 98
        1
 10
3.765232419348612
 20
2.667022166746314
  0
CIRCLE
  5
40B
102
{ACAD_REACTORS
330
40C
102
}
330
19
100
AcDbEntity
  8
0
100
AcDbCircle
 10
3.729565641851102
 20
2.725924397482364
 30
0.0
 40
0.0068878989737587
  0
HATCH
  5
40C
330
19
100
AcDbEntity
  8
0
100
AcDbHatch
 10
0.0
 20
0.0
 30
0.0
210
0.0
220
0.0
230
1.0
  2
SOLID
 70
     1
 71
     1
 91
        1
 92
        7
 72
     1
 73
     1
 93
        2
 10
3.73645354082486
 20
2.725924397482364
 42
1.0
 10
3.722677742877343
 20
2.725924397482364
 42
1.0
 97
        1
330
40B
 75
     0
 76
     1
 47
0.0003546046884304
 98
        1
 10
3.727103801199445
 20
2.725634009798847
  0
CIRCLE
  5
40D
102
{ACAD_REACTORS
330
40E
102
}
330
19
100
AcDbEntity
  8
0
100
AcDbCircle
 10
3.715984622022877
 20
2.763770179582936
 30
0.0
 40
0.0068878989737587
  0
HATCH
  5
40E
330
19
100
AcDbEntity
  8
0
100
AcDbHatch
 10
0.0
 20
0.0
 30
0.0
210
0.0
220
0.0
230
1.0
  2
SOLID
 70
     1
 71
     1
 91
        1
 92
        7
 72
     1
 73
     1
 93
        2
 10
3.722872520996635
 20
2.763770179582936
 42
1.0
 10
3.709096723049119
 20
2.763770179582936
 42
1.0
 97
        1
330
40D
 75
     0
 76
     1
 47
0.0003546046884304
 98
        1
 10
3.71352278137122
 20
2.76347979189942
  0
CIRCLE
  5
40F
102
{ACAD_REACTORS
330
410
102
}
330
19
100
AcDbEntity
  8
0
100
AcDbCircle
 10
3.712143073842443
 20
2.838666181193356
 30
0.0
 40
0.0068878989737587
  0
HATCH
  5
410
330
19
100
AcDbEntity
  8
0
100
AcDbHatch
 10
0.0
 20
0.0
 30
0.0
210
0.0
220
0.0
230
1.0
  2
SOLID
 70
     1
 71
     1
 91
        1
 92
        7
 72
     1
 73
     1
 93
        2
 10
3.719030972816201
 20
2.838666181193356
 42
1.0
 10
3.705255174868685
 20
2.838666181193356
 42
1.0
 97
        1
330
40F
 75
     0
 76
     1
 47
0.0003546046884304
 98
        1
 10
3.709681233190786
 20
2.83837579350984
  0
CIRCLE
  5
411
102
{ACAD_REACTORS
330
412
102
}
330
19
100
AcDbEntity
  8
0
100
AcDbCircle
 10
3.679231351416104
 20
2.883336703192919
 30
0.0
 40
0.0068878989737587
  0
HATCH
  5
412
330
19
100
AcDbEntity
  8
0
100
AcDbHatch
 10
0.0
 20
0.0
 30
0.0
210
0.0
220
0.0
230
1.0
  2
SOLID
 70
     1
 71
     1
 91
        1
 92
        7
 72
     1
 73
     1
 93
        2
 10
3.686119250389863
 20
2.883336703192919
 42
1.0
 10
3.672343452442346
 20
2.883336703192919
 42
1.0
 97
        1
330
411
 75
     0
 76
     1
 47
0.0003546046884304
 98
        1
 10
3.676769510764447
 20
2.883046315509403
  0
CIRCLE
  5
413
102
{ACAD_REACTORS
330
414
102
}
330
19
100
AcDbEntity
  8
0
100
AcDbCircle
 10
3.651366920329036
 20
2.835138659424391
 30
0.0
 40
0.0068878989737587
  0
HATCH
  5
414
330
19
100
AcDbEntity
  8
0
100
AcDbHatch
 10
0.0
 20
0.0
 30
0.0
210
0.0
220
0.0
230
1.0
  2
SOLID
 70
     1
 71
     1
 91
        1
 92
        7
 72
     1
 73
     1
 93
        2
 10
3.658254819302794
 20
2.835138659424391
 42
1.0
 10
3.644479021355278
 20
2.835138659424391
 42
1.0
 97
        1
330
413
 75
     0
 76
     1
 47
0.0003546046884304
 98
        1
 10
3.648905079677379
 20
2.834848271740875
  0
CIRCLE
  5
415
102
{ACAD_REACTORS
330
416
102
}
330
19
100
AcDbEntity
  8
0
100
AcDbCircle
 10
3.665033394901615
 20
2.789301140509568
 30
0.0
 40
0.0068878989737587
  0
HATCH
  5
416
330
19
100
AcDbEntity
  8
0
100
AcDbHatch
 10
0.0
 20
0.0
 30
0.0
210
0.0
220
0.0
230
1.0
  2
SOLID
 70
     1
 71
     1
 91
        1
 92
        7
 72
     1
 73
     1
 93
        2
 10
3.671921293875374
 20
2.789301140509568
 42
1.0
 10
3.658145495927857
 20
2.789301140509568
 42
1.0
 97
        1
330
415
 75
     0
 76
     1
 47
0.0003546046884304
 98
        1
 10
3.662571554249958
 20
2.789010752826052
  0
CIRCLE
  5
417
102
{ACAD_REACTORS
330
418
102
}
330
19
100
AcDbEntity
  8
0
100
AcDbCircle
 10
3.682338462636789
 20
2.68754799491817
 30
0.0
 40
0.0068878989737587
  0
HATCH
  5
418
330
19
100
AcDbEntity
  8
0
100
AcDbHatch
 10
0.0
 20
0.0
 30
0.0
210
0.0
220
0.0
230
1.0
  2
SOLID
 70
     1
 71
     1
 91
        1
 92
        7
 72
     1
 73
     1
 93
        2
 10
3.689226361610547
 20
2.68754799491817
 42
1.0
 10
3.67545056366303
 20
2.68754799491817
 42
1.0
 97
        1
330
417
 75
     0
 76
     1
 47
0.0003546046884304
 98
        1
 10
3.679876621985132
 20
2.687257607234654
  0
CIRCLE
  5
419
102
{ACAD_REACTORS
330
41A
102
}
330
19
100
AcDbEntity
  8
0
100
AcDbCircle
 10
3.634769464445064
 20
2.681138539610979
 30
0.0
 40
0.0068878989737587
  0
HATCH
  5
41A
330
19
100
AcDbEntity
  8
0
100
AcDbHatch
 10
0.0
 20
0.0
 30
0.0
210
0.0
220
0.0
230
1.0
  2
SOLID
 70
     1
 71
     1
 91
        1
 92
        7
 72
     1
 73
     1
 93
        2
 10
3.641657363418822
 20
2.681138539610979
 42
1.0
 10
3.627881565471305
 20
2.681138539610979
 42
1.0
 97
        1
330
419
 75
     0
 76
     1
 47
0.0003546046884304
 98
        1
 10
3.632307623793407
 20
2.680848151927463
  0
HATCH
  5
41B
330
19
100
AcDbEntity
  8
0
100
AcDbHatch
 10
0.0
 20
0.0
 30
0.0
210
0.0
220
0.0
230
1.0
  2
SOLID
 70
     1
 71
     1
 91
        1
 92
        7
 72
     1
 73
     1
 93
        2
 10
3.867197935293925
 20
3.010798419408229
 42
1.0
 10
3.853422137346409
 20
3.010798419408229
 42
1.0
 97
        1
330
41C
 75
     0
 76
     1
 47
0.0003546046884304
 98
        1
 10
3.85784819566851
 20
3.010508031724713
  0
CIRCLE
  5
41C
102
{ACAD_REACTORS
330
41B
102
}
330
19
100
AcDbEntity
  8
0
100
AcDbCircle
 10
3.860310036320167
 20
3.010798419408229
 30
0.0
 40
0.0068878989737587
  0
HATCH
  5
41D
330
19
100
AcDbEntity
  8
0
100
AcDbHatch
 10
0.0
 20
0.0
 30
0.0
210
0.0
220
0.0
230
1.0
  2
SOLID
 70
     1
 71
     1
 91
        1
 92
        7
 72
     1
 73
     1
 93
        2
 10
3.927516074661583
 20
2.96237080821017
 42
1.0
 10
3.913740276714066
 20
2.96237080821017
 42
1.0
 97
        1
330
41E
 75
     0
 76
     1
 47
0.0003546046884304
 98
        1
 10
3.918166335036168
 20
2.962080420526654
  0
CIRCLE
  5
41E
102
{ACAD_REACTORS
330
41D
102
}
330
19
100
AcDbEntity
  8
0
100
AcDbCircle
 10
3.920628175687825
 20
2.96237080821017
 30
0.0
 40
0.0068878989737587
  0
HATCH
  5
41F
330
19
100
AcDbEntity
  8
0
100
AcDbHatch
 10
0.0
 20
0.0
 30
0.0
210
0.0
220
0.0
230
1.0
  2
SOLID
 70
     1
 71
     1
 91
        1
 92
        7
 72
     1
 73
     1
 93
        2
 10
3.989359107374253
 20
2.960912338144621
 42
1.0
 10
3.975583309426736
 20
2.960912338144621
 42
1.0
 97
        1
330
420
 75
     0
 76
     1
 47
0.0003546046884304
 98
        1
 10
3.980009367748837
 20
2.960621950461105
  0
CIRCLE
  5
420
102
{ACAD_REACTORS
330
41F
102
}
330
19
100
AcDbEntity
  8
0
100
AcDbCircle
 10
3.982471208400494
 20
2.960912338144621
 30
0.0
 40
0.0068878989737587
  0
HATCH
  5
421
330
19
100
AcDbEntity
  8
0
100
AcDbHatch
 10
0.0
 20
0.0
 30
0.0
210
0.0
220
0.0
230
1.0
  2
SOLID
 70
     1
 71
     1
 91
        1
 92
        7
 72
     1
 73
     1
 93
        2
 10
3.988186714849695
 20
2.880977282653327
 42
1.0
 10
3.974410916902178
 20
2.880977282653327
 42
1.0
 97
        1
330
422
 75
     0
 76
     1
 47
0.0003546046884304
 98
        1
 10
3.97883697522428
 20
2.880686894969811
  0
CIRCLE
  5
422
102
{ACAD_REACTORS
330
421
102
}
330
19
100
AcDbEntity
  8
0
100
AcDbCircle
 10
3.981298815875937
 20
2.880977282653327
 30
0.0
 40
0.0068878989737587
  0
HATCH
  5
423
330
19
100
AcDbEntity
  8
0
100
AcDbHatch
 10
0.0
 20
0.0
 30
0.0
210
0.0
220
0.0
230
1.0
  2
SOLID
 70
     1
 71
     1
 91
        1
 92
        7
 72
     1
 73
     1
 93
        2
 10
4.041975396905247
 20
2.874453227683723
 42
1.0
 10
4.02819959895773
 20
2.874453227683723
 42
1.0
 97
        1
330
424
 75
     0
 76
     1
 47
0.0003546046884304
 98
        1
 10
4.032625657279832
 20
2.874162840000206
  0
CIRCLE
  5
424
102
{ACAD_REACTORS
330
423
102
}
330
19
100
AcDbEntity
  8
0
100
AcDbCircle
 10
4.035087497931489
 20
2.874453227683723
 30
0.0
 40
0.0068878989737587
  0
HATCH
  5
425
330
19
100
AcDbEntity
  8
0
100
AcDbHatch
 10
0.0
 20
0.0
 30
0.0
210
0.0
220
0.0
230
1.0
  2
SOLID
 70
     1
 71
     1
 91
        1
 92
        7
 72
     1
 73
     1
 93
        2
 10
4.066874190941498
 20
2.915631970716599
 42
1.0
 10
4.053098392993981
 20
2.915631970716599
 42
1.0
 97
        1
330
426
 75
     0
 76
     1
 47
0.0003546046884304
 98
        1
 10
4.057524451316082
 20
2.915341583033083
  0
CIRCLE
  5
426
102
{ACAD_REACTORS
330
425
102
}
330
19
100
AcDbEntity
  8
0
100
AcDbCircle
 10
4.059986291967739
 20
2.915631970716599
 30
0.0
 40
0.0068878989737587
  0
HATCH
  5
427
330
19
100
AcDbEntity
  8
0
100
AcDbHatch
 10
0.0
 20
0.0
 30
0.0
210
0.0
220
0.0
230
1.0
  2
SOLID
 70
     1
 71
     1
 91
        1
 92
        7
 72
     1
 73
     1
 93
        2
 10
4.061965763561801
 20
2.995513964161532
 42
1.0
 10
4.048189965614284
 20
2.995513964161532
 42
1.0
 97
        1
330
428
 75
     0
 76
     1
 47
0.0003546046884304
 98
        1
 10
4.052616023936386
 20
2.995223576478016
  0
CIRCLE
  5
428
102
{ACAD_REACTORS
330
427
102
}
330
19
100
AcDbEntity
  8
0
100
AcDbCircle
 10
4.055077864588043
 20
2.995513964161532
 30
0.0
 40
0.0068878989737587
  0
HATCH
  5
429
330
19
100
AcDbEntity
  8
0
100
AcDbHatch
 10
0.0
 20
0.0
 30
0.0
210
0.0
220
0.0
230
1.0
  2
SOLID
 70
     1
 71
     1
 91
        1
 92
        7
 72
     1
 73
     1
 93
        2
 10
4.009755384066482
 20
3.04401232475474
 42
1.0
 10
3.995979586118965
 20
3.04401232475474
 42
1.0
 97
        1
330
42A
 75
     0
 76
     1
 47
0.0003546046884304
 98
        1
 10
4.000405644441067
 20
3.043721937071224
  0
CIRCLE
  5
42A
102
{ACAD_REACTORS
330
429
102
}
330
19
100
AcDbEntity
  8
0
100
AcDbCircle
 10
4.002867485092724
 20
3.04401232475474
 30
0.0
 40
0.0068878989737587
  0
HATCH
  5
42B
330
19
100
AcDbEntity
  8
0
100
AcDbHatch
 10
0.0
 20
0.0
 30
0.0
210
0.0
220
0.0
230
1.0
  2
SOLID
 70
     1
 71
     1
 91
        1
 92
        7
 72
     1
 73
     1
 93
        2
 10
4.057878532991353
 20
3.093386209112922
 42
1.0
 10
4.044102735043836
 20
3.093386209112922
 42
1.0
 97
        1
330
42C
 75
     0
 76
     1
 47
0.0003546046884304
 98
        1
 10
4.048528793365938
 20
3.093095821429406
  0
CIRCLE
  5
42C
102
{ACAD_REACTORS
330
42B
102
}
330
19
100
AcDbEntity
  8
0
100
AcDbCircle
 10
4.050990634017595
 20
3.093386209112922
 30
0.0
 40
0.0068878989737587
  0
HATCH
  5
42D
330
19
100
AcDbEntity
  8
0
100
AcDbHatch
 10
0.0
 20
0.0
 30
0.0
210
0.0
220
0.0
230
1.0
  2
SOLID
 70
     1
 71
     1
 91
        1
 92
        7
 72
     1
 73
     1
 93
        2
 10
3.988823710116903
 20
3.105771411577309
 42
1.0
 10
3.975047912169386
 20
3.105771411577309
 42
1.0
 97
        1
330
42E
 75
     0
 76
     1
 47
0.0003546046884304
 98
        1
 10
3.979473970491487
 20
3.105481023893793
  0
CIRCLE
  5
42E
102
{ACAD_REACTORS
330
42D
102
}
330
19
100
AcDbEntity
  8
0
100
AcDbCircle
 10
3.981935811143144
 20
3.105771411577309
 30
0.0
 40
0.0068878989737587
  0
HATCH
  5
42F
330
19
100
AcDbEntity
  8
0
100
AcDbHatch
 10
0.0
 20
0.0
 30
0.0
210
0.0
220
0.0
230
1.0
  2
SOLID
 70
     1
 71
     1
 91
        1
 92
        7
 72
     1
 73
     1
 93
        2
 10
4.020784748512316
 20
3.150008961636285
 42
1.0
 10
4.007008950564799
 20
3.150008961636285
 42
1.0
 97
        1
330
430
 75
     0
 76
     1
 47
0.0003546046884304
 98
        1
 10
4.011435008886901
 20
3.149718573952769
  0
CIRCLE
  5
430
102
{ACAD_REACTORS
330
42F
102
}
330
19
100
AcDbEntity
  8
0
100
AcDbCircle
 10
4.013896849538558
 20
3.150008961636285
 30
0.0
 40
0.0068878989737587
  0
HATCH
  5
431
330
19
100
AcDbEntity
  8
0
100
AcDbHatch
 10
0.0
 20
0.0
 30
0.0
210
0.0
220
0.0
230
1.0
  2
SOLID
 70
     1
 71
     1
 91
        1
 92
        7
 72
     1
 73
     1
 93
        2
 10
4.061312866030965
 20
3.151361675713814
 42
1.0
 10
4.047537068083448
 20
3.151361675713814
 42
1.0
 97
        1
330
432
 75
     0
 76
     1
 47
0.0003546046884304
 98
        1
 10
4.05196312640555
 20
3.151071288030298
  0
CIRCLE
  5
432
102
{ACAD_REACTORS
330
431
102
}
330
19
100
AcDbEntity
  8
0
100
AcDbCircle
 10
4.054424967057207
 20
3.151361675713814
 30
0.0
 40
0.0068878989737587
  0
CIRCLE
  5
435
102
{ACAD_REACTORS
330
436
102
}
330
19
100
AcDbEntity
  8
0
100
AcDbCircle
 10
3.942248949014686
 20
3.215321733146298
 30
0.0
 40
0.0068878989737587
  0
HATCH
  5
436
330
19
100
AcDbEntity
  8
0
100
AcDbHatch
 10
0.0
 20
0.0
 30
0.0
210
0.0
220
0.0
230
1.0
  2
SOLID
 70
     1
 71
     1
 91
        1
 92
        7
 72
     1
 73
     1
 93
        2
 10
3.949136847988445
 20
3.215321733146298
 42
1.0
 10
3.935361050040928
 20
3.215321733146298
 42
1.0
 97
        1
330
435
 75
     0
 76
     1
 47
0.0003546046884304
 98
        1
 10
3.939787108363029
 20
3.215031345462782
  0
CIRCLE
  5
437
102
{ACAD_REACTORS
330
438
102
}
330
19
100
AcDbEntity
  8
0
100
AcDbCircle
 10
3.942728326846523
 20
3.265278931909758
 30
0.0
 40
0.0068878989737587
  0
HATCH
  5
438
330
19
100
AcDbEntity
  8
0
100
AcDbHatch
 10
0.0
 20
0.0
 30
0.0
210
0.0
220
0.0
230
1.0
  2
SOLID
 70
     1
 71
     1
 91
        1
 92
        7
 72
     1
 73
     1
 93
        2
 10
3.949616225820282
 20
3.265278931909758
 42
1.0
 10
3.935840427872765
 20
3.265278931909758
 42
1.0
 97
        1
330
437
 75
     0
 76
     1
 47
0.0003546046884304
 98
        1
 10
3.940266486194866
 20
3.264988544226242
  0
CIRCLE
  5
439
102
{ACAD_REACTORS
330
43A
102
}
330
19
100
AcDbEntity
  8
0
100
AcDbCircle
 10
3.934982444532538
 20
3.326154019397664
 30
0.0
 40
0.0068878989737587
  0
HATCH
  5
43A
330
19
100
AcDbEntity
  8
0
100
AcDbHatch
 10
0.0
 20
0.0
 30
0.0
210
0.0
220
0.0
230
1.0
  2
SOLID
 70
     1
 71
     1
 91
        1
 92
        7
 72
     1
 73
     1
 93
        2
 10
3.941870343506297
 20
3.326154019397664
 42
1.0
 10
3.92809454555878
 20
3.326154019397664
 42
1.0
 97
        1
330
439
 75
     0
 76
     1
 47
0.0003546046884304
 98
        1
 10
3.932520603880881
 20
3.325863631714148
  0
CIRCLE
  5
43B
102
{ACAD_REACTORS
330
43C
102
}
330
19
100
AcDbEntity
  8
0
100
AcDbCircle
 10
4.010726952364756
 20
3.256880754178101
 30
0.0
 40
0.0068878989737587
  0
HATCH
  5
43C
330
19
100
AcDbEntity
  8
0
100
AcDbHatch
 10
0.0
 20
0.0
 30
0.0
210
0.0
220
0.0
230
1.0
  2
SOLID
 70
     1
 71
     1
 91
        1
 92
        7
 72
     1
 73
     1
 93
        2
 10
4.017614851338514
 20
3.256880754178101
 42
1.0
 10
4.003839053390998
 20
3.256880754178101
 42
1.0
 97
        1
330
43B
 75
     0
 76
     1
 47
0.0003546046884304
 98
        1
 10
4.008265111713099
 20
3.256590366494585
  0
CIRCLE
  5
43D
102
{ACAD_REACTORS
330
43E
102
}
330
19
100
AcDbEntity
  8
0
100
AcDbCircle
 10
4.053613146985857
 20
3.227283175449196
 30
0.0
 40
0.0068878989737587
  0
HATCH
  5
43E
330
19
100
AcDbEntity
  8
0
100
AcDbHatch
 10
0.0
 20
0.0
 30
0.0
210
0.0
220
0.0
230
1.0
  2
SOLID
 70
     1
 71
     1
 91
        1
 92
        7
 72
     1
 73
     1
 93
        2
 10
4.060501045959615
 20
3.227283175449196
 42
1.0
 10
4.046725248012098
 20
3.227283175449196
 42
1.0
 97
        1
330
43D
 75
     0
 76
     1
 47
0.0003546046884304
 98
        1
 10
4.0511513063342
 20
3.22699278776568
  0
CIRCLE
  5
43F
102
{ACAD_REACTORS
330
440
102
}
330
19
100
AcDbEntity
  8
0
100
AcDbCircle
 10
4.055278209395588
 20
3.166355025914928
 30
0.0
 40
0.0068878989737587
  0
HATCH
  5
440
330
19
100
AcDbEntity
  8
0
100
AcDbHatch
 10
0.0
 20
0.0
 30
0.0
210
0.0
220
0.0
230
1.0
  2
SOLID
 70
     1
 71
     1
 91
        1
 92
        7
 72
     1
 73
     1
 93
        2
 10
4.062166108369347
 20
3.166355025914928
 42
1.0
 10
4.04839031042183
 20
3.166355025914928
 42
1.0
 97
        1
330
43F
 75
     0
 76
     1
 47
0.0003546046884304
 98
        1
 10
4.052816368743931
 20
3.166064638231412
  0
CIRCLE
  5
441
102
{ACAD_REACTORS
330
442
102
}
330
19
100
AcDbEntity
  8
0
100
AcDbCircle
 10
4.055876392606058
 20
3.110412868215173
 30
0.0
 40
0.0068878989737587
  0
HATCH
  5
442
330
19
100
AcDbEntity
  8
0
100
AcDbHatch
 10
0.0
 20
0.0
 30
0.0
210
0.0
220
0.0
230
1.0
  2
SOLID
 70
     1
 71
     1
 91
        1
 92
        7
 72
     1
 73
     1
 93
        2
 10
4.062764291579816
 20
3.110412868215173
 42
1.0
 10
4.048988493632299
 20
3.110412868215173
 42
1.0
 97
        1
330
441
 75
     0
 76
     1
 47
0.0003546046884304
 98
        1
 10
4.053414551954401
 20
3.110122480531657
  0
ENDSEC
  0
SECTION
  2
OBJECTS
  0
DICTIONARY
  5
C
330
0
100
AcDbDictionary
281
     1
  3
ACAD_COLOR
350
44A
  3
ACAD_GROUP
350
D
  3
ACAD_LAYOUT
350
445
  3
ACAD_MATERIAL
350
44C
  3
ACAD_MLINESTYLE
350
E
  3
ACDBHEADERROUNDTRIPXREC
350
449
  3
ACDBVARIABLEDICTIONARY
350
2F1
  0
DICTIONARY
  5
44A
102
{ACAD_REACTORS
330
C
102
}
330
C
100
AcDbDictionary
281
     1
  0
DICTIONARY
  5
D
102
{ACAD_REACTORS
330
C
102
}
330
C
100
AcDbDictionary
281
     1
  0
DICTIONARY
  5
445
102
{ACAD_REACTORS
330
C
102
}
330
C
100
AcDbDictionary
281
     1
  3
Layout1
350
447
  3
Model
350
446
  0
DICTIONARY
  5
44C
102
{ACAD_REACTORS
330
C
102
}
330
C
100
AcDbDictionary
281
     1
  0
DICTIONARY
  5
E
102
{ACAD_REACTORS
330
C
102
}
330
C
100
AcDbDictionary
281
     1
  3
STANDARD
350
1C
  0
DICTIONARY
  5
449
102
{ACAD_REACTORS
330
C
102
}
330
C
100
AcDbDictionary
281
     1
  3
COLORDICT
350
44B
  3
MATERIALDICT
350
44D
  0
DICTIONARY
  5
2F1
102
{ACAD_REACTORS
330
C
102
}
330
C
100
AcDbDictionary
281
     1
  3
SORTENTS
350
448
  0
LAYOUT
  5
447
102
{ACAD_REACTORS
330
445
102
}
102
{ACAD_XDICTIONARY
360
44E
102
}
330
445
100
AcDbPlotSettings
  1

  2

  4

  6

 40
0.0
 41
0.0
 42
0.0
 43
0.0
 44
0.0
 45
0.0
 46
0.0
 47
0.0
 48
0.0
 49
0.0
140
0.0
141
0.0
142
1.0
143
1.0
 70
   688
 72
     0
 73
     0
 74
     5
  7

 75
    16
147
1.0
148
0.0
149
0.0
100
AcDbLayout
  1
Layout1
 70
     1
 71
     1
 10
0.0
 20
0.0
 11
0.0
 21
0.0
 12
0.0
 22
0.0
 32
0.0
 14
0.0
 24
0.0
 34
0.0
 15
0.0
 25
0.0
 35
0.0
146
0.0
 13
0.0
 23
0.0
 33
0.0
 16
1.0
 26
0.0
 36
0.0
 17
0.0
 27
1.0
 37
0.0
 76
     0
330
16
  0
LAYOUT
  5
446
102
{ACAD_REACTORS
330
445
102
}
102
{ACAD_XDICTIONARY
360
450
102
}
330
445
100
AcDbPlotSettings
  1

  2

  4

  6

 40
0.0
 41
0.0
 42
0.0
 43
0.0
 44
0.0
 45
0.0
 46
0.0
 47
0.0
 48
0.0
 49
0.0
140
0.0
141
0.0
142
1.0
143
1.0
 70
   688
 72
     0
 73
     0
 74
     5
  7

 75
    16
147
1.0
148
0.0
149
0.0
100
AcDbLayout
  1
Model
 70
     1
 71
     0
 10
0.0
 20
0.0
 11
0.0
 21
0.0
 12
0.0
 22
0.0
 32
0.0
 14
0.0
 24
0.0
 34
0.0
 15
0.0
 25
0.0
 35
0.0
146
0.0
 13
0.0
 23
0.0
 33
0.0
 16
1.0
 26
0.0
 36
0.0
 17
0.0
 27
1.0
 37
0.0
 76
     0
330
19
  0
MLINESTYLE
  5
1C
102
{ACAD_REACTORS
330
E
102
}
330
E
100
AcDbMlineStyle
  2
STANDARD
 70
     0
  3

 62
     0
 51
90.0
 52
90.0
 71
     2
 49
0.5
 62
   256
  6
BYLAYER
 49
-0.5
 62
   256
  6
BYLAYER
  0
XRECORD
  5
44B
102
{ACAD_REACTORS
330
449
102
}
330
449
100
AcDbXrecord
340
44A
  0
XRECORD
  5
44D
102
{ACAD_REACTORS
330
449
102
}
330
449
100
AcDbXrecord
340
44C
  0
DICTIONARYVAR
  5
448
102
{ACAD_REACTORS
330
2F1
102
}
330
2F1
100
DictionaryVariables
280
     0
  1
96
  0
DICTIONARY
  5
44E
330
447
100
AcDbDictionary
280
     1
281
     1
  3
ACAD_XREC_ROUNDTRIP
360
44F
  0
DICTIONARY
  5
450
330
446
100
AcDbDictionary
280
     1
281
     1
  3
ACAD_XREC_ROUNDTRIP
360
451
  0
XRECORD
  5
44F
102
{ACAD_REACTORS
330
44E
102
}
330
44E
100
AcDbXrecord
102
SHADEPLOT
 70
-26824
102
SHADEPLOTRESLEVEL
 70
-26784
102
SHADEPLOTCUSTOMDPI
 70
-26744
  0
XRECORD
  5
451
102
{ACAD_REACTORS
330
450
102
}
330
450
100
AcDbXrecord
102
SHADEPLOT
 70
     0
102
SHADEPLOTRESLEVEL
 70
     0
102
SHADEPLOTCUSTOMDPI
 70
     0
  0
ENDSEC
  0
EOF
