  0
SECTION
  2
HEADER
  9
$ACADVER
  1
AC1015
  9
$ACADMAINTVER
 70
     6
  9
$DWGCODEPAGE
  3
ANSI_1252
  9
$INSBASE
 10
0.0
 20
0.0
 30
0.0
  9
$EXTMIN
 10
-0.8077889555413123
 20
-0.0355389200531349
 30
-0.0015258207003583
  9
$EXTMAX
 10
2.997103055677865
 20
9.296736468630378
 30
0.0000000349246037
  9
$LIMMIN
 10
0.0
 20
0.0
  9
$LIMMAX
 10
12.0
 20
9.0
  9
$ORTHOMODE
 70
     0
  9
$REGENMODE
 70
     1
  9
$FILLMODE
 70
     1
  9
$QTEXTMODE
 70
     0
  9
$MIRRTEXT
 70
     1
  9
$LTSCALE
 40
1.0
  9
$ATTMODE
 70
     1
  9
$TEXTSIZE
 40
0.2
  9
$TRACEWID
 40
0.05
  9
$TEXTSTYLE
  7
STANDARD
  9
$CLAYER
  8
0
  9
$CELTYPE
  6
BYLAYER
  9
$CECOLOR
 62
   256
  9
$CELTSCALE
 40
1.0
  9
$DISPSILH
 70
     0
  9
$DIMSCALE
 40
1.0
  9
$DIMASZ
 40
0.18
  9
$DIMEXO
 40
0.0625
  9
$DIMDLI
 40
0.38
  9
$DIMRND
 40
0.0
  9
$DIMDLE
 40
0.0
  9
$DIMEXE
 40
0.18
  9
$DIMTP
 40
0.0
  9
$DIMTM
 40
0.0
  9
$DIMTXT
 40
0.18
  9
$DIMCEN
 40
0.09
  9
$DIMTSZ
 40
0.0
  9
$DIMTOL
 70
     0
  9
$DIMLIM
 70
     0
  9
$DIMTIH
 70
     1
  9
$DIMTOH
 70
     1
  9
$DIMSE1
 70
     0
  9
$DIMSE2
 70
     0
  9
$DIMTAD
 70
     0
  9
$DIMZIN
 70
     0
  9
$DIMBLK
  1

  9
$DIMASO
 70
     1
  9
$DIMSHO
 70
     1
  9
$DIMPOST
  1

  9
$DIMAPOST
  1

  9
$DIMALT
 70
     0
  9
$DIMALTD
 70
     2
  9
$DIMALTF
 40
25.4
  9
$DIMLFAC
 40
1.0
  9
$DIMTOFL
 70
     0
  9
$DIMTVP
 40
0.0
  9
$DIMTIX
 70
     0
  9
$DIMSOXD
 70
     0
  9
$DIMSAH
 70
     0
  9
$DIMBLK1
  1

  9
$DIMBLK2
  1

  9
$DIMSTYLE
  2
STANDARD
  9
$DIMCLRD
 70
     0
  9
$DIMCLRE
 70
     0
  9
$DIMCLRT
 70
     0
  9
$DIMTFAC
 40
1.0
  9
$DIMGAP
 40
0.09
  9
$DIMJUST
 70
     0
  9
$DIMSD1
 70
     0
  9
$DIMSD2
 70
     0
  9
$DIMTOLJ
 70
     1
  9
$DIMTZIN
 70
     0
  9
$DIMALTZ
 70
     0
  9
$DIMALTTZ
 70
     0
  9
$DIMUPT
 70
     0
  9
$DIMDEC
 70
     5
  9
$DIMTDEC
 70
     5
  9
$DIMALTU
 70
     2
  9
$DIMALTTD
 70
     2
  9
$DIMTXSTY
  7
STANDARD
  9
$DIMAUNIT
 70
     0
  9
$DIMADEC
 70
     0
  9
$DIMALTRND
 40
0.0
  9
$DIMAZIN
 70
     0
  9
$DIMDSEP
 70
    46
  9
$DIMATFIT
 70
     3
  9
$DIMFRAC
 70
     2
  9
$DIMLDRBLK
  1

  9
$DIMLUNIT
 70
     5
  9
$DIMLWD
 70
    -2
  9
$DIMLWE
 70
    -2
  9
$DIMTMOVE
 70
     0
  9
$LUNITS
 70
     2
  9
$LUPREC
 70
     4
  9
$SKETCHINC
 40
0.1
  9
$FILLETRAD
 40
0.0
  9
$AUNITS
 70
     0
  9
$AUPREC
 70
     0
  9
$MENU
  1
acad
  9
$ELEVATION
 40
0.0
  9
$PELEVATION
 40
0.0
  9
$THICKNESS
 40
0.0
  9
$LIMCHECK
 70
     0
  9
$CHAMFERA
 40
0.0
  9
$CHAMFERB
 40
0.0
  9
$CHAMFERC
 40
0.0
  9
$CHAMFERD
 40
0.0
  9
$SKPOLY
 70
     0
  9
$TDCREATE
 40
2450449.796056134
  9
$TDUCREATE
 40
2450450.129389468
  9
$TDUPDATE
 40
2454907.653354988
  9
$TDUUPDATE
 40
2454907.986688322
  9
$TDINDWG
 40
1.0226651736
  9
$TDUSRTIMER
 40
1.0226651736
  9
$USRTIMER
 70
     1
  9
$ANGBASE
 50
0.0
  9
$ANGDIR
 70
     0
  9
$PDMODE
 70
     0
  9
$PDSIZE
 40
0.0
  9
$PLINEWID
 40
0.0
  9
$SPLFRAME
 70
     0
  9
$SPLINETYPE
 70
     6
  9
$SPLINESEGS
 70
     8
  9
$HANDSEED
  5
BE61
  9
$SURFTAB1
 70
     6
  9
$SURFTAB2
 70
     6
  9
$SURFTYPE
 70
     6
  9
$SURFU
 70
     6
  9
$SURFV
 70
     6
  9
$UCSBASE
  2

  9
$UCSNAME
  2

  9
$UCSORG
 10
0.0
 20
0.0
 30
0.0
  9
$UCSXDIR
 10
1.0
 20
0.0
 30
0.0
  9
$UCSYDIR
 10
0.0
 20
1.0
 30
0.0
  9
$UCSORTHOREF
  2

  9
$UCSORTHOVIEW
 70
     0
  9
$UCSORGTOP
 10
0.0
 20
0.0
 30
0.0
  9
$UCSORGBOTTOM
 10
0.0
 20
0.0
 30
0.0
  9
$UCSORGLEFT
 10
0.0
 20
0.0
 30
0.0
  9
$UCSORGRIGHT
 10
0.0
 20
0.0
 30
0.0
  9
$UCSORGFRONT
 10
0.0
 20
0.0
 30
0.0
  9
$UCSORGBACK
 10
0.0
 20
0.0
 30
0.0
  9
$PUCSBASE
  2

  9
$PUCSNAME
  2

  9
$PUCSORG
 10
0.0
 20
0.0
 30
0.0
  9
$PUCSXDIR
 10
1.0
 20
0.0
 30
0.0
  9
$PUCSYDIR
 10
0.0
 20
1.0
 30
0.0
  9
$PUCSORTHOREF
  2

  9
$PUCSORTHOVIEW
 70
     0
  9
$PUCSORGTOP
 10
0.0
 20
0.0
 30
0.0
  9
$PUCSORGBOTTOM
 10
0.0
 20
0.0
 30
0.0
  9
$PUCSORGLEFT
 10
0.0
 20
0.0
 30
0.0
  9
$PUCSORGRIGHT
 10
0.0
 20
0.0
 30
0.0
  9
$PUCSORGFRONT
 10
0.0
 20
0.0
 30
0.0
  9
$PUCSORGBACK
 10
0.0
 20
0.0
 30
0.0
  9
$USERI1
 70
     0
  9
$USERI2
 70
     0
  9
$USERI3
 70
     0
  9
$USERI4
 70
     0
  9
$USERI5
 70
     0
  9
$USERR1
 40
0.0
  9
$USERR2
 40
0.0
  9
$USERR3
 40
0.0
  9
$USERR4
 40
0.0
  9
$USERR5
 40
0.0
  9
$WORLDVIEW
 70
     1
  9
$SHADEDGE
 70
     3
  9
$SHADEDIF
 70
    70
  9
$TILEMODE
 70
     1
  9
$MAXACTVP
 70
    16
  9
$PINSBASE
 10
0.0
 20
0.0
 30
0.0
  9
$PLIMCHECK
 70
     0
  9
$PEXTMIN
 10
1.000000000000000E+20
 20
1.000000000000000E+20
 30
1.000000000000000E+20
  9
$PEXTMAX
 10
-1.000000000000000E+20
 20
-1.000000000000000E+20
 30
-1.000000000000000E+20
  9
$PLIMMIN
 10
0.0
 20
0.0
  9
$PLIMMAX
 10
12.0
 20
9.0
  9
$UNITMODE
 70
     0
  9
$VISRETAIN
 70
     0
  9
$PLINEGEN
 70
     0
  9
$PSLTSCALE
 70
     1
  9
$TREEDEPTH
 70
  3020
  9
$CMLSTYLE
  2
STANDARD
  9
$CMLJUST
 70
     0
  9
$CMLSCALE
 40
1.0
  9
$PROXYGRAPHICS
 70
     1
  9
$MEASUREMENT
 70
     0
  9
$CELWEIGHT
370
    -1
  9
$ENDCAPS
280
     0
  9
$JOINSTYLE
280
     0
  9
$LWDISPLAY
290
     0
  9
$INSUNITS
 70
     0
  9
$HYPERLINKBASE
  1

  9
$STYLESHEET
  1
monochrome.ctb
  9
$XEDIT
290
     1
  9
$CEPSNTYPE
380
     0
  9
$PSTYLEMODE
290
     1
  9
$FINGERPRINTGUID
  2
{A98ED055-111F-4D01-9826-95738AAD64AB}
  9
$VERSIONGUID
  2
{A5E19B03-E8D1-4832-8677-D2ABB2A608CF}
  9
$EXTNAMES
290
     1
  9
$PSVPSCALE
 40
0.0
  9
$OLESTARTUP
290
     0
  0
ENDSEC
  0
SECTION
  2
CLASSES
  0
CLASS
  1
LWPOLYLINE
  2
AcDbPolyline
  3
AutoCAD 2000
 90
        0
280
     0
281
     1
  0
CLASS
  1
ACDBDICTIONARYWDFLT
  2
AcDbDictionaryWithDefault
  3
AutoCAD 2000
 90
        0
280
     0
281
     0
  0
CLASS
  1
ACDBPLACEHOLDER
  2
AcDbPlaceHolder
  3
ObjectDBX Classes
 90
        0
280
     0
281
     0
  0
CLASS
  1
LAYOUT
  2
AcDbLayout
  3
ObjectDBX Classes
 90
        0
280
     0
281
     0
  0
CLASS
  1
LONG_TRANSACTION
  2
AcDbLongTransaction
  3
ObjectDBX Classes
 90
   -65536
280
     1
281
     0
  0
CLASS
  1
LWPOLYLINE
  2
AcDbPolyline
  3
AutoCAD 2000
 90
        0
280
     0
281
     1
  0
CLASS
  1
HATCH
  2
AcDbHatch
  3
AutoCAD 2000
 90
        0
280
     0
281
     1
  0
CLASS
  1
XRECORD
  2
AcDbXrecord
  3
AutoCAD 2000
 90
        0
280
     0
281
     0
  0
CLASS
  1
LONG_TRANSACTION
  2
AcDbLongTransaction
  3
ObjectDBX Classes
 90
   -65536
280
     1
281
     0
  0
CLASS
  1
LWPOLYLINE
  2
AcDbPolyline
  3
AutoCAD 2000
 90
        0
280
     0
281
     1
  0
CLASS
  1
HATCH
  2
AcDbHatch
  3
AutoCAD 2000
 90
        0
280
     0
281
     1
  0
CLASS
  1
XRECORD
  2
AcDbXrecord
  3
AutoCAD 2000
 90
        0
280
     0
281
     0
  0
CLASS
  1
LONG_TRANSACTION
  2
AcDbLongTransaction
  3
ObjectDBX Classes
 90
   -65536
280
     1
281
     0
  0
CLASS
  1
LWPOLYLINE
  2
AcDbPolyline
  3
AutoCAD 2000
 90
        0
280
     0
281
     1
  0
CLASS
  1
HATCH
  2
AcDbHatch
  3
AutoCAD 2000
 90
        0
280
     0
281
     1
  0
CLASS
  1
XRECORD
  2
AcDbXrecord
  3
AutoCAD 2000
 90
        0
280
     0
281
     0
  0
CLASS
  1
LONG_TRANSACTION
  2
AcDbLongTransaction
  3
ObjectDBX Classes
 90
   -65536
280
     1
281
     0
  0
CLASS
  1
LWPOLYLINE
  2
AcDbPolyline
  3
AutoCAD 2000
 90
        0
280
     0
281
     1
  0
CLASS
  1
HATCH
  2
AcDbHatch
  3
AutoCAD 2000
 90
        0
280
     0
281
     1
  0
CLASS
  1
XRECORD
  2
AcDbXrecord
  3
AutoCAD 2000
 90
        0
280
     0
281
     0
  0
CLASS
  1
LONG_TRANSACTION
  2
AcDbLongTransaction
  3
ObjectDBX Classes
 90
   -65536
280
     1
281
     0
  0
CLASS
  1
LWPOLYLINE
  2
AcDbPolyline
  3
AutoCAD 2000
 90
        0
280
     0
281
     1
  0
CLASS
  1
HATCH
  2
AcDbHatch
  3
AutoCAD 2000
 90
        0
280
     0
281
     1
  0
CLASS
  1
XRECORD
  2
AcDbXrecord
  3
AutoCAD 2000
 90
        0
280
     0
281
     0
  0
CLASS
  1
LONG_TRANSACTION
  2
AcDbLongTransaction
  3
ObjectDBX Classes
 90
   -65536
280
     1
281
     0
  0
CLASS
  1
LWPOLYLINE
  2
AcDbPolyline
  3
AutoCAD 2000
 90
        0
280
     0
281
     1
  0
CLASS
  1
HATCH
  2
AcDbHatch
  3
AutoCAD 2000
 90
        0
280
     0
281
     1
  0
CLASS
  1
XRECORD
  2
AcDbXrecord
  3
AutoCAD 2000
 90
        0
280
     0
281
     0
  0
CLASS
  1
LONG_TRANSACTION
  2
AcDbLongTransaction
  3
ObjectDBX Classes
 90
   -65536
280
     1
281
     0
  0
CLASS
  1
LWPOLYLINE
  2
AcDbPolyline
  3
AutoCAD 2000
 90
        0
280
     0
281
     1
  0
CLASS
  1
HATCH
  2
AcDbHatch
  3
AutoCAD 2000
 90
        0
280
     0
281
     1
  0
CLASS
  1
XRECORD
  2
AcDbXrecord
  3
AutoCAD 2000
 90
        0
280
     0
281
     0
  0
CLASS
  1
LONG_TRANSACTION
  2
AcDbLongTransaction
  3
ObjectDBX Classes
 90
   -65536
280
     1
281
     0
  0
CLASS
  1
LWPOLYLINE
  2
AcDbPolyline
  3
AutoCAD 2000
 90
        0
280
     0
281
     1
  0
CLASS
  1
HATCH
  2
AcDbHatch
  3
AutoCAD 2000
 90
        0
280
     0
281
     1
  0
CLASS
  1
XRECORD
  2
AcDbXrecord
  3
AutoCAD 2000
 90
        0
280
     0
281
     0
  0
CLASS
  1
LONG_TRANSACTION
  2
AcDbLongTransaction
  3
ObjectDBX Classes
 90
   -65536
280
     1
281
     0
  0
CLASS
  1
LWPOLYLINE
  2
AcDbPolyline
  3
AutoCAD 2000
 90
        0
280
     0
281
     1
  0
CLASS
  1
HATCH
  2
AcDbHatch
  3
AutoCAD 2000
 90
        0
280
     0
281
     1
  0
CLASS
  1
XRECORD
  2
AcDbXrecord
  3
AutoCAD 2000
 90
        0
280
     0
281
     0
  0
CLASS
  1
LONG_TRANSACTION
  2
AcDbLongTransaction
  3
ObjectDBX Classes
 90
   -65536
280
     1
281
     0
  0
CLASS
  1
LWPOLYLINE
  2
AcDbPolyline
  3
AutoCAD 2000
 90
        0
280
     0
281
     1
  0
CLASS
  1
HATCH
  2
AcDbHatch
  3
AutoCAD 2000
 90
        0
280
     0
281
     1
  0
CLASS
  1
XRECORD
  2
AcDbXrecord
  3
AutoCAD 2000
 90
        0
280
     0
281
     0
  0
CLASS
  1
LONG_TRANSACTION
  2
AcDbLongTransaction
  3
ObjectDBX Classes
 90
   -65536
280
     1
281
     0
  0
CLASS
  1
LWPOLYLINE
  2
AcDbPolyline
  3
AutoCAD 2000
 90
        0
280
     0
281
     1
  0
CLASS
  1
HATCH
  2
AcDbHatch
  3
AutoCAD 2000
 90
        0
280
     0
281
     1
  0
CLASS
  1
XRECORD
  2
AcDbXrecord
  3
AutoCAD 2000
 90
        0
280
     0
281
     0
  0
CLASS
  1
LONG_TRANSACTION
  2
AcDbLongTransaction
  3
ObjectDBX Classes
 90
   -65536
280
     1
281
     0
  0
CLASS
  1
LWPOLYLINE
  2
AcDbPolyline
  3
AutoCAD 2000
 90
        0
280
     0
281
     1
  0
CLASS
  1
HATCH
  2
AcDbHatch
  3
AutoCAD 2000
 90
        0
280
     0
281
     1
  0
CLASS
  1
XRECORD
  2
AcDbXrecord
  3
AutoCAD 2000
 90
        0
280
     0
281
     0
  0
CLASS
  1
LONG_TRANSACTION
  2
AcDbLongTransaction
  3
ObjectDBX Classes
 90
   -65536
280
     1
281
     0
  0
CLASS
  1
LWPOLYLINE
  2
AcDbPolyline
  3
AutoCAD 2000
 90
        0
280
     0
281
     1
  0
CLASS
  1
HATCH
  2
AcDbHatch
  3
AutoCAD 2000
 90
        0
280
     0
281
     1
  0
CLASS
  1
XRECORD
  2
AcDbXrecord
  3
AutoCAD 2000
 90
        0
280
     0
281
     0
  0
CLASS
  1
LONG_TRANSACTION
  2
AcDbLongTransaction
  3
ObjectDBX Classes
 90
   -65536
280
     1
281
     0
  0
CLASS
  1
LWPOLYLINE
  2
AcDbPolyline
  3
AutoCAD 2000
 90
        0
280
     0
281
     1
  0
CLASS
  1
HATCH
  2
AcDbHatch
  3
AutoCAD 2000
 90
        0
280
     0
281
     1
  0
CLASS
  1
XRECORD
  2
AcDbXrecord
  3
AutoCAD 2000
 90
        0
280
     0
281
     0
  0
CLASS
  1
LONG_TRANSACTION
  2
AcDbLongTransaction
  3
ObjectDBX Classes
 90
   -65536
280
     1
281
     0
  0
CLASS
  1
LWPOLYLINE
  2
AcDbPolyline
  3
AutoCAD 2000
 90
        0
280
     0
281
     1
  0
CLASS
  1
HATCH
  2
AcDbHatch
  3
AutoCAD 2000
 90
        0
280
     0
281
     1
  0
CLASS
  1
XRECORD
  2
AcDbXrecord
  3
AutoCAD 2000
 90
        0
280
     0
281
     0
  0
CLASS
  1
LONG_TRANSACTION
  2
AcDbLongTransaction
  3
ObjectDBX Classes
 90
   -65536
280
     1
281
     0
  0
CLASS
  1
LWPOLYLINE
  2
AcDbPolyline
  3
AutoCAD 2000
 90
        0
280
     0
281
     1
  0
CLASS
  1
HATCH
  2
AcDbHatch
  3
AutoCAD 2000
 90
        0
280
     0
281
     1
  0
CLASS
  1
XRECORD
  2
AcDbXrecord
  3
AutoCAD 2000
 90
        0
280
     0
281
     0
  0
CLASS
  1
LONG_TRANSACTION
  2
AcDbLongTransaction
  3
ObjectDBX Classes
 90
   -65536
280
     1
281
     0
  0
CLASS
  1
LWPOLYLINE
  2
AcDbPolyline
  3
AutoCAD 2000
 90
        0
280
     0
281
     1
  0
CLASS
  1
HATCH
  2
AcDbHatch
  3
AutoCAD 2000
 90
        0
280
     0
281
     1
  0
CLASS
  1
XRECORD
  2
AcDbXrecord
  3
AutoCAD 2000
 90
        0
280
     0
281
     0
  0
CLASS
  1
LONG_TRANSACTION
  2
AcDbLongTransaction
  3
ObjectDBX Classes
 90
   -65536
280
     1
281
     0
  0
CLASS
  1
LWPOLYLINE
  2
AcDbPolyline
  3
AutoCAD 2000
 90
        0
280
     0
281
     1
  0
CLASS
  1
HATCH
  2
AcDbHatch
  3
AutoCAD 2000
 90
        0
280
     0
281
     1
  0
CLASS
  1
XRECORD
  2
AcDbXrecord
  3
AutoCAD 2000
 90
        0
280
     0
281
     0
  0
CLASS
  1
LONG_TRANSACTION
  2
AcDbLongTransaction
  3
ObjectDBX Classes
 90
   -65536
280
     1
281
     0
  0
CLASS
  1
LWPOLYLINE
  2
AcDbPolyline
  3
AutoCAD 2000
 90
        0
280
     0
281
     1
  0
CLASS
  1
HATCH
  2
AcDbHatch
  3
AutoCAD 2000
 90
        0
280
     0
281
     1
  0
CLASS
  1
XRECORD
  2
AcDbXrecord
  3
AutoCAD 2000
 90
        0
280
     0
281
     0
  0
CLASS
  1
TABLESTYLE
  2
AcDbTableStyle
  3
ObjectDBX Classes
 90
     2047
280
     1
281
     0
  0
CLASS
  1
DICTIONARYVAR
  2
AcDbDictionaryVar
  3
AutoCAD 2000
 90
        0
280
     0
281
     0
  0
CLASS
  1
SORTENTSTABLE
  2
AcDbSortentsTable
  3
AutoCAD 2000
 90
        0
280
     0
281
     0
  0
ENDSEC
  0
SECTION
  2
TABLES
  0
TABLE
  2
VPORT
  5
8
330
0
100
AcDbSymbolTable
 70
     4
  0
VPORT
  5
BE53
330
8
100
AcDbSymbolTableRecord
100
AcDbViewportTableRecord
  2
*Active
 70
     0
 10
0.0
 20
0.0
 11
1.0
 21
1.0
 12
2.73898797666841
 22
4.558266677157091
 13
0.0
 23
0.0
 14
1.0
 24
1.0
 15
0.0
 25
0.0
 16
0.0
 26
0.0
 36
1.0
 17
0.0
 27
0.0
 37
0.0
 40
9.439337828239371
 41
1.703065134099617
 42
50.0
 43
0.0
 44
0.0
 50
0.0
 51
0.0
 71
     0
 72
   100
 73
     1
 74
     1
 75
     0
 76
     0
 77
     0
 78
     0
281
     0
 65
     1
110
0.0
120
0.0
130
0.0
111
1.0
121
0.0
131
0.0
112
0.0
122
1.0
132
0.0
 79
     0
146
0.0
  0
ENDTAB
  0
TABLE
  2
LTYPE
  5
5
330
0
100
AcDbSymbolTable
 70
     1
  0
LTYPE
  5
14
330
5
100
AcDbSymbolTableRecord
100
AcDbLinetypeTableRecord
  2
BYBLOCK
 70
     0
  3

 72
    65
 73
     0
 40
0.0
  0
LTYPE
  5
15
330
5
100
AcDbSymbolTableRecord
100
AcDbLinetypeTableRecord
  2
BYLAYER
 70
     0
  3

 72
    65
 73
     0
 40
0.0
  0
LTYPE
  5
16
330
5
100
AcDbSymbolTableRecord
100
AcDbLinetypeTableRecord
  2
CONTINUOUS
 70
     0
  3
Solid line
 72
    65
 73
     0
 40
0.0
  0
ENDTAB
  0
TABLE
  2
LAYER
  5
2
102
{ACAD_XDICTIONARY
360
95BA
102
}
330
0
100
AcDbSymbolTable
 70
    14
  0
LAYER
  5
F
330
2
100
AcDbSymbolTableRecord
100
AcDbLayerTableRecord
  2
0
 70
     0
 62
     7
  6
CONTINUOUS
370
    -3
390
15D2
  0
LAYER
  5
B65E
330
2
100
AcDbSymbolTableRecord
100
AcDbLayerTableRecord
  2
DETAL
 70
     0
 62
     5
  6
CONTINUOUS
370
    -3
390
15D2
  0
LAYER
  5
B65F
330
2
100
AcDbSymbolTableRecord
100
AcDbLayerTableRecord
  2
HORIZ_PIECE
 70
     0
 62
     1
  6
CONTINUOUS
370
    -3
390
15D2
  0
LAYER
  5
B660
330
2
100
AcDbSymbolTableRecord
100
AcDbLayerTableRecord
  2
REAR_HORIZ_PIECE
 70
     0
 62
     5
  6
CONTINUOUS
370
    -3
390
15D2
  0
LAYER
  5
B661
330
2
100
AcDbSymbolTableRecord
100
AcDbLayerTableRecord
  2
REAR_STICK
 70
     0
 62
     5
  6
CONTINUOUS
370
    -3
390
15D2
  0
LAYER
  5
BD91
330
2
100
AcDbSymbolTableRecord
100
AcDbLayerTableRecord
  2
NOTE
 70
     0
 62
     7
  6
CONTINUOUS
370
    -3
390
15D2
  0
ENDTAB
  0
TABLE
  2
STYLE
  5
3
330
0
100
AcDbSymbolTable
 70
     4
  0
STYLE
  5
10
330
3
100
AcDbSymbolTableRecord
100
AcDbTextStyleTableRecord
  2
STANDARD
 70
     0
 40
0.0
 41
1.0
 50
0.0
 71
     0
 42
0.2
  3
txt
  4

  0
STYLE
  5
BD92
330
3
100
AcDbSymbolTableRecord
100
AcDbTextStyleTableRecord
  2
HELVETICA
 70
     0
 40
0.0
 41
1.0
 50
0.0
 71
     0
 42
0.09
  3
G:\ACADWIN\FONTS\SIMPLEX.SHX
  4

  0
ENDTAB
  0
TABLE
  2
VIEW
  5
6
330
0
100
AcDbSymbolTable
 70
     0
  0
ENDTAB
  0
TABLE
  2
UCS
  5
7
330
0
100
AcDbSymbolTable
 70
     0
  0
ENDTAB
  0
TABLE
  2
APPID
  5
9
330
0
100
AcDbSymbolTable
 70
     4
  0
APPID
  5
11
330
9
100
AcDbSymbolTableRecord
100
AcDbRegAppTableRecord
  2
ACAD
 70
     0
  0
APPID
  5
152C
330
9
100
AcDbSymbolTableRecord
100
AcDbRegAppTableRecord
  2
AME_SOL
 70
     0
  0
APPID
  5
A4A4
330
9
100
AcDbSymbolTableRecord
100
AcDbRegAppTableRecord
  2
ACAD_PSEXT
 70
     0
  0
APPID
  5
BC44
330
9
100
AcDbSymbolTableRecord
100
AcDbRegAppTableRecord
  2
DCO15
 70
     0
  0
ENDTAB
  0
TABLE
  2
DIMSTYLE
  5
A
330
0
100
AcDbSymbolTable
 70
     1
100
AcDbDimStyleTable
  0
DIMSTYLE
105
1D
330
A
100
AcDbSymbolTableRecord
100
AcDbDimStyleTableRecord
  2
STANDARD
 70
     0
  3

  4

271
     5
272
     5
276
     2
277
     5
340
10
  0
ENDTAB
  0
TABLE
  2
BLOCK_RECORD
  5
1
330
0
100
AcDbSymbolTable
 70
   112
  0
BLOCK_RECORD
  5
1A
102
{ACAD_XDICTIONARY
360
1600
102
}
330
1
100
AcDbSymbolTableRecord
100
AcDbBlockTableRecord
  2
*MODEL_SPACE
340
15D5
  0
BLOCK_RECORD
  5
17
330
1
100
AcDbSymbolTableRecord
100
AcDbBlockTableRecord
  2
*PAPER_SPACE
340
15D6
  0
BLOCK_RECORD
  5
B48B
330
1
100
AcDbSymbolTableRecord
100
AcDbBlockTableRecord
  2
AI9-BLK2
340
0
  0
BLOCK_RECORD
  5
B48F
330
1
100
AcDbSymbolTableRecord
100
AcDbBlockTableRecord
  2
AI9-BLK3
340
0
  0
BLOCK_RECORD
  5
B498
330
1
100
AcDbSymbolTableRecord
100
AcDbBlockTableRecord
  2
AI9-BLK5
340
0
  0
BLOCK_RECORD
  5
B49C
330
1
100
AcDbSymbolTableRecord
100
AcDbBlockTableRecord
  2
AI9-BLK6
340
0
  0
BLOCK_RECORD
  5
B4A5
330
1
100
AcDbSymbolTableRecord
100
AcDbBlockTableRecord
  2
AI9-BLK8
340
0
  0
BLOCK_RECORD
  5
B4A9
330
1
100
AcDbSymbolTableRecord
100
AcDbBlockTableRecord
  2
AI9-BLK9
340
0
  0
BLOCK_RECORD
  5
B4B2
330
1
100
AcDbSymbolTableRecord
100
AcDbBlockTableRecord
  2
AI9-BLK11
340
0
  0
BLOCK_RECORD
  5
B4B6
330
1
100
AcDbSymbolTableRecord
100
AcDbBlockTableRecord
  2
AI9-BLK12
340
0
  0
BLOCK_RECORD
  5
B4BF
330
1
100
AcDbSymbolTableRecord
100
AcDbBlockTableRecord
  2
AI9-BLK14
340
0
  0
BLOCK_RECORD
  5
B4C3
330
1
100
AcDbSymbolTableRecord
100
AcDbBlockTableRecord
  2
AI9-BLK15
340
0
  0
BLOCK_RECORD
  5
B4CC
330
1
100
AcDbSymbolTableRecord
100
AcDbBlockTableRecord
  2
AI9-BLK17
340
0
  0
BLOCK_RECORD
  5
B4D0
330
1
100
AcDbSymbolTableRecord
100
AcDbBlockTableRecord
  2
AI9-BLK18
340
0
  0
BLOCK_RECORD
  5
B4D9
330
1
100
AcDbSymbolTableRecord
100
AcDbBlockTableRecord
  2
AI9-BLK20
340
0
  0
BLOCK_RECORD
  5
B4DD
330
1
100
AcDbSymbolTableRecord
100
AcDbBlockTableRecord
  2
AI9-BLK21
340
0
  0
BLOCK_RECORD
  5
B4E6
330
1
100
AcDbSymbolTableRecord
100
AcDbBlockTableRecord
  2
AI9-BLK23
340
0
  0
BLOCK_RECORD
  5
B4EA
330
1
100
AcDbSymbolTableRecord
100
AcDbBlockTableRecord
  2
AI9-BLK24
340
0
  0
BLOCK_RECORD
  5
B4F3
330
1
100
AcDbSymbolTableRecord
100
AcDbBlockTableRecord
  2
AI9-BLK26
340
0
  0
BLOCK_RECORD
  5
B4F7
330
1
100
AcDbSymbolTableRecord
100
AcDbBlockTableRecord
  2
AI9-BLK27
340
0
  0
BLOCK_RECORD
  5
B500
330
1
100
AcDbSymbolTableRecord
100
AcDbBlockTableRecord
  2
AI9-BLK29
340
0
  0
BLOCK_RECORD
  5
B504
330
1
100
AcDbSymbolTableRecord
100
AcDbBlockTableRecord
  2
AI9-BLK30
340
0
  0
BLOCK_RECORD
  5
B50D
330
1
100
AcDbSymbolTableRecord
100
AcDbBlockTableRecord
  2
AI9-BLK32
340
0
  0
BLOCK_RECORD
  5
B511
330
1
100
AcDbSymbolTableRecord
100
AcDbBlockTableRecord
  2
AI9-BLK33
340
0
  0
BLOCK_RECORD
  5
B51A
330
1
100
AcDbSymbolTableRecord
100
AcDbBlockTableRecord
  2
AI9-BLK35
340
0
  0
BLOCK_RECORD
  5
B51E
330
1
100
AcDbSymbolTableRecord
100
AcDbBlockTableRecord
  2
AI9-BLK36
340
0
  0
BLOCK_RECORD
  5
B527
330
1
100
AcDbSymbolTableRecord
100
AcDbBlockTableRecord
  2
AI9-BLK38
340
0
  0
BLOCK_RECORD
  5
B52B
330
1
100
AcDbSymbolTableRecord
100
AcDbBlockTableRecord
  2
AI9-BLK39
340
0
  0
BLOCK_RECORD
  5
B534
330
1
100
AcDbSymbolTableRecord
100
AcDbBlockTableRecord
  2
AI9-BLK41
340
0
  0
BLOCK_RECORD
  5
B538
330
1
100
AcDbSymbolTableRecord
100
AcDbBlockTableRecord
  2
AI9-BLK42
340
0
  0
BLOCK_RECORD
  5
B541
330
1
100
AcDbSymbolTableRecord
100
AcDbBlockTableRecord
  2
AI9-BLK44
340
0
  0
BLOCK_RECORD
  5
B545
330
1
100
AcDbSymbolTableRecord
100
AcDbBlockTableRecord
  2
AI9-BLK45
340
0
  0
BLOCK_RECORD
  5
B54E
330
1
100
AcDbSymbolTableRecord
100
AcDbBlockTableRecord
  2
AI9-BLK47
340
0
  0
BLOCK_RECORD
  5
B552
330
1
100
AcDbSymbolTableRecord
100
AcDbBlockTableRecord
  2
AI9-BLK48
340
0
  0
BLOCK_RECORD
  5
B55B
330
1
100
AcDbSymbolTableRecord
100
AcDbBlockTableRecord
  2
AI9-BLK50
340
0
  0
BLOCK_RECORD
  5
B55F
330
1
100
AcDbSymbolTableRecord
100
AcDbBlockTableRecord
  2
AI9-BLK51
340
0
  0
BLOCK_RECORD
  5
B568
330
1
100
AcDbSymbolTableRecord
100
AcDbBlockTableRecord
  2
AI9-BLK53
340
0
  0
BLOCK_RECORD
  5
B56C
330
1
100
AcDbSymbolTableRecord
100
AcDbBlockTableRecord
  2
AI9-BLK54
340
0
  0
BLOCK_RECORD
  5
B575
330
1
100
AcDbSymbolTableRecord
100
AcDbBlockTableRecord
  2
AI9-BLK56
340
0
  0
BLOCK_RECORD
  5
B579
330
1
100
AcDbSymbolTableRecord
100
AcDbBlockTableRecord
  2
AI9-BLK57
340
0
  0
BLOCK_RECORD
  5
B582
330
1
100
AcDbSymbolTableRecord
100
AcDbBlockTableRecord
  2
AI9-BLK59
340
0
  0
BLOCK_RECORD
  5
B586
330
1
100
AcDbSymbolTableRecord
100
AcDbBlockTableRecord
  2
AI9-BLK60
340
0
  0
BLOCK_RECORD
  5
B58E
330
1
100
AcDbSymbolTableRecord
100
AcDbBlockTableRecord
  2
AI9-BLK62
340
0
  0
BLOCK_RECORD
  5
B5A0
330
1
100
AcDbSymbolTableRecord
100
AcDbBlockTableRecord
  2
AI9-BLK66
340
0
  0
BLOCK_RECORD
  5
B5A4
330
1
100
AcDbSymbolTableRecord
100
AcDbBlockTableRecord
  2
AI9-BLK67
340
0
  0
BLOCK_RECORD
  5
B5AD
330
1
100
AcDbSymbolTableRecord
100
AcDbBlockTableRecord
  2
AI9-BLK69
340
0
  0
BLOCK_RECORD
  5
B5B1
330
1
100
AcDbSymbolTableRecord
100
AcDbBlockTableRecord
  2
AI9-BLK70
340
0
  0
BLOCK_RECORD
  5
B5BA
330
1
100
AcDbSymbolTableRecord
100
AcDbBlockTableRecord
  2
AI9-BLK72
340
0
  0
BLOCK_RECORD
  5
B5BE
330
1
100
AcDbSymbolTableRecord
100
AcDbBlockTableRecord
  2
AI9-BLK73
340
0
  0
BLOCK_RECORD
  5
B5C7
330
1
100
AcDbSymbolTableRecord
100
AcDbBlockTableRecord
  2
AI9-BLK75
340
0
  0
BLOCK_RECORD
  5
B5CB
330
1
100
AcDbSymbolTableRecord
100
AcDbBlockTableRecord
  2
AI9-BLK76
340
0
  0
BLOCK_RECORD
  5
B5D4
330
1
100
AcDbSymbolTableRecord
100
AcDbBlockTableRecord
  2
AI9-BLK78
340
0
  0
BLOCK_RECORD
  5
B5D8
330
1
100
AcDbSymbolTableRecord
100
AcDbBlockTableRecord
  2
AI9-BLK79
340
0
  0
BLOCK_RECORD
  5
B5E1
330
1
100
AcDbSymbolTableRecord
100
AcDbBlockTableRecord
  2
AI9-BLK81
340
0
  0
BLOCK_RECORD
  5
B5E5
330
1
100
AcDbSymbolTableRecord
100
AcDbBlockTableRecord
  2
AI9-BLK82
340
0
  0
BLOCK_RECORD
  5
B5EE
330
1
100
AcDbSymbolTableRecord
100
AcDbBlockTableRecord
  2
AI9-BLK84
340
0
  0
BLOCK_RECORD
  5
B5F2
330
1
100
AcDbSymbolTableRecord
100
AcDbBlockTableRecord
  2
AI9-BLK85
340
0
  0
BLOCK_RECORD
  5
B5FB
330
1
100
AcDbSymbolTableRecord
100
AcDbBlockTableRecord
  2
AI9-BLK87
340
0
  0
BLOCK_RECORD
  5
B5FF
330
1
100
AcDbSymbolTableRecord
100
AcDbBlockTableRecord
  2
AI9-BLK88
340
0
  0
BLOCK_RECORD
  5
B608
330
1
100
AcDbSymbolTableRecord
100
AcDbBlockTableRecord
  2
AI9-BLK90
340
0
  0
BLOCK_RECORD
  5
B60C
330
1
100
AcDbSymbolTableRecord
100
AcDbBlockTableRecord
  2
AI9-BLK91
340
0
  0
BLOCK_RECORD
  5
B615
330
1
100
AcDbSymbolTableRecord
100
AcDbBlockTableRecord
  2
AI9-BLK93
340
0
  0
BLOCK_RECORD
  5
B619
330
1
100
AcDbSymbolTableRecord
100
AcDbBlockTableRecord
  2
AI9-BLK94
340
0
  0
BLOCK_RECORD
  5
B622
330
1
100
AcDbSymbolTableRecord
100
AcDbBlockTableRecord
  2
AI9-BLK96
340
0
  0
BLOCK_RECORD
  5
B626
330
1
100
AcDbSymbolTableRecord
100
AcDbBlockTableRecord
  2
AI9-BLK97
340
0
  0
BLOCK_RECORD
  5
B62F
330
1
100
AcDbSymbolTableRecord
100
AcDbBlockTableRecord
  2
AI9-BLK99
340
0
  0
BLOCK_RECORD
  5
B633
330
1
100
AcDbSymbolTableRecord
100
AcDbBlockTableRecord
  2
AI9-BLK100
340
0
  0
BLOCK_RECORD
  5
B63C
330
1
100
AcDbSymbolTableRecord
100
AcDbBlockTableRecord
  2
AI9-BLK102
340
0
  0
BLOCK_RECORD
  5
B640
330
1
100
AcDbSymbolTableRecord
100
AcDbBlockTableRecord
  2
AI9-BLK103
340
0
  0
BLOCK_RECORD
  5
B649
330
1
100
AcDbSymbolTableRecord
100
AcDbBlockTableRecord
  2
AI9-BLK105
340
0
  0
BLOCK_RECORD
  5
B64D
330
1
100
AcDbSymbolTableRecord
100
AcDbBlockTableRecord
  2
AI9-BLK106
340
0
  0
BLOCK_RECORD
  5
B656
330
1
100
AcDbSymbolTableRecord
100
AcDbBlockTableRecord
  2
AI9-BLK108
340
0
  0
BLOCK_RECORD
  5
B65A
330
1
100
AcDbSymbolTableRecord
100
AcDbBlockTableRecord
  2
AI9-BLK109
340
0
  0
BLOCK_RECORD
  5
BD87
102
{ACAD_XDICTIONARY
360
BD88
102
}
330
1
100
AcDbSymbolTableRecord
100
AcDbBlockTableRecord
  2
sstmodel
340
0
  0
ENDTAB
  0
ENDSEC
  0
SECTION
  2
BLOCKS
  0
BLOCK
  5
1B
330
1A
100
AcDbEntity
  8
0
100
AcDbBlockBegin
  2
*MODEL_SPACE
 70
     0
 10
0.0
 20
0.0
 30
0.0
  3
*MODEL_SPACE
  1

  4

  0
ENDBLK
  5
1C
330
1A
100
AcDbEntity
  8
0
100
AcDbBlockEnd
  0
BLOCK
  5
18
330
17
100
AcDbEntity
 67
     1
  8
0
100
AcDbBlockBegin
  2
*PAPER_SPACE
 70
     0
 10
0.0
 20
0.0
 30
0.0
  3
*PAPER_SPACE
  1

  4

  0
ENDBLK
  5
19
330
17
100
AcDbEntity
 67
     1
  8
0
100
AcDbBlockEnd
  0
BLOCK
  5
B48C
330
B48B
100
AcDbEntity
  8
DETAL
 62
     7
100
AcDbBlockBegin
  2
AI9-BLK2
 70
     0
 10
0.0
 20
0.0
 30
0.0
  3
AI9-BLK2
  1

  4

  0
SPLINE
  5
B48D
330
B48B
100
AcDbEntity
  8
DETAL
 62
     7
100
AcDbSpline
210
0.0
220
0.0
230
1.0
 70
     8
 71
     3
 72
    11
 73
     7
 74
     0
 42
0.0000000001
 43
0.0000000001
 40
0.0
 40
0.0
 40
0.0
 40
0.0
 40
1.0
 40
1.0
 40
1.0
 40
2.0
 40
2.0
 40
2.0
 40
2.0
 10
0.1712212456597222
 20
-0.4688774956597222
 30
0.0
 10
0.0912950303819444
 20
-0.4010091145833333
 30
0.0
 10
-0.0117133246527778
 20
-0.2821533203125
 30
0.0
 10
-0.0675238715277778
 20
-0.1767333984375
 30
0.0
 10
-0.1863796657986111
 20
0.0465087890625
 30
0.0
 10
-0.2001600477430555
 20
0.2890435112847222
 30
0.0
 10
-0.1236789279513889
 20
0.4688774956597222
 30
0.0
  0
ENDBLK
  5
B48E
330
B48B
100
AcDbEntity
  8
DETAL
100
AcDbBlockEnd
  0
BLOCK
  5
B490
330
B48F
100
AcDbEntity
  8
DETAL
 62
     7
100
AcDbBlockBegin
  2
AI9-BLK3
 70
     0
 10
0.0
 20
0.0
 30
0.0
  3
AI9-BLK3
  1

  4

  0
ELLIPSE
  5
B491
330
B48F
100
AcDbEntity
  8
DETAL
 62
     7
100
AcDbEllipse
 10
-0.0003445095486111
 20
0.0
 30
0.0
 11
0.3231499565972222
 21
-0.6101264105902777
 31
0.0
210
0.0
220
0.0
230
1.0
 40
0.7486796564290403
 41
0.0
 42
6.283185307179586
  0
ENDBLK
  5
B492
330
B48F
100
AcDbEntity
  8
DETAL
100
AcDbBlockEnd
  0
BLOCK
  5
B499
330
B498
100
AcDbEntity
  8
DETAL
 62
     7
100
AcDbBlockBegin
  2
AI9-BLK5
 70
     0
 10
0.0
 20
0.0
 30
0.0
  3
AI9-BLK5
  1

  4

  0
SPLINE
  5
B49A
330
B498
100
AcDbEntity
  8
DETAL
 62
     7
100
AcDbSpline
210
0.0
220
0.0
230
1.0
 70
     8
 71
     3
 72
    11
 73
     7
 74
     0
 42
0.0000000001
 43
0.0000000001
 40
0.0
 40
0.0
 40
0.0
 40
0.0
 40
1.0
 40
1.0
 40
1.0
 40
2.0
 40
2.0
 40
2.0
 40
2.0
 10
0.1712212456597222
 20
-0.4688774956597222
 30
0.0
 10
0.0912950303819444
 20
-0.4003200954861111
 30
0.0
 10
-0.0117133246527778
 20
-0.2821533203125
 30
0.0
 10
-0.0675238715277778
 20
-0.1763888888888889
 30
0.0
 10
-0.1863796657986111
 20
0.0468532986111111
 30
0.0
 10
-0.2001600477430555
 20
0.2893880208333333
 30
0.0
 10
-0.1236789279513889
 20
0.4688774956597222
 30
0.0
  0
ENDBLK
  5
B49B
330
B498
100
AcDbEntity
  8
DETAL
100
AcDbBlockEnd
  0
BLOCK
  5
B49D
330
B49C
100
AcDbEntity
  8
DETAL
 62
     7
100
AcDbBlockBegin
  2
AI9-BLK6
 70
     0
 10
0.0
 20
0.0
 30
0.0
  3
AI9-BLK6
  1

  4

  0
ELLIPSE
  5
B49E
330
B49C
100
AcDbEntity
  8
DETAL
 62
     7
100
AcDbEllipse
 10
-0.0003445095486111
 20
-0.0003445095486111
 30
0.0
 11
0.3231499565972222
 21
-0.6101264105902777
 31
0.0
210
0.0
220
0.0
230
1.0
 40
0.7486796564290403
 41
0.0
 42
6.283185307179586
  0
ENDBLK
  5
B49F
330
B49C
100
AcDbEntity
  8
DETAL
100
AcDbBlockEnd
  0
BLOCK
  5
B4A6
330
B4A5
100
AcDbEntity
  8
DETAL
 62
     7
100
AcDbBlockBegin
  2
AI9-BLK8
 70
     0
 10
0.0
 20
0.0
 30
0.0
  3
AI9-BLK8
  1

  4

  0
SPLINE
  5
B4A7
330
B4A5
100
AcDbEntity
  8
DETAL
 62
     7
100
AcDbSpline
210
0.0
220
0.0
230
1.0
 70
     8
 71
     3
 72
    11
 73
     7
 74
     0
 42
0.0000000001
 43
0.0000000001
 40
0.0
 40
0.0
 40
0.0
 40
0.0
 40
1.0
 40
1.0
 40
1.0
 40
2.0
 40
2.0
 40
2.0
 40
2.0
 10
0.171307373046875
 20
-0.4695665147569444
 30
0.0
 10
0.090692138671875
 20
-0.4003200954861111
 30
0.0
 10
-0.0123162163628472
 20
-0.2811197916666666
 30
0.0
 10
-0.0677822536892361
 20
-0.1767333984375
 30
0.0
 10
-0.1866380479600694
 20
0.0471978081597222
 30
0.0
 10
-0.2000739203559028
 20
0.2897325303819444
 30
0.0
 10
-0.1235928005642361
 20
0.4695665147569444
 30
0.0
  0
ENDBLK
  5
B4A8
330
B4A5
100
AcDbEntity
  8
DETAL
100
AcDbBlockEnd
  0
BLOCK
  5
B4AA
330
B4A9
100
AcDbEntity
  8
DETAL
 62
     7
100
AcDbBlockBegin
  2
AI9-BLK9
 70
     0
 10
0.0
 20
0.0
 30
0.0
  3
AI9-BLK9
  1

  4

  0
ELLIPSE
  5
B4AB
330
B4A9
100
AcDbEntity
  8
DETAL
 62
     7
100
AcDbEllipse
 10
-0.0001722547743056
 20
-0.0003445095486111
 30
0.0
 11
0.3231499565972222
 21
-0.6104709201388889
 31
0.0
210
0.0
220
0.0
230
1.0
 40
0.7481114303893718
 41
0.0
 42
6.283185307179586
  0
ENDBLK
  5
B4AC
330
B4A9
100
AcDbEntity
  8
DETAL
100
AcDbBlockEnd
  0
BLOCK
  5
B4B3
330
B4B2
100
AcDbEntity
  8
DETAL
 62
     7
100
AcDbBlockBegin
  2
AI9-BLK11
 70
     0
 10
0.0
 20
0.0
 30
0.0
  3
AI9-BLK11
  1

  4

  0
SPLINE
  5
B4B4
330
B4B2
100
AcDbEntity
  8
DETAL
 62
     7
100
AcDbSpline
210
0.0
220
0.0
230
1.0
 70
     8
 71
     3
 72
    11
 73
     7
 74
     0
 42
0.0000000001
 43
0.0000000001
 40
0.0
 40
0.0
 40
0.0
 40
0.0
 40
1.0
 40
1.0
 40
1.0
 40
2.0
 40
2.0
 40
2.0
 40
2.0
 10
0.1712212456597222
 20
-0.4693942599826388
 30
0.0
 10
0.0902615017361111
 20
-0.4004923502604166
 30
0.0
 10
-0.0127468532986111
 20
-0.2812920464409722
 30
0.0
 10
-0.068212890625
 20
-0.1769056532118055
 30
0.0
 10
-0.1863796657986111
 20
0.0463365342881944
 30
0.0
 10
-0.2001600477430555
 20
0.2895602756076389
 30
0.0
 10
-0.1236789279513889
 20
0.4693942599826388
 30
0.0
  0
ENDBLK
  5
B4B5
330
B4B2
100
AcDbEntity
  8
DETAL
100
AcDbBlockEnd
  0
BLOCK
  5
B4B7
330
B4B6
100
AcDbEntity
  8
DETAL
 62
     7
100
AcDbBlockBegin
  2
AI9-BLK12
 70
     0
 10
0.0
 20
0.0
 30
0.0
  3
AI9-BLK12
  1

  4

  0
ELLIPSE
  5
B4B8
330
B4B6
100
AcDbEntity
  8
DETAL
 62
     7
100
AcDbEllipse
 10
-0.0001722547743056
 20
0.0000861273871528
 30
0.0
 11
0.3229777018229167
 21
-0.6108154296874997
 31
0.0
210
0.0
220
0.0
230
1.0
 40
0.7478880921603268
 41
0.0
 42
6.283185307179586
  0
ENDBLK
  5
B4B9
330
B4B6
100
AcDbEntity
  8
DETAL
100
AcDbBlockEnd
  0
BLOCK
  5
B4C0
330
B4BF
100
AcDbEntity
  8
DETAL
 62
     7
100
AcDbBlockBegin
  2
AI9-BLK14
 70
     0
 10
0.0
 20
0.0
 30
0.0
  3
AI9-BLK14
  1

  4

  0
SPLINE
  5
B4C1
330
B4BF
100
AcDbEntity
  8
DETAL
 62
     7
100
AcDbSpline
210
0.0
220
0.0
230
1.0
 70
     8
 71
     3
 72
    11
 73
     7
 74
     0
 42
0.0000000001
 43
0.0000000001
 40
0.0
 40
0.0
 40
0.0
 40
0.0
 40
1.0
 40
1.0
 40
1.0
 40
2.0
 40
2.0
 40
2.0
 40
2.0
 10
0.1712212456597222
 20
-0.4692220052083333
 30
0.0
 10
0.0906060112847222
 20
-0.4006646050347222
 30
0.0
 10
-0.01240234375
 20
-0.2824978298611111
 30
0.0
 10
-0.0678683810763889
 20
-0.1770779079861111
 30
0.0
 10
-0.1863796657986111
 20
0.0461642795138889
 30
0.0
 10
-0.2001600477430555
 20
0.2897325303819444
 30
0.0
 10
-0.1240234375
 20
0.4692220052083333
 30
0.0
  0
ENDBLK
  5
B4C2
330
B4BF
100
AcDbEntity
  8
DETAL
100
AcDbBlockEnd
  0
BLOCK
  5
B4C4
330
B4C3
100
AcDbEntity
  8
DETAL
 62
     7
100
AcDbBlockBegin
  2
AI9-BLK15
 70
     0
 10
0.0
 20
0.0
 30
0.0
  3
AI9-BLK15
  1

  4

  0
ELLIPSE
  5
B4C5
330
B4C3
100
AcDbEntity
  8
DETAL
 62
     7
100
AcDbEllipse
 10
-0.0001722547743056
 20
0.0004306369357639
 30
0.0
 11
0.3229777018229166
 21
-0.611159939236111
 31
0.0
210
0.0
220
0.0
230
1.0
 40
0.747558564675616
 41
0.0
 42
6.283185307179586
  0
ENDBLK
  5
B4C6
330
B4C3
100
AcDbEntity
  8
DETAL
100
AcDbBlockEnd
  0
BLOCK
  5
B4CD
330
B4CC
100
AcDbEntity
  8
DETAL
 62
     7
100
AcDbBlockBegin
  2
AI9-BLK17
 70
     0
 10
0.0
 20
0.0
 30
0.0
  3
AI9-BLK17
  1

  4

  0
SPLINE
  5
B4CE
330
B4CC
100
AcDbEntity
  8
DETAL
 62
     7
100
AcDbSpline
210
0.0
220
0.0
230
1.0
 70
     8
 71
     3
 72
    11
 73
     7
 74
     0
 42
0.0000000001
 43
0.0000000001
 40
0.0
 40
0.0
 40
0.0
 40
0.0
 40
1.0
 40
1.0
 40
1.0
 40
2.0
 40
2.0
 40
2.0
 40
2.0
 10
0.1712212456597222
 20
-0.4690497504340278
 30
0.0
 10
0.0902615017361111
 20
-0.4008368598090277
 30
0.0
 10
-0.0117133246527778
 20
-0.2823255750868055
 30
0.0
 10
-0.068212890625
 20
-0.1765611436631944
 30
0.0
 10
-0.1863796657986111
 20
0.0463365342881944
 30
0.0
 10
-0.2001600477430555
 20
0.2892157660590278
 30
0.0
 10
-0.1236789279513889
 20
0.4690497504340278
 30
0.0
  0
ENDBLK
  5
B4CF
330
B4CC
100
AcDbEntity
  8
DETAL
100
AcDbBlockEnd
  0
BLOCK
  5
B4D1
330
B4D0
100
AcDbEntity
  8
DETAL
 62
     7
100
AcDbBlockBegin
  2
AI9-BLK18
 70
     0
 10
0.0
 20
0.0
 30
0.0
  3
AI9-BLK18
  1

  4

  0
ELLIPSE
  5
B4D2
330
B4D0
100
AcDbEntity
  8
DETAL
 62
     7
100
AcDbEllipse
 10
-0.0002583821614583
 20
0.0000861273871528
 30
0.0
 11
0.3231499565972222
 21
-0.6108154296875
 31
0.0
210
0.0
220
0.0
230
1.0
 40
0.7482582577570212
 41
0.0
 42
6.283185307179586
  0
ENDBLK
  5
B4D3
330
B4D0
100
AcDbEntity
  8
DETAL
100
AcDbBlockEnd
  0
BLOCK
  5
B4DA
330
B4D9
100
AcDbEntity
  8
DETAL
 62
     7
100
AcDbBlockBegin
  2
AI9-BLK20
 70
     0
 10
0.0
 20
0.0
 30
0.0
  3
AI9-BLK20
  1

  4

  0
SPLINE
  5
B4DB
330
B4D9
100
AcDbEntity
  8
DETAL
 62
     7
100
AcDbSpline
210
0.0
220
0.0
230
1.0
 70
     8
 71
     3
 72
    11
 73
     7
 74
     0
 42
0.0000000001
 43
0.0000000001
 40
0.0
 40
0.0
 40
0.0
 40
0.0
 40
1.0
 40
1.0
 40
1.0
 40
2.0
 40
2.0
 40
2.0
 40
2.0
 10
0.1713935004340278
 20
-0.4687052408854166
 30
0.0
 10
0.0904337565104167
 20
-0.4004923502604166
 30
0.0
 10
-0.0129191080729167
 20
-0.2819810655381944
 30
0.0
 10
-0.0680406358506944
 20
-0.1772501627604167
 30
0.0
 10
-0.1865519205729166
 20
0.0456475151909722
 30
0.0
 10
-0.19998779296875
 20
0.2895602756076389
 30
0.0
 10
-0.1248847113715278
 20
0.4687052408854166
 30
0.0
  0
ENDBLK
  5
B4DC
330
B4D9
100
AcDbEntity
  8
DETAL
100
AcDbBlockEnd
  0
BLOCK
  5
B4DE
330
B4DD
100
AcDbEntity
  8
DETAL
 62
     7
100
AcDbBlockBegin
  2
AI9-BLK21
 70
     0
 10
0.0
 20
0.0
 30
0.0
  3
AI9-BLK21
  1

  4

  0
ELLIPSE
  5
B4DF
330
B4DD
100
AcDbEntity
  8
DETAL
 62
     7
100
AcDbEllipse
 10
0.0001722547743056
 20
0.0002583821614583
 30
0.0
 11
0.3221164279513888
 21
-0.611159939236111
 31
0.0
210
0.0
220
0.0
230
1.0
 40
0.7477745629627958
 41
0.0
 42
6.283185307179586
  0
ENDBLK
  5
B4E0
330
B4DD
100
AcDbEntity
  8
DETAL
100
AcDbBlockEnd
  0
BLOCK
  5
B4E7
330
B4E6
100
AcDbEntity
  8
DETAL
 62
     7
100
AcDbBlockBegin
  2
AI9-BLK23
 70
     0
 10
0.0
 20
0.0
 30
0.0
  3
AI9-BLK23
  1

  4

  0
SPLINE
  5
B4E8
330
B4E6
100
AcDbEntity
  8
DETAL
 62
     7
100
AcDbSpline
210
0.0
220
0.0
230
1.0
 70
     8
 71
     3
 72
    11
 73
     7
 74
     0
 42
0.0000000001
 43
0.0000000001
 40
0.0
 40
0.0
 40
0.0
 40
0.0
 40
1.0
 40
1.0
 40
1.0
 40
2.0
 40
2.0
 40
2.0
 40
2.0
 10
0.1864657931857639
 20
-0.4687052408854166
 30
0.0
 10
0.1058505588107639
 20
-0.4004923502604166
 30
0.0
 10
-0.0267856174045139
 20
-0.2819810655381944
 30
0.0
 10
-0.0832851833767361
 20
-0.1765611436631944
 30
0.0
 10
-0.2017964680989583
 20
0.0463365342881944
 30
0.0
 10
-0.2152323404947917
 20
0.2892157660590278
 30
0.0
 10
-0.138751220703125
 20
0.4687052408854166
 30
0.0
  0
ENDBLK
  5
B4E9
330
B4E6
100
AcDbEntity
  8
DETAL
100
AcDbBlockEnd
  0
BLOCK
  5
B4EB
330
B4EA
100
AcDbEntity
  8
DETAL
 62
     7
100
AcDbBlockBegin
  2
AI9-BLK24
 70
     0
 10
0.0
 20
0.0
 30
0.0
  3
AI9-BLK24
  1

  4

  0
ELLIPSE
  5
B4EC
330
B4EA
100
AcDbEntity
  8
DETAL
 62
     7
100
AcDbEllipse
 10
-0.0000861273871528
 20
0.0000861273871528
 30
0.0
 11
0.3226331922743057
 21
-0.6108154296875
 31
0.0
210
0.0
220
0.0
230
1.0
 40
0.7483008905574461
 41
0.0
 42
6.283185307179586
  0
ENDBLK
  5
B4ED
330
B4EA
100
AcDbEntity
  8
DETAL
100
AcDbBlockEnd
  0
BLOCK
  5
B4F4
330
B4F3
100
AcDbEntity
  8
DETAL
 62
     7
100
AcDbBlockBegin
  2
AI9-BLK26
 70
     0
 10
0.0
 20
0.0
 30
0.0
  3
AI9-BLK26
  1

  4

  0
SPLINE
  5
B4F5
330
B4F3
100
AcDbEntity
  8
DETAL
 62
     7
100
AcDbSpline
210
0.0
220
0.0
230
1.0
 70
     8
 71
     3
 72
    11
 73
     7
 74
     0
 42
0.0000000001
 43
0.0000000001
 40
0.0
 40
0.0
 40
0.0
 40
0.0
 40
1.0
 40
1.0
 40
1.0
 40
2.0
 40
2.0
 40
2.0
 40
2.0
 10
0.171307373046875
 20
-0.4690497504340278
 30
0.0
 10
0.090692138671875
 20
-0.4008368598090277
 30
0.0
 10
-0.0119717068142361
 20
-0.2816365559895833
 30
0.0
 10
-0.0677822536892361
 20
-0.1765611436631944
 30
0.0
 10
-0.1866380479600694
 20
0.0466810438368056
 30
0.0
 10
-0.2000739203559028
 20
0.28990478515625
 30
0.0
 10
-0.1242818196614583
 20
0.4690497504340278
 30
0.0
  0
ENDBLK
  5
B4F6
330
B4F3
100
AcDbEntity
  8
DETAL
100
AcDbBlockEnd
  0
BLOCK
  5
B4F8
330
B4F7
100
AcDbEntity
  8
DETAL
 62
     7
100
AcDbBlockBegin
  2
AI9-BLK27
 70
     0
 10
0.0
 20
0.0
 30
0.0
  3
AI9-BLK27
  1

  4

  0
ELLIPSE
  5
B4F9
330
B4F7
100
AcDbEntity
  8
DETAL
 62
     7
100
AcDbEllipse
 10
-0.0002583821614583
 20
0.0
 30
0.0
 11
0.3228054470486111
 21
-0.6104709201388889
 31
0.0
210
0.0
220
0.0
230
1.0
 40
0.7485242380730653
 41
0.0
 42
6.283185307179586
  0
ENDBLK
  5
B4FA
330
B4F7
100
AcDbEntity
  8
DETAL
100
AcDbBlockEnd
  0
BLOCK
  5
B501
330
B500
100
AcDbEntity
  8
DETAL
 62
     7
100
AcDbBlockBegin
  2
AI9-BLK29
 70
     0
 10
0.0
 20
0.0
 30
0.0
  3
AI9-BLK29
  1

  4

  0
SPLINE
  5
B502
330
B500
100
AcDbEntity
  8
DETAL
 62
     7
100
AcDbSpline
210
0.0
220
0.0
230
1.0
 70
     8
 71
     3
 72
    11
 73
     7
 74
     0
 42
0.0000000001
 43
0.0000000001
 40
0.0
 40
0.0
 40
0.0
 40
0.0
 40
1.0
 40
1.0
 40
1.0
 40
2.0
 40
2.0
 40
2.0
 40
2.0
 10
0.171307373046875
 20
-0.4688774956597222
 30
0.0
 10
0.0910366482204861
 20
-0.4006646050347222
 30
0.0
 10
-0.011627197265625
 20
-0.2818088107638889
 30
0.0
 10
-0.067437744140625
 20
-0.1770779079861111
 30
0.0
 10
-0.1866380479600694
 20
0.0461642795138889
 30
0.0
 10
-0.2000739203559028
 20
0.2893880208333333
 30
0.0
 10
-0.1235928005642361
 20
0.4688774956597222
 30
0.0
  0
ENDBLK
  5
B503
330
B500
100
AcDbEntity
  8
DETAL
100
AcDbBlockEnd
  0
BLOCK
  5
B505
330
B504
100
AcDbEntity
  8
DETAL
 62
     7
100
AcDbBlockBegin
  2
AI9-BLK30
 70
     0
 10
0.0
 20
0.0
 30
0.0
  3
AI9-BLK30
  1

  4

  0
ELLIPSE
  5
B506
330
B504
100
AcDbEntity
  8
DETAL
 62
     7
100
AcDbEllipse
 10
-0.0003445095486111
 20
0.0
 30
0.0
 11
0.3229777018229167
 21
-0.6106431749131944
 31
0.0
210
0.0
220
0.0
230
1.0
 40
0.7486101921554208
 41
0.0
 42
6.283185307179586
  0
ENDBLK
  5
B507
330
B504
100
AcDbEntity
  8
DETAL
100
AcDbBlockEnd
  0
BLOCK
  5
B50E
330
B50D
100
AcDbEntity
  8
DETAL
 62
     7
100
AcDbBlockBegin
  2
AI9-BLK32
 70
     0
 10
0.0
 20
0.0
 30
0.0
  3
AI9-BLK32
  1

  4

  0
SPLINE
  5
B50F
330
B50D
100
AcDbEntity
  8
DETAL
 62
     7
100
AcDbSpline
210
0.0
220
0.0
230
1.0
 70
     8
 71
     3
 72
    11
 73
     7
 74
     0
 42
0.0000000001
 43
0.0000000001
 40
0.0
 40
0.0
 40
0.0
 40
0.0
 40
1.0
 40
1.0
 40
1.0
 40
2.0
 40
2.0
 40
2.0
 40
2.0
 10
0.1712212456597222
 20
-0.4690497504340278
 30
0.0
 10
0.0906060112847222
 20
-0.4008368598090277
 30
0.0
 10
-0.0117133246527778
 20
-0.2816365559895833
 30
0.0
 10
-0.068212890625
 20
-0.1765611436631944
 30
0.0
 10
-0.1863796657986111
 20
0.0466810438368056
 30
0.0
 10
-0.2001600477430555
 20
0.2892157660590278
 30
0.0
 10
-0.1236789279513889
 20
0.4690497504340278
 30
0.0
  0
ENDBLK
  5
B510
330
B50D
100
AcDbEntity
  8
DETAL
100
AcDbBlockEnd
  0
BLOCK
  5
B512
330
B511
100
AcDbEntity
  8
DETAL
 62
     7
100
AcDbBlockBegin
  2
AI9-BLK33
 70
     0
 10
0.0
 20
0.0
 30
0.0
  3
AI9-BLK33
  1

  4

  0
ELLIPSE
  5
B513
330
B511
100
AcDbEntity
  8
DETAL
 62
     7
100
AcDbEllipse
 10
-0.0001722547743056
 20
-0.0001722547743056
 30
0.0
 11
0.3231499565972222
 21
-0.6101264105902777
 31
0.0
210
0.0
220
0.0
230
1.0
 40
0.7486796564290403
 41
0.0
 42
6.283185307179586
  0
ENDBLK
  5
B514
330
B511
100
AcDbEntity
  8
DETAL
100
AcDbBlockEnd
  0
BLOCK
  5
B51B
330
B51A
100
AcDbEntity
  8
DETAL
 62
     7
100
AcDbBlockBegin
  2
AI9-BLK35
 70
     0
 10
0.0
 20
0.0
 30
0.0
  3
AI9-BLK35
  1

  4

  0
SPLINE
  5
B51C
330
B51A
100
AcDbEntity
  8
DETAL
 62
     7
100
AcDbSpline
210
0.0
220
0.0
230
1.0
 70
     8
 71
     3
 72
    11
 73
     7
 74
     0
 42
0.0000000001
 43
0.0000000001
 40
0.0
 40
0.0
 40
0.0
 40
0.0
 40
1.0
 40
1.0
 40
1.0
 40
2.0
 40
2.0
 40
2.0
 40
2.0
 10
0.1713935004340278
 20
-0.4692220052083333
 30
0.0
 10
0.0907782660590278
 20
-0.4010091145833333
 30
0.0
 10
-0.0122300889756944
 20
-0.2824978298611111
 30
0.0
 10
-0.0680406358506944
 20
-0.1767333984375
 30
0.0
 10
-0.1865519205729166
 20
0.0465087890625
 30
0.0
 10
-0.2003323025173611
 20
0.2893880208333333
 30
0.0
 10
-0.1238511827256944
 20
0.4692220052083333
 30
0.0
  0
ENDBLK
  5
B51D
330
B51A
100
AcDbEntity
  8
DETAL
100
AcDbBlockEnd
  0
BLOCK
  5
B51F
330
B51E
100
AcDbEntity
  8
DETAL
 62
     7
100
AcDbBlockBegin
  2
AI9-BLK36
 70
     0
 10
0.0
 20
0.0
 30
0.0
  3
AI9-BLK36
  1

  4

  0
ELLIPSE
  5
B520
330
B51E
100
AcDbEntity
  8
DETAL
 62
     7
100
AcDbEllipse
 10
-0.0006028917100694
 20
0.0001722547743056
 30
0.0
 11
0.3233222113715278
 21
-0.6106431749131944
 31
0.0
210
0.0
220
0.0
230
1.0
 40
0.7479976933238921
 41
0.0
 42
6.283185307179586
  0
ENDBLK
  5
B521
330
B51E
100
AcDbEntity
  8
DETAL
100
AcDbBlockEnd
  0
BLOCK
  5
B528
330
B527
100
AcDbEntity
  8
DETAL
 62
     7
100
AcDbBlockBegin
  2
AI9-BLK38
 70
     0
 10
0.0
 20
0.0
 30
0.0
  3
AI9-BLK38
  1

  4

  0
SPLINE
  5
B529
330
B527
100
AcDbEntity
  8
DETAL
 62
     7
100
AcDbSpline
210
0.0
220
0.0
230
1.0
 70
     8
 71
     3
 72
    11
 73
     7
 74
     0
 42
0.0000000001
 43
0.0000000001
 40
0.0
 40
0.0
 40
0.0
 40
0.0
 40
1.0
 40
1.0
 40
1.0
 40
2.0
 40
2.0
 40
2.0
 40
2.0
 10
0.171307373046875
 20
-0.4688774956597222
 30
0.0
 10
0.0903476291232639
 20
-0.4006646050347222
 30
0.0
 10
-0.0119717068142361
 20
-0.2818088107638889
 30
0.0
 10
-0.0684712727864583
 20
-0.1763888888888889
 30
0.0
 10
-0.1866380479600694
 20
0.0465087890625
 30
0.0
 10
-0.2000739203559028
 20
0.2890435112847222
 30
0.0
 10
-0.1235928005642361
 20
0.4688774956597222
 30
0.0
  0
ENDBLK
  5
B52A
330
B527
100
AcDbEntity
  8
DETAL
100
AcDbBlockEnd
  0
BLOCK
  5
B52C
330
B52B
100
AcDbEntity
  8
DETAL
 62
     7
100
AcDbBlockBegin
  2
AI9-BLK39
 70
     0
 10
0.0
 20
0.0
 30
0.0
  3
AI9-BLK39
  1

  4

  0
ELLIPSE
  5
B52D
330
B52B
100
AcDbEntity
  8
DETAL
 62
     7
100
AcDbEllipse
 10
-0.0000861273871528
 20
0.0000861273871528
 30
0.0
 11
0.3229777018229167
 21
-0.6106431749131944
 31
0.0
210
0.0
220
0.0
230
1.0
 40
0.7486101921554208
 41
0.0
 42
6.283185307179586
  0
ENDBLK
  5
B52E
330
B52B
100
AcDbEntity
  8
DETAL
100
AcDbBlockEnd
  0
BLOCK
  5
B535
330
B534
100
AcDbEntity
  8
DETAL
 62
     7
100
AcDbBlockBegin
  2
AI9-BLK41
 70
     0
 10
0.0
 20
0.0
 30
0.0
  3
AI9-BLK41
  1

  4

  0
SPLINE
  5
B536
330
B534
100
AcDbEntity
  8
DETAL
 62
     7
100
AcDbSpline
210
0.0
220
0.0
230
1.0
 70
     8
 71
     3
 72
    11
 73
     7
 74
     0
 42
0.0000000001
 43
0.0000000001
 40
0.0
 40
0.0
 40
0.0
 40
0.0
 40
1.0
 40
1.0
 40
1.0
 40
2.0
 40
2.0
 40
2.0
 40
2.0
 10
0.1712212456597222
 20
-0.4692220052083333
 30
0.0
 10
0.0906060112847222
 20
-0.4010091145833333
 30
0.0
 10
-0.0117133246527778
 20
-0.2821533203125
 30
0.0
 10
-0.068212890625
 20
-0.1767333984375
 30
0.0
 10
-0.1863796657986111
 20
0.0465087890625
 30
0.0
 10
-0.2001600477430555
 20
0.2893880208333333
 30
0.0
 10
-0.1236789279513889
 20
0.4692220052083333
 30
0.0
  0
ENDBLK
  5
B537
330
B534
100
AcDbEntity
  8
DETAL
100
AcDbBlockEnd
  0
BLOCK
  5
B539
330
B538
100
AcDbEntity
  8
DETAL
 62
     7
100
AcDbBlockBegin
  2
AI9-BLK42
 70
     0
 10
0.0
 20
0.0
 30
0.0
  3
AI9-BLK42
  1

  4

  0
ELLIPSE
  5
B53A
330
B538
100
AcDbEntity
  8
DETAL
 62
     7
100
AcDbEllipse
 10
-0.0002583821614583
 20
0.0000861273871528
 30
0.0
 11
0.3231499565972222
 21
-0.6106431749131944
 31
0.0
210
0.0
220
0.0
230
1.0
 40
0.7483039156995117
 41
0.0
 42
6.283185307179586
  0
ENDBLK
  5
B53B
330
B538
100
AcDbEntity
  8
DETAL
100
AcDbBlockEnd
  0
BLOCK
  5
B542
330
B541
100
AcDbEntity
  8
DETAL
 62
     7
100
AcDbBlockBegin
  2
AI9-BLK44
 70
     0
 10
0.0
 20
0.0
 30
0.0
  3
AI9-BLK44
  1

  4

  0
SPLINE
  5
B543
330
B541
100
AcDbEntity
  8
DETAL
 62
     7
100
AcDbSpline
210
0.0
220
0.0
230
1.0
 70
     8
 71
     3
 72
    11
 73
     7
 74
     0
 42
0.0000000001
 43
0.0000000001
 40
0.0
 40
0.0
 40
0.0
 40
0.0
 40
1.0
 40
1.0
 40
1.0
 40
2.0
 40
2.0
 40
2.0
 40
2.0
 10
0.1713935004340278
 20
-0.4690497504340278
 30
0.0
 10
0.0900892469618056
 20
-0.4008368598090277
 30
0.0
 10
-0.0122300889756944
 20
-0.2816365559895833
 30
0.0
 10
-0.0683851453993056
 20
-0.1765611436631944
 30
0.0
 10
-0.1865519205729166
 20
0.0466810438368056
 30
0.0
 10
-0.2003323025173611
 20
0.2892157660590278
 30
0.0
 10
-0.1238511827256944
 20
0.4690497504340278
 30
0.0
  0
ENDBLK
  5
B544
330
B541
100
AcDbEntity
  8
DETAL
100
AcDbBlockEnd
  0
BLOCK
  5
B546
330
B545
100
AcDbEntity
  8
DETAL
 62
     7
100
AcDbBlockBegin
  2
AI9-BLK45
 70
     0
 10
0.0
 20
0.0
 30
0.0
  3
AI9-BLK45
  1

  4

  0
ELLIPSE
  5
B547
330
B545
100
AcDbEntity
  8
DETAL
 62
     7
100
AcDbEllipse
 10
-0.0001722547743056
 20
-0.0000861273871528
 30
0.0
 11
0.3229777018229167
 21
-0.6104709201388889
 31
0.0
210
0.0
220
0.0
230
1.0
 40
0.7486560511260795
 41
0.0
 42
6.283185307179586
  0
ENDBLK
  5
B548
330
B545
100
AcDbEntity
  8
DETAL
100
AcDbBlockEnd
  0
BLOCK
  5
B54F
330
B54E
100
AcDbEntity
  8
DETAL
 62
     7
100
AcDbBlockBegin
  2
AI9-BLK47
 70
     0
 10
0.0
 20
0.0
 30
0.0
  3
AI9-BLK47
  1

  4

  0
SPLINE
  5
B550
330
B54E
100
AcDbEntity
  8
DETAL
 62
     7
100
AcDbSpline
210
0.0
220
0.0
230
1.0
 70
     8
 71
     3
 72
    11
 73
     7
 74
     0
 42
0.0000000001
 43
0.0000000001
 40
0.0
 40
0.0
 40
0.0
 40
0.0
 40
1.0
 40
1.0
 40
1.0
 40
2.0
 40
2.0
 40
2.0
 40
2.0
 10
0.171307373046875
 20
-0.4687052408854166
 30
0.0
 10
0.090692138671875
 20
-0.4004923502604166
 30
0.0
 10
-0.011627197265625
 20
-0.2819810655381944
 30
0.0
 10
-0.0677822536892361
 20
-0.1765611436631944
 30
0.0
 10
-0.1866380479600694
 20
0.0470255533854167
 30
0.0
 10
-0.2000739203559028
 20
0.2895602756076389
 30
0.0
 10
-0.1235928005642361
 20
0.4687052408854166
 30
0.0
  0
ENDBLK
  5
B551
330
B54E
100
AcDbEntity
  8
DETAL
100
AcDbBlockEnd
  0
BLOCK
  5
B553
330
B552
100
AcDbEntity
  8
DETAL
 62
     7
100
AcDbBlockBegin
  2
AI9-BLK48
 70
     0
 10
0.0
 20
0.0
 30
0.0
  3
AI9-BLK48
  1

  4

  0
ELLIPSE
  5
B554
330
B552
100
AcDbEntity
  8
DETAL
 62
     7
100
AcDbEllipse
 10
-0.0002583821614583
 20
0.0003445095486111
 30
0.0
 11
0.3231499565972222
 21
-0.6109876844618055
 31
0.0
210
0.0
220
0.0
230
1.0
 40
0.7479742294989794
 41
0.0
 42
6.283185307179586
  0
ENDBLK
  5
B555
330
B552
100
AcDbEntity
  8
DETAL
100
AcDbBlockEnd
  0
BLOCK
  5
B55C
330
B55B
100
AcDbEntity
  8
DETAL
 62
     7
100
AcDbBlockBegin
  2
AI9-BLK50
 70
     0
 10
0.0
 20
0.0
 30
0.0
  3
AI9-BLK50
  1

  4

  0
SPLINE
  5
B55D
330
B55B
100
AcDbEntity
  8
DETAL
 62
     7
100
AcDbSpline
210
0.0
220
0.0
230
1.0
 70
     8
 71
     3
 72
    11
 73
     7
 74
     0
 42
0.0000000001
 43
0.0000000001
 40
0.0
 40
0.0
 40
0.0
 40
0.0
 40
1.0
 40
1.0
 40
1.0
 40
2.0
 40
2.0
 40
2.0
 40
2.0
 10
0.171307373046875
 20
-0.4688774956597222
 30
0.0
 10
0.0910366482204861
 20
-0.4006646050347222
 30
0.0
 10
-0.011627197265625
 20
-0.2818088107638889
 30
0.0
 10
-0.0677822536892361
 20
-0.1763888888888889
 30
0.0
 10
-0.1866380479600694
 20
0.0468532986111111
 30
0.0
 10
-0.2000739203559028
 20
0.2893880208333333
 30
0.0
 10
-0.1235928005642361
 20
0.4688774956597222
 30
0.0
  0
ENDBLK
  5
B55E
330
B55B
100
AcDbEntity
  8
DETAL
100
AcDbBlockEnd
  0
BLOCK
  5
B560
330
B55F
100
AcDbEntity
  8
DETAL
 62
     7
100
AcDbBlockBegin
  2
AI9-BLK51
 70
     0
 10
0.0
 20
0.0
 30
0.0
  3
AI9-BLK51
  1

  4

  0
ELLIPSE
  5
B561
330
B55F
100
AcDbEntity
  8
DETAL
 62
     7
100
AcDbEllipse
 10
-0.0002583821614583
 20
0.0003445095486111
 30
0.0
 11
0.3229777018229166
 21
-0.6109876844618056
 31
0.0
210
0.0
220
0.0
230
1.0
 40
0.7482802941420016
 41
0.0
 42
6.283185307179586
  0
ENDBLK
  5
B562
330
B55F
100
AcDbEntity
  8
DETAL
100
AcDbBlockEnd
  0
BLOCK
  5
B569
330
B568
100
AcDbEntity
  8
HORIZ_PIECE
 62
     7
100
AcDbBlockBegin
  2
AI9-BLK53
 70
     0
 10
0.0
 20
0.0
 30
0.0
  3
AI9-BLK53
  1

  4

  0
SPLINE
  5
B56A
330
B568
100
AcDbEntity
  8
HORIZ_PIECE
 62
     7
100
AcDbSpline
210
0.0
220
0.0
230
1.0
 70
     8
 71
     3
 72
    11
 73
     7
 74
     0
 42
0.0000000001
 43
0.0000000001
 40
0.0
 40
0.0
 40
0.0
 40
0.0
 40
1.0
 40
1.0
 40
1.0
 40
2.0
 40
2.0
 40
2.0
 40
2.0
 10
0.1712212456597222
 20
-0.4688774956597222
 30
0.0
 10
0.0902615017361111
 20
-0.4006646050347222
 30
0.0
 10
-0.0120578342013889
 20
-0.2814643012152778
 30
0.0
 10
-0.0685574001736111
 20
-0.1763888888888889
 30
0.0
 10
-0.1870686848958333
 20
0.0468532986111111
 30
0.0
 10
-0.1998155381944444
 20
0.2890435112847222
 30
0.0
 10
-0.1233344184027778
 20
0.4688774956597222
 30
0.0
  0
ENDBLK
  5
B56B
330
B568
100
AcDbEntity
  8
HORIZ_PIECE
100
AcDbBlockEnd
  0
BLOCK
  5
B56D
330
B56C
100
AcDbEntity
  8
HORIZ_PIECE
 62
     7
100
AcDbBlockBegin
  2
AI9-BLK54
 70
     0
 10
0.0
 20
0.0
 30
0.0
  3
AI9-BLK54
  1

  4

  0
ELLIPSE
  5
B56E
330
B56C
100
AcDbEntity
  8
HORIZ_PIECE
 62
     7
100
AcDbEllipse
 10
0.0003445095486111
 20
0.0001722547743056
 30
0.0
 11
0.3231499565972222
 21
-0.6109876844618055
 31
0.0
210
0.0
220
0.0
230
1.0
 40
0.7482126737886825
 41
0.0
 42
6.283185307179586
  0
ENDBLK
  5
B56F
330
B56C
100
AcDbEntity
  8
HORIZ_PIECE
100
AcDbBlockEnd
  0
BLOCK
  5
B576
330
B575
100
AcDbEntity
  8
HORIZ_PIECE
 62
     7
100
AcDbBlockBegin
  2
AI9-BLK56
 70
     0
 10
0.0
 20
0.0
 30
0.0
  3
AI9-BLK56
  1

  4

  0
SPLINE
  5
B577
330
B575
100
AcDbEntity
  8
HORIZ_PIECE
 62
     7
100
AcDbSpline
210
0.0
220
0.0
230
1.0
 70
     8
 71
     3
 72
    11
 73
     7
 74
     0
 42
0.0000000001
 43
0.0000000001
 40
0.0
 40
0.0
 40
0.0
 40
0.0
 40
1.0
 40
1.0
 40
1.0
 40
2.0
 40
2.0
 40
2.0
 40
2.0
 10
0.1713935004340278
 20
-0.4692220052083333
 30
0.0
 10
0.0904337565104167
 20
-0.4016981336805555
 30
0.0
 10
-0.0125745985243056
 20
-0.2824978298611111
 30
0.0
 10
-0.0680406358506944
 20
-0.1763888888888889
 30
0.0
 10
-0.1872409396701389
 20
0.0468532986111111
 30
0.0
 10
-0.1996432834201389
 20
0.2893880208333333
 30
0.0
 10
-0.1238511827256944
 20
0.4692220052083333
 30
0.0
  0
ENDBLK
  5
B578
330
B575
100
AcDbEntity
  8
HORIZ_PIECE
100
AcDbBlockEnd
  0
BLOCK
  5
B57A
330
B579
100
AcDbEntity
  8
HORIZ_PIECE
 62
     7
100
AcDbBlockBegin
  2
AI9-BLK57
 70
     0
 10
0.0
 20
0.0
 30
0.0
  3
AI9-BLK57
  1

  4

  0
ELLIPSE
  5
B57B
330
B579
100
AcDbEntity
  8
HORIZ_PIECE
 62
     7
100
AcDbEllipse
 10
-0.0001722547743056
 20
0.0
 30
0.0
 11
0.3226331922743055
 21
-0.609609646267361
 31
0.0
210
0.0
220
0.0
230
1.0
 40
0.7488992857405391
 41
0.0
 42
6.283185307179586
  0
ENDBLK
  5
B57C
330
B579
100
AcDbEntity
  8
HORIZ_PIECE
100
AcDbBlockEnd
  0
BLOCK
  5
B583
330
B582
100
AcDbEntity
  8
HORIZ_PIECE
 62
     7
100
AcDbBlockBegin
  2
AI9-BLK59
 70
     0
 10
0.0
 20
0.0
 30
0.0
  3
AI9-BLK59
  1

  4

  0
SPLINE
  5
B584
330
B582
100
AcDbEntity
  8
HORIZ_PIECE
 62
     7
100
AcDbSpline
210
0.0
220
0.0
230
1.0
 70
     8
 71
     3
 72
    11
 73
     7
 74
     0
 42
0.0000000001
 43
0.0000000001
 40
0.0
 40
0.0
 40
0.0
 40
0.0
 40
1.0
 40
1.0
 40
1.0
 40
2.0
 40
2.0
 40
2.0
 40
2.0
 10
0.1713935004340278
 20
-0.4693942599826388
 30
0.0
 10
0.0900892469618056
 20
-0.40152587890625
 30
0.0
 10
-0.0118855794270833
 20
-0.2823255750868055
 30
0.0
 10
-0.0676961263020833
 20
-0.1762166341145833
 30
0.0
 10
-0.1865519205729166
 20
0.0470255533854167
 30
0.0
 10
-0.19998779296875
 20
0.2885267469618055
 30
0.0
 10
-0.1238511827256944
 20
0.4693942599826388
 30
0.0
  0
ENDBLK
  5
B585
330
B582
100
AcDbEntity
  8
HORIZ_PIECE
100
AcDbBlockEnd
  0
BLOCK
  5
B587
330
B586
100
AcDbEntity
  8
HORIZ_PIECE
 62
     7
100
AcDbBlockBegin
  2
AI9-BLK60
 70
     0
 10
0.0
 20
0.0
 30
0.0
  3
AI9-BLK60
  1

  4

  0
ELLIPSE
  5
B588
330
B586
100
AcDbEntity
  8
HORIZ_PIECE
 62
     7
100
AcDbEllipse
 10
-0.0001722547743056
 20
0.0003445095486111
 30
0.0
 11
0.3228054470486111
 21
-0.6099541558159721
 31
0.0
210
0.0
220
0.0
230
1.0
 40
0.7480234114634509
 41
0.0
 42
6.283185307179586
  0
ENDBLK
  5
B589
330
B586
100
AcDbEntity
  8
HORIZ_PIECE
100
AcDbBlockEnd
  0
BLOCK
  5
B58F
330
B58E
100
AcDbEntity
  8
REAR_HORIZ_PIECE
 62
     7
100
AcDbBlockBegin
  2
AI9-BLK62
 70
     0
 10
0.0
 20
0.0
 30
0.0
  3
AI9-BLK62
  1

  4

  0
SPLINE
  5
B590
330
B58E
100
AcDbEntity
  8
REAR_HORIZ_PIECE
 62
     7
100
AcDbSpline
210
0.0
220
0.0
230
1.0
 70
     8
 71
     3
 72
    11
 73
     7
 74
     0
 42
0.0000000001
 43
0.0000000001
 40
0.0
 40
0.0
 40
0.0
 40
0.0
 40
1.0
 40
1.0
 40
1.0
 40
2.0
 40
2.0
 40
2.0
 40
2.0
 10
-0.1956814236111111
 20
-0.5720581054687499
 30
0.0
 10
-0.2966227213541666
 20
-0.5007446289062499
 30
0.0
 10
-0.3879177517361111
 20
-0.3980807834201389
 30
0.0
 10
-0.4550971137152777
 20
-0.27130126953125
 30
0.0
 10
-0.5157307942708332
 20
-0.1562350802951389
 30
0.0
 10
-0.5491482204861111
 20
-0.0349677191840278
 30
0.0
 10
-0.5556939019097221
 20
0.07906494140625
 30
0.0
  0
SPLINE
  5
B591
330
B58E
100
AcDbEntity
  8
REAR_HORIZ_PIECE
 62
     7
100
AcDbSpline
210
0.0
220
0.0
230
1.0
 70
     8
 71
     3
 72
    11
 73
     7
 74
     0
 42
0.0000000001
 43
0.0000000001
 40
0.0
 40
0.0
 40
0.0
 40
0.0
 40
1.0
 40
1.0
 40
1.0
 40
2.0
 40
2.0
 40
2.0
 40
2.0
 10
-0.3228054470486111
 20
0.5861829969618055
 30
0.0
 10
-0.0720024956597222
 20
0.7226087782118055
 30
0.0
 10
0.2756076388888888
 20
0.5600002712673611
 30
0.0
 10
0.452685546875
 20
0.2227254231770833
 30
0.0
 10
0.6304524739583333
 20
-0.1142049153645833
 30
0.0
 10
0.5718858506944444
 20
-0.4993665907118055
 30
0.0
 10
0.3210828993055555
 20
-0.634414333767361
 30
0.0
  0
ENDBLK
  5
B592
330
B58E
100
AcDbEntity
  8
REAR_HORIZ_PIECE
100
AcDbBlockEnd
  0
BLOCK
  5
B5A1
330
B5A0
100
AcDbEntity
  8
REAR_STICK
 62
     7
100
AcDbBlockBegin
  2
AI9-BLK66
 70
     0
 10
0.0
 20
0.0
 30
0.0
  3
AI9-BLK66
  1

  4

  0
SPLINE
  5
B5A2
330
B5A0
100
AcDbEntity
  8
REAR_STICK
 62
     7
100
AcDbSpline
210
0.0
220
0.0
230
1.0
 70
     8
 71
     3
 72
    11
 73
     7
 74
     0
 42
0.0000000001
 43
0.0000000001
 40
0.0
 40
0.0
 40
0.0
 40
0.0
 40
1.0
 40
1.0
 40
1.0
 40
2.0
 40
2.0
 40
2.0
 40
2.0
 10
0.1712212456597222
 20
-0.4688774956597222
 30
0.0
 10
0.0909505208333333
 20
-0.3999755859375
 30
0.0
 10
-0.0127468532986111
 20
-0.2821533203125
 30
0.0
 10
-0.0675238715277778
 20
-0.1760443793402778
 30
0.0
 10
-0.1874131944444444
 20
0.0465087890625
 30
0.0
 10
-0.1998155381944444
 20
0.2886990017361111
 30
0.0
 10
-0.1233344184027778
 20
0.4688774956597222
 30
0.0
  0
ENDBLK
  5
B5A3
330
B5A0
100
AcDbEntity
  8
REAR_STICK
100
AcDbBlockEnd
  0
BLOCK
  5
B5A5
330
B5A4
100
AcDbEntity
  8
REAR_STICK
 62
     7
100
AcDbBlockBegin
  2
AI9-BLK67
 70
     0
 10
0.0
 20
0.0
 30
0.0
  3
AI9-BLK67
  1

  4

  0
ELLIPSE
  5
B5A6
330
B5A4
100
AcDbEntity
  8
REAR_STICK
 62
     7
100
AcDbEllipse
 10
-0.0005167643229167
 20
-0.0001722547743056
 30
0.0
 11
0.3234944661458334
 21
-0.6104709201388888
 31
0.0
210
0.0
220
0.0
230
1.0
 40
0.7475377865745561
 41
0.0
 42
6.283185307179586
  0
ENDBLK
  5
B5A7
330
B5A4
100
AcDbEntity
  8
REAR_STICK
100
AcDbBlockEnd
  0
BLOCK
  5
B5AE
330
B5AD
100
AcDbEntity
  8
REAR_STICK
 62
     7
100
AcDbBlockBegin
  2
AI9-BLK69
 70
     0
 10
0.0
 20
0.0
 30
0.0
  3
AI9-BLK69
  1

  4

  0
SPLINE
  5
B5AF
330
B5AD
100
AcDbEntity
  8
REAR_STICK
 62
     7
100
AcDbSpline
210
0.0
220
0.0
230
1.0
 70
     8
 71
     3
 72
    11
 73
     7
 74
     0
 42
0.0000000001
 43
0.0000000001
 40
0.0
 40
0.0
 40
0.0
 40
0.0
 40
1.0
 40
1.0
 40
1.0
 40
2.0
 40
2.0
 40
2.0
 40
2.0
 10
0.1712212456597222
 20
-0.4688774956597222
 30
0.0
 10
0.0906060112847222
 20
-0.4003200954861111
 30
0.0
 10
-0.0127468532986111
 20
-0.2824978298611111
 30
0.0
 10
-0.0675238715277778
 20
-0.1763888888888889
 30
0.0
 10
-0.1867241753472222
 20
0.0458197699652778
 30
0.0
 10
-0.1998155381944444
 20
0.2893880208333333
 30
0.0
 10
-0.1233344184027778
 20
0.4688774956597222
 30
0.0
  0
ENDBLK
  5
B5B0
330
B5AD
100
AcDbEntity
  8
REAR_STICK
100
AcDbBlockEnd
  0
BLOCK
  5
B5B2
330
B5B1
100
AcDbEntity
  8
REAR_STICK
 62
     7
100
AcDbBlockBegin
  2
AI9-BLK70
 70
     0
 10
0.0
 20
0.0
 30
0.0
  3
AI9-BLK70
  1

  4

  0
ELLIPSE
  5
B5B3
330
B5B1
100
AcDbEntity
  8
REAR_STICK
 62
     7
100
AcDbEllipse
 10
-0.0001722547743056
 20
-0.0003445095486111
 30
0.0
 11
0.3228054470486111
 21
-0.6102986653645833
 31
0.0
210
0.0
220
0.0
230
1.0
 40
0.7479322189562955
 41
0.0
 42
6.283185307179586
  0
ENDBLK
  5
B5B4
330
B5B1
100
AcDbEntity
  8
REAR_STICK
100
AcDbBlockEnd
  0
BLOCK
  5
B5BB
330
B5BA
100
AcDbEntity
  8
REAR_STICK
 62
     7
100
AcDbBlockBegin
  2
AI9-BLK72
 70
     0
 10
0.0
 20
0.0
 30
0.0
  3
AI9-BLK72
  1

  4

  0
SPLINE
  5
B5BC
330
B5BA
100
AcDbEntity
  8
REAR_STICK
 62
     7
100
AcDbSpline
210
0.0
220
0.0
230
1.0
 70
     8
 71
     3
 72
    11
 73
     7
 74
     0
 42
0.0000000001
 43
0.0000000001
 40
0.0
 40
0.0
 40
0.0
 40
0.0
 40
1.0
 40
1.0
 40
1.0
 40
2.0
 40
2.0
 40
2.0
 40
2.0
 10
0.1713935004340278
 20
-0.4688774956597222
 30
0.0
 10
0.0907782660590278
 20
-0.4006646050347222
 30
0.0
 10
-0.0129191080729167
 20
-0.2824978298611111
 30
0.0
 10
-0.0676961263020833
 20
-0.1763888888888889
 30
0.0
 10
-0.1868964301215278
 20
0.0461642795138889
 30
0.0
 10
-0.19998779296875
 20
0.2890435112847222
 30
0.0
 10
-0.1235066731770833
 20
0.4688774956597222
 30
0.0
  0
ENDBLK
  5
B5BD
330
B5BA
100
AcDbEntity
  8
REAR_STICK
100
AcDbBlockEnd
  0
BLOCK
  5
B5BF
330
B5BE
100
AcDbEntity
  8
REAR_STICK
 62
     7
100
AcDbBlockBegin
  2
AI9-BLK73
 70
     0
 10
0.0
 20
0.0
 30
0.0
  3
AI9-BLK73
  1

  4

  0
ELLIPSE
  5
B5C0
330
B5BE
100
AcDbEntity
  8
REAR_STICK
 62
     7
100
AcDbEllipse
 10
-0.0001722547743056
 20
0.0000861273871528
 30
0.0
 11
0.3231499565972222
 21
-0.6108154296875
 31
0.0
210
0.0
220
0.0
230
1.0
 40
0.746945206977183
 41
0.0
 42
6.283185307179586
  0
ENDBLK
  5
B5C1
330
B5BE
100
AcDbEntity
  8
REAR_STICK
100
AcDbBlockEnd
  0
BLOCK
  5
B5C8
330
B5C7
100
AcDbEntity
  8
REAR_STICK
 62
     7
100
AcDbBlockBegin
  2
AI9-BLK75
 70
     0
 10
0.0
 20
0.0
 30
0.0
  3
AI9-BLK75
  1

  4

  0
SPLINE
  5
B5C9
330
B5C7
100
AcDbEntity
  8
REAR_STICK
 62
     7
100
AcDbSpline
210
0.0
220
0.0
230
1.0
 70
     8
 71
     3
 72
    11
 73
     7
 74
     0
 42
0.0000000001
 43
0.0000000001
 40
0.0
 40
0.0
 40
0.0
 40
0.0
 40
1.0
 40
1.0
 40
1.0
 40
2.0
 40
2.0
 40
2.0
 40
2.0
 10
0.1713935004340278
 20
-0.4687052408854166
 30
0.0
 10
0.0904337565104167
 20
-0.4004923502604166
 30
0.0
 10
-0.0122300889756944
 20
-0.2823255750868055
 30
0.0
 10
-0.0683851453993056
 20
-0.1769056532118055
 30
0.0
 10
-0.1862074110243056
 20
0.0459920247395833
 30
0.0
 10
-0.2006768120659722
 20
0.2892157660590278
 30
0.0
 10
-0.1238511827256944
 20
0.4687052408854166
 30
0.0
  0
ENDBLK
  5
B5CA
330
B5C7
100
AcDbEntity
  8
REAR_STICK
100
AcDbBlockEnd
  0
BLOCK
  5
B5CC
330
B5CB
100
AcDbEntity
  8
REAR_STICK
 62
     7
100
AcDbBlockBegin
  2
AI9-BLK76
 70
     0
 10
0.0
 20
0.0
 30
0.0
  3
AI9-BLK76
  1

  4

  0
ELLIPSE
  5
B5CD
330
B5CB
100
AcDbEntity
  8
REAR_STICK
 62
     7
100
AcDbEllipse
 10
0.0003445095486111
 20
0.0002583821614583
 30
0.0
 11
0.3226331922743057
 21
-0.6108154296875
 31
0.0
210
0.0
220
0.0
230
1.0
 40
0.7474252172777788
 41
0.0
 42
6.283185307179586
  0
ENDBLK
  5
B5CE
330
B5CB
100
AcDbEntity
  8
REAR_STICK
100
AcDbBlockEnd
  0
BLOCK
  5
B5D5
330
B5D4
100
AcDbEntity
  8
REAR_STICK
 62
     7
100
AcDbBlockBegin
  2
AI9-BLK78
 70
     0
 10
0.0
 20
0.0
 30
0.0
  3
AI9-BLK78
  1

  4

  0
SPLINE
  5
B5D6
330
B5D4
100
AcDbEntity
  8
REAR_STICK
 62
     7
100
AcDbSpline
210
0.0
220
0.0
230
1.0
 70
     8
 71
     3
 72
    11
 73
     7
 74
     0
 42
0.0000000001
 43
0.0000000001
 40
0.0
 40
0.0
 40
0.0
 40
0.0
 40
1.0
 40
1.0
 40
1.0
 40
2.0
 40
2.0
 40
2.0
 40
2.0
 10
0.1713935004340278
 20
-0.4688774956597222
 30
0.0
 10
0.0897447374131944
 20
-0.4006646050347222
 30
0.0
 10
-0.0122300889756944
 20
-0.2818088107638889
 30
0.0
 10
-0.0687296549479167
 20
-0.1763888888888889
 30
0.0
 10
-0.1872409396701389
 20
0.0461642795138889
 30
0.0
 10
-0.19998779296875
 20
0.2890435112847222
 30
0.0
 10
-0.1238511827256944
 20
0.4688774956597222
 30
0.0
  0
ENDBLK
  5
B5D7
330
B5D4
100
AcDbEntity
  8
REAR_STICK
100
AcDbBlockEnd
  0
BLOCK
  5
B5D9
330
B5D8
100
AcDbEntity
  8
REAR_STICK
 62
     7
100
AcDbBlockBegin
  2
AI9-BLK79
 70
     0
 10
0.0
 20
0.0
 30
0.0
  3
AI9-BLK79
  1

  4

  0
ELLIPSE
  5
B5DA
330
B5D8
100
AcDbEntity
  8
REAR_STICK
 62
     7
100
AcDbEllipse
 10
0.0003445095486111
 20
0.0000861273871528
 30
0.0
 11
0.3226331922743056
 21
-0.6106431749131945
 31
0.0
210
0.0
220
0.0
230
1.0
 40
0.7479085554440336
 41
0.0
 42
6.283185307179586
  0
ENDBLK
  5
B5DB
330
B5D8
100
AcDbEntity
  8
REAR_STICK
100
AcDbBlockEnd
  0
BLOCK
  5
B5E2
330
B5E1
100
AcDbEntity
  8
REAR_STICK
 62
     7
100
AcDbBlockBegin
  2
AI9-BLK81
 70
     0
 10
0.0
 20
0.0
 30
0.0
  3
AI9-BLK81
  1

  4

  0
SPLINE
  5
B5E3
330
B5E1
100
AcDbEntity
  8
REAR_STICK
 62
     7
100
AcDbSpline
210
0.0
220
0.0
230
1.0
 70
     8
 71
     3
 72
    11
 73
     7
 74
     0
 42
0.0000000001
 43
0.0000000001
 40
0.0
 40
0.0
 40
0.0
 40
0.0
 40
1.0
 40
1.0
 40
1.0
 40
2.0
 40
2.0
 40
2.0
 40
2.0
 10
0.1707044813368056
 20
-0.4690497504340278
 30
0.0
 10
0.0911227756076389
 20
-0.4008368598090277
 30
0.0
 10
-0.0125745985243056
 20
-0.2816365559895833
 30
0.0
 10
-0.0683851453993056
 20
-0.1765611436631944
 30
0.0
 10
-0.1865519205729166
 20
0.0466810438368056
 30
0.0
 10
-0.1992987738715278
 20
0.2892157660590278
 30
0.0
 10
-0.1231621636284722
 20
0.4690497504340278
 30
0.0
  0
ENDBLK
  5
B5E4
330
B5E1
100
AcDbEntity
  8
REAR_STICK
100
AcDbBlockEnd
  0
BLOCK
  5
B5E6
330
B5E5
100
AcDbEntity
  8
REAR_STICK
 62
     7
100
AcDbBlockBegin
  2
AI9-BLK82
 70
     0
 10
0.0
 20
0.0
 30
0.0
  3
AI9-BLK82
  1

  4

  0
ELLIPSE
  5
B5E7
330
B5E5
100
AcDbEntity
  8
REAR_STICK
 62
     7
100
AcDbEllipse
 10
0.0001722547743056
 20
-0.0000861273871528
 30
0.0
 11
0.3212551540798611
 21
-0.6104709201388888
 31
0.0
210
0.0
220
0.0
230
1.0
 40
0.7486511445001247
 41
0.0
 42
6.283185307179586
  0
ENDBLK
  5
B5E8
330
B5E5
100
AcDbEntity
  8
REAR_STICK
100
AcDbBlockEnd
  0
BLOCK
  5
B5EF
330
B5EE
100
AcDbEntity
  8
REAR_STICK
 62
     7
100
AcDbBlockBegin
  2
AI9-BLK84
 70
     0
 10
0.0
 20
0.0
 30
0.0
  3
AI9-BLK84
  1

  4

  0
SPLINE
  5
B5F0
330
B5EE
100
AcDbEntity
  8
REAR_STICK
 62
     7
100
AcDbSpline
210
0.0
220
0.0
230
1.0
 70
     8
 71
     3
 72
    11
 73
     7
 74
     0
 42
0.0000000001
 43
0.0000000001
 40
0.0
 40
0.0
 40
0.0
 40
0.0
 40
1.0
 40
1.0
 40
1.0
 40
2.0
 40
2.0
 40
2.0
 40
2.0
 10
0.1712212456597222
 20
-0.4688774956597222
 30
0.0
 10
0.0902615017361111
 20
-0.4006646050347222
 30
0.0
 10
-0.0120578342013889
 20
-0.2818088107638889
 30
0.0
 10
-0.0675238715277778
 20
-0.1770779079861111
 30
0.0
 10
-0.1863796657986111
 20
0.0461642795138889
 30
0.0
 10
-0.1998155381944444
 20
0.2893880208333333
 30
0.0
 10
-0.1236789279513889
 20
0.4688774956597222
 30
0.0
  0
ENDBLK
  5
B5F1
330
B5EE
100
AcDbEntity
  8
REAR_STICK
100
AcDbBlockEnd
  0
BLOCK
  5
B5F3
330
B5F2
100
AcDbEntity
  8
REAR_STICK
 62
     7
100
AcDbBlockBegin
  2
AI9-BLK85
 70
     0
 10
0.0
 20
0.0
 30
0.0
  3
AI9-BLK85
  1

  4

  0
ELLIPSE
  5
B5F4
330
B5F2
100
AcDbEntity
  8
REAR_STICK
 62
     7
100
AcDbEllipse
 10
0.0001722547743056
 20
0.0001722547743056
 30
0.0
 11
0.3226331922743056
 21
-0.6106431749131945
 31
0.0
210
0.0
220
0.0
230
1.0
 40
0.7487847139039875
 41
0.0
 42
6.283185307179586
  0
ENDBLK
  5
B5F5
330
B5F2
100
AcDbEntity
  8
REAR_STICK
100
AcDbBlockEnd
  0
BLOCK
  5
B5FC
330
B5FB
100
AcDbEntity
  8
REAR_STICK
 62
     7
100
AcDbBlockBegin
  2
AI9-BLK87
 70
     0
 10
0.0
 20
0.0
 30
0.0
  3
AI9-BLK87
  1

  4

  0
SPLINE
  5
B5FD
330
B5FB
100
AcDbEntity
  8
REAR_STICK
 62
     7
100
AcDbSpline
210
0.0
220
0.0
230
1.0
 70
     8
 71
     3
 72
    11
 73
     7
 74
     0
 42
0.0000000001
 43
0.0000000001
 40
0.0
 40
0.0
 40
0.0
 40
0.0
 40
1.0
 40
1.0
 40
1.0
 40
2.0
 40
2.0
 40
2.0
 40
2.0
 10
0.1713935004340278
 20
-0.4688774956597222
 30
0.0
 10
0.0900892469618056
 20
-0.4006646050347222
 30
0.0
 10
-0.0125745985243056
 20
-0.2818088107638889
 30
0.0
 10
-0.0683851453993056
 20
-0.1770779079861111
 30
0.0
 10
-0.1872409396701389
 20
0.0461642795138889
 30
0.0
 10
-0.1996432834201389
 20
0.2893880208333333
 30
0.0
 10
-0.1238511827256944
 20
0.4688774956597222
 30
0.0
  0
ENDBLK
  5
B5FE
330
B5FB
100
AcDbEntity
  8
REAR_STICK
100
AcDbBlockEnd
  0
BLOCK
  5
B600
330
B5FF
100
AcDbEntity
  8
REAR_STICK
 62
     7
100
AcDbBlockBegin
  2
AI9-BLK88
 70
     0
 10
0.0
 20
0.0
 30
0.0
  3
AI9-BLK88
  1

  4

  0
ELLIPSE
  5
B601
330
B5FF
100
AcDbEntity
  8
REAR_STICK
 62
     7
100
AcDbEllipse
 10
0.0001722547743056
 20
0.0
 30
0.0
 11
0.3228054470486111
 21
-0.6106431749131944
 31
0.0
210
0.0
220
0.0
230
1.0
 40
0.748040390255902
 41
0.0
 42
6.283185307179586
  0
ENDBLK
  5
B602
330
B5FF
100
AcDbEntity
  8
REAR_STICK
100
AcDbBlockEnd
  0
BLOCK
  5
B609
330
B608
100
AcDbEntity
  8
REAR_STICK
 62
     7
100
AcDbBlockBegin
  2
AI9-BLK90
 70
     0
 10
0.0
 20
0.0
 30
0.0
  3
AI9-BLK90
  1

  4

  0
SPLINE
  5
B60A
330
B608
100
AcDbEntity
  8
REAR_STICK
 62
     7
100
AcDbSpline
210
0.0
220
0.0
230
1.0
 70
     8
 71
     3
 72
    11
 73
     7
 74
     0
 42
0.0000000001
 43
0.0000000001
 40
0.0
 40
0.0
 40
0.0
 40
0.0
 40
1.0
 40
1.0
 40
1.0
 40
2.0
 40
2.0
 40
2.0
 40
2.0
 10
0.1713935004340278
 20
-0.4690497504340278
 30
0.0
 10
0.0904337565104167
 20
-0.4008368598090277
 30
0.0
 10
-0.0122300889756944
 20
-0.2816365559895833
 30
0.0
 10
-0.0680406358506944
 20
-0.1765611436631944
 30
0.0
 10
-0.1862074110243056
 20
0.0466810438368056
 30
0.0
 10
-0.2006768120659722
 20
0.2892157660590278
 30
0.0
 10
-0.1241956922743056
 20
0.4690497504340278
 30
0.0
  0
ENDBLK
  5
B60B
330
B608
100
AcDbEntity
  8
REAR_STICK
100
AcDbBlockEnd
  0
BLOCK
  5
B60D
330
B60C
100
AcDbEntity
  8
REAR_STICK
 62
     7
100
AcDbBlockBegin
  2
AI9-BLK91
 70
     0
 10
0.0
 20
0.0
 30
0.0
  3
AI9-BLK91
  1

  4

  0
ELLIPSE
  5
B60E
330
B60C
100
AcDbEntity
  8
REAR_STICK
 62
     7
100
AcDbEllipse
 10
0.0
 20
-0.0000861273871528
 30
0.0
 11
0.3228054470486111
 21
-0.6104709201388889
 31
0.0
210
0.0
220
0.0
230
1.0
 40
0.7480860434513725
 41
0.0
 42
6.283185307179586
  0
ENDBLK
  5
B60F
330
B60C
100
AcDbEntity
  8
REAR_STICK
100
AcDbBlockEnd
  0
BLOCK
  5
B616
330
B615
100
AcDbEntity
  8
REAR_STICK
 62
     7
100
AcDbBlockBegin
  2
AI9-BLK93
 70
     0
 10
0.0
 20
0.0
 30
0.0
  3
AI9-BLK93
  1

  4

  0
SPLINE
  5
B617
330
B615
100
AcDbEntity
  8
REAR_STICK
 62
     7
100
AcDbSpline
210
0.0
220
0.0
230
1.0
 70
     8
 71
     3
 72
    11
 73
     7
 74
     0
 42
0.0000000001
 43
0.0000000001
 40
0.0
 40
0.0
 40
0.0
 40
0.0
 40
1.0
 40
1.0
 40
1.0
 40
2.0
 40
2.0
 40
2.0
 40
2.0
 10
0.1713935004340278
 20
-0.4687052408854166
 30
0.0
 10
0.0904337565104167
 20
-0.4004923502604166
 30
0.0
 10
-0.0111965603298611
 20
-0.2823255750868055
 30
0.0
 10
-0.0680406358506944
 20
-0.1769056532118055
 30
0.0
 10
-0.1862074110243056
 20
0.0459920247395833
 30
0.0
 10
-0.2003323025173611
 20
0.2892157660590278
 30
0.0
 10
-0.1238511827256944
 20
0.4687052408854166
 30
0.0
  0
ENDBLK
  5
B618
330
B615
100
AcDbEntity
  8
REAR_STICK
100
AcDbBlockEnd
  0
BLOCK
  5
B61A
330
B619
100
AcDbEntity
  8
REAR_STICK
 62
     7
100
AcDbBlockBegin
  2
AI9-BLK94
 70
     0
 10
0.0
 20
0.0
 30
0.0
  3
AI9-BLK94
  1

  4

  0
ELLIPSE
  5
B61B
330
B619
100
AcDbEntity
  8
REAR_STICK
 62
     7
100
AcDbEllipse
 10
0.0001722547743056
 20
0.0000861273871528
 30
0.0
 11
0.3224609375
 21
-0.6108154296874999
 31
0.0
210
0.0
220
0.0
230
1.0
 40
0.7481690601066415
 41
0.0
 42
6.283185307179586
  0
ENDBLK
  5
B61C
330
B619
100
AcDbEntity
  8
REAR_STICK
100
AcDbBlockEnd
  0
BLOCK
  5
B623
330
B622
100
AcDbEntity
  8
REAR_STICK
 62
     7
100
AcDbBlockBegin
  2
AI9-BLK96
 70
     0
 10
0.0
 20
0.0
 30
0.0
  3
AI9-BLK96
  1

  4

  0
SPLINE
  5
B624
330
B622
100
AcDbEntity
  8
REAR_STICK
 62
     7
100
AcDbSpline
210
0.0
220
0.0
230
1.0
 70
     8
 71
     3
 72
    11
 73
     7
 74
     0
 42
0.0000000001
 43
0.0000000001
 40
0.0
 40
0.0
 40
0.0
 40
0.0
 40
1.0
 40
1.0
 40
1.0
 40
2.0
 40
2.0
 40
2.0
 40
2.0
 10
0.1713935004340278
 20
-0.4690497504340278
 30
0.0
 10
0.0904337565104167
 20
-0.4008368598090277
 30
0.0
 10
-0.0115410698784722
 20
-0.2816365559895833
 30
0.0
 10
-0.0680406358506944
 20
-0.1765611436631944
 30
0.0
 10
-0.1865519205729166
 20
0.0466810438368056
 30
0.0
 10
-0.19998779296875
 20
0.2895602756076389
 30
0.0
 10
-0.1238511827256944
 20
0.4690497504340278
 30
0.0
  0
ENDBLK
  5
B625
330
B622
100
AcDbEntity
  8
REAR_STICK
100
AcDbBlockEnd
  0
BLOCK
  5
B627
330
B626
100
AcDbEntity
  8
REAR_STICK
 62
     7
100
AcDbBlockBegin
  2
AI9-BLK97
 70
     0
 10
0.0
 20
0.0
 30
0.0
  3
AI9-BLK97
  1

  4

  0
ELLIPSE
  5
B628
330
B626
100
AcDbEntity
  8
REAR_STICK
 62
     7
100
AcDbEllipse
 10
0.0001722547743056
 20
-0.0000861273871528
 30
0.0
 11
0.3224609375
 21
-0.6101264105902777
 31
0.0
210
0.0
220
0.0
230
1.0
 40
0.7485907450578954
 41
0.0
 42
6.283185307179586
  0
ENDBLK
  5
B629
330
B626
100
AcDbEntity
  8
REAR_STICK
100
AcDbBlockEnd
  0
BLOCK
  5
B630
330
B62F
100
AcDbEntity
  8
REAR_STICK
 62
     7
100
AcDbBlockBegin
  2
AI9-BLK99
 70
     0
 10
0.0
 20
0.0
 30
0.0
  3
AI9-BLK99
  1

  4

  0
SPLINE
  5
B631
330
B62F
100
AcDbEntity
  8
REAR_STICK
 62
     7
100
AcDbSpline
210
0.0
220
0.0
230
1.0
 70
     8
 71
     3
 72
    11
 73
     7
 74
     0
 42
0.0000000001
 43
0.0000000001
 40
0.0
 40
0.0
 40
0.0
 40
0.0
 40
1.0
 40
1.0
 40
1.0
 40
2.0
 40
2.0
 40
2.0
 40
2.0
 10
0.1713935004340278
 20
-0.4688774956597222
 30
0.0
 10
0.0907782660590278
 20
-0.4006646050347222
 30
0.0
 10
-0.0122300889756944
 20
-0.2818088107638889
 30
0.0
 10
-0.0680406358506944
 20
-0.1763888888888889
 30
0.0
 10
-0.1865519205729166
 20
0.0468532986111111
 30
0.0
 10
-0.2003323025173611
 20
0.2893880208333333
 30
0.0
 10
-0.1235066731770833
 20
0.4688774956597222
 30
0.0
  0
ENDBLK
  5
B632
330
B62F
100
AcDbEntity
  8
REAR_STICK
100
AcDbBlockEnd
  0
BLOCK
  5
B634
330
B633
100
AcDbEntity
  8
REAR_STICK
 62
     7
100
AcDbBlockBegin
  2
AI9-BLK100
 70
     0
 10
0.0
 20
0.0
 30
0.0
  3
AI9-BLK100
  1

  4

  0
ELLIPSE
  5
B635
330
B633
100
AcDbEntity
  8
REAR_STICK
 62
     7
100
AcDbEllipse
 10
-0.0003445095486111
 20
0.0004306369357639
 30
0.0
 11
0.3231499565972222
 21
-0.6111599392361111
 31
0.0
210
0.0
220
0.0
230
1.0
 40
0.7479286439654502
 41
0.0
 42
6.283185307179586
  0
ENDBLK
  5
B636
330
B633
100
AcDbEntity
  8
REAR_STICK
100
AcDbBlockEnd
  0
BLOCK
  5
B63D
330
B63C
100
AcDbEntity
  8
REAR_STICK
 62
     7
100
AcDbBlockBegin
  2
AI9-BLK102
 70
     0
 10
0.0
 20
0.0
 30
0.0
  3
AI9-BLK102
  1

  4

  0
SPLINE
  5
B63E
330
B63C
100
AcDbEntity
  8
REAR_STICK
 62
     7
100
AcDbSpline
210
0.0
220
0.0
230
1.0
 70
     8
 71
     3
 72
    11
 73
     7
 74
     0
 42
0.0000000001
 43
0.0000000001
 40
0.0
 40
0.0
 40
0.0
 40
0.0
 40
1.0
 40
1.0
 40
1.0
 40
2.0
 40
2.0
 40
2.0
 40
2.0
 10
0.1713935004340278
 20
-0.4690497504340278
 30
0.0
 10
0.0897447374131944
 20
-0.4008368598090277
 30
0.0
 10
-0.0122300889756944
 20
-0.2823255750868055
 30
0.0
 10
-0.0687296549479167
 20
-0.1769056532118055
 30
0.0
 10
-0.1872409396701389
 20
0.0463365342881944
 30
0.0
 10
-0.19998779296875
 20
0.2895602756076389
 30
0.0
 10
-0.1238511827256944
 20
0.4690497504340278
 30
0.0
  0
ENDBLK
  5
B63F
330
B63C
100
AcDbEntity
  8
REAR_STICK
100
AcDbBlockEnd
  0
BLOCK
  5
B641
330
B640
100
AcDbEntity
  8
REAR_STICK
 62
     7
100
AcDbBlockBegin
  2
AI9-BLK103
 70
     0
 10
0.0
 20
0.0
 30
0.0
  3
AI9-BLK103
  1

  4

  0
ELLIPSE
  5
B642
330
B640
100
AcDbEntity
  8
REAR_STICK
 62
     7
100
AcDbEllipse
 10
0.0003445095486111
 20
0.0002583821614583
 30
0.0
 11
0.3233222113715278
 21
-0.6106431749131944
 31
0.0
210
0.0
220
0.0
230
1.0
 40
0.7484356063185049
 41
0.0
 42
6.283185307179586
  0
ENDBLK
  5
B643
330
B640
100
AcDbEntity
  8
REAR_STICK
100
AcDbBlockEnd
  0
BLOCK
  5
B64A
330
B649
100
AcDbEntity
  8
REAR_STICK
 62
     7
100
AcDbBlockBegin
  2
AI9-BLK105
 70
     0
 10
0.0
 20
0.0
 30
0.0
  3
AI9-BLK105
  1

  4

  0
SPLINE
  5
B64B
330
B649
100
AcDbEntity
  8
REAR_STICK
 62
     7
100
AcDbSpline
210
0.0
220
0.0
230
1.0
 70
     8
 71
     3
 72
    11
 73
     7
 74
     0
 42
0.0000000001
 43
0.0000000001
 40
0.0
 40
0.0
 40
0.0
 40
0.0
 40
1.0
 40
1.0
 40
1.0
 40
2.0
 40
2.0
 40
2.0
 40
2.0
 10
0.1712212456597222
 20
-0.4690497504340278
 30
0.0
 10
0.0899169921875
 20
-0.4008368598090277
 30
0.0
 10
-0.01240234375
 20
-0.2816365559895833
 30
0.0
 10
-0.0675238715277778
 20
-0.1765611436631944
 30
0.0
 10
-0.1863796657986111
 20
0.0466810438368056
 30
0.0
 10
-0.1998155381944444
 20
0.2892157660590278
 30
0.0
 10
-0.1240234375
 20
0.4690497504340278
 30
0.0
  0
ENDBLK
  5
B64C
330
B649
100
AcDbEntity
  8
REAR_STICK
100
AcDbBlockEnd
  0
BLOCK
  5
B64E
330
B64D
100
AcDbEntity
  8
REAR_STICK
 62
     7
100
AcDbBlockBegin
  2
AI9-BLK106
 70
     0
 10
0.0
 20
0.0
 30
0.0
  3
AI9-BLK106
  1

  4

  0
ELLIPSE
  5
B64F
330
B64D
100
AcDbEntity
  8
REAR_STICK
 62
     7
100
AcDbEllipse
 10
0.0006890190972222
 20
0.0
 30
0.0
 11
0.3224609375
 21
-0.6102986653645833
 31
0.0
210
0.0
220
0.0
230
1.0
 40
0.749421654886094
 41
0.0
 42
6.283185307179586
  0
ENDBLK
  5
B650
330
B64D
100
AcDbEntity
  8
REAR_STICK
100
AcDbBlockEnd
  0
BLOCK
  5
B657
330
B656
100
AcDbEntity
  8
REAR_STICK
 62
     7
100
AcDbBlockBegin
  2
AI9-BLK108
 70
     0
 10
0.0
 20
0.0
 30
0.0
  3
AI9-BLK108
  1

  4

  0
SPLINE
  5
B658
330
B656
100
AcDbEntity
  8
REAR_STICK
 62
     7
100
AcDbSpline
210
0.0
220
0.0
230
1.0
 70
     8
 71
     3
 72
    11
 73
     7
 74
     0
 42
0.0000000001
 43
0.0000000001
 40
0.0
 40
0.0
 40
0.0
 40
0.0
 40
1.0
 40
1.0
 40
1.0
 40
2.0
 40
2.0
 40
2.0
 40
2.0
 10
0.1712212456597222
 20
-0.4688774956597222
 30
0.0
 10
0.0902615017361111
 20
-0.4006646050347222
 30
0.0
 10
-0.0120578342013889
 20
-0.2818088107638889
 30
0.0
 10
-0.068212890625
 20
-0.1767333984375
 30
0.0
 10
-0.18603515625
 20
0.0465087890625
 30
0.0
 10
-0.2001600477430555
 20
0.2893880208333333
 30
0.0
 10
-0.1240234375
 20
0.4688774956597222
 30
0.0
  0
ENDBLK
  5
B659
330
B656
100
AcDbEntity
  8
REAR_STICK
100
AcDbBlockEnd
  0
BLOCK
  5
B65B
330
B65A
100
AcDbEntity
  8
REAR_STICK
 62
     7
100
AcDbBlockBegin
  2
AI9-BLK109
 70
     0
 10
0.0
 20
0.0
 30
0.0
  3
AI9-BLK109
  1

  4

  0
ELLIPSE
  5
B65C
330
B65A
100
AcDbEntity
  8
REAR_STICK
 62
     7
100
AcDbEllipse
 10
0.0005167643229167
 20
-0.0000861273871528
 30
0.0
 11
0.3229777018229167
 21
-0.6106431749131944
 31
0.0
210
0.0
220
0.0
230
1.0
 40
0.7477342379046389
 41
0.0
 42
6.283185307179586
  0
ENDBLK
  5
B65D
330
B65A
100
AcDbEntity
  8
REAR_STICK
100
AcDbBlockEnd
  0
BLOCK
  5
BD8A
330
BD87
100
AcDbEntity
  8
0
100
AcDbBlockBegin
  2
sstmodel
 70
     2
 10
0.0
 20
0.0
 30
0.0
  3
sstmodel
  1

  4

  0
ATTDEF
  5
BD8B
330
BD87
100
AcDbEntity
  8
NOTE
100
AcDbText
 10
-0.017158740347781
 20
-0.047694410726082
 30
0.0
 40
0.09
  1

  7
HELVETICA
 72
     1
 11
-0.017158740347781
 21
-0.047694410726082
 31
0.0
100
AcDbAttributeDefinition
  3
Enter Model No.
  2
MODEL
 70
     0
  0
ATTDEF
  5
BD8C
330
BD87
100
AcDbEntity
  8
NOTE
100
AcDbText
 10
-0.0004587403477809
 20
-0.2007844647268215
 30
0.0
 40
0.09
  1

  7
HELVETICA
 72
     1
 11
-0.0004587403477809
 21
-0.2007844647268215
 31
0.0
100
AcDbAttributeDefinition
  3
Enter Code No. or Patent
  2
APPROVAL
 70
     4
  0
TEXT
  5
BD8D
330
BD87
100
AcDbEntity
  8
0
100
AcDbText
 10
-0.6953396409425234
 20
0.107302245609844
 30
0.0
 40
0.09
  1
SIMPSON Strong-Tie
  7
HELVETICA
 72
     1
 11
-0.0010539266568089
 21
0.107302245609844
 31
0.0
100
AcDbText
  0
TEXT
  5
BD8E
330
BD87
100
AcDbEntity
  8
NOTE
100
AcDbText
 10
0.7437759301119596
 20
0.1498088353144997
 30
0.0
 40
0.05184
  1
R
  7
HELVETICA
100
AcDbText
  0
CIRCLE
  5
BD8F
330
BD87
100
AcDbEntity
  8
NOTE
100
AcDbCircle
 10
0.759641433609472
 20
0.175605771415941
 30
0.0
 40
0.0337881099853014
  0
ENDBLK
  5
BD90
330
BD87
100
AcDbEntity
  8
0
100
AcDbBlockEnd
  0
ENDSEC
  0
SECTION
  2
ENTITIES
  0
LINE
  5
B703
330
1A
100
AcDbEntity
  8
0
100
AcDbLine
 10
0.447583149777282
 20
2.187336976372292
 30
0.0
 11
0.4030656259057537
 21
2.169624017930452
 31
0.0
  0
LINE
  5
B704
330
1A
100
AcDbEntity
  8
0
100
AcDbLine
 10
0.419255852142733
 20
1.979864713459965
 30
0.0
 11
0.3747383282712065
 21
1.964099956515521
 31
0.0
  0
LINE
  5
B705
330
1A
100
AcDbEntity
  8
0
100
AcDbLine
 10
0.443104525645337
 20
1.9641671358775
 30
0.0
 11
0.3986093948944696
 21
1.948402378933055
 31
0.0
  0
LINE
  5
B70C
330
1A
100
AcDbEntity
  8
0
100
AcDbLine
 10
0.391981031179192
 20
9.103161181558924
 30
0.0
 11
0.4443585404022823
 21
9.123628493841911
 31
0.0
  0
LINE
  5
B70D
330
1A
100
AcDbEntity
  8
0
100
AcDbLine
 10
0.3966164071557543
 20
3.005850322726459
 30
0.0
 11
0.3966164071557543
 21
2.324920309705625
 31
0.0
  0
LINE
  5
B710
330
1A
100
AcDbEntity
  8
0
100
AcDbLine
 10
-0.3145443187557042
 20
0.4116744736596179
 30
0.0
 11
-0.3145443187557042
 21
0.369239510009443
 31
0.0
  0
LINE
  5
B711
330
1A
100
AcDbEntity
  8
0
100
AcDbLine
 10
-0.1107893138728926
 20
0.4057402966847912
 30
0.0
 11
-0.1107893138728926
 21
0.3601926892629166
 31
0.0
  0
SPLINE
  5
B712
330
1A
100
AcDbEntity
  8
0
100
AcDbSpline
210
0.0
220
0.0
230
1.0
 70
     8
 71
     3
 72
     8
 73
     4
 74
     0
 42
0.0000000001
 43
0.0000000001
 40
0.0
 40
0.0
 40
0.0
 40
0.0
 40
1.0
 40
1.0
 40
1.0
 40
1.0
 10
0.2154112747772849
 20
1.327665074245557
 30
0.0
 10
0.2154112747772849
 20
1.327665074245557
 30
0.0
 10
0.1760665617781552
 20
1.315796720295904
 30
0.0
 10
0.1927046504283307
 20
1.23227038023514
 30
0.0
  0
LINE
  5
B715
330
1A
100
AcDbEntity
  8
0
100
AcDbLine
 10
0.0268164125811019
 20
3.162982850395729
 30
0.0
 11
0.0263125673662579
 21
2.481582581841041
 31
0.0
  0
LINE
  5
B717
330
1A
100
AcDbEntity
  8
0
100
AcDbLine
 10
0.4479974225094878
 20
2.29139780807802
 30
0.0
 11
0.4476503291392611
 21
2.98072524134625
 31
0.0
  0
LINE
  5
B73A
330
1A
100
AcDbEntity
  8
0
100
AcDbLine
 10
2.488660115109314
 20
1.926927376220382
 30
0.0
 11
2.488660115109314
 21
1.8867765108775
 31
0.0
  0
LINE
  5
B73B
330
1A
100
AcDbEntity
  8
0
100
AcDbLine
 10
2.199430568668342
 20
2.722666918863611
 30
0.0
 11
2.155495265933967
 21
2.705289857231666
 31
0.0
  0
LINE
  5
B741
330
1A
100
AcDbEntity
  8
0
100
AcDbLine
 10
-0.6408344798885164
 20
3.297005677544166
 30
0.0
 11
-0.6150376048885171
 21
3.288406719210833
 31
0.0
  0
LINE
  5
B742
330
1A
100
AcDbEntity
  8
0
100
AcDbLine
 10
-0.7953917986819192
 20
3.217510099202152
 30
0.0
 11
-0.6301865510148179
 21
3.145045960747292
 31
0.0
  0
LINE
  5
B746
330
1A
100
AcDbEntity
  8
0
100
AcDbLine
 10
0.8744408157929069
 20
2.08589613978375
 30
0.0
 11
0.8328791838484637
 21
2.100227737005972
 31
0.0
  0
SPLINE
  5
B747
330
1A
100
AcDbEntity
  8
0
100
AcDbSpline
210
0.0
220
0.0
230
1.0
 70
     8
 71
     3
 72
     8
 73
     4
 74
     0
 42
0.0000000001
 43
0.0000000001
 40
0.0
 40
0.0
 40
0.0
 40
0.0
 40
1.0
 40
1.0
 40
1.0
 40
1.0
 10
1.404519571489525
 20
2.240117561767255
 30
0.0
 10
1.404519571489525
 20
2.240117561767255
 30
0.0
 10
1.407945718950462
 20
2.198354391736877
 30
0.0
 10
1.444289753781195
 20
2.183171855929586
 30
0.0
  0
LINE
  5
B748
330
1A
100
AcDbEntity
  8
0
100
AcDbLine
 10
1.174127949581969
 20
1.419006613416562
 30
0.0
 11
1.318126911984313
 21
1.94649896367698
 31
0.0
  0
SPLINE
  5
B74D
330
1A
100
AcDbEntity
  8
0
100
AcDbSpline
210
0.0
220
0.0
230
1.0
 70
     8
 71
     3
 72
    11
 73
     7
 74
     0
 42
0.0000000001
 43
0.0000000001
 40
0.0
 40
0.0
 40
0.0
 40
0.0
 40
1.0
 40
1.0
 40
1.0
 40
2.0
 40
2.0
 40
2.0
 40
2.0
 10
0.8913252287703397
 20
2.625794278889652
 30
0.0
 10
0.9380372784665241
 20
2.574693177544169
 30
0.0
 10
1.005440571652287
 20
2.482590272270729
 30
0.0
 10
1.005440571652287
 20
2.344648649006838
 30
0.0
 10
1.005440571652287
 20
2.302594368407881
 30
0.0
 10
1.007534328433971
 20
2.201355069905276
 30
0.0
 10
1.01153150047173
 20
2.042968527479062
 30
0.0
  0
SPLINE
  5
B74E
330
1A
100
AcDbEntity
  8
0
100
AcDbSpline
210
0.0
220
0.0
230
1.0
 70
     8
 71
     3
 72
     8
 73
     4
 74
     0
 42
0.0000000001
 43
0.0000000001
 40
0.0
 40
0.0
 40
0.0
 40
0.0
 40
1.0
 40
1.0
 40
1.0
 40
1.0
 10
1.01153150047173
 20
2.042968527479062
 30
0.0
 10
1.013837991899685
 20
1.954784418321077
 30
0.0
 10
1.01651396981852
 20
1.861561857014652
 30
0.0
 10
1.019033195892739
 20
1.781685595621422
 30
0.0
  0
SPLINE
  5
B74F
330
1A
100
AcDbEntity
  8
0
100
AcDbSpline
210
0.0
220
0.0
230
1.0
 70
     8
 71
     3
 72
     8
 73
     4
 74
     0
 42
0.0000000001
 43
0.0000000001
 40
0.0
 40
0.0
 40
0.0
 40
0.0
 40
1.0
 40
1.0
 40
1.0
 40
1.0
 10
1.02281763328423
 20
1.704496508707364
 30
0.0
 10
1.025885490814613
 20
1.610803691867083
 30
0.0
 10
1.028147196001244
 20
1.54559492450597
 30
0.0
 10
1.028147196001244
 20
1.54559492450597
 30
0.0
  0
LINE
  5
B750
330
1A
100
AcDbEntity
  8
0
100
AcDbLine
 10
-0.560958218495287
 20
3.839143128716041
 30
0.0
 11
0.0233218312963075
 21
3.596398490020427
 31
0.0
  0
LINE
  5
B752
330
1A
100
AcDbEntity
  8
0
100
AcDbLine
 10
-0.1432593388294894
 20
3.488825149115348
 30
0.0
 11
-0.1432593388294894
 21
3.347255840304583
 31
0.0
  0
LINE
  5
B753
330
1A
100
AcDbEntity
  8
0
100
AcDbLine
 10
0.6739999927677332
 20
3.148315356363612
 30
0.0
 11
0.6739999927677332
 21
2.990511035074548
 31
0.0
  0
LINE
  5
B754
330
1A
100
AcDbEntity
  8
0
100
AcDbLine
 10
0.5391038339135665
 20
3.150420309705625
 30
0.0
 11
0.5391038339135665
 21
2.998169482340174
 31
0.0
  0
LINE
  5
B755
330
1A
100
AcDbEntity
  8
0
100
AcDbLine
 10
-0.0479318241810507
 20
3.390944818711701
 30
0.0
 11
-0.0479318241810507
 21
3.25159242884625
 31
0.0
  0
LINE
  5
B75F
330
1A
100
AcDbEntity
  8
0
100
AcDbLine
 10
2.932581339067648
 20
1.953754334770729
 30
0.0
 11
2.932581339067648
 21
1.914879877305451
 31
0.0
  0
LINE
  5
B760
330
1A
100
AcDbEntity
  8
0
100
AcDbLine
 10
2.774060437917473
 20
1.865973301784617
 30
0.0
 11
2.774060437917473
 21
1.82712123744
 31
0.0
  0
LINE
  5
B761
330
1A
100
AcDbEntity
  8
0
100
AcDbLine
 10
1.659622002045078
 20
3.140209046684792
 30
0.0
 11
1.659622002045078
 21
2.971678420599722
 31
0.0
  0
LINE
  5
B762
330
1A
100
AcDbEntity
  8
0
100
AcDbLine
 10
1.705595078759487
 20
3.120077631211702
 30
0.0
 11
1.705595078759487
 21
2.950472135334965
 31
0.0
  0
LINE
  5
B763
330
1A
100
AcDbEntity
  8
0
100
AcDbLine
 10
1.276744425005147
 20
3.29355713696257
 30
0.0
 11
1.276744425005147
 21
3.131878805799375
 31
0.0
  0
LINE
  5
B764
330
1A
100
AcDbEntity
  8
0
100
AcDbLine
 10
1.127707010454365
 20
3.358900263047639
 30
0.0
 11
1.862682820187439
 21
3.063221497856667
 31
0.0
  0
LINE
  5
B765
330
1A
100
AcDbEntity
  8
0
100
AcDbLine
 10
1.766593939436572
 20
3.094661439262917
 30
0.0
 11
1.766593939436572
 21
2.949598803629236
 31
0.0
  0
LINE
  5
B766
330
1A
100
AcDbEntity
  8
0
100
AcDbLine
 10
1.856905395057229
 20
3.025466696424375
 30
0.0
 11
1.856905395057229
 21
2.890928827500764
 31
0.0
  0
LINE
  5
B767
330
1A
100
AcDbEntity
  8
0
100
AcDbLine
 10
1.232014166487351
 20
3.303857972466042
 30
0.0
 11
1.232014166487351
 21
3.173171720295903
 31
0.0
  0
LINE
  5
B768
330
1A
100
AcDbEntity
  8
0
100
AcDbLine
 10
1.132275207068949
 20
3.317607348551111
 30
0.0
 11
1.132275207068949
 21
3.189205194688264
 31
0.0
  0
LINE
  5
B76A
330
1A
100
AcDbEntity
  8
0
100
AcDbLine
 10
2.763535671207404
 20
2.838170635226459
 30
0.0
 11
2.719600368473028
 21
2.818778192735139
 31
0.0
  0
LINE
  5
B76B
330
1A
100
AcDbEntity
  8
0
100
AcDbLine
 10
2.790138698551154
 20
2.100003805799375
 30
0.0
 11
2.707575262678757
 21
2.134399639132708
 31
0.0
  0
LINE
  5
B76C
330
1A
100
AcDbEntity
  8
0
100
AcDbLine
 10
2.55183110849039
 20
2.204669251762916
 30
0.0
 11
2.47441809036973
 21
2.239244230061527
 31
0.0
  0
LINE
  5
B76D
330
1A
100
AcDbEntity
  8
0
100
AcDbLine
 10
2.332624850352367
 20
2.302571975287222
 30
0.0
 11
2.258526014089348
 21
2.335624221380972
 31
0.0
  0
SPLINE
  5
B76F
330
1A
100
AcDbEntity
  8
0
100
AcDbSpline
210
0.0
220
0.0
230
1.0
 70
    24
 71
     3
 72
     8
 73
     4
 74
     0
 42
0.0000000001
 43
0.0000000001
 40
0.0
 40
0.0
 40
0.0
 40
0.0
 40
0.0961624003016114
 40
0.0961624003016114
 40
0.0961624003016114
 40
0.0961624003016114
 10
-0.0487379765247962
 20
3.925602967583227
 30
0.0
 10
-0.0487379765247962
 20
3.925602967583231
 30
0.0
 10
-0.023069829650284
 20
3.91533997455427
 30
0.0
 10
0.0233298428692326
 20
3.896787816584233
 30
0.0
  0
LINE
  5
B773
330
1A
100
AcDbEntity
  8
0
100
AcDbLine
 10
1.657225938134488
 20
9.236355463242951
 30
0.0
 11
1.710096096012091
 21
9.259487556884446
 31
0.0
  0
SPLINE
  5
B785
330
1A
100
AcDbEntity
  8
0
100
AcDbSpline
210
0.0
220
0.0
230
1.0
 70
     8
 71
     3
 72
     8
 73
     4
 74
     0
 42
0.0000000001
 43
0.0000000001
 40
0.0
 40
0.0
 40
0.0
 40
0.0
 40
1.0
 40
1.0
 40
1.0
 40
1.0
 10
1.443685139523378
 20
1.438578200873158
 30
0.0
 10
1.466682874440915
 20
1.429397021402672
 30
0.0
 10
1.496622476762964
 20
1.40483176803896
 30
0.0
 10
1.485313950829806
 20
1.333039423203888
 30
0.0
  0
SPLINE
  5
B787
330
1A
100
AcDbEntity
  8
0
100
AcDbSpline
210
0.0
220
0.0
230
1.0
 70
     8
 71
     3
 72
     8
 73
     4
 74
     0
 42
0.0000000001
 43
0.0000000001
 40
0.0
 40
0.0
 40
0.0
 40
0.0
 40
1.0
 40
1.0
 40
1.0
 40
1.0
 10
1.69287578622477
 20
1.099344815999029
 30
0.0
 10
1.69287578622477
 20
1.099344815999029
 30
0.0
 10
1.843760633229977
 20
1.105167027370556
 30
0.0
 10
1.903169582340217
 20
1.094015253282013
 30
0.0
  0
LINE
  5
B788
330
1A
100
AcDbEntity
  8
0
100
AcDbLine
 10
1.659622002045078
 20
2.085403491129236
 30
0.0
 11
1.659622002045078
 21
1.787955669406146
 31
0.0
  0
SPLINE
  5
B78E
330
1A
100
AcDbEntity
  8
0
100
AcDbSpline
210
0.0
220
0.0
230
1.0
 70
     8
 71
     3
 72
     8
 73
     4
 74
     0
 42
0.0000000001
 43
0.0000000001
 40
16.48656166138627
 40
16.48656166138627
 40
16.48656166138627
 40
16.48656166138627
 40
17.0
 40
17.0
 40
17.0
 40
17.0
 10
1.70304790206904
 20
2.060705747792729
 30
0.0
 10
1.703652302488175
 20
1.985544142248468
 30
0.0
 10
1.704304164131839
 20
1.882539597537062
 30
0.0
 10
1.704430636485181
 20
1.776624750352325
 30
0.0
  0
SPLINE
  5
B7E3
330
1A
100
AcDbEntity
  8
0
100
AcDbSpline
210
0.0
220
0.0
230
1.0
 70
    24
 71
     3
 72
     8
 73
     4
 74
     0
 42
0.0000000001
 43
0.0000000001
 40
0.0
 40
0.0
 40
0.0
 40
0.0
 40
1.0
 40
1.0
 40
1.0
 40
1.0
 10
2.830603067583278
 20
1.896495125243821
 30
0.0
 10
2.830603067583278
 20
1.896495125243821
 30
0.0
 10
2.774060437917475
 20
1.868011075764654
 30
0.0
 10
2.774060437917475
 20
1.868011075764654
 30
0.0
  0
SPLINE
  5
B7E4
330
1A
100
AcDbEntity
  8
0
100
AcDbSpline
210
0.0
220
0.0
230
1.0
 70
    24
 71
     3
 72
     8
 73
     4
 74
     0
 42
0.0000000001
 43
0.0000000001
 40
1.0
 40
1.0
 40
1.0
 40
1.0
 40
2.0
 40
2.0
 40
2.0
 40
2.0
 10
2.774060437917475
 20
1.868011075764654
 30
0.0
 10
2.774060437917475
 20
1.868011075764654
 30
0.0
 10
2.557071098724766
 20
1.957852275851461
 30
0.0
 10
2.557071098724766
 20
1.957852275851461
 30
0.0
  0
SPLINE
  5
B7E5
330
1A
100
AcDbEntity
  8
0
100
AcDbSpline
210
0.0
220
0.0
230
1.0
 70
    24
 71
     3
 72
     8
 73
     4
 74
     0
 42
0.0000000001
 43
0.0000000001
 40
2.0
 40
2.0
 40
2.0
 40
2.0
 40
3.0
 40
3.0
 40
3.0
 40
3.0
 10
2.557071098724766
 20
1.957852275851461
 30
0.0
 10
2.557071098724766
 20
1.957852275851461
 30
0.0
 10
2.488660115109317
 20
1.926927376220381
 30
0.0
 10
2.488660115109317
 20
1.926927376220381
 30
0.0
  0
SPLINE
  5
B7E6
330
1A
100
AcDbEntity
  8
0
100
AcDbSpline
210
0.0
220
0.0
230
1.0
 70
     8
 71
     3
 72
     8
 73
     4
 74
     0
 42
0.0000000001
 43
0.0000000001
 40
3.0
 40
3.0
 40
3.0
 40
3.0
 40
4.0
 40
4.0
 40
4.0
 40
4.0
 10
2.488660115109317
 20
1.926927376220381
 30
0.0
 10
2.488660115109317
 20
1.926927376220381
 30
0.0
 10
2.448464463525117
 20
1.957852275851461
 30
0.0
 10
2.397117037852372
 20
1.93599659008757
 30
0.0
  0
SPLINE
  5
B7E7
330
1A
100
AcDbEntity
  8
0
100
AcDbSpline
210
0.0
220
0.0
230
1.0
 70
     8
 71
     3
 72
     8
 73
     4
 74
     0
 42
0.0000000001
 43
0.0000000001
 40
4.0
 40
4.0
 40
4.0
 40
4.0
 40
5.0
 40
5.0
 40
5.0
 40
5.0
 10
2.397117037852372
 20
1.93599659008757
 30
0.0
 10
2.348143282969561
 20
1.915170987874027
 30
0.0
 10
2.400946261485185
 20
1.883260790933921
 30
0.0
 10
2.400946261485185
 20
1.883260790933921
 30
0.0
  0
SPLINE
  5
B7E8
330
1A
100
AcDbEntity
  8
0
100
AcDbSpline
210
0.0
220
0.0
230
1.0
 70
     8
 71
     3
 72
     8
 73
     4
 74
     0
 42
0.0000000001
 43
0.0000000001
 40
5.0
 40
5.0
 40
5.0
 40
5.0
 40
6.0
 40
6.0
 40
6.0
 40
6.0
 10
2.400946261485185
 20
1.883260790933921
 30
0.0
 10
2.400946261485185
 20
1.883260790933921
 30
0.0
 10
2.357369248681367
 20
1.862703906168298
 30
0.0
 10
2.335507471342421
 20
1.854776229932222
 30
0.0
  0
SPLINE
  5
B7EB
330
1A
100
AcDbEntity
  8
0
100
AcDbSpline
210
0.0
220
0.0
230
1.0
 70
     8
 71
     3
 72
     8
 73
     4
 74
     0
 42
0.0000000001
 43
0.0000000001
 40
8.0
 40
8.0
 40
8.0
 40
8.0
 40
9.0
 40
9.0
 40
9.0
 40
9.0
 10
2.308882050878008
 20
1.885902667649237
 30
0.0
 10
2.310113672514296
 20
1.87114560113448
 30
0.0
 10
2.316159815092421
 20
1.846781885856703
 30
0.0
 10
2.335507471342421
 20
1.854776229932222
 30
0.0
  0
LINE
  5
BC57
330
1A
100
AcDbEntity
  8
0
100
AcDbLine
 10
1.657140913241499
 20
3.285038078543151
 30
0.0
 11
1.657225938134488
 21
9.236355463242951
 31
0.0
  0
LINE
  5
BC58
330
1A
100
AcDbEntity
  8
0
100
AcDbLine
 10
1.657225938134488
 20
9.236355463242951
 30
0.0
 11
1.283843044254279
 21
9.266384638047638
 31
0.0
  0
LINE
  5
BC59
330
1A
100
AcDbEntity
  8
0
100
AcDbLine
 10
1.338034396250807
 20
9.296704923420904
 30
0.0
 11
1.707408921532926
 21
9.268803095078887
 31
0.0
  0
LINE
  5
BC5A
330
1A
100
AcDbEntity
  8
0
100
AcDbLine
 10
1.707408921532926
 20
9.268803095078887
 30
0.0
 11
1.704963084809094
 21
3.266039194143527
 31
0.0
  0
LINE
  5
BC5B
330
1A
100
AcDbEntity
  8
0
100
AcDbLine
 10
1.277819294796814
 20
3.435735701484055
 30
0.0
 11
1.277819294796814
 21
9.279081537461703
 31
0.0
  0
LINE
  5
BC5C
330
1A
100
AcDbEntity
  8
0
100
AcDbLine
 10
1.277819294796814
 20
9.279081537461703
 30
0.0
 11
1.338034396250807
 21
9.296704923420904
 31
0.0
  0
SPLINE
  5
BC5D
330
1A
100
AcDbEntity
  8
0
100
AcDbSpline
210
0.0
220
0.0
230
1.0
 70
     8
 71
     3
 72
     8
 73
     4
 74
     0
 42
0.0000000001
 43
0.0000000001
 40
0.0
 40
0.0
 40
0.0
 40
0.0
 40
1.0
 40
1.0
 40
1.0
 40
1.0
 10
1.704430636485181
 20
1.776624750352325
 30
0.0
 10
1.704475422726503
 20
1.551081239067605
 30
0.0
 10
1.702907904280327
 20
1.392627517279411
 30
0.0
 10
1.697264837874075
 20
1.360918858425245
 30
0.0
  0
SPLINE
  5
BC5E
330
1A
100
AcDbEntity
  8
0
100
AcDbSpline
210
0.0
220
0.0
230
1.0
 70
     8
 71
     3
 72
     8
 73
     4
 74
     0
 42
0.0000000001
 43
0.0000000001
 40
1.0
 40
1.0
 40
1.0
 40
1.0
 40
2.0
 40
2.0
 40
2.0
 40
2.0
 10
1.697264837874075
 20
1.360918858425245
 30
0.0
 10
1.683694606754285
 20
1.283684985269863
 30
0.0
 10
1.681791191498206
 20
1.224746291693471
 30
0.0
 10
1.681791191498206
 20
1.224746291693471
 30
0.0
  0
SPLINE
  5
BC5F
330
1A
100
AcDbEntity
  8
0
100
AcDbSpline
210
0.0
220
0.0
230
1.0
 70
     8
 71
     3
 72
     8
 73
     4
 74
     0
 42
0.0000000001
 43
0.0000000001
 40
2.0
 40
2.0
 40
2.0
 40
2.0
 40
3.0
 40
3.0
 40
3.0
 40
3.0
 10
1.681791191498206
 20
1.224746291693471
 30
0.0
 10
1.681791191498206
 20
1.224746291693471
 30
0.0
 10
1.919516560421819
 20
1.209407004041564
 30
0.0
 10
1.964952202240395
 20
1.209407004041564
 30
0.0
  0
SPLINE
  5
BC60
330
1A
100
AcDbEntity
  8
0
100
AcDbSpline
210
0.0
220
0.0
230
1.0
 70
     8
 71
     3
 72
     8
 73
     4
 74
     0
 42
0.0000000001
 43
0.0000000001
 40
3.0
 40
3.0
 40
3.0
 40
3.0
 40
4.0
 40
4.0
 40
4.0
 40
4.0
 10
1.964952202240395
 20
1.209407004041564
 30
0.0
 10
1.992898816823722
 20
1.199061382296772
 30
0.0
 10
2.098571953216959
 20
1.170689298420905
 30
0.0
 10
2.098571953216959
 20
1.170689298420905
 30
0.0
  0
SPLINE
  5
BC61
330
1A
100
AcDbEntity
  8
0
100
AcDbSpline
210
0.0
220
0.0
230
1.0
 70
    24
 71
     3
 72
     8
 73
     4
 74
     0
 42
0.0000000001
 43
0.0000000001
 40
4.0
 40
4.0
 40
4.0
 40
4.0
 40
5.0
 40
5.0
 40
5.0
 40
5.0
 10
2.098571953216959
 20
1.170689298420905
 30
0.0
 10
2.098571953216959
 20
1.170689298420905
 30
0.0
 10
2.223727104584144
 20
1.093343459662222
 30
0.0
 10
2.223727104584144
 20
1.093343459662222
 30
0.0
  0
SPLINE
  5
BC62
330
1A
100
AcDbEntity
  8
0
100
AcDbSpline
210
0.0
220
0.0
230
1.0
 70
    24
 71
     3
 72
     8
 73
     4
 74
     0
 42
0.0000000001
 43
0.0000000001
 40
5.0
 40
5.0
 40
5.0
 40
5.0
 40
6.0
 40
6.0
 40
6.0
 40
6.0
 10
2.223727104584144
 20
1.093343459662222
 30
0.0
 10
2.223727104584144
 20
1.093343459662222
 30
0.0
 10
2.237498873789871
 20
1.001621237439999
 30
0.0
 10
2.237498873789871
 20
1.001621237439999
 30
0.0
  0
SPLINE
  5
BC63
330
1A
100
AcDbEntity
  8
0
100
AcDbSpline
210
0.0
220
0.0
230
1.0
 70
    24
 71
     3
 72
     8
 73
     4
 74
     0
 42
0.0000000001
 43
0.0000000001
 40
6.0
 40
6.0
 40
6.0
 40
6.0
 40
7.0
 40
7.0
 40
7.0
 40
7.0
 10
2.237498873789871
 20
1.001621237439999
 30
0.0
 10
2.237498873789871
 20
1.001621237439999
 30
0.0
 10
2.228384873681364
 20
0.9511247503523261
 30
0.0
 10
2.228384873681364
 20
0.9511247503523261
 30
0.0
  0
SPLINE
  5
BC64
330
1A
100
AcDbEntity
  8
0
100
AcDbSpline
210
0.0
220
0.0
230
1.0
 70
     8
 71
     3
 72
     8
 73
     4
 74
     0
 42
0.0000000001
 43
0.0000000001
 40
7.0
 40
7.0
 40
7.0
 40
7.0
 40
8.0
 40
8.0
 40
8.0
 40
8.0
 10
2.228384873681364
 20
0.9511247503523261
 30
0.0
 10
2.07817182029595
 20
0.964941305799377
 30
0.0
 10
1.741088175005151
 20
0.9391444307993777
 30
0.0
 10
1.682619736962611
 20
0.924275398681321
 30
0.0
  0
SPLINE
  5
BC65
330
1A
100
AcDbEntity
  8
0
100
AcDbSpline
210
0.0
220
0.0
230
1.0
 70
     8
 71
     3
 72
     8
 73
     4
 74
     0
 42
0.0000000001
 43
0.0000000001
 40
8.0
 40
8.0
 40
8.0
 40
8.0
 40
9.0
 40
9.0
 40
9.0
 40
9.0
 10
1.682619736962611
 20
0.924275398681321
 30
0.0
 10
1.624106512678761
 20
0.9093615803219444
 30
0.0
 10
1.582835991302895
 20
0.9236931775441657
 30
0.0
 10
1.582835991302895
 20
0.9236931775441657
 30
0.0
  0
SPLINE
  5
BC66
330
1A
100
AcDbEntity
  8
0
100
AcDbSpline
210
0.0
220
0.0
230
1.0
 70
     8
 71
     3
 72
     8
 73
     4
 74
     0
 42
0.0000000001
 43
0.0000000001
 40
9.0
 40
9.0
 40
9.0
 40
9.0
 40
10.0
 40
10.0
 40
10.0
 40
10.0
 10
1.582835991302895
 20
0.9236931775441657
 30
0.0
 10
1.485358737071124
 20
0.9063609021535406
 30
0.0
 10
1.416611856645778
 20
0.9406671630042349
 30
0.0
 10
1.381006794796816
 20
0.9758243624399996
 30
0.0
  0
SPLINE
  5
BC67
330
1A
100
AcDbEntity
  8
0
100
AcDbSpline
210
0.0
220
0.0
230
1.0
 70
     8
 71
     3
 72
     8
 73
     4
 74
     0
 42
0.0000000001
 43
0.0000000001
 40
10.0
 40
10.0
 40
10.0
 40
10.0
 40
11.0
 40
11.0
 40
11.0
 40
11.0
 10
1.381006794796816
 20
0.9758243624399996
 30
0.0
 10
1.360136406341955
 20
0.996515605929583
 30
0.0
 10
1.352410779714351
 20
1.023969571858404
 30
0.0
 10
1.352410779714351
 20
1.023969571858404
 30
0.0
  0
SPLINE
  5
BC68
330
1A
100
AcDbEntity
  8
0
100
AcDbSpline
210
0.0
220
0.0
230
1.0
 70
     8
 71
     3
 72
     8
 73
     4
 74
     0
 42
0.0000000001
 43
0.0000000001
 40
11.0
 40
11.0
 40
11.0
 40
11.0
 40
12.0
 40
12.0
 40
12.0
 40
12.0
 10
1.352410779714351
 20
1.023969571858404
 30
0.0
 10
1.306975137895773
 20
1.051199606580624
 30
0.0
 10
1.297032592322857
 20
1.070927945881842
 30
0.0
 10
1.28023775182807
 20
1.124828187309793
 30
0.0
  0
SPLINE
  5
BC69
330
1A
100
AcDbEntity
  8
0
100
AcDbSpline
210
0.0
220
0.0
230
1.0
 70
     8
 71
     3
 72
    11
 73
     7
 74
     0
 42
0.0000000001
 43
0.0000000001
 40
12.0
 40
12.0
 40
12.0
 40
12.0
 40
13.0
 40
13.0
 40
13.0
 40
14.0
 40
14.0
 40
14.0
 40
14.0
 10
1.28023775182807
 20
1.124828187309793
 30
0.0
 10
1.263420518212612
 20
1.178750821858404
 30
0.0
 10
1.291008842865395
 20
1.265568950656147
 30
0.0
 10
1.291008842865395
 20
1.33366643058236
 30
0.0
 10
1.291008842865395
 20
1.401786303629236
 30
0.0
 10
1.268302218516435
 20
1.551685853325416
 30
0.0
 10
1.268302218516435
 20
1.551685853325416
 30
0.0
  0
SPLINE
  5
BC6A
330
1A
100
AcDbEntity
  8
0
100
AcDbSpline
210
0.0
220
0.0
230
1.0
 70
    24
 71
     3
 72
     8
 73
     4
 74
     0
 42
0.0000000001
 43
0.0000000001
 40
14.0
 40
14.0
 40
14.0
 40
14.0
 40
14.13312670861726
 40
14.13312670861726
 40
14.13312670861726
 40
14.13312670861726
 10
1.268302218516435
 20
1.551685853325416
 30
0.0
 10
1.268302218516435
 20
1.551685853325416
 30
0.0
 10
1.268302218516435
 20
1.56632984948287
 30
0.0
 10
1.268302218516435
 20
1.591718827778886
 30
0.0
  0
SPLINE
  5
BC6B
330
1A
100
AcDbEntity
  8
0
100
AcDbSpline
210
0.0
220
0.0
230
1.0
 70
     8
 71
     3
 72
     8
 73
     4
 74
     0
 42
0.0000000001
 43
0.0000000001
 40
0.0
 40
0.0
 40
0.0
 40
0.0
 40
1.0
 40
1.0
 40
1.0
 40
1.0
 10
1.692898179345427
 20
1.148654467691735
 30
0.0
 10
1.692898179345427
 20
1.148654467691735
 30
0.0
 10
1.915620157427027
 20
1.171517843885311
 30
0.0
 10
2.008260497596298
 20
1.097105503933056
 30
0.0
  0
SPLINE
  5
BC6C
330
1A
100
AcDbEntity
  8
0
100
AcDbSpline
210
0.0
220
0.0
230
1.0
 70
     8
 71
     3
 72
     8
 73
     4
 74
     0
 42
0.0000000001
 43
0.0000000001
 40
1.0
 40
1.0
 40
1.0
 40
1.0
 40
2.0
 40
2.0
 40
2.0
 40
2.0
 10
2.008260497596298
 20
1.097105503933056
 30
0.0
 10
2.008260497596298
 20
1.097105503933056
 30
0.0
 10
2.032803357839351
 20
1.064098044080625
 30
0.0
 10
1.972118000851504
 20
1.061858732014652
 30
0.0
  0
SPLINE
  5
BC6D
330
1A
100
AcDbEntity
  8
0
100
AcDbSpline
210
0.0
220
0.0
230
1.0
 70
     8
 71
     3
 72
     8
 73
     4
 74
     0
 42
0.0000000001
 43
0.0000000001
 40
2.0
 40
2.0
 40
2.0
 40
2.0
 40
3.0
 40
3.0
 40
3.0
 40
3.0
 10
1.972118000851504
 20
1.061858732014652
 30
0.0
 10
1.972118000851504
 20
1.061858732014652
 30
0.0
 10
1.779358018212617
 20
1.064187616563264
 30
0.0
 10
1.716097452348899
 20
1.047974997205626
 30
0.0
  0
SPLINE
  5
BC6E
330
1A
100
AcDbEntity
  8
0
100
AcDbSpline
210
0.0
220
0.0
230
1.0
 70
     8
 71
     3
 72
     8
 73
     4
 74
     0
 42
0.0000000001
 43
0.0000000001
 40
0.0
 40
0.0
 40
0.0
 40
0.0
 40
1.0
 40
1.0
 40
1.0
 40
1.0
 10
1.356240003347164
 20
1.023969571858404
 30
0.0
 10
1.356240003347164
 20
1.023969571858404
 30
0.0
 10
1.327061767127548
 20
1.077108447183924
 30
0.0
 10
1.358143418603241
 20
1.222327834662223
 30
0.0
  0
SPLINE
  5
BC6F
330
1A
100
AcDbEntity
  8
0
100
AcDbSpline
210
0.0
220
0.0
230
1.0
 70
     8
 71
     3
 72
     8
 73
     4
 74
     0
 42
0.0000000001
 43
0.0000000001
 40
1.0
 40
1.0
 40
1.0
 40
1.0
 40
2.0
 40
2.0
 40
2.0
 40
2.0
 10
1.358143418603241
 20
1.222327834662223
 30
0.0
 10
1.373437920013831
 20
1.298755555473855
 30
0.0
 10
1.346163099050289
 20
1.386670947183924
 30
0.0
 10
1.369563910139702
 20
1.439854608750764
 30
0.0
  0
SPLINE
  5
BC70
330
1A
100
AcDbEntity
  8
0
100
AcDbSpline
210
0.0
220
0.0
230
1.0
 70
     8
 71
     3
 72
     8
 73
     4
 74
     0
 42
0.0000000001
 43
0.0000000001
 40
2.0
 40
2.0
 40
2.0
 40
2.0
 40
3.0
 40
3.0
 40
3.0
 40
3.0
 10
1.369563910139702
 20
1.439854608750764
 30
0.0
 10
1.388217379649246
 20
1.508959779106667
 30
0.0
 10
1.461980319102375
 20
1.486029223551112
 30
0.0
 10
1.461980319102375
 20
1.486029223551112
 30
0.0
  0
SPLINE
  5
BC71
330
1A
100
AcDbEntity
  8
0
100
AcDbSpline
210
0.0
220
0.0
230
1.0
 70
     8
 71
     3
 72
     8
 73
     4
 74
     0
 42
0.0000000001
 43
0.0000000001
 40
3.0
 40
3.0
 40
3.0
 40
3.0
 40
4.0
 40
4.0
 40
4.0
 40
4.0
 10
1.461980319102375
 20
1.486029223551112
 30
0.0
 10
1.546044094058969
 20
1.455820903781147
 30
0.0
 10
1.541028035031191
 20
1.368308588242949
 30
0.0
 10
1.541028035031191
 20
1.368308588242949
 30
0.0
  0
SPLINE
  5
BC72
330
1A
100
AcDbEntity
  8
0
100
AcDbSpline
210
0.0
220
0.0
230
1.0
 70
     8
 71
     3
 72
     8
 73
     4
 74
     0
 42
0.0000000001
 43
0.0000000001
 40
4.0
 40
4.0
 40
4.0
 40
4.0
 40
5.0
 40
5.0
 40
5.0
 40
5.0
 10
1.541028035031191
 20
1.368308588242949
 30
0.0
 10
1.541028035031191
 20
1.368308588242949
 30
0.0
 10
1.541072821272513
 20
1.302584779106669
 30
0.0
 10
1.522396958642304
 20
1.181863465630103
 30
0.0
  0
SPLINE
  5
BC73
330
1A
100
AcDbEntity
  8
0
100
AcDbSpline
210
0.0
220
0.0
230
1.0
 70
     8
 71
     3
 72
     8
 73
     4
 74
     0
 42
0.0000000001
 43
0.0000000001
 40
5.0
 40
5.0
 40
5.0
 40
5.0
 40
6.0
 40
6.0
 40
6.0
 40
6.0
 10
1.522396958642304
 20
1.181863465630103
 30
0.0
 10
1.511066039588481
 20
1.10868274731413
 30
0.0
 10
1.526696437808969
 20
1.044078594210832
 30
0.0
 10
1.526696437808969
 20
1.044078594210832
 30
0.0
  0
SPLINE
  5
BC74
330
1A
100
AcDbEntity
  8
0
100
AcDbSpline
210
0.0
220
0.0
230
1.0
 70
     8
 71
     3
 72
     8
 73
     4
 74
     0
 42
0.0000000001
 43
0.0000000001
 40
6.0
 40
6.0
 40
6.0
 40
6.0
 40
7.0
 40
7.0
 40
7.0
 40
7.0
 10
1.526696437808969
 20
1.044078594210832
 30
0.0
 10
1.539012654171817
 20
0.9202446369625665
 30
0.0
 10
1.648223903629285
 20
0.9202446369625665
 30
0.0
 10
1.648223903629285
 20
0.9202446369625665
 30
0.0
  0
SPLINE
  5
BC75
330
1A
100
AcDbEntity
  8
0
100
AcDbSpline
210
0.0
220
0.0
230
1.0
 70
     8
 71
     3
 72
     8
 73
     4
 74
     0
 42
0.0000000001
 43
0.0000000001
 40
0.0
 40
0.0
 40
0.0
 40
0.0
 40
1.0
 40
1.0
 40
1.0
 40
1.0
 10
1.677760429779458
 20
1.220625957492081
 30
0.0
 10
1.669474975135357
 20
1.075025886962567
 30
0.0
 10
1.719053344275984
 20
1.035927498290692
 30
0.0
 10
1.759876003238658
 20
1.011474210530279
 30
0.0
  0
SPLINE
  5
BC76
330
1A
100
AcDbEntity
  8
0
100
AcDbSpline
210
0.0
220
0.0
230
1.0
 70
     8
 71
     3
 72
    11
 73
     7
 74
     0
 42
0.0000000001
 43
0.0000000001
 40
1.0
 40
1.0
 40
1.0
 40
1.0
 40
2.0
 40
2.0
 40
2.0
 40
3.0
 40
3.0
 40
3.0
 40
3.0
 10
1.759876003238658
 20
1.011474210530279
 30
0.0
 10
1.808961723724764
 20
0.9821392224660412
 30
0.0
 10
1.971558172835012
 20
1.006816441433055
 30
0.0
 10
2.049508625851505
 20
1.006816441433055
 30
0.0
 10
2.127414292626677
 20
1.006816441433055
 30
0.0
 10
2.221129502587619
 20
1.001621237439999
 30
0.0
 10
2.221129502587619
 20
1.001621237439999
 30
0.0
  0
SPLINE
  5
BC77
330
1A
100
AcDbEntity
  8
0
100
AcDbSpline
210
0.0
220
0.0
230
1.0
 70
    24
 71
     3
 72
     8
 73
     4
 74
     0
 42
0.0000000001
 43
0.0000000001
 40
0.0
 40
0.0
 40
0.0
 40
0.0
 40
1.0
 40
1.0
 40
1.0
 40
1.0
 10
1.659622002045083
 20
1.787955669406144
 30
0.0
 10
1.659622002045083
 20
1.787955669406144
 30
0.0
 10
1.659622002045083
 20
1.451051169080622
 30
0.0
 10
1.659622002045083
 20
1.451051169080622
 30
0.0
  0
SPLINE
  5
BC78
330
1A
100
AcDbEntity
  8
0
100
AcDbSpline
210
0.0
220
0.0
230
1.0
 70
     8
 71
     3
 72
     8
 73
     4
 74
     0
 42
0.0000000001
 43
0.0000000001
 40
1.0
 40
1.0
 40
1.0
 40
1.0
 40
2.0
 40
2.0
 40
2.0
 40
2.0
 10
1.659622002045083
 20
1.451051169080622
 30
0.0
 10
1.659622002045083
 20
1.451051169080622
 30
0.0
 10
1.640028021467824
 20
1.272130135009445
 30
0.0
 10
1.63418341697564
 20
1.175884502413956
 30
0.0
  0
SPLINE
  5
BC79
330
1A
100
AcDbEntity
  8
0
100
AcDbSpline
210
0.0
220
0.0
230
1.0
 70
     8
 71
     3
 72
     8
 73
     4
 74
     0
 42
0.0000000001
 43
0.0000000001
 40
2.0
 40
2.0
 40
2.0
 40
2.0
 40
3.0
 40
3.0
 40
3.0
 40
3.0
 10
1.63418341697564
 20
1.175884502413956
 30
0.0
 10
1.625024630625809
 20
1.024551792995554
 30
0.0
 10
1.742185437917476
 20
0.9328295707733356
 30
0.0
 10
1.874775105343691
 20
0.9459743326005907
 30
0.0
  0
SPLINE
  5
BC7A
330
1A
100
AcDbEntity
  8
0
100
AcDbSpline
210
0.0
220
0.0
230
1.0
 70
     8
 71
     3
 72
     8
 73
     4
 74
     0
 42
0.0000000001
 43
0.0000000001
 40
0.0
 40
0.0
 40
0.0
 40
0.0
 40
1.0
 40
1.0
 40
1.0
 40
1.0
 10
1.473356024397514
 20
1.251416498399201
 30
0.0
 10
1.453179822683104
 20
1.129665101372293
 30
0.0
 10
1.469952270057233
 20
1.02916477585146
 30
0.0
 10
1.469952270057233
 20
1.02916477585146
 30
0.0
  0
SPLINE
  5
BC7B
330
1A
100
AcDbEntity
  8
0
100
AcDbSpline
210
0.0
220
0.0
230
1.0
 70
     8
 71
     3
 72
     8
 73
     4
 74
     0
 42
0.0000000001
 43
0.0000000001
 40
1.0
 40
1.0
 40
1.0
 40
1.0
 40
2.0
 40
2.0
 40
2.0
 40
2.0
 10
1.469952270057233
 20
1.02916477585146
 30
0.0
 10
1.469952270057233
 20
1.02916477585146
 30
0.0
 10
1.483052245643174
 20
0.9386069959035424
 30
0.0
 10
1.547298108815914
 20
0.9202446369625665
 30
0.0
  0
ELLIPSE
  5
BC9A
330
1A
100
AcDbEntity
  8
0
100
AcDbEllipse
 10
1.575882927338046
 20
4.498598139024201
 30
0.0
 11
0.02097115749782986
 21
-0.03968060980902777
 31
0.0
210
0.0
220
0.0
230
1.0
 40
0.7479541691688243
 41
0.0
 42
6.283185307179586
  0
SPLINE
  5
BC9B
330
1A
100
AcDbEntity
  8
0
100
AcDbSpline
210
0.0
220
0.0
230
1.0
 70
     8
 71
     3
 72
    11
 73
     7
 74
     0
 42
0.0000000001
 43
0.0000000001
 40
0.0
 40
0.0
 40
0.0
 40
0.0
 40
1.0
 40
1.0
 40
1.0
 40
2.0
 40
2.0
 40
2.0
 40
2.0
 10
1.598847072574591
 20
4.471883146077153
 30
0.0
 10
1.593607082340216
 20
4.476316983967778
 30
0.0
 10
1.586933932383619
 20
4.484087396836702
 30
0.0
 10
1.583351033078063
 20
4.490894905517257
 30
0.0
 10
1.575535833967821
 20
4.505405647704757
 30
0.0
 10
1.574752074744731
 20
4.521215190890521
 30
0.0
 10
1.579678561289869
 20
4.532882006754236
 30
0.0
  0
SPLINE
  5
BC9C
330
1A
100
AcDbEntity
  8
0
100
AcDbSpline
210
0.0
220
0.0
230
1.0
 70
    24
 71
     3
 72
     8
 73
     4
 74
     0
 42
0.0000000001
 43
0.0000000001
 40
17.9431413874661
 40
17.9431413874661
 40
17.9431413874661
 40
17.9431413874661
 40
18.0
 40
18.0
 40
18.0
 40
18.0
 10
0.0233267709854612
 20
3.934122906807746
 30
0.0
 10
0.0064359686429949
 20
3.940833317284776
 30
0.0
 10
-0.0025185754831316
 20
3.944390795816738
 30
0.0
 10
-0.0025185754831316
 20
3.944390795816738
 30
0.0
  0
SPLINE
  5
BC9D
330
1A
100
AcDbEntity
  8
0
100
AcDbSpline
210
0.0
220
0.0
230
1.0
 70
    24
 71
     3
 72
     8
 73
     4
 74
     0
 42
0.0000000001
 43
0.0000000001
 40
18.0
 40
18.0
 40
18.0
 40
18.0
 40
19.0
 40
19.0
 40
19.0
 40
19.0
 10
-0.0025185754831316
 20
3.944390795816738
 30
0.0
 10
-0.0025185754831316
 20
3.944390795816738
 30
0.0
 10
-0.0487379765247962
 20
3.925602967583227
 30
0.0
 10
-0.0487379765247962
 20
3.925602967583227
 30
0.0
  0
SPLINE
  5
BC9E
330
1A
100
AcDbEntity
  8
0
100
AcDbSpline
210
0.0
220
0.0
230
1.0
 70
    24
 71
     3
 72
     8
 73
     4
 74
     0
 42
0.0000000001
 43
0.0000000001
 40
19.0
 40
19.0
 40
19.0
 40
19.0
 40
20.0
 40
20.0
 40
20.0
 40
20.0
 10
-0.0487379765247962
 20
3.925602967583227
 30
0.0
 10
-0.0487379765247962
 20
3.925602967583227
 30
0.0
 10
-0.1040239808398198
 20
3.699389697976592
 30
0.0
 10
-0.1040239808398198
 20
3.699389697976592
 30
0.0
  0
SPLINE
  5
BC9F
330
1A
100
AcDbEntity
  8
0
100
AcDbSpline
210
0.0
220
0.0
230
1.0
 70
    24
 71
     3
 72
     8
 73
     4
 74
     0
 42
0.0000000001
 43
0.0000000001
 40
0.0
 40
0.0
 40
0.0
 40
0.0
 40
1.0
 40
1.0
 40
1.0
 40
1.0
 10
2.343642265716957
 20
1.805108799831492
 30
0.0
 10
2.343642265716957
 20
1.805108799831492
 30
0.0
 10
2.400744723399244
 20
1.833167380018125
 30
0.0
 10
2.400744723399244
 20
1.833167380018125
 30
0.0
  0
SPLINE
  5
BCA0
330
1A
100
AcDbEntity
  8
0
100
AcDbSpline
210
0.0
220
0.0
230
1.0
 70
    24
 71
     3
 72
     8
 73
     4
 74
     0
 42
0.0000000001
 43
0.0000000001
 40
1.0
 40
1.0
 40
1.0
 40
1.0
 40
2.0
 40
2.0
 40
2.0
 40
2.0
 10
2.400744723399244
 20
1.833167380018125
 30
0.0
 10
2.400744723399244
 20
1.833167380018125
 30
0.0
 10
2.400946261485185
 20
1.883260790933921
 30
0.0
 10
2.400946261485185
 20
1.883260790933921
 30
0.0
  0
SPLINE
  5
BCA1
330
1A
100
AcDbEntity
  8
0
100
AcDbSpline
210
0.0
220
0.0
230
1.0
 70
     8
 71
     3
 72
     8
 73
     4
 74
     0
 42
0.0000000001
 43
0.0000000001
 40
2.0
 40
2.0
 40
2.0
 40
2.0
 40
3.0
 40
3.0
 40
3.0
 40
3.0
 10
2.400946261485185
 20
1.883260790933921
 30
0.0
 10
2.400946261485185
 20
1.883260790933921
 30
0.0
 10
2.416419907861052
 20
1.900525886962571
 30
0.0
 10
2.439328070295948
 20
1.898241788655278
 30
0.0
  0
SPLINE
  5
BCA2
330
1A
100
AcDbEntity
  8
0
100
AcDbSpline
210
0.0
220
0.0
230
1.0
 70
     8
 71
     3
 72
     8
 73
     4
 74
     0
 42
0.0000000001
 43
0.0000000001
 40
3.0
 40
3.0
 40
3.0
 40
3.0
 40
4.0
 40
4.0
 40
4.0
 40
4.0
 10
2.439328070295948
 20
1.898241788655278
 30
0.0
 10
2.462213839610184
 20
1.895912904106666
 30
0.0
 10
2.493049166758624
 20
1.878446269992081
 30
0.0
 10
2.493049166758624
 20
1.878446269992081
 30
0.0
  0
SPLINE
  5
BCA3
330
1A
100
AcDbEntity
  8
0
100
AcDbSpline
210
0.0
220
0.0
230
1.0
 70
    24
 71
     3
 72
     8
 73
     4
 74
     0
 42
0.0000000001
 43
0.0000000001
 40
4.0
 40
4.0
 40
4.0
 40
4.0
 40
5.0
 40
5.0
 40
5.0
 40
5.0
 10
2.493049166758624
 20
1.878446269992081
 30
0.0
 10
2.493049166758624
 20
1.878446269992081
 30
0.0
 10
2.562154337114523
 20
1.912349454670904
 30
0.0
 10
2.562154337114523
 20
1.912349454670904
 30
0.0
  0
SPLINE
  5
BCA4
330
1A
100
AcDbEntity
  8
0
100
AcDbSpline
210
0.0
220
0.0
230
1.0
 70
    24
 71
     3
 72
     8
 73
     4
 74
     0
 42
0.0000000001
 43
0.0000000001
 40
5.0
 40
5.0
 40
5.0
 40
5.0
 40
6.0
 40
6.0
 40
6.0
 40
6.0
 10
2.562154337114523
 20
1.912349454670904
 30
0.0
 10
2.562154337114523
 20
1.912349454670904
 30
0.0
 10
2.777105902327202
 20
1.821478171033751
 30
0.0
 10
2.777105902327202
 20
1.821478171033751
 30
0.0
  0
SPLINE
  5
BCA5
330
1A
100
AcDbEntity
  8
0
100
AcDbSpline
210
0.0
220
0.0
230
1.0
 70
    24
 71
     3
 72
     8
 73
     4
 74
     0
 42
0.0000000001
 43
0.0000000001
 40
6.0
 40
6.0
 40
6.0
 40
6.0
 40
7.0
 40
7.0
 40
7.0
 40
7.0
 10
2.777105902327202
 20
1.821478171033751
 30
0.0
 10
2.777105902327202
 20
1.821478171033751
 30
0.0
 10
2.846076713959143
 20
1.86021826977507
 30
0.0
 10
2.846076713959143
 20
1.86021826977507
 30
0.0
  0
SPLINE
  5
BCA6
330
1A
100
AcDbEntity
  8
0
100
AcDbSpline
210
0.0
220
0.0
230
1.0
 70
    24
 71
     3
 72
     8
 73
     4
 74
     0
 42
0.0000000001
 43
0.0000000001
 40
7.0
 40
7.0
 40
7.0
 40
7.0
 40
8.0
 40
8.0
 40
8.0
 40
8.0
 10
2.846076713959143
 20
1.86021826977507
 30
0.0
 10
2.846076713959143
 20
1.86021826977507
 30
0.0
 10
2.845696030907929
 20
1.897010167018992
 30
0.0
 10
2.845696030907929
 20
1.897010167018992
 30
0.0
  0
SPLINE
  5
BCA7
330
1A
100
AcDbEntity
  8
0
100
AcDbSpline
210
0.0
220
0.0
230
1.0
 70
     8
 71
     3
 72
     8
 73
     4
 74
     0
 42
0.0000000001
 43
0.0000000001
 40
8.0
 40
8.0
 40
8.0
 40
8.0
 40
9.0
 40
9.0
 40
9.0
 40
9.0
 10
2.845696030907929
 20
1.897010167018992
 30
0.0
 10
2.845696030907929
 20
1.897010167018992
 30
0.0
 10
2.815129421207407
 20
1.911767233533749
 30
0.0
 10
2.778718207014698
 20
1.923859518690002
 30
0.0
  0
SPLINE
  5
BCA8
330
1A
100
AcDbEntity
  8
0
100
AcDbSpline
210
0.0
220
0.0
230
1.0
 70
     8
 71
     3
 72
     8
 73
     4
 74
     0
 42
0.0000000001
 43
0.0000000001
 40
9.0
 40
9.0
 40
9.0
 40
9.0
 40
10.0
 40
10.0
 40
10.0
 40
10.0
 10
2.778718207014698
 20
1.923859518690002
 30
0.0
 10
2.742418958425285
 20
1.93599659008757
 30
0.0
 10
2.770029676198725
 20
1.955680143147463
 30
0.0
 10
2.770029676198725
 20
1.955680143147463
 30
0.0
  0
SPLINE
  5
BCA9
330
1A
100
AcDbEntity
  8
0
100
AcDbSpline
210
0.0
220
0.0
230
1.0
 70
     8
 71
     3
 72
     8
 73
     4
 74
     0
 42
0.0000000001
 43
0.0000000001
 40
10.0
 40
10.0
 40
10.0
 40
10.0
 40
11.0
 40
11.0
 40
11.0
 40
11.0
 10
2.770029676198725
 20
1.955680143147463
 30
0.0
 10
2.770029676198725
 20
1.955680143147463
 30
0.0
 10
2.795042791975634
 20
1.966048158012915
 30
0.0
 10
2.825340684228239
 20
1.953866300374026
 30
0.0
  0
SPLINE
  5
BCAA
330
1A
100
AcDbEntity
  8
0
100
AcDbSpline
210
0.0
220
0.0
230
1.0
 70
     8
 71
     3
 72
     8
 73
     4
 74
     0
 42
0.0000000001
 43
0.0000000001
 40
11.0
 40
11.0
 40
11.0
 40
11.0
 40
12.0
 40
12.0
 40
12.0
 40
12.0
 10
2.825340684228239
 20
1.953866300374026
 30
0.0
 10
2.855616183360182
 20
1.941863587700418
 30
0.0
 10
2.935313299788135
 20
1.910737149983402
 30
0.0
 10
2.935313299788135
 20
1.910737149983402
 30
0.0
  0
SPLINE
  5
BCAB
330
1A
100
AcDbEntity
  8
0
100
AcDbSpline
210
0.0
220
0.0
230
1.0
 70
    24
 71
     3
 72
     8
 73
     4
 74
     0
 42
0.0000000001
 43
0.0000000001
 40
12.0
 40
12.0
 40
12.0
 40
12.0
 40
13.0
 40
13.0
 40
13.0
 40
13.0
 10
2.935313299788135
 20
1.910737149983402
 30
0.0
 10
2.935313299788135
 20
1.910737149983402
 30
0.0
 10
2.996648057275115
 20
1.944282044731665
 30
0.0
 10
2.996648057275115
 20
1.944282044731665
 30
0.0
  0
SPLINE
  5
BCAC
330
1A
100
AcDbEntity
  8
0
100
AcDbSpline
210
0.0
220
0.0
230
1.0
 70
    24
 71
     3
 72
     8
 73
     4
 74
     0
 42
0.0000000001
 43
0.0000000001
 40
13.0
 40
13.0
 40
13.0
 40
13.0
 40
14.0
 40
14.0
 40
14.0
 40
14.0
 10
2.996648057275115
 20
1.944282044731665
 30
0.0
 10
2.996648057275115
 20
1.944282044731665
 30
0.0
 10
2.994386352088483
 20
1.989225037895731
 30
0.0
 10
2.994386352088483
 20
1.989225037895731
 30
0.0
  0
SPLINE
  5
BCAD
330
1A
100
AcDbEntity
  8
0
100
AcDbSpline
210
0.0
220
0.0
230
1.0
 70
    24
 71
     3
 72
     8
 73
     4
 74
     0
 42
0.0000000001
 43
0.0000000001
 40
14.0
 40
14.0
 40
14.0
 40
14.0
 40
15.0
 40
15.0
 40
15.0
 40
15.0
 10
2.994386352088483
 20
1.989225037895731
 30
0.0
 10
2.994386352088483
 20
1.989225037895731
 30
0.0
 10
2.852122856537266
 20
2.044513652804584
 30
0.0
 10
2.852122856537266
 20
2.044513652804584
 30
0.0
  0
SPLINE
  5
BCAE
330
1A
100
AcDbEntity
  8
0
100
AcDbSpline
210
0.0
220
0.0
230
1.0
 70
     8
 71
     3
 72
     8
 73
     4
 74
     0
 42
0.0000000001
 43
0.0000000001
 40
15.0
 40
15.0
 40
15.0
 40
15.0
 40
16.0
 40
16.0
 40
16.0
 40
16.0
 10
2.852122856537266
 20
2.044513652804584
 30
0.0
 10
2.852122856537266
 20
2.044513652804584
 30
0.0
 10
2.891109279605846
 20
2.069146085530276
 30
0.0
 10
2.882040065738657
 20
2.117604798637917
 30
0.0
  0
SPLINE
  5
BCAF
330
1A
100
AcDbEntity
  8
0
100
AcDbSpline
210
0.0
220
0.0
230
1.0
 70
     8
 71
     3
 72
     8
 73
     4
 74
     0
 42
0.0000000001
 43
0.0000000001
 40
16.0
 40
16.0
 40
16.0
 40
16.0
 40
17.0
 40
17.0
 40
17.0
 40
17.0
 10
2.882040065738657
 20
2.117604798637917
 30
0.0
 10
2.873911362939179
 20
2.16091309399382
 30
0.0
 10
2.767297715478238
 20
2.843992846597988
 30
0.0
 10
2.767297715478238
 20
2.843992846597988
 30
0.0
  0
SPLINE
  5
BCB0
330
1A
100
AcDbEntity
  8
0
100
AcDbSpline
210
0.0
220
0.0
230
1.0
 70
    24
 71
     3
 72
     8
 73
     4
 74
     0
 42
0.0000000001
 43
0.0000000001
 40
17.0
 40
17.0
 40
17.0
 40
17.0
 40
17.74491642161266
 40
17.74491642161266
 40
17.74491642161266
 40
17.74491642161266
 10
2.767297715478238
 20
2.843992846597988
 30
0.0
 10
2.767297715478238
 20
2.843992846597988
 30
0.0
 10
1.230325339439737
 20
3.454604191515597
 30
0.0
 10
0.4462125123149487
 20
3.766118045246585
 30
0.0
  0
SPLINE
  5
BCB1
330
1A
100
AcDbEntity
  8
0
100
AcDbSpline
210
0.0
220
0.0
230
1.0
 70
    24
 71
     3
 72
     8
 73
     4
 74
     0
 42
0.0000000001
 43
0.0000000001
 40
0.2691335738584242
 40
0.2691335738584242
 40
0.2691335738584242
 40
0.2691335738584242
 40
1.0
 40
1.0
 40
1.0
 40
1.0
 10
0.4462111973690153
 20
3.727705552308315
 30
0.0
 10
1.244312139950063
 20
3.408597809542089
 30
0.0
 10
2.727034884532062
 20
2.815755121446076
 30
0.0
 10
2.727034884532062
 20
2.815755121446076
 30
0.0
  0
SPLINE
  5
BCB2
330
1A
100
AcDbEntity
  8
0
100
AcDbSpline
210
0.0
220
0.0
230
1.0
 70
     8
 71
     3
 72
     8
 73
     4
 74
     0
 42
0.0000000001
 43
0.0000000001
 40
1.0
 40
1.0
 40
1.0
 40
1.0
 40
2.0
 40
2.0
 40
2.0
 40
2.0
 10
2.727034884532062
 20
2.815755121446076
 30
0.0
 10
2.727034884532062
 20
2.815755121446076
 30
0.0
 10
2.824310600677892
 20
2.163645054714304
 30
0.0
 10
2.833446993907058
 20
2.127323413004238
 30
0.0
  0
SPLINE
  5
BCB3
330
1A
100
AcDbEntity
  8
0
100
AcDbSpline
210
0.0
220
0.0
230
1.0
 70
     8
 71
     3
 72
     8
 73
     4
 74
     0
 42
0.0000000001
 43
0.0000000001
 40
2.0
 40
2.0
 40
2.0
 40
2.0
 40
3.0
 40
3.0
 40
3.0
 40
3.0
 10
2.833446993907058
 20
2.127323413004238
 30
0.0
 10
2.842538600894903
 20
2.090979378173507
 30
0.0
 10
2.822228040456535
 20
2.085896139783751
 30
0.0
 10
2.804112005842823
 20
2.072236336181319
 30
0.0
  0
SPLINE
  5
BCB4
330
1A
100
AcDbEntity
  8
0
100
AcDbSpline
210
0.0
220
0.0
230
1.0
 70
     8
 71
     3
 72
     8
 73
     4
 74
     0
 42
0.0000000001
 43
0.0000000001
 40
3.0
 40
3.0
 40
3.0
 40
3.0
 40
4.0
 40
4.0
 40
4.0
 40
4.0
 10
2.804112005842823
 20
2.072236336181319
 30
0.0
 10
2.785884005625809
 20
2.058621318820209
 30
0.0
 10
2.786824516693518
 20
2.062069859401804
 30
0.0
 10
2.786824516693518
 20
2.062069859401804
 30
0.0
  0
SPLINE
  5
BCB5
330
1A
100
AcDbEntity
  8
0
100
AcDbSpline
210
0.0
220
0.0
230
1.0
 70
    24
 71
     3
 72
     8
 73
     4
 74
     0
 42
0.0000000001
 43
0.0000000001
 40
4.0
 40
4.0
 40
4.0
 40
4.0
 40
5.0
 40
5.0
 40
5.0
 40
5.0
 10
2.786824516693518
 20
2.062069859401804
 30
0.0
 10
2.786824516693518
 20
2.062069859401804
 30
0.0
 10
2.848002522335882
 20
2.039318448811527
 30
0.0
 10
2.848002522335882
 20
2.039318448811527
 30
0.0
  0
SPLINE
  5
BCB6
330
1A
100
AcDbEntity
  8
0
100
AcDbSpline
210
0.0
220
0.0
230
1.0
 70
    24
 71
     3
 72
     8
 73
     4
 74
     0
 42
0.0000000001
 43
0.0000000001
 40
0.0
 40
0.0
 40
0.0
 40
0.0
 40
1.0
 40
1.0
 40
1.0
 40
1.0
 10
2.984466199636225
 20
1.983066929714304
 30
0.0
 10
2.984466199636225
 20
1.983066929714304
 30
0.0
 10
2.929468695295945
 20
1.956105612439999
 30
0.0
 10
2.929468695295945
 20
1.956105612439999
 30
0.0
  0
SPLINE
  5
BCB7
330
1A
100
AcDbEntity
  8
0
100
AcDbSpline
210
0.0
220
0.0
230
1.0
 70
     8
 71
     3
 72
     8
 73
     4
 74
     0
 42
0.0000000001
 43
0.0000000001
 40
1.0
 40
1.0
 40
1.0
 40
1.0
 40
2.0
 40
2.0
 40
2.0
 40
2.0
 10
2.929468695295945
 20
1.956105612439999
 30
0.0
 10
2.929468695295945
 20
1.956105612439999
 30
0.0
 10
2.871985554562441
 20
1.97885702303028
 30
0.0
 10
2.844688340478244
 20
1.991016487548508
 30
0.0
  0
SPLINE
  5
BCB8
330
1A
100
AcDbEntity
  8
0
100
AcDbSpline
210
0.0
220
0.0
230
1.0
 70
     8
 71
     3
 72
     8
 73
     4
 74
     0
 42
0.0000000001
 43
0.0000000001
 40
2.0
 40
2.0
 40
2.0
 40
2.0
 40
3.0
 40
3.0
 40
3.0
 40
3.0
 10
2.844688340478244
 20
1.991016487548508
 30
0.0
 10
2.817503091997336
 20
2.003041593342776
 30
0.0
 10
2.78415973533501
 20
2.004564325547638
 30
0.0
 10
2.759930378781192
 20
1.995472718559793
 30
0.0
  0
SPLINE
  5
BCB9
330
1A
100
AcDbEntity
  8
0
100
AcDbSpline
210
0.0
220
0.0
230
1.0
 70
     8
 71
     3
 72
     8
 73
     4
 74
     0
 42
0.0000000001
 43
0.0000000001
 40
3.0
 40
3.0
 40
3.0
 40
3.0
 40
4.0
 40
4.0
 40
4.0
 40
4.0
 10
2.759930378781192
 20
1.995472718559793
 30
0.0
 10
2.735745808468689
 20
1.986336325330623
 30
0.0
 10
2.703432535356713
 20
1.949701179931321
 30
0.0
 10
2.76393874737928
 20
1.922426358967776
 30
0.0
  0
SPLINE
  5
BCBB
330
1A
100
AcDbEntity
  8
0
100
AcDbSpline
210
0.0
220
0.0
230
1.0
 70
    24
 71
     3
 72
     8
 73
     4
 74
     0
 42
0.0000000001
 43
0.0000000001
 40
0.0
 40
0.0
 40
0.0
 40
0.0
 40
1.0
 40
1.0
 40
1.0
 40
1.0
 10
0.0233218312963075
 20
3.645009874623732
 30
0.0
 10
0.0233218312963075
 20
3.645009874623732
 30
0.0
 10
-0.5129473678008374
 20
3.867582391953892
 30
0.0
 10
-0.5129473678008374
 20
3.867582391953892
 30
0.0
  0
SPLINE
  5
BCBC
330
1A
100
AcDbEntity
  8
0
100
AcDbSpline
210
0.0
220
0.0
230
1.0
 70
    24
 71
     3
 72
     8
 73
     4
 74
     0
 42
0.0000000001
 43
0.0000000001
 40
1.0
 40
1.0
 40
1.0
 40
1.0
 40
2.0
 40
2.0
 40
2.0
 40
2.0
 10
-0.5129473678008374
 20
3.867582391953892
 30
0.0
 10
-0.5129473678008374
 20
3.867582391953892
 30
0.0
 10
-0.5700498254831317
 20
3.852086352457359
 30
0.0
 10
-0.5700498254831317
 20
3.852086352457359
 30
0.0
  0
SPLINE
  5
BCBD
330
1A
100
AcDbEntity
  8
0
100
AcDbSpline
210
0.0
220
0.0
230
1.0
 70
    24
 71
     3
 72
     8
 73
     4
 74
     0
 42
0.0000000001
 43
0.0000000001
 40
2.0
 40
2.0
 40
2.0
 40
2.0
 40
3.0
 40
3.0
 40
3.0
 40
3.0
 10
-0.5700498254831317
 20
3.852086352457359
 30
0.0
 10
-0.5700498254831317
 20
3.852086352457359
 30
0.0
 10
-0.6184861454701078
 20
3.307239333685663
 30
0.0
 10
-0.6184861454701078
 20
3.307239333685663
 30
0.0
  0
SPLINE
  5
BCBE
330
1A
100
AcDbEntity
  8
0
100
AcDbSpline
210
0.0
220
0.0
230
1.0
 70
    24
 71
     3
 72
     8
 73
     4
 74
     0
 42
0.0000000001
 43
0.0000000001
 40
3.0
 40
3.0
 40
3.0
 40
3.0
 40
4.0
 40
4.0
 40
4.0
 40
4.0
 10
-0.6184861454701078
 20
3.307239333685663
 30
0.0
 10
-0.6184861454701078
 20
3.307239333685663
 30
0.0
 10
-0.6457385733129932
 20
3.295527731580624
 30
0.0
 10
-0.6457385733129932
 20
3.295527731580624
 30
0.0
  0
SPLINE
  5
BCBF
330
1A
100
AcDbEntity
  8
0
100
AcDbSpline
210
0.0
220
0.0
230
1.0
 70
    24
 71
     3
 72
     8
 73
     4
 74
     0
 42
0.0000000001
 43
0.0000000001
 40
4.0
 40
4.0
 40
4.0
 40
4.0
 40
5.0
 40
5.0
 40
5.0
 40
5.0
 10
-0.6457385733129932
 20
3.295527731580624
 30
0.0
 10
-0.6457385733129932
 20
3.295527731580624
 30
0.0
 10
-0.6457385733129932
 20
3.259945062852328
 30
0.0
 10
-0.6457385733129932
 20
3.259945062852328
 30
0.0
  0
SPLINE
  5
BCC0
330
1A
100
AcDbEntity
  8
0
100
AcDbSpline
210
0.0
220
0.0
230
1.0
 70
    24
 71
     3
 72
     8
 73
     4
 74
     0
 42
0.0000000001
 43
0.0000000001
 40
5.0
 40
5.0
 40
5.0
 40
5.0
 40
6.0
 40
6.0
 40
6.0
 40
6.0
 10
-0.6457385733129932
 20
3.259945062852328
 30
0.0
 10
-0.6457385733129932
 20
3.259945062852328
 30
0.0
 10
-0.6246666467721926
 20
3.250204055365348
 30
0.0
 10
-0.6246666467721926
 20
3.250204055365348
 30
0.0
  0
SPLINE
  5
BCC1
330
1A
100
AcDbEntity
  8
0
100
AcDbSpline
210
0.0
220
0.0
230
1.0
 70
    24
 71
     3
 72
     8
 73
     4
 74
     0
 42
0.0000000001
 43
0.0000000001
 40
6.0
 40
6.0
 40
6.0
 40
6.0
 40
7.0
 40
7.0
 40
7.0
 40
7.0
 10
-0.6246666467721926
 20
3.250204055365348
 30
0.0
 10
-0.6246666467721926
 20
3.250204055365348
 30
0.0
 10
-0.6290780915421568
 20
3.20734362242264
 30
0.0
 10
-0.6290780915421568
 20
3.20734362242264
 30
0.0
  0
SPLINE
  5
BCC2
330
1A
100
AcDbEntity
  8
0
100
AcDbSpline
210
0.0
220
0.0
230
1.0
 70
    24
 71
     3
 72
     8
 73
     4
 74
     0
 42
0.0000000001
 43
0.0000000001
 40
7.0
 40
7.0
 40
7.0
 40
7.0
 40
8.0
 40
8.0
 40
8.0
 40
8.0
 10
-0.6290780915421568
 20
3.20734362242264
 30
0.0
 10
-0.6290780915421568
 20
3.20734362242264
 30
0.0
 10
-0.7285931197539615
 20
3.252085077500765
 30
0.0
 10
-0.7285931197539615
 20
3.252085077500765
 30
0.0
  0
SPLINE
  5
BCC3
330
1A
100
AcDbEntity
  8
0
100
AcDbSpline
210
0.0
220
0.0
230
1.0
 70
    24
 71
     3
 72
     8
 73
     4
 74
     0
 42
0.0000000001
 43
0.0000000001
 40
8.0
 40
8.0
 40
8.0
 40
8.0
 40
9.0
 40
9.0
 40
9.0
 40
9.0
 10
-0.7285931197539615
 20
3.252085077500765
 30
0.0
 10
-0.7285931197539615
 20
3.252085077500765
 30
0.0
 10
-0.8075064769588245
 20
3.227833327826282
 30
0.0
 10
-0.8075064769588245
 20
3.227833327826282
 30
0.0
  0
SPLINE
  5
BCC4
330
1A
100
AcDbEntity
  8
0
100
AcDbSpline
210
0.0
220
0.0
230
1.0
 70
    24
 71
     3
 72
     8
 73
     4
 74
     0
 42
0.0000000001
 43
0.0000000001
 40
9.0
 40
9.0
 40
9.0
 40
9.0
 40
10.0
 40
10.0
 40
10.0
 40
10.0
 10
-0.8075064769588245
 20
3.227833327826282
 30
0.0
 10
-0.8075064769588245
 20
3.227833327826282
 30
0.0
 10
-0.8075064769588245
 20
3.17664265399816
 30
0.0
 10
-0.8075064769588245
 20
3.17664265399816
 30
0.0
  0
SPLINE
  5
BCC5
330
1A
100
AcDbEntity
  8
0
100
AcDbSpline
210
0.0
220
0.0
230
1.0
 70
     8
 71
     3
 72
     8
 73
     4
 74
     0
 42
0.0000000001
 43
0.0000000001
 40
10.0
 40
10.0
 40
10.0
 40
10.0
 40
11.0
 40
11.0
 40
11.0
 40
11.0
 10
-0.8075064769588245
 20
3.17664265399816
 30
0.0
 10
-0.7256148347062172
 20
3.138551955755972
 30
0.0
 10
-0.6699903229874717
 20
3.11544225523514
 30
0.0
 10
-0.6378561948407686
 20
3.096632033880973
 30
0.0
  0
SPLINE
  5
BCC6
330
1A
100
AcDbEntity
  8
0
100
AcDbSpline
210
0.0
220
0.0
230
1.0
 70
     8
 71
     3
 72
     8
 73
     4
 74
     0
 42
0.0000000001
 43
0.0000000001
 40
11.0
 40
11.0
 40
11.0
 40
11.0
 40
12.0
 40
12.0
 40
12.0
 40
12.0
 10
-0.6378561948407686
 20
3.096632033880973
 30
0.0
 10
-0.6229871627227102
 20
3.06958114412403
 30
0.0
 10
-0.5805745921932015
 20
3.051375537027674
 30
0.0
 10
-0.5609582184952799
 20
3.042933330538958
 30
0.0
  0
SPLINE
  5
BCC7
330
1A
100
AcDbEntity
  8
0
100
AcDbSpline
210
0.0
220
0.0
230
1.0
 70
     8
 71
     3
 72
     8
 73
     4
 74
     0
 42
0.0000000001
 43
0.0000000001
 40
12.0
 40
12.0
 40
12.0
 40
12.0
 40
13.0
 40
13.0
 40
13.0
 40
13.0
 10
-0.5609582184952799
 20
3.042933330538958
 30
0.0
 10
-0.5291823802791349
 20
3.029273526936528
 30
0.0
 10
-0.5185904342070877
 20
3.050412632839306
 30
0.0
 10
-0.5110215594241012
 20
3.053278952283749
 30
0.0
  0
SPLINE
  5
BCC8
330
1A
100
AcDbEntity
  8
0
100
AcDbSpline
210
0.0
220
0.0
230
1.0
 70
     8
 71
     3
 72
     8
 73
     4
 74
     0
 42
0.0000000001
 43
0.0000000001
 40
13.0
 40
13.0
 40
13.0
 40
13.0
 40
14.0
 40
14.0
 40
14.0
 40
14.0
 10
-0.5110215594241012
 20
3.053278952283749
 30
0.0
 10
-0.5034750777617756
 20
3.056145271728193
 30
0.0
 10
-0.4964212447539627
 20
3.050860495252503
 30
0.0
 10
-0.4898376672800069
 20
3.038006843993818
 30
0.0
  0
SPLINE
  5
BCC9
330
1A
100
AcDbEntity
  8
0
100
AcDbSpline
210
0.0
220
0.0
230
1.0
 70
     8
 71
     3
 72
     8
 73
     4
 74
     0
 42
0.0000000001
 43
0.0000000001
 40
14.0
 40
14.0
 40
14.0
 40
14.0
 40
15.0
 40
15.0
 40
15.0
 40
15.0
 10
-0.4898376672800069
 20
3.038006843993818
 30
0.0
 10
-0.4830749448407676
 20
3.024884475287223
 30
0.0
 10
-0.4840378490291339
 20
3.011672534097983
 30
0.0
 10
-0.4610625072322652
 20
3.00016247007889
 30
0.0
  0
SPLINE
  5
BCCA
330
1A
100
AcDbEntity
  8
0
100
AcDbSpline
210
0.0
220
0.0
230
1.0
 70
     8
 71
     3
 72
     8
 73
     4
 74
     0
 42
0.0000000001
 43
0.0000000001
 40
15.0
 40
15.0
 40
15.0
 40
15.0
 40
16.0
 40
16.0
 40
16.0
 40
16.0
 10
-0.4610625072322652
 20
3.00016247007889
 30
0.0
 10
-0.415671651655007
 20
2.97741105948861
 30
0.0
 10
-0.4020566342938938
 20
2.974835850612742
 30
0.0
 10
-0.3657573857044874
 20
2.956675029757712
 30
0.0
  0
SPLINE
  5
BCCB
330
1A
100
AcDbEntity
  8
0
100
AcDbSpline
210
0.0
220
0.0
230
1.0
 70
     8
 71
     3
 72
     8
 73
     4
 74
     0
 42
0.0000000001
 43
0.0000000001
 40
16.0
 40
16.0
 40
16.0
 40
16.0
 40
17.0
 40
17.0
 40
17.0
 40
17.0
 10
-0.3657573857044874
 20
2.956675029757712
 30
0.0
 10
-0.3294133508737556
 20
2.938536602023335
 30
0.0
 10
-0.3112301368980592
 20
2.963281000352323
 30
0.0
 10
-0.3021833161515346
 20
2.965766636745556
 30
0.0
  0
SPLINE
  5
BCCC
330
1A
100
AcDbEntity
  8
0
100
AcDbSpline
210
0.0
220
0.0
230
1.0
 70
     8
 71
     3
 72
     8
 73
     4
 74
     0
 42
0.0000000001
 43
0.0000000001
 40
17.0
 40
17.0
 40
17.0
 40
17.0
 40
18.0
 40
18.0
 40
18.0
 40
18.0
 10
-0.3021833161515346
 20
2.965766636745556
 30
0.0
 10
-0.2930917091636829
 20
2.968229880018123
 30
0.0
 10
-0.2887698368763587
 20
2.962810744818473
 30
0.0
 10
-0.2814248932999703
 20
2.95152461200597
 30
0.0
  0
SPLINE
  5
BCCD
330
1A
100
AcDbEntity
  8
0
100
AcDbSpline
210
0.0
220
0.0
230
1.0
 70
     8
 71
     3
 72
     8
 73
     4
 74
     0
 42
0.0000000001
 43
0.0000000001
 40
18.0
 40
18.0
 40
18.0
 40
18.0
 40
19.0
 40
19.0
 40
19.0
 40
19.0
 10
-0.2814248932999703
 20
2.95152461200597
 30
0.0
 10
-0.2740351634822638
 20
2.940260872314132
 30
0.0
 10
-0.2726691831220194
 20
2.920711677978195
 30
0.0
 10
-0.2476784604657656
 20
2.909313579562397
 30
0.0
  0
SPLINE
  5
BCCE
330
1A
100
AcDbEntity
  8
0
100
AcDbSpline
210
0.0
220
0.0
230
1.0
 70
     8
 71
     3
 72
     8
 73
     4
 74
     0
 42
0.0000000001
 43
0.0000000001
 40
19.0
 40
19.0
 40
19.0
 40
19.0
 40
20.0
 40
20.0
 40
20.0
 40
20.0
 10
-0.2476784604657656
 20
2.909313579562397
 30
0.0
 10
-0.1977194082739313
 20
2.886651741454756
 30
0.0
 10
-0.1886725875274014
 20
2.882083544840171
 30
0.0
 10
-0.147827535444069
 20
2.863922723985141
 30
0.0
  0
SPLINE
  5
BCCF
330
1A
100
AcDbEntity
  8
0
100
AcDbSpline
210
0.0
220
0.0
230
1.0
 70
     8
 71
     3
 72
    11
 73
     7
 74
     0
 42
0.0000000001
 43
0.0000000001
 40
20.0
 40
20.0
 40
20.0
 40
20.0
 40
21.0
 40
21.0
 40
21.0
 40
22.0
 40
22.0
 40
22.0
 40
22.0
 10
-0.147827535444069
 20
2.863922723985141
 30
0.0
 10
-0.1069153039987558
 20
2.845739510009445
 30
0.0
 10
-0.0959426748754897
 20
2.865624601155279
 30
0.0
 10
-0.0868510678876468
 20
2.868490920599722
 30
0.0
 10
-0.0777594608997969
 20
2.871357240044169
 30
0.0
 10
-0.0708847728572639
 20
2.862758281710836
 30
0.0
 10
-0.0645475197105618
 20
2.854741544514651
 30
0.0
  0
SPLINE
  5
BCD0
330
1A
100
AcDbEntity
  8
0
100
AcDbSpline
210
0.0
220
0.0
230
1.0
 70
     8
 71
     3
 72
     8
 73
     4
 74
     0
 42
0.0000000001
 43
0.0000000001
 40
22.0
 40
22.0
 40
22.0
 40
22.0
 40
23.0
 40
23.0
 40
23.0
 40
23.0
 10
-0.0645475197105618
 20
2.854741544514651
 30
0.0
 10
-0.0526791657609085
 20
2.839648581189999
 30
0.0
 10
-0.0414154260690704
 20
2.816404521945207
 30
0.0
 10
-0.020657003217508
 20
2.807536846163957
 30
0.0
  0
SPLINE
  5
BCD1
330
1A
100
AcDbEntity
  8
0
100
AcDbSpline
210
0.0
220
0.0
230
1.0
 70
     8
 71
     3
 72
     8
 73
     4
 74
     0
 42
0.0000000001
 43
0.0000000001
 40
23.0
 40
23.0
 40
23.0
 40
23.0
 40
24.0
 40
24.0
 40
24.0
 40
24.0
 10
-0.020657003217508
 20
2.807536846163957
 30
0.0
 10
0.0110964418779798
 20
2.793877042561527
 30
0.0
 10
0.0285854691132226
 20
2.784807828694341
 30
0.0
 10
0.0285854691132226
 20
2.784807828694341
 30
0.0
  0
LINE
  5
BCD2
330
1A
100
AcDbEntity
  8
0
100
AcDbLine
 10
2.308882050878008
 20
1.885902667649237
 30
0.0
 11
2.202050563785528
 21
2.733773906710834
 31
0.0
  0
LINE
  5
BCD3
330
1A
100
AcDbEntity
  8
0
100
AcDbLine
 10
2.202050563785528
 20
2.733773906710834
 30
0.0
 11
0.4481429777937755
 21
3.468604161159618
 31
0.0
  0
SPLINE
  5
BCD4
330
1A
100
AcDbEntity
  8
0
100
AcDbSpline
210
0.0
220
0.0
230
1.0
 70
    24
 71
     3
 72
     8
 73
     4
 74
     0
 42
0.0000000001
 43
0.0000000001
 40
0.0
 40
0.0
 40
0.0
 40
0.0
 40
1.0
 40
1.0
 40
1.0
 40
1.0
 10
1.363361015716956
 20
1.93127164162837
 30
0.0
 10
1.363361015716956
 20
1.93127164162837
 30
0.0
 10
1.432152682383624
 20
2.185724671684793
 30
0.0
 10
1.432152682383624
 20
2.185724671684793
 30
0.0
  0
SPLINE
  5
BCD5
330
1A
100
AcDbEntity
  8
0
100
AcDbSpline
210
0.0
220
0.0
230
1.0
 70
     8
 71
     3
 72
     8
 73
     4
 74
     0
 42
0.0000000001
 43
0.0000000001
 40
1.0
 40
1.0
 40
1.0
 40
1.0
 40
2.0
 40
2.0
 40
2.0
 40
2.0
 10
1.432152682383624
 20
2.185724671684793
 30
0.0
 10
1.432152682383624
 20
2.185724671684793
 30
0.0
 10
1.486724717431368
 20
2.167631030191737
 30
0.0
 10
1.518410983164872
 20
2.149447816216042
 30
0.0
  0
SPLINE
  5
BCD6
330
1A
100
AcDbEntity
  8
0
100
AcDbSpline
210
0.0
220
0.0
230
1.0
 70
     8
 71
     3
 72
    11
 73
     7
 74
     0
 42
0.0000000001
 43
0.0000000001
 40
2.0
 40
2.0
 40
2.0
 40
2.0
 40
3.0
 40
3.0
 40
3.0
 40
4.0
 40
4.0
 40
4.0
 40
4.0
 10
1.518410983164872
 20
2.149447816216042
 30
0.0
 10
1.550254000742998
 20
2.131286995361007
 30
0.0
 10
1.585097696489529
 20
2.155538745035484
 30
0.0
 10
1.600257839176157
 20
2.155538745035484
 30
0.0
 10
1.61535080250081
 20
2.155538745035484
 30
0.0
 10
1.630085475894909
 20
2.147723545925245
 30
0.0
 10
1.633466837114526
 20
2.140311422986877
 30
0.0
  0
SPLINE
  5
BCD7
330
1A
100
AcDbEntity
  8
0
100
AcDbSpline
210
0.0
220
0.0
230
1.0
 70
     8
 71
     3
 72
     8
 73
     4
 74
     0
 42
0.0000000001
 43
0.0000000001
 40
4.0
 40
4.0
 40
4.0
 40
4.0
 40
5.0
 40
5.0
 40
5.0
 40
5.0
 10
1.633466837114526
 20
2.140311422986877
 30
0.0
 10
1.647283392561574
 20
2.110640538112743
 30
0.0
 10
1.6564421789114
 20
2.086769471489481
 30
0.0
 10
1.681880763980846
 20
2.072236336181319
 30
0.0
  0
SPLINE
  5
BCD8
330
1A
100
AcDbEntity
  8
0
100
AcDbSpline
210
0.0
220
0.0
230
1.0
 70
     8
 71
     3
 72
     8
 73
     4
 74
     0
 42
0.0000000001
 43
0.0000000001
 40
5.0
 40
5.0
 40
5.0
 40
5.0
 40
6.0
 40
6.0
 40
6.0
 40
6.0
 10
1.681880763980846
 20
2.072236336181319
 30
0.0
 10
1.713723781558969
 20
2.054075515326284
 30
0.0
 10
1.727294012678764
 20
2.049507318711699
 30
0.0
 10
1.772662475135361
 20
2.026823087483404
 30
0.0
  0
SPLINE
  5
BCD9
330
1A
100
AcDbEntity
  8
0
100
AcDbSpline
210
0.0
220
0.0
230
1.0
 70
     8
 71
     3
 72
     8
 73
     4
 74
     0
 42
0.0000000001
 43
0.0000000001
 40
6.0
 40
6.0
 40
6.0
 40
6.0
 40
7.0
 40
7.0
 40
7.0
 40
7.0
 10
1.772662475135361
 20
2.026823087483404
 30
0.0
 10
1.818098116953935
 20
2.004116463134443
 30
0.0
 10
1.84344712954074
 20
2.030585131754237
 30
0.0
 10
1.854464544905321
 20
2.031391284097984
 30
0.0
  0
SPLINE
  5
BCDA
330
1A
100
AcDbEntity
  8
0
100
AcDbSpline
210
0.0
220
0.0
230
1.0
 70
     8
 71
     3
 72
     8
 73
     4
 74
     0
 42
0.0000000001
 43
0.0000000001
 40
7.0
 40
7.0
 40
7.0
 40
7.0
 40
8.0
 40
8.0
 40
8.0
 40
8.0
 10
1.854464544905321
 20
2.031391284097984
 30
0.0
 10
1.874125704844561
 20
2.032958802544166
 30
0.0
 10
1.884113036658796
 20
2.022187711506838
 30
0.0
 10
1.887785508446989
 20
2.016298320773332
 30
0.0
  0
SPLINE
  5
BCDB
330
1A
100
AcDbEntity
  8
0
100
AcDbSpline
210
0.0
220
0.0
230
1.0
 70
     8
 71
     3
 72
     8
 73
     4
 74
     0
 42
0.0000000001
 43
0.0000000001
 40
8.0
 40
8.0
 40
8.0
 40
8.0
 40
9.0
 40
9.0
 40
9.0
 40
9.0
 10
1.887785508446989
 20
2.016298320773332
 30
0.0
 10
1.909148545556363
 20
1.981992059922638
 30
0.0
 10
1.907379489024246
 20
1.969339946749898
 30
0.0
 10
1.934587130625809
 20
1.955680143147463
 30
0.0
  0
SPLINE
  5
BCDC
330
1A
100
AcDbEntity
  8
0
100
AcDbSpline
210
0.0
220
0.0
230
1.0
 70
     8
 71
     3
 72
     8
 73
     4
 74
     0
 42
0.0000000001
 43
0.0000000001
 40
9.0
 40
9.0
 40
9.0
 40
9.0
 40
10.0
 40
10.0
 40
10.0
 40
10.0
 10
1.934587130625809
 20
1.955680143147463
 30
0.0
 10
1.961839558468693
 20
1.942109912027672
 30
0.0
 10
1.975163465261225
 20
1.934249926676114
 30
0.0
 10
2.055756306515566
 20
1.89969734149816
 30
0.0
  0
SPLINE
  5
BCDD
330
1A
100
AcDbEntity
  8
0
100
AcDbSpline
210
0.0
220
0.0
230
1.0
 70
     8
 71
     3
 72
     8
 73
     4
 74
     0
 42
0.0000000001
 43
0.0000000001
 40
10.0
 40
10.0
 40
10.0
 40
10.0
 40
11.0
 40
11.0
 40
11.0
 40
11.0
 10
2.055756306515566
 20
1.89969734149816
 30
0.0
 10
2.108693643755149
 20
1.877013110269859
 30
0.0
 10
2.107215697791609
 20
1.907288609401804
 30
0.0
 10
2.132923000308967
 20
1.905855449679582
 30
0.0
  0
SPLINE
  5
BCDE
330
1A
100
AcDbEntity
  8
0
100
AcDbSpline
210
0.0
220
0.0
230
1.0
 70
     8
 71
     3
 72
     8
 73
     4
 74
     0
 42
0.0000000001
 43
0.0000000001
 40
11.0
 40
11.0
 40
11.0
 40
11.0
 40
12.0
 40
12.0
 40
12.0
 40
12.0
 10
2.132923000308967
 20
1.905855449679582
 30
0.0
 10
2.148642971012094
 20
1.904847759249896
 30
0.0
 10
2.161519015391438
 20
1.89497239303896
 30
0.0
 10
2.163153713199597
 20
1.88762744946257
 30
0.0
  0
SPLINE
  5
BCDF
330
1A
100
AcDbEntity
  8
0
100
AcDbSpline
210
0.0
220
0.0
230
1.0
 70
     8
 71
     3
 72
     8
 73
     4
 74
     0
 42
0.0000000001
 43
0.0000000001
 40
12.0
 40
12.0
 40
12.0
 40
12.0
 40
13.0
 40
13.0
 40
13.0
 40
13.0
 10
2.163153713199597
 20
1.88762744946257
 30
0.0
 10
2.166960543711747
 20
1.870451925916562
 30
0.0
 10
2.174439846012097
 20
1.850051792995554
 30
0.0
 10
2.18944323685411
 20
1.841676765868819
 30
0.0
  0
SPLINE
  5
BCE0
330
1A
100
AcDbEntity
  8
0
100
AcDbSpline
210
0.0
220
0.0
230
1.0
 70
     8
 71
     3
 72
     8
 73
     4
 74
     0
 42
0.0000000001
 43
0.0000000001
 40
13.0
 40
13.0
 40
13.0
 40
13.0
 40
14.0
 40
14.0
 40
14.0
 40
14.0
 10
2.18944323685411
 20
1.841676765868819
 30
0.0
 10
2.228295301198724
 20
1.81991065258757
 30
0.0
 10
2.272096245209145
 20
1.799801630235137
 30
0.0
 10
2.272096245209145
 20
1.799801630235137
 30
0.0
  0
SPLINE
  5
BCE1
330
1A
100
AcDbEntity
  8
0
100
AcDbSpline
210
0.0
220
0.0
230
1.0
 70
     8
 71
     3
 72
     8
 73
     4
 74
     0
 42
0.0000000001
 43
0.0000000001
 40
14.0
 40
14.0
 40
14.0
 40
14.0
 40
15.0
 40
15.0
 40
15.0
 40
15.0
 10
2.272096245209145
 20
1.799801630235137
 30
0.0
 10
2.315314968082408
 20
1.78511174308236
 30
0.0
 10
2.360840182383621
 20
1.813685365044168
 30
0.0
 10
2.360840182383621
 20
1.813685365044168
 30
0.0
  0
SPLINE
  5
BCE2
330
1A
100
AcDbEntity
  8
0
100
AcDbSpline
210
0.0
220
0.0
230
1.0
 70
     8
 71
     3
 72
    11
 73
     7
 74
     0
 42
0.0000000001
 43
0.0000000001
 40
0.0
 40
0.0
 40
0.0
 40
0.0
 40
1.0
 40
1.0
 40
1.0
 40
2.0
 40
2.0
 40
2.0
 40
2.0
 10
0.8360030241804974
 20
2.126181363850591
 30
0.0
 10
0.8314460241262438
 20
2.105758837808923
 30
0.0
 10
0.8283557734752058
 20
2.088650493624893
 30
0.0
 10
0.8283557734752058
 20
2.076804532795905
 30
0.0
 10
0.8283557734752058
 20
2.031391284097984
 30
0.0
 10
0.8283557734752058
 20
1.431815478433925
 30
0.0
 10
0.8283557734752058
 20
1.431815478433925
 30
0.0
  0
SPLINE
  5
BCE3
330
1A
100
AcDbEntity
  8
0
100
AcDbSpline
210
0.0
220
0.0
230
1.0
 70
    24
 71
     3
 72
     8
 73
     4
 74
     0
 42
0.0000000001
 43
0.0000000001
 40
2.0
 40
2.0
 40
2.0
 40
2.0
 40
3.0
 40
3.0
 40
3.0
 40
3.0
 10
0.8283557734752058
 20
1.431815478433925
 30
0.0
 10
0.8283557734752058
 20
1.431815478433925
 30
0.0
 10
0.8646774151852696
 20
1.41365465757889
 30
0.0
 10
0.8646774151852696
 20
1.41365465757889
 30
0.0
  0
SPLINE
  5
BCE4
330
1A
100
AcDbEntity
  8
0
100
AcDbSpline
210
0.0
220
0.0
230
1.0
 70
    24
 71
     3
 72
     8
 73
     4
 74
     0
 42
0.0000000001
 43
0.0000000001
 40
3.0
 40
3.0
 40
3.0
 40
3.0
 40
4.0
 40
4.0
 40
4.0
 40
4.0
 10
0.8646774151852696
 20
1.41365465757889
 30
0.0
 10
0.8646774151852696
 20
1.41365465757889
 30
0.0
 10
1.041739820241698
 20
1.477519837700417
 30
0.0
 10
1.041739820241698
 20
1.477519837700417
 30
0.0
  0
SPLINE
  5
BCE5
330
1A
100
AcDbEntity
  8
0
100
AcDbSpline
210
0.0
220
0.0
230
1.0
 70
    24
 71
     3
 72
     8
 73
     4
 74
     0
 42
0.0000000001
 43
0.0000000001
 40
4.0
 40
4.0
 40
4.0
 40
4.0
 40
5.0
 40
5.0
 40
5.0
 40
5.0
 10
1.041739820241698
 20
1.477519837700417
 30
0.0
 10
1.041739820241698
 20
1.477519837700417
 30
0.0
 10
1.171911030636665
 20
1.413923375026805
 30
0.0
 10
1.171911030636665
 20
1.413923375026805
 30
0.0
  0
SPLINE
  5
BCE6
330
1A
100
AcDbEntity
  8
0
100
AcDbSpline
210
0.0
220
0.0
230
1.0
 70
    24
 71
     3
 72
     8
 73
     4
 74
     0
 42
0.0000000001
 43
0.0000000001
 40
5.0
 40
5.0
 40
5.0
 40
5.0
 40
6.0
 40
6.0
 40
6.0
 40
6.0
 10
1.171911030636665
 20
1.413923375026805
 30
0.0
 10
1.171911030636665
 20
1.413923375026805
 30
0.0
 10
1.225318623410097
 20
1.43591341951465
 30
0.0
 10
1.225318623410097
 20
1.43591341951465
 30
0.0
  0
SPLINE
  5
BCE7
330
1A
100
AcDbEntity
  8
0
100
AcDbSpline
210
0.0
220
0.0
230
1.0
 70
    24
 71
     3
 72
     8
 73
     4
 74
     0
 42
0.0000000001
 43
0.0000000001
 40
6.0
 40
6.0
 40
6.0
 40
6.0
 40
7.0
 40
7.0
 40
7.0
 40
7.0
 10
1.225318623410097
 20
1.43591341951465
 30
0.0
 10
1.225318623410097
 20
1.43591341951465
 30
0.0
 10
1.363361015716956
 20
1.93127164162837
 30
0.0
 10
1.363361015716956
 20
1.93127164162837
 30
0.0
  0
SPLINE
  5
BCE8
330
1A
100
AcDbEntity
  8
0
100
AcDbSpline
210
0.0
220
0.0
230
1.0
 70
     8
 71
     3
 72
     8
 73
     4
 74
     0
 42
0.0000000001
 43
0.0000000001
 40
0.0
 40
0.0
 40
0.0
 40
0.0
 40
1.0
 40
1.0
 40
1.0
 40
1.0
 10
0.4469785355194738
 20
2.853218812309793
 30
0.0
 10
0.4469785355194738
 20
2.853218812309793
 30
0.0
 10
0.6603625822859645
 20
2.760824796467779
 30
0.0
 10
0.7239142587182581
 20
2.735162280191736
 30
0.0
  0
SPLINE
  5
BCE9
330
1A
100
AcDbEntity
  8
0
100
AcDbSpline
210
0.0
220
0.0
230
1.0
 70
     8
 71
     3
 72
     8
 73
     4
 74
     0
 42
0.0000000001
 43
0.0000000001
 40
1.0
 40
1.0
 40
1.0
 40
1.0
 40
2.0
 40
2.0
 40
2.0
 40
2.0
 10
0.7239142587182581
 20
2.735162280191736
 30
0.0
 10
0.7638635859752014
 20
2.718972053954756
 30
0.0
 10
0.7965575421383964
 20
2.680657424505974
 30
0.0
 10
0.8101725594995095
 20
2.639812372422638
 30
0.0
  0
SPLINE
  5
BCEA
330
1A
100
AcDbEntity
  8
0
100
AcDbSpline
210
0.0
220
0.0
230
1.0
 70
     8
 71
     3
 72
    11
 73
     7
 74
     0
 42
0.0000000001
 43
0.0000000001
 40
2.0
 40
2.0
 40
2.0
 40
2.0
 40
3.0
 40
3.0
 40
3.0
 40
4.0
 40
4.0
 40
4.0
 40
4.0
 10
0.8101725594995095
 20
2.639812372422638
 30
0.0
 10
0.8238323631019391
 20
2.598922534097986
 30
0.0
 10
0.8737242359318032
 20
2.426405932535486
 30
0.0
 10
0.8737242359318032
 20
2.335624221380972
 30
0.0
 10
0.8737242359318032
 20
2.281589621229062
 30
0.0
 10
0.8576683684187785
 20
2.216313674505973
 30
0.0
 10
0.8360030241804974
 20
2.126181363850591
 30
0.0
  0
SPLINE
  5
BCEB
330
1A
100
AcDbEntity
  8
0
100
AcDbSpline
210
0.0
220
0.0
230
1.0
 70
    24
 71
     3
 72
     8
 73
     4
 74
     0
 42
0.0000000001
 43
0.0000000001
 40
0.0
 40
0.0
 40
0.0
 40
0.0
 40
1.0
 40
1.0
 40
1.0
 40
1.0
 10
0.4457245207625302
 20
3.419182543863609
 30
0.0
 10
0.4457245207625302
 20
3.419182543863609
 30
0.0
 10
2.158272012895775
 20
2.706073616454757
 30
0.0
 10
2.158272012895775
 20
2.706073616454757
 30
0.0
  0
SPLINE
  5
BCEC
330
1A
100
AcDbEntity
  8
0
100
AcDbSpline
210
0.0
220
0.0
230
1.0
 70
     8
 71
     3
 72
     8
 73
     4
 74
     0
 42
0.0000000001
 43
0.0000000001
 40
1.0
 40
1.0
 40
1.0
 40
1.0
 40
2.0
 40
2.0
 40
2.0
 40
2.0
 10
2.158272012895775
 20
2.706073616454757
 30
0.0
 10
2.158272012895775
 20
2.706073616454757
 30
0.0
 10
2.261190795447858
 20
1.890605734510315
 30
0.0
 10
2.265781385183102
 20
1.854328879041564
 30
0.0
  0
SPLINE
  5
BCED
330
1A
100
AcDbEntity
  8
0
100
AcDbSpline
210
0.0
220
0.0
230
1.0
 70
     8
 71
     3
 72
     8
 73
     4
 74
     0
 42
0.0000000001
 43
0.0000000001
 40
2.0
 40
2.0
 40
2.0
 40
2.0
 40
3.0
 40
3.0
 40
3.0
 40
3.0
 10
2.265781385183102
 20
1.854328879041564
 30
0.0
 10
2.270349581797683
 20
1.818007237331493
 30
0.0
 10
2.290301852305495
 20
1.799801630235137
 30
0.0
 10
2.317531887027721
 20
1.804347433729062
 30
0.0
  0
SPLINE
  5
BCEE
330
1A
100
AcDbEntity
  8
0
100
AcDbSpline
210
0.0
220
0.0
230
1.0
 70
     8
 71
     3
 72
     8
 73
     4
 74
     0
 42
0.0000000001
 43
0.0000000001
 40
0.0
 40
0.0
 40
0.0
 40
0.0
 40
1.0
 40
1.0
 40
1.0
 40
1.0
 10
0.8797031991479454
 20
2.101280213676978
 30
0.0
 10
0.8766129484969056
 20
2.091091343776806
 30
0.0
 10
0.8763218379283266
 20
2.088471348659619
 30
0.0
 10
0.8763218379283266
 20
2.088471348659619
 30
0.0
  0
SPLINE
  5
BCEF
330
1A
100
AcDbEntity
  8
0
100
AcDbSpline
210
0.0
220
0.0
230
1.0
 70
    24
 71
     3
 72
     8
 73
     4
 74
     0
 42
0.0000000001
 43
0.0000000001
 40
1.0
 40
1.0
 40
1.0
 40
1.0
 40
2.0
 40
2.0
 40
2.0
 40
2.0
 10
0.8763218379283266
 20
2.088471348659619
 30
0.0
 10
0.8763218379283266
 20
2.088471348659619
 30
0.0
 10
0.8763218379283266
 20
1.416297045816737
 30
0.0
 10
0.8763218379283266
 20
1.416297045816737
 30
0.0
  0
SPLINE
  5
BCF0
330
1A
100
AcDbEntity
  8
0
100
AcDbSpline
210
0.0
220
0.0
230
1.0
 70
     8
 71
     3
 72
     8
 73
     4
 74
     0
 42
0.0000000001
 43
0.0000000001
 40
0.0
 40
0.0
 40
0.0
 40
0.0
 40
1.0
 40
1.0
 40
1.0
 40
1.0
 10
0.7692379349335354
 20
2.716396845078888
 30
0.0
 10
0.7692379349335354
 20
2.716396845078888
 30
0.0
 10
0.8285125253198213
 20
2.685158441758579
 30
0.0
 10
0.8692008255585346
 20
2.591756735486873
 30
0.0
  0
SPLINE
  5
BCF1
330
1A
100
AcDbEntity
  8
0
100
AcDbSpline
210
0.0
220
0.0
230
1.0
 70
     8
 71
     3
 72
    11
 73
     7
 74
     0
 42
0.0000000001
 43
0.0000000001
 40
1.0
 40
1.0
 40
1.0
 40
1.0
 40
2.0
 40
2.0
 40
2.0
 40
3.0
 40
3.0
 40
3.0
 40
3.0
 10
0.8692008255585346
 20
2.591756735486873
 30
0.0
 10
0.9008199119300642
 20
2.519158238308056
 30
0.0
 10
0.9217350866262457
 20
2.439976163655276
 30
0.0
 10
0.9217350866262457
 20
2.317418614284617
 30
0.0
 10
0.9217350866262457
 20
2.261614957600589
 30
0.0
 10
0.9045819562008965
 20
2.187941590630105
 30
0.0
 10
0.8797031991479454
 20
2.101280213676978
 30
0.0
  0
SPLINE
  5
BCF2
330
1A
100
AcDbEntity
  8
0
100
AcDbSpline
210
0.0
220
0.0
230
1.0
 70
     8
 71
     3
 72
     8
 73
     4
 74
     0
 42
0.0000000001
 43
0.0000000001
 40
0.0
 40
0.0
 40
0.0
 40
0.0
 40
1.0
 40
1.0
 40
1.0
 40
1.0
 10
-0.6017248946563072
 20
3.069625930365348
 30
0.0
 10
-0.6428386641875594
 20
3.08861529668479
 30
0.0
 10
-0.6293803986710618
 20
3.136021533121424
 30
0.0
 10
-0.6293803986710618
 20
3.136021533121424
 30
0.0
  0
SPLINE
  5
BCF3
330
1A
100
AcDbEntity
  8
0
100
AcDbSpline
210
0.0
220
0.0
230
1.0
 70
    24
 71
     3
 72
     8
 73
     4
 74
     0
 42
0.0000000001
 43
0.0000000001
 40
1.0
 40
1.0
 40
1.0
 40
1.0
 40
2.0
 40
2.0
 40
2.0
 40
2.0
 10
-0.6293803986710618
 20
3.136021533121424
 30
0.0
 10
-0.6293803986710618
 20
3.136021533121424
 30
0.0
 10
-0.6129886343481488
 20
3.310777446749896
 30
0.0
 10
-0.6129886343481488
 20
3.310777446749896
 30
0.0
  0
SPLINE
  5
BCF4
330
1A
100
AcDbEntity
  8
0
100
AcDbSpline
210
0.0
220
0.0
230
1.0
 70
    24
 71
     3
 72
     8
 73
     4
 74
     0
 42
0.0000000001
 43
0.0000000001
 40
0.0
 40
0.0
 40
0.0
 40
0.0
 40
1.0
 40
1.0
 40
1.0
 40
1.0
 10
1.318126911984317
 20
1.946498963676978
 30
0.0
 10
1.318126911984317
 20
1.946498963676978
 30
0.0
 10
1.400040947357581
 20
2.246611566758577
 30
0.0
 10
1.400040947357581
 20
2.246611566758577
 30
0.0
  0
SPLINE
  5
BCF5
330
1A
100
AcDbEntity
  8
0
100
AcDbSpline
210
0.0
220
0.0
230
1.0
 70
     8
 71
     3
 72
     8
 73
     4
 74
     0
 42
0.0000000001
 43
0.0000000001
 40
1.0
 40
1.0
 40
1.0
 40
1.0
 40
2.0
 40
2.0
 40
2.0
 40
2.0
 10
1.400040947357581
 20
2.246611566758577
 30
0.0
 10
1.400040947357581
 20
2.246611566758577
 30
0.0
 10
1.408729478173553
 20
2.204758824245555
 30
0.0
 10
1.445006333642304
 20
2.189665860920902
 30
0.0
  0
SPLINE
  5
BCFC
330
1A
100
AcDbEntity
  8
0
100
AcDbSpline
210
0.0
220
0.0
230
1.0
 70
     8
 71
     3
 72
    11
 73
     7
 74
     0
 42
0.0000000001
 43
0.0000000001
 40
0.0
 40
0.0
 40
0.0
 40
0.0
 40
1.0
 40
1.0
 40
1.0
 40
2.0
 40
2.0
 40
2.0
 40
2.0
 10
2.669506957557235
 20
2.164070524006839
 30
0.0
 10
2.668566446489523
 20
2.182276131103194
 30
0.0
 10
2.666461493147509
 20
2.203952671901804
 30
0.0
 10
2.666461493147509
 20
2.220568367431318
 30
0.0
 10
2.666461493147509
 20
2.237161669840172
 30
0.0
 10
2.651659640391435
 20
2.254919414523332
 30
0.0
 10
2.627385497596297
 20
2.234944750894859
 30
0.0
  0
SPLINE
  5
BCFD
330
1A
100
AcDbEntity
  8
0
100
AcDbSpline
210
0.0
220
0.0
230
1.0
 70
     8
 71
     3
 72
     8
 73
     4
 74
     0
 42
0.0000000001
 43
0.0000000001
 40
2.0
 40
2.0
 40
2.0
 40
2.0
 40
3.0
 40
3.0
 40
3.0
 40
3.0
 10
2.627385497596297
 20
2.234944750894859
 30
0.0
 10
2.601678195078934
 20
2.213738465630105
 30
0.0
 10
2.581457207123204
 20
2.192980042778542
 30
0.0
 10
2.581457207123204
 20
2.192980042778542
 30
0.0
  0
SPLINE
  5
BCFE
330
1A
100
AcDbEntity
  8
0
100
AcDbSpline
210
0.0
220
0.0
230
1.0
 70
     8
 71
     3
 72
     8
 73
     4
 74
     0
 42
0.0000000001
 43
0.0000000001
 40
3.0
 40
3.0
 40
3.0
 40
3.0
 40
4.0
 40
4.0
 40
4.0
 40
4.0
 10
2.581457207123204
 20
2.192980042778542
 30
0.0
 10
2.581457207123204
 20
2.192980042778542
 30
0.0
 10
2.571201157861054
 20
2.157083870361007
 30
0.0
 10
2.566700140608447
 20
2.141968513915694
 30
0.0
  0
SPLINE
  5
BCFF
330
1A
100
AcDbEntity
  8
0
100
AcDbSpline
210
0.0
220
0.0
230
1.0
 70
     8
 71
     3
 72
     8
 73
     4
 74
     0
 42
0.0000000001
 43
0.0000000001
 40
4.0
 40
4.0
 40
4.0
 40
4.0
 40
5.0
 40
5.0
 40
5.0
 40
5.0
 10
2.566700140608447
 20
2.141968513915694
 30
0.0
 10
2.562154337114523
 20
2.126875550591042
 30
0.0
 10
2.581233275916608
 20
2.117044970621425
 30
0.0
 10
2.598431192583275
 20
2.119306675808053
 30
0.0
  0
SPLINE
  5
BD00
330
1A
100
AcDbEntity
  8
0
100
AcDbSpline
210
0.0
220
0.0
230
1.0
 70
     8
 71
     3
 72
     8
 73
     4
 74
     0
 42
0.0000000001
 43
0.0000000001
 40
5.0
 40
5.0
 40
5.0
 40
5.0
 40
6.0
 40
6.0
 40
6.0
 40
6.0
 10
2.598431192583275
 20
2.119306675808053
 30
0.0
 10
2.615181246836748
 20
2.12150120163271
 30
0.0
 10
2.6301622445581
 20
2.122307353976457
 30
0.0
 10
2.645322387244731
 20
2.126875550591042
 30
0.0
  0
SPLINE
  5
BD01
330
1A
100
AcDbEntity
  8
0
100
AcDbSpline
210
0.0
220
0.0
230
1.0
 70
     8
 71
     3
 72
     8
 73
     4
 74
     0
 42
0.0000000001
 43
0.0000000001
 40
6.0
 40
6.0
 40
6.0
 40
6.0
 40
7.0
 40
7.0
 40
7.0
 40
7.0
 10
2.645322387244731
 20
2.126875550591042
 30
0.0
 10
2.660437743690045
 20
2.131376567843646
 30
0.0
 10
2.670760972314175
 20
2.140535354193472
 30
0.0
 10
2.669506957557235
 20
2.164070524006839
 30
0.0
  0
SPLINE
  5
BD02
330
1A
100
AcDbEntity
  8
0
100
AcDbSpline
210
0.0
220
0.0
230
1.0
 70
     8
 71
     3
 72
     8
 73
     4
 74
     0
 42
0.0000000001
 43
0.0000000001
 40
0.0
 40
0.0
 40
0.0
 40
0.0
 40
1.0
 40
1.0
 40
1.0
 40
1.0
 10
2.64113487368137
 20
2.216940681884444
 30
0.0
 10
2.64113487368137
 20
2.216940681884444
 30
0.0
 10
2.636544283946122
 20
2.200907207492085
 30
0.0
 10
2.619727050330672
 20
2.178200583143125
 30
0.0
  0
SPLINE
  5
BD03
330
1A
100
AcDbEntity
  8
0
100
AcDbSpline
210
0.0
220
0.0
230
1.0
 70
     8
 71
     3
 72
     8
 73
     4
 74
     0
 42
0.0000000001
 43
0.0000000001
 40
1.0
 40
1.0
 40
1.0
 40
1.0
 40
2.0
 40
2.0
 40
2.0
 40
2.0
 10
2.619727050330672
 20
2.178200583143125
 30
0.0
 10
2.597154784705671
 20
2.147566794080625
 30
0.0
 10
2.590660779714352
 20
2.143580818603196
 30
0.0
 10
2.590660779714352
 20
2.143580818603196
 30
0.0
  0
SPLINE
  5
BD04
330
1A
100
AcDbEntity
  8
0
100
AcDbSpline
210
0.0
220
0.0
230
1.0
 70
     8
 71
     3
 72
    11
 73
     7
 74
     0
 42
0.0000000001
 43
0.0000000001
 40
0.0
 40
0.0
 40
0.0
 40
0.0
 40
1.0
 40
1.0
 40
1.0
 40
2.0
 40
2.0
 40
2.0
 40
2.0
 10
2.446247544579801
 20
2.263966235269862
 30
0.0
 10
2.445374212874077
 20
2.282149449245557
 30
0.0
 10
2.443269259532059
 20
2.303825990044167
 30
0.0
 10
2.443269259532059
 20
2.320374506211701
 30
0.0
 10
2.443269259532059
 20
2.337057381103194
 30
0.0
 10
2.428467406775981
 20
2.354747946424374
 30
0.0
 10
2.404193263980847
 20
2.334773282795902
 30
0.0
  0
SPLINE
  5
BD05
330
1A
100
AcDbEntity
  8
0
100
AcDbSpline
210
0.0
220
0.0
230
1.0
 70
     8
 71
     3
 72
     8
 73
     4
 74
     0
 42
0.0000000001
 43
0.0000000001
 40
2.0
 40
2.0
 40
2.0
 40
2.0
 40
3.0
 40
3.0
 40
3.0
 40
3.0
 10
2.404193263980847
 20
2.334773282795902
 30
0.0
 10
2.378485961463484
 20
2.313634176893123
 30
0.0
 10
2.358309759749071
 20
2.292853360920904
 30
0.0
 10
2.358309759749071
 20
2.292853360920904
 30
0.0
  0
SPLINE
  5
BD06
330
1A
100
AcDbEntity
  8
0
100
AcDbSpline
210
0.0
220
0.0
230
1.0
 70
     8
 71
     3
 72
     8
 73
     4
 74
     0
 42
0.0000000001
 43
0.0000000001
 40
3.0
 40
3.0
 40
3.0
 40
3.0
 40
4.0
 40
4.0
 40
4.0
 40
4.0
 10
2.358309759749071
 20
2.292853360920904
 30
0.0
 10
2.358309759749071
 20
2.292853360920904
 30
0.0
 10
2.348008924245601
 20
2.256934795382708
 30
0.0
 10
2.343530300113656
 20
2.241797045816737
 30
0.0
  0
SPLINE
  5
BD07
330
1A
100
AcDbEntity
  8
0
100
AcDbSpline
210
0.0
220
0.0
230
1.0
 70
     8
 71
     3
 72
     8
 73
     4
 74
     0
 42
0.0000000001
 43
0.0000000001
 40
4.0
 40
4.0
 40
4.0
 40
4.0
 40
5.0
 40
5.0
 40
5.0
 40
5.0
 10
2.343530300113656
 20
2.241797045816737
 30
0.0
 10
2.338962103499075
 20
2.226726475612744
 30
0.0
 10
2.357973862939177
 20
2.216895895643124
 30
0.0
 10
2.375261352088481
 20
2.219179993950416
 30
0.0
  0
SPLINE
  5
BD08
330
1A
100
AcDbEntity
  8
0
100
AcDbSpline
210
0.0
220
0.0
230
1.0
 70
     8
 71
     3
 72
     8
 73
     4
 74
     0
 42
0.0000000001
 43
0.0000000001
 40
5.0
 40
5.0
 40
5.0
 40
5.0
 40
6.0
 40
6.0
 40
6.0
 40
6.0
 10
2.375261352088481
 20
2.219179993950416
 30
0.0
 10
2.392033799462615
 20
2.221374519775068
 30
0.0
 10
2.406970010942651
 20
2.22215827899816
 30
0.0
 10
2.422130153629279
 20
2.226726475612744
 30
0.0
  0
SPLINE
  5
BD09
330
1A
100
AcDbEntity
  8
0
100
AcDbSpline
210
0.0
220
0.0
230
1.0
 70
     8
 71
     3
 72
     8
 73
     4
 74
     0
 42
0.0000000001
 43
0.0000000001
 40
6.0
 40
6.0
 40
6.0
 40
6.0
 40
7.0
 40
7.0
 40
7.0
 40
7.0
 10
2.422130153629279
 20
2.226726475612744
 30
0.0
 10
2.437223116953938
 20
2.231272279106666
 30
0.0
 10
2.447546345578067
 20
2.240386279215175
 30
0.0
 10
2.446247544579801
 20
2.263966235269862
 30
0.0
  0
SPLINE
  5
BD0A
330
1A
100
AcDbEntity
  8
0
100
AcDbSpline
210
0.0
220
0.0
230
1.0
 70
     8
 71
     3
 72
     8
 73
     4
 74
     0
 42
0.0000000001
 43
0.0000000001
 40
0.0
 40
0.0
 40
0.0
 40
0.0
 40
1.0
 40
1.0
 40
1.0
 40
1.0
 10
2.417942640065915
 20
2.316814000026807
 30
0.0
 10
2.417942640065915
 20
2.316814000026807
 30
0.0
 10
2.41180692500515
 20
2.299526510877502
 30
0.0
 10
2.396534816715221
 20
2.278029115044168
 30
0.0
  0
SPLINE
  5
BD0B
330
1A
100
AcDbEntity
  8
0
100
AcDbSpline
210
0.0
220
0.0
230
1.0
 70
     8
 71
     3
 72
     8
 73
     4
 74
     0
 42
0.0000000001
 43
0.0000000001
 40
1.0
 40
1.0
 40
1.0
 40
1.0
 40
2.0
 40
2.0
 40
2.0
 40
2.0
 10
2.396534816715221
 20
2.278029115044168
 30
0.0
 10
2.374477592865397
 20
2.247014642930452
 30
0.0
 10
2.367490939219556
 20
2.243409350504234
 30
0.0
 10
2.367490939219556
 20
2.243409350504234
 30
0.0
  0
LINE
  5
BD0C
330
1A
100
AcDbEntity
  8
0
100
AcDbLine
 10
0.4461947762963785
 20
3.248009529540695
 30
0.0
 11
0.4463963143823175
 21
9.135384882188264
 31
0.0
  0
LINE
  5
BD0D
330
1A
100
AcDbEntity
  8
0
100
AcDbLine
 10
0.4463963143823175
 20
9.135384882188264
 30
0.0
 11
0.0820602412486373
 21
9.166264995578022
 31
0.0
  0
LINE
  5
BD0E
330
1A
100
AcDbEntity
  8
0
100
AcDbLine
 10
0.0820602412486373
 20
9.166264995578022
 30
0.0
 11
0.0228976164656505
 21
9.149985196858401
 31
0.0
  0
LINE
  5
BD0F
330
1A
100
AcDbEntity
  8
0
100
AcDbLine
 10
0.0228976164656505
 20
9.149985196858401
 30
0.0
 11
0.0233678719995041
 21
3.434589010877501
 31
0.0
  0
LINE
  5
BD10
330
1A
100
AcDbEntity
  8
0
100
AcDbLine
 10
0.3958550410533235
 20
3.280479554497292
 30
0.0
 11
0.3959222204153026
 21
9.103161181558924
 31
0.0
  0
LINE
  5
BD11
330
1A
100
AcDbEntity
  8
0
100
AcDbLine
 10
0.3959222204153026
 20
9.103161181558924
 30
0.0
 11
0.0371620343258936
 21
9.134466764241216
 31
0.0
  0
SPLINE
  5
BD32
330
1A
100
AcDbEntity
  8
0
100
AcDbSpline
210
0.0
220
0.0
230
1.0
 70
     8
 71
     3
 72
     8
 73
     4
 74
     0
 42
0.0000000001
 43
0.0000000001
 40
0.0
 40
0.0
 40
0.0
 40
0.0
 40
1.0
 40
1.0
 40
1.0
 40
1.0
 10
0.0560394350420417
 20
3.264244542018993
 30
0.0
 10
0.0560394350420417
 20
3.264244542018993
 30
0.0
 10
0.0559274694387479
 20
3.224608718451284
 30
0.0
 10
0.0831351110403045
 20
3.212471647053715
 30
0.0
  0
SPLINE
  5
BD33
330
1A
100
AcDbEntity
  8
0
100
AcDbSpline
210
0.0
220
0.0
230
1.0
 70
     8
 71
     3
 72
     8
 73
     4
 74
     0
 42
0.0000000001
 43
0.0000000001
 40
1.0
 40
1.0
 40
1.0
 40
1.0
 40
2.0
 40
2.0
 40
2.0
 40
2.0
 10
0.0831351110403045
 20
3.212471647053715
 30
0.0
 10
0.1104099320038472
 20
3.200401755018127
 30
0.0
 10
0.2983106074595803
 20
3.119831306884445
 30
0.0
 10
0.3225175708927353
 20
3.107694235486877
 30
0.0
  0
SPLINE
  5
BD34
330
1A
100
AcDbEntity
  8
0
100
AcDbSpline
210
0.0
220
0.0
230
1.0
 70
     8
 71
     3
 72
     8
 73
     4
 74
     0
 42
0.0000000001
 43
0.0000000001
 40
2.0
 40
2.0
 40
2.0
 40
2.0
 40
3.0
 40
3.0
 40
3.0
 40
3.0
 10
0.3225175708927353
 20
3.107694235486877
 30
0.0
 10
0.3467469274465529
 20
3.095601950330623
 30
0.0
 10
0.3687145788137443
 20
3.114860034097985
 30
0.0
 10
0.3687145788137443
 20
3.132102737005974
 30
0.0
  0
SPLINE
  5
BD35
330
1A
100
AcDbEntity
  8
0
100
AcDbSpline
210
0.0
220
0.0
230
1.0
 70
     8
 71
     3
 72
     8
 73
     4
 74
     0
 42
0.0000000001
 43
0.0000000001
 40
3.628615195125611
 40
3.628615195125611
 40
3.628615195125611
 40
3.628615195125611
 40
4.0
 40
4.0
 40
4.0
 40
4.0
 10
0.1757453696131641
 20
3.204635386753164
 30
0.0
 10
0.1438009983870199
 20
3.219170644816314
 30
0.0
 10
0.1165732474350243
 20
3.231656044818968
 30
0.0
 10
0.1064687427677384
 20
3.236163568711701
 30
0.0
  0
SPLINE
  5
BD36
330
1A
100
AcDbEntity
  8
0
100
AcDbSpline
210
0.0
220
0.0
230
1.0
 70
     8
 71
     3
 72
    11
 73
     7
 74
     0
 42
0.0000000001
 43
0.0000000001
 40
4.0
 40
4.0
 40
4.0
 40
4.0
 40
5.0
 40
5.0
 40
5.0
 40
6.0
 40
6.0
 40
6.0
 40
6.0
 10
0.1064687427677384
 20
3.236163568711701
 30
0.0
 10
0.0791939218041975
 20
3.24827824698861
 30
0.0
 10
0.0590848994517668
 20
3.24818867450597
 30
0.0
 10
0.0590848994517668
 20
3.269372566650071
 30
0.0
 10
0.0590848994517668
 20
3.290534065673509
 30
0.0
 10
0.0822169930932599
 20
3.302693530191737
 30
0.0
 10
0.1124924922252042
 20
3.290534065673509
 30
0.0
  0
SPLINE
  5
BD37
330
1A
100
AcDbEntity
  8
0
100
AcDbSpline
210
0.0
220
0.0
230
1.0
 70
     8
 71
     3
 72
     8
 73
     4
 74
     0
 42
0.0000000001
 43
0.0000000001
 40
0.0
 40
0.0
 40
0.0
 40
0.0
 40
1.0
 40
1.0
 40
1.0
 40
1.0
 10
0.1124924922252042
 20
3.290534065673509
 30
0.0
 10
0.1124924922252042
 20
3.290534065673509
 30
0.0
 10
0.3031923077633945
 20
3.205820890217778
 30
0.0
 10
0.3273992711965583
 20
3.196706890109272
 30
0.0
  0
SPLINE
  5
BD38
330
1A
100
AcDbEntity
  8
0
100
AcDbSpline
210
0.0
220
0.0
230
1.0
 70
     8
 71
     3
 72
    11
 73
     7
 74
     0
 42
0.0000000001
 43
0.0000000001
 40
1.0
 40
1.0
 40
1.0
 40
1.0
 40
2.0
 40
2.0
 40
2.0
 40
3.0
 40
3.0
 40
3.0
 40
3.0
 10
0.3273992711965583
 20
3.196706890109272
 30
0.0
 10
0.3516510208710351
 20
3.187615283121422
 30
0.0
 10
0.3687145788137443
 20
3.1716713812117
 30
0.0
 10
0.3687145788137443
 20
3.147464417778542
 30
0.0
 10
0.3687145788137443
 20
3.123212668104065
 30
0.0
 10
0.3516510208710351
 20
3.129773852457362
 30
0.0
 10
0.3183300573293675
 20
3.141955710096251
 30
0.0
  0
SPLINE
  5
BD39
330
1A
100
AcDbEntity
  8
0
100
AcDbSpline
210
0.0
220
0.0
230
1.0
 70
     8
 71
     3
 72
     8
 73
     4
 74
     0
 42
0.0000000001
 43
0.0000000001
 40
3.0
 40
3.0
 40
3.0
 40
3.0
 40
3.456104902819356
 40
3.456104902819356
 40
3.456104902819356
 40
3.456104902819356
 10
0.3183300573293675
 20
3.141955710096251
 30
0.0
 10
0.3031424161034728
 20
3.147471060642308
 30
0.0
 10
0.263395275885598
 20
3.165028578277561
 30
0.0
 10
0.2220699858141231
 20
3.183647529611935
 30
0.0
  0
SPLINE
  5
BD3A
330
1A
100
AcDbEntity
  8
0
100
AcDbSpline
210
0.0
220
0.0
230
1.0
 70
     8
 71
     3
 72
     8
 73
     4
 74
     0
 42
0.0000000001
 43
0.0000000001
 40
0.0
 40
0.0
 40
0.0
 40
0.0
 40
1.0
 40
1.0
 40
1.0
 40
1.0
 10
0.1639518835012428
 20
3.247337735920905
 30
0.0
 10
0.1639518835012428
 20
3.247337735920905
 30
0.0
 10
0.167915465858016
 20
3.242232104410483
 30
0.0
 10
0.1691470874942986
 20
3.223153165608403
 30
0.0
  0
SPLINE
  5
BD3B
330
1A
100
AcDbEntity
  8
0
100
AcDbSpline
210
0.0
220
0.0
230
1.0
 70
     8
 71
     3
 72
     8
 73
     4
 74
     0
 42
0.0000000001
 43
0.0000000001
 40
1.0
 40
1.0
 40
1.0
 40
1.0
 40
2.0
 40
2.0
 40
2.0
 40
2.0
 10
0.1691470874942986
 20
3.223153165608403
 30
0.0
 10
0.1706922128198212
 20
3.199752354518991
 30
0.0
 10
0.1972728470429086
 20
3.180068801459099
 30
0.0
 10
0.2176058006019375
 20
3.182935120903542
 30
0.0
  0
SPLINE
  5
BD3C
330
1A
100
AcDbEntity
  8
0
100
AcDbSpline
210
0.0
220
0.0
230
1.0
 70
     8
 71
     3
 72
     8
 73
     4
 74
     0
 42
0.0000000001
 43
0.0000000001
 40
2.0
 40
2.0
 40
2.0
 40
2.0
 40
3.0
 40
3.0
 40
3.0
 40
3.0
 10
0.2176058006019375
 20
3.182935120903542
 30
0.0
 10
0.2452389114960347
 20
3.186831523898332
 30
0.0
 10
0.245686773909231
 20
3.195878344644862
 30
0.0
 10
0.2668706660533289
 20
3.192877666476459
 30
0.0
  0
SPLINE
  5
BD3D
330
1A
100
AcDbEntity
  8
0
100
AcDbSpline
210
0.0
220
0.0
230
1.0
 70
    24
 71
     3
 72
     8
 73
     4
 74
     0
 42
0.0000000001
 43
0.0000000001
 40
0.0
 40
0.0
 40
0.0
 40
0.0
 40
1.0
 40
1.0
 40
1.0
 40
1.0
 10
0.0254952184621828
 20
3.47310517841222
 30
0.0
 10
0.0254952184621828
 20
3.47310517841222
 30
0.0
 10
-0.147827535444069
 20
3.54333000480111
 30
0.0
 10
-0.147827535444069
 20
3.54333000480111
 30
0.0
  0
SPLINE
  5
BD3E
330
1A
100
AcDbEntity
  8
0
100
AcDbSpline
210
0.0
220
0.0
230
1.0
 70
     8
 71
     3
 72
     8
 73
     4
 74
     0
 42
0.0000000001
 43
0.0000000001
 40
1.0
 40
1.0
 40
1.0
 40
1.0
 40
2.0
 40
2.0
 40
2.0
 40
2.0
 10
-0.147827535444069
 20
3.54333000480111
 30
0.0
 10
-0.147827535444069
 20
3.54333000480111
 30
0.0
 10
-0.0826635543242737
 20
3.519324579453888
 30
0.0
 10
-0.0690261438425068
 20
3.501186151719518
 30
0.0
  0
SPLINE
  5
BD3F
330
1A
100
AcDbEntity
  8
0
100
AcDbSpline
210
0.0
220
0.0
230
1.0
 70
     8
 71
     3
 72
     8
 73
     4
 74
     0
 42
0.0000000001
 43
0.0000000001
 40
2.0
 40
2.0
 40
2.0
 40
2.0
 40
3.0
 40
3.0
 40
3.0
 40
3.0
 10
-0.0690261438425068
 20
3.501186151719518
 30
0.0
 10
-0.0554111264813955
 20
3.483002937743821
 30
0.0
 10
-0.0404301287600379
 20
3.457519566433057
 30
0.0
 10
-0.0197836715117745
 20
3.448338386962567
 30
0.0
  0
SPLINE
  5
BD40
330
1A
100
AcDbEntity
  8
0
100
AcDbSpline
210
0.0
220
0.0
230
1.0
 70
     8
 71
     3
 72
     8
 73
     4
 74
     0
 42
0.0000000001
 43
0.0000000001
 40
3.0
 40
3.0
 40
3.0
 40
3.0
 40
4.0
 40
4.0
 40
4.0
 40
4.0
 10
-0.0197836715117745
 20
3.448338386962567
 30
0.0
 10
0.0008403926158262
 20
3.439157207492082
 30
0.0
 10
0.4310346336097517
 20
3.25553361808236
 30
0.0
 10
0.4718796856930858
 20
3.237350404106668
 30
0.0
  0
SPLINE
  5
BD41
330
1A
100
AcDbEntity
  8
0
100
AcDbSpline
210
0.0
220
0.0
230
1.0
 70
     8
 71
     3
 72
     8
 73
     4
 74
     0
 42
0.0000000001
 43
0.0000000001
 40
4.0
 40
4.0
 40
4.0
 40
4.0
 40
5.0
 40
5.0
 40
5.0
 40
5.0
 10
0.4718796856930858
 20
3.237350404106668
 30
0.0
 10
0.5127471308970772
 20
3.219211976372293
 30
0.0
 10
0.5957136429413463
 20
3.22588512632889
 30
0.0
 10
0.5957136429413463
 20
3.22588512632889
 30
0.0
  0
SPLINE
  5
BD42
330
1A
100
AcDbEntity
  8
0
100
AcDbSpline
210
0.0
220
0.0
230
1.0
 70
     8
 71
     3
 72
     8
 73
     4
 74
     0
 42
0.0000000001
 43
0.0000000001
 40
5.0
 40
5.0
 40
5.0
 40
5.0
 40
6.0
 40
6.0
 40
6.0
 40
6.0
 10
0.5957136429413463
 20
3.22588512632889
 30
0.0
 10
0.5957136429413463
 20
3.22588512632889
 30
0.0
 10
0.6209954761661773
 20
3.218181892821947
 30
0.0
 10
0.6755003318519357
 20
3.195452875352326
 30
0.0
  0
SPLINE
  5
BD43
330
1A
100
AcDbEntity
  8
0
100
AcDbSpline
210
0.0
220
0.0
230
1.0
 70
    24
 71
     3
 72
     8
 73
     4
 74
     0
 42
0.0000000001
 43
0.0000000001
 40
6.0
 40
6.0
 40
6.0
 40
6.0
 40
7.0
 40
7.0
 40
7.0
 40
7.0
 10
0.6755003318519357
 20
3.195452875352326
 30
0.0
 10
0.6755003318519357
 20
3.195452875352326
 30
0.0
 10
0.4469785355194738
 20
3.292325515326287
 30
0.0
 10
0.4469785355194738
 20
3.292325515326287
 30
0.0
  0
SPLINE
  5
BD44
330
1A
100
AcDbEntity
  8
0
100
AcDbSpline
210
0.0
220
0.0
230
1.0
 70
     8
 71
     3
 72
     8
 73
     4
 74
     0
 42
0.0000000001
 43
0.0000000001
 40
0.0
 40
0.0
 40
0.0
 40
0.0
 40
1.0
 40
1.0
 40
1.0
 40
1.0
 10
-0.1432593388294841
 20
3.304037117431319
 30
0.0
 10
-0.1432593388294841
 20
3.304037117431319
 30
0.0
 10
-0.119746562136779
 20
3.276359220295902
 30
0.0
 10
-0.1012274513511855
 20
3.257280281493821
 30
0.0
  0
SPLINE
  5
BD45
330
1A
100
AcDbEntity
  8
0
100
AcDbSpline
210
0.0
220
0.0
230
1.0
 70
     8
 71
     3
 72
     8
 73
     4
 74
     0
 42
0.0000000001
 43
0.0000000001
 40
1.0
 40
1.0
 40
1.0
 40
1.0
 40
2.0
 40
2.0
 40
2.0
 40
2.0
 10
-0.1012274513511855
 20
3.257280281493821
 30
0.0
 10
-0.0827755199275764
 20
3.238268522053716
 30
0.0
 10
-0.079707662397194
 20
3.225459657036354
 30
0.0
 10
-0.0433636275664622
 20
3.202775425808055
 30
0.0
  0
SPLINE
  5
BD46
330
1A
100
AcDbEntity
  8
0
100
AcDbSpline
210
0.0
220
0.0
230
1.0
 70
     8
 71
     3
 72
     8
 73
     4
 74
     0
 42
0.0000000001
 43
0.0000000001
 40
2.0
 40
2.0
 40
2.0
 40
2.0
 40
3.0
 40
3.0
 40
3.0
 40
3.0
 10
-0.0433636275664622
 20
3.202775425808055
 30
0.0
 10
-0.0070419858563948
 20
3.180068801459099
 30
0.0
 10
0.4424103389048906
 20
2.989391379041562
 30
0.0
 10
0.483322570350202
 20
2.971208165065868
 30
0.0
  0
SPLINE
  5
BD47
330
1A
100
AcDbEntity
  8
0
100
AcDbSpline
210
0.0
220
0.0
230
1.0
 70
     8
 71
     3
 72
     8
 73
     4
 74
     0
 42
0.0000000001
 43
0.0000000001
 40
3.0
 40
3.0
 40
3.0
 40
3.0
 40
4.0
 40
4.0
 40
4.0
 40
4.0
 10
0.483322570350202
 20
2.971208165065868
 30
0.0
 10
0.5241676224335361
 20
2.953069737331493
 30
0.0
 10
0.5513976571557553
 20
2.948523933837571
 30
0.0
 10
0.5786276918779834
 20
2.943978130343647
 30
0.0
  0
SPLINE
  5
BD48
330
1A
100
AcDbEntity
  8
0
100
AcDbSpline
210
0.0
220
0.0
230
1.0
 70
     8
 71
     3
 72
     8
 73
     4
 74
     0
 42
0.0000000001
 43
0.0000000001
 40
4.0
 40
4.0
 40
4.0
 40
4.0
 40
5.0
 40
5.0
 40
5.0
 40
5.0
 10
0.5786276918779834
 20
2.943978130343647
 30
0.0
 10
0.6058801197208652
 20
2.939409933729062
 30
0.0
 10
0.6383277515567993
 20
2.941537280191739
 30
0.0
 10
0.6753435800073202
 20
2.943978130343647
 30
0.0
  0
SPLINE
  5
BD49
330
1A
100
AcDbEntity
  8
0
100
AcDbSpline
210
0.0
220
0.0
230
1.0
 70
    24
 71
     3
 72
     8
 73
     4
 74
     0
 42
0.0000000001
 43
0.0000000001
 40
0.0
 40
0.0
 40
0.0
 40
0.0
 40
1.0
 40
1.0
 40
1.0
 40
1.0
 10
0.0263125673662579
 20
2.481582581841043
 30
0.0
 10
0.0263125673662579
 20
2.481582581841043
 30
0.0
 10
0.0262117983232937
 20
2.352687779323682
 30
0.0
 10
0.0262117983232937
 20
2.352687779323682
 30
0.0
  0
SPLINE
  5
BD4A
330
1A
100
AcDbEntity
  8
0
100
AcDbSpline
210
0.0
220
0.0
230
1.0
 70
    24
 71
     3
 72
     8
 73
     4
 74
     0
 42
0.0000000001
 43
0.0000000001
 40
1.0
 40
1.0
 40
1.0
 40
1.0
 40
2.0
 40
2.0
 40
2.0
 40
2.0
 10
0.0262117983232937
 20
2.352687779323682
 30
0.0
 10
0.0262117983232937
 20
2.352687779323682
 30
0.0
 10
0.0479107322425616
 20
2.341894295165695
 30
0.0
 10
0.0479107322425616
 20
2.341894295165695
 30
0.0
  0
SPLINE
  5
BD4B
330
1A
100
AcDbEntity
  8
0
100
AcDbSpline
210
0.0
220
0.0
230
1.0
 70
    24
 71
     3
 72
     8
 73
     4
 74
     0
 42
0.0000000001
 43
0.0000000001
 40
2.0
 40
2.0
 40
2.0
 40
2.0
 40
3.0
 40
3.0
 40
3.0
 40
3.0
 10
0.0479107322425616
 20
2.341894295165695
 30
0.0
 10
0.0479107322425616
 20
2.341894295165695
 30
0.0
 10
0.0477987666392679
 20
2.153209860486877
 30
0.0
 10
0.0477987666392679
 20
2.153209860486877
 30
0.0
  0
SPLINE
  5
BD4C
330
1A
100
AcDbEntity
  8
0
100
AcDbSpline
210
0.0
220
0.0
230
1.0
 70
    24
 71
     3
 72
     8
 73
     4
 74
     0
 42
0.0000000001
 43
0.0000000001
 40
3.0
 40
3.0
 40
3.0
 40
3.0
 40
4.0
 40
4.0
 40
4.0
 40
4.0
 10
0.0477987666392679
 20
2.153209860486877
 30
0.0
 10
0.0477987666392679
 20
2.153209860486877
 30
0.0
 10
0.0260326533580137
 20
2.141162361571944
 30
0.0
 10
0.0260326533580137
 20
2.141162361571944
 30
0.0
  0
SPLINE
  5
BD4D
330
1A
100
AcDbEntity
  8
0
100
AcDbSpline
210
0.0
220
0.0
230
1.0
 70
     8
 71
     3
 72
    11
 73
     7
 74
     0
 42
0.0000000001
 43
0.0000000001
 40
4.0
 40
4.0
 40
4.0
 40
4.0
 40
5.0
 40
5.0
 40
5.0
 40
6.0
 40
6.0
 40
6.0
 40
6.0
 10
0.0260326533580137
 20
2.141162361571944
 30
0.0
 10
0.0260326533580137
 20
2.141162361571944
 30
0.0
 10
0.0255623978241619
 20
1.558851651936529
 30
0.0
 10
0.0255623978241619
 20
1.513841479410488
 30
0.0
 10
0.0255623978241619
 20
1.391171964436529
 30
0.0
 10
0.0761708505151333
 20
1.198971809814132
 30
0.0
 10
0.0616377152069703
 20
1.02506683477073
 30
0.0
  0
SPLINE
  5
BD4E
330
1A
100
AcDbEntity
  8
0
100
AcDbSpline
210
0.0
220
0.0
230
1.0
 70
     8
 71
     3
 72
     8
 73
     4
 74
     0
 42
0.0000000001
 43
0.0000000001
 40
6.0
 40
6.0
 40
6.0
 40
6.0
 40
7.0
 40
7.0
 40
7.0
 40
7.0
 10
0.0616377152069703
 20
1.02506683477073
 30
0.0
 10
0.0383488697208616
 20
0.9388085339894778
 30
0.0
 10
-0.0842086796497981
 20
0.9003819389373944
 30
0.0
 10
-0.179580980539555
 20
0.8413312797577075
 30
0.0
  0
SPLINE
  5
BD4F
330
1A
100
AcDbEntity
  8
0
100
AcDbSpline
210
0.0
220
0.0
230
1.0
 70
    24
 71
     3
 72
     8
 73
     4
 74
     0
 42
0.0000000001
 43
0.0000000001
 40
7.0
 40
7.0
 40
7.0
 40
7.0
 40
8.0
 40
8.0
 40
8.0
 40
8.0
 10
-0.179580980539555
 20
0.8413312797577075
 30
0.0
 10
-0.179580980539555
 20
0.8413312797577075
 30
0.0
 10
-0.3952939118546617
 20
0.6974554795189949
 30
0.0
 10
-0.3952939118546617
 20
0.6974554795189949
 30
0.0
  0
SPLINE
  5
BD50
330
1A
100
AcDbEntity
  8
0
100
AcDbSpline
210
0.0
220
0.0
230
1.0
 70
    24
 71
     3
 72
     8
 73
     4
 74
     0
 42
0.0000000001
 43
0.0000000001
 40
8.0
 40
8.0
 40
8.0
 40
8.0
 40
9.0
 40
9.0
 40
9.0
 40
9.0
 10
-0.3952939118546617
 20
0.6974554795189949
 30
0.0
 10
-0.3952939118546617
 20
0.6974554795189949
 30
0.0
 10
-0.4538295292591723
 20
0.5456301214460777
 30
0.0
 10
-0.4538295292591723
 20
0.5456301214460777
 30
0.0
  0
SPLINE
  5
BD51
330
1A
100
AcDbEntity
  8
0
100
AcDbSpline
210
0.0
220
0.0
230
1.0
 70
    24
 71
     3
 72
     8
 73
     4
 74
     0
 42
0.0000000001
 43
0.0000000001
 40
9.0
 40
9.0
 40
9.0
 40
9.0
 40
10.0
 40
10.0
 40
10.0
 40
10.0
 10
-0.4538295292591723
 20
0.5456301214460777
 30
0.0
 10
-0.4538295292591723
 20
0.5456301214460777
 30
0.0
 10
-0.4539191017418105
 20
0.4844745089243738
 30
0.0
 10
-0.4539191017418105
 20
0.4844745089243738
 30
0.0
  0
SPLINE
  5
BD52
330
1A
100
AcDbEntity
  8
0
100
AcDbSpline
210
0.0
220
0.0
230
1.0
 70
    24
 71
     3
 72
     8
 73
     4
 74
     0
 42
0.0000000001
 43
0.0000000001
 40
10.0
 40
10.0
 40
10.0
 40
10.0
 40
11.0
 40
11.0
 40
11.0
 40
11.0
 10
-0.4539191017418105
 20
0.4844745089243738
 30
0.0
 10
-0.4539191017418105
 20
0.4844745089243738
 30
0.0
 10
-0.3183063630265348
 20
0.3553109889590975
 30
0.0
 10
-0.3183063630265348
 20
0.3553109889590975
 30
0.0
  0
SPLINE
  5
BD53
330
1A
100
AcDbEntity
  8
0
100
AcDbSpline
210
0.0
220
0.0
230
1.0
 70
    24
 71
     3
 72
     8
 73
     4
 74
     0
 42
0.0000000001
 43
0.0000000001
 40
11.0
 40
11.0
 40
11.0
 40
11.0
 40
12.0
 40
12.0
 40
12.0
 40
12.0
 10
-0.3183063630265348
 20
0.3553109889590975
 30
0.0
 10
-0.3183063630265348
 20
0.3553109889590975
 30
0.0
 10
-0.1031980459692381
 20
0.3495783500702063
 30
0.0
 10
-0.1031980459692381
 20
0.3495783500702063
 30
0.0
  0
SPLINE
  5
BD54
330
1A
100
AcDbEntity
  8
0
100
AcDbSpline
210
0.0
220
0.0
230
1.0
 70
     8
 71
     3
 72
     8
 73
     4
 74
     0
 42
0.0000000001
 43
0.0000000001
 40
12.0
 40
12.0
 40
12.0
 40
12.0
 40
13.0
 40
13.0
 40
13.0
 40
13.0
 10
-0.1031980459692381
 20
0.3495783500702063
 30
0.0
 10
-0.1031980459692381
 20
0.3495783500702063
 30
0.0
 10
0.0866284378632241
 20
0.4989180717498951
 30
0.0
 10
0.1336763843693003
 20
0.5495489175615274
 30
0.0
  0
SPLINE
  5
BD55
330
1A
100
AcDbEntity
  8
0
100
AcDbSpline
210
0.0
220
0.0
230
1.0
 70
     8
 71
     3
 72
     8
 73
     4
 74
     0
 42
0.0000000001
 43
0.0000000001
 40
13.0
 40
13.0
 40
13.0
 40
13.0
 40
14.0
 40
14.0
 40
14.0
 40
14.0
 10
0.1336763843693003
 20
0.5495489175615274
 30
0.0
 10
0.1807467239960356
 20
0.6002469427351396
 30
0.0
 10
0.2949516393606206
 20
0.6876248995493737
 30
0.0
 10
0.3652436451114838
 20
0.7192663790415641
 30
0.0
  0
SPLINE
  5
BD56
330
1A
100
AcDbEntity
  8
0
100
AcDbSpline
210
0.0
220
0.0
230
1.0
 70
     8
 71
     3
 72
     8
 73
     4
 74
     0
 42
0.0000000001
 43
0.0000000001
 40
14.0
 40
14.0
 40
14.0
 40
14.0
 40
15.0
 40
15.0
 40
15.0
 40
15.0
 10
0.3652436451114838
 20
0.7192663790415641
 30
0.0
 10
0.4560477493866575
 20
0.7601338242455555
 30
0.0
 10
0.4609742359318005
 20
0.8645529458818388
 30
0.0
 10
0.4473816116913483
 20
0.9190130153262852
 30
0.0
  0
SPLINE
  5
BD57
330
1A
100
AcDbEntity
  8
0
100
AcDbSpline
210
0.0
220
0.0
230
1.0
 70
     8
 71
     3
 72
     8
 73
     4
 74
     0
 42
0.0000000001
 43
0.0000000001
 40
15.0
 40
15.0
 40
15.0
 40
15.0
 40
16.0
 40
16.0
 40
16.0
 40
16.0
 10
0.4473816116913483
 20
0.9190130153262852
 30
0.0
 10
0.4337665943302369
 20
0.9735402641327071
 30
0.0
 10
0.4292207908363128
 20
1.082505189262915
 30
0.0
 10
0.4382676115828428
 20
1.150580276068472
 30
0.0
  0
SPLINE
  5
BD58
330
1A
100
AcDbEntity
  8
0
100
AcDbSpline
210
0.0
220
0.0
230
1.0
 70
     8
 71
     3
 72
     8
 73
     4
 74
     0
 42
0.0000000001
 43
0.0000000001
 40
16.0
 40
16.0
 40
16.0
 40
16.0
 40
17.0
 40
17.0
 40
17.0
 40
17.0
 10
0.4382676115828428
 20
1.150580276068472
 30
0.0
 10
0.4473816116913483
 20
1.218655362874029
 30
0.0
 10
0.4484788746036728
 20
1.327665074245557
 30
0.0
 10
0.4484788746036728
 20
1.327665074245557
 30
0.0
  0
SPLINE
  5
BD59
330
1A
100
AcDbEntity
  8
0
100
AcDbSpline
210
0.0
220
0.0
230
1.0
 70
    24
 71
     3
 72
     8
 73
     4
 74
     0
 42
0.0000000001
 43
0.0000000001
 40
17.0
 40
17.0
 40
17.0
 40
17.0
 40
18.0
 40
18.0
 40
18.0
 40
18.0
 10
0.4484788746036728
 20
1.327665074245557
 30
0.0
 10
0.4484788746036728
 20
1.327665074245557
 30
0.0
 10
0.4481429777937791
 20
1.967055848442605
 30
0.0
 10
0.4481429777937791
 20
1.967055848442605
 30
0.0
  0
SPLINE
  5
BD5A
330
1A
100
AcDbEntity
  8
0
100
AcDbSpline
210
0.0
220
0.0
230
1.0
 70
    24
 71
     3
 72
     8
 73
     4
 74
     0
 42
0.0000000001
 43
0.0000000001
 40
18.0
 40
18.0
 40
18.0
 40
18.0
 40
19.0
 40
19.0
 40
19.0
 40
19.0
 10
0.4481429777937791
 20
1.967055848442605
 30
0.0
 10
0.4481429777937791
 20
1.967055848442605
 30
0.0
 10
0.424428663015135
 20
1.977916511962569
 30
0.0
 10
0.424428663015135
 20
1.977916511962569
 30
0.0
  0
SPLINE
  5
BD5B
330
1A
100
AcDbEntity
  8
0
100
AcDbSpline
210
0.0
220
0.0
230
1.0
 70
    24
 71
     3
 72
     8
 73
     4
 74
     0
 42
0.0000000001
 43
0.0000000001
 40
19.0
 40
19.0
 40
19.0
 40
19.0
 40
20.0
 40
20.0
 40
20.0
 40
20.0
 10
0.424428663015135
 20
1.977916511962569
 30
0.0
 10
0.424428663015135
 20
1.977916511962569
 30
0.0
 10
0.4243614836531542
 20
2.171840936875763
 30
0.0
 10
0.4243614836531542
 20
2.171840936875763
 30
0.0
  0
SPLINE
  5
BD5C
330
1A
100
AcDbEntity
  8
0
100
AcDbSpline
210
0.0
220
0.0
230
1.0
 70
    24
 71
     3
 72
     8
 73
     4
 74
     0
 42
0.0000000001
 43
0.0000000001
 40
20.0
 40
20.0
 40
20.0
 40
20.0
 40
21.0
 40
21.0
 40
21.0
 40
21.0
 10
0.4243614836531542
 20
2.171840936875763
 30
0.0
 10
0.4243614836531542
 20
2.171840936875763
 30
0.0
 10
0.4480534053111391
 20
2.183037497205626
 30
0.0
 10
0.4480534053111391
 20
2.183037497205626
 30
0.0
  0
SPLINE
  5
BD5D
330
1A
100
AcDbEntity
  8
0
100
AcDbSpline
210
0.0
220
0.0
230
1.0
 70
    24
 71
     3
 72
     8
 73
     4
 74
     0
 42
0.0000000001
 43
0.0000000001
 40
21.0
 40
21.0
 40
21.0
 40
21.0
 40
22.0
 40
22.0
 40
22.0
 40
22.0
 10
0.4480534053111391
 20
2.183037497205626
 30
0.0
 10
0.4480534053111391
 20
2.183037497205626
 30
0.0
 10
0.4479974225094932
 20
2.291397808078022
 30
0.0
 10
0.4479974225094932
 20
2.291397808078022
 30
0.0
  0
SPLINE
  5
BD5E
330
1A
100
AcDbEntity
  8
0
100
AcDbSpline
210
0.0
220
0.0
230
1.0
 70
    24
 71
     3
 72
     8
 73
     4
 74
     0
 42
0.0000000001
 43
0.0000000001
 40
0.0
 40
0.0
 40
0.0
 40
0.0
 40
1.0
 40
1.0
 40
1.0
 40
1.0
 10
0.3078052906192994
 20
1.211108881211701
 30
0.0
 10
0.3078052906192994
 20
1.211108881211701
 30
0.0
 10
0.3078052906192994
 20
1.254349997205625
 30
0.0
 10
0.3078052906192994
 20
1.254349997205625
 30
0.0
  0
SPLINE
  5
BD5F
330
1A
100
AcDbEntity
  8
0
100
AcDbSpline
210
0.0
220
0.0
230
1.0
 70
     8
 71
     3
 72
     8
 73
     4
 74
     0
 42
0.0000000001
 43
0.0000000001
 40
1.0
 40
1.0
 40
1.0
 40
1.0
 40
2.0
 40
2.0
 40
2.0
 40
2.0
 10
0.3078052906192994
 20
1.254349997205625
 30
0.0
 10
0.3078052906192994
 20
1.254349997205625
 30
0.0
 10
0.3170760425724239
 20
1.350192553629233
 30
0.0
 10
0.2104400019908326
 20
1.376011821749897
 30
0.0
  0
SPLINE
  5
BD60
330
1A
100
AcDbEntity
  8
0
100
AcDbSpline
210
0.0
220
0.0
230
1.0
 70
     8
 71
     3
 72
     8
 73
     4
 74
     0
 42
0.0000000001
 43
0.0000000001
 40
2.0
 40
2.0
 40
2.0
 40
2.0
 40
3.0
 40
3.0
 40
3.0
 40
3.0
 10
0.2104400019908326
 20
1.376011821749897
 30
0.0
 10
0.2104400019908326
 20
1.376011821749897
 30
0.0
 10
0.1210242711965535
 20
1.398337763047637
 30
0.0
 10
0.1286379322208617
 20
1.285207717474724
 30
0.0
  0
SPLINE
  5
BD61
330
1A
100
AcDbEntity
  8
0
100
AcDbSpline
210
0.0
220
0.0
230
1.0
 70
    24
 71
     3
 72
     8
 73
     4
 74
     0
 42
0.0000000001
 43
0.0000000001
 40
3.0
 40
3.0
 40
3.0
 40
3.0
 40
4.0
 40
4.0
 40
4.0
 40
4.0
 10
0.1286379322208617
 20
1.285207717474724
 30
0.0
 10
0.1286379322208617
 20
1.285207717474724
 30
0.0
 10
0.1390507333276325
 20
1.112691115912224
 30
0.0
 10
0.1390507333276325
 20
1.112691115912224
 30
0.0
  0
SPLINE
  5
BD62
330
1A
100
AcDbEntity
  8
0
100
AcDbSpline
210
0.0
220
0.0
230
1.0
 70
     8
 71
     3
 72
     8
 73
     4
 74
     0
 42
0.0000000001
 43
0.0000000001
 40
4.0
 40
4.0
 40
4.0
 40
4.0
 40
5.0
 40
5.0
 40
5.0
 40
5.0
 10
0.1390507333276325
 20
1.112691115912224
 30
0.0
 10
0.1390507333276325
 20
1.112691115912224
 30
0.0
 10
0.1544572003415237
 20
0.9515502196448624
 30
0.0
 10
0.0863597204153042
 20
0.9061145778262856
 30
0.0
  0
SPLINE
  5
BD63
330
1A
100
AcDbEntity
  8
0
100
AcDbSpline
210
0.0
220
0.0
230
1.0
 70
     8
 71
     3
 72
     8
 73
     4
 74
     0
 42
0.0000000001
 43
0.0000000001
 40
5.0
 40
5.0
 40
5.0
 40
5.0
 40
6.0
 40
6.0
 40
6.0
 40
6.0
 10
0.0863597204153042
 20
0.9061145778262856
 30
0.0
 10
0.0182398473684326
 20
0.8606565428870492
 30
0.0
 10
-0.037093553781741
 20
0.8327547145450329
 30
0.0
 10
-0.105168640587296
 20
0.7873638589677765
 30
0.0
  0
SPLINE
  5
BD64
330
1A
100
AcDbEntity
  8
0
100
AcDbSpline
210
0.0
220
0.0
230
1.0
 70
     8
 71
     3
 72
     8
 73
     4
 74
     0
 42
0.0000000001
 43
0.0000000001
 40
6.0
 40
6.0
 40
6.0
 40
6.0
 40
7.0
 40
7.0
 40
7.0
 40
7.0
 10
-0.105168640587296
 20
0.7873638589677765
 30
0.0
 10
-0.1532466706437212
 20
0.7553416964243751
 30
0.0
 10
-0.2322719934518833
 20
0.6602605061031928
 30
0.0
 10
-0.1460136926706337
 20
0.6058004366587508
 30
0.0
  0
SPLINE
  5
BD65
330
1A
100
AcDbEntity
  8
0
100
AcDbSpline
210
0.0
220
0.0
230
1.0
 70
     8
 71
     3
 72
     8
 73
     4
 74
     0
 42
0.0000000001
 43
0.0000000001
 40
7.0
 40
7.0
 40
7.0
 40
7.0
 40
8.0
 40
8.0
 40
8.0
 40
8.0
 10
-0.1460136926706337
 20
0.6058004366587508
 30
0.0
 10
-0.078879116932784
 20
0.5633206867672578
 30
0.0
 10
-0.0279795536732337
 20
0.5830490260684704
 30
0.0
 10
0.0310263192651306
 20
0.6375538817542368
 30
0.0
  0
SPLINE
  5
BD66
330
1A
100
AcDbEntity
  8
0
100
AcDbSpline
210
0.0
220
0.0
230
1.0
 70
     8
 71
     3
 72
     8
 73
     4
 74
     0
 42
0.0000000001
 43
0.0000000001
 40
8.0
 40
8.0
 40
8.0
 40
8.0
 40
9.0
 40
9.0
 40
9.0
 40
9.0
 10
0.0310263192651306
 20
0.6375538817542368
 30
0.0
 10
0.0900545853241574
 20
0.6920587374399987
 30
0.0
 10
0.1534271167911765
 20
0.7524305907386117
 30
0.0
 10
0.2108878644040217
 20
0.782773269232536
 30
0.0
  0
SPLINE
  5
BD67
330
1A
100
AcDbEntity
  8
0
100
AcDbSpline
210
0.0
220
0.0
230
1.0
 70
     8
 71
     3
 72
     8
 73
     4
 74
     0
 42
0.0000000001
 43
0.0000000001
 40
9.0
 40
9.0
 40
9.0
 40
9.0
 40
10.0
 40
10.0
 40
10.0
 40
10.0
 10
0.2108878644040217
 20
0.782773269232536
 30
0.0
 10
0.2880545581974232
 20
0.8236407144365274
 30
0.0
 10
0.324398593028155
 20
0.8508931422794084
 30
0.0
 10
0.3152845929196495
 20
0.9463102294104862
 30
0.0
  0
SPLINE
  5
BD68
330
1A
100
AcDbEntity
  8
0
100
AcDbSpline
210
0.0
220
0.0
230
1.0
 70
     8
 71
     3
 72
     8
 73
     4
 74
     0
 42
0.0000000001
 43
0.0000000001
 40
10.0
 40
10.0
 40
10.0
 40
10.0
 40
11.0
 40
11.0
 40
11.0
 40
11.0
 10
0.3152845929196495
 20
0.9463102294104862
 30
0.0
 10
0.3061929859317996
 20
1.041660137179584
 30
0.0
 10
0.2951307843258952
 20
1.112691115912224
 30
0.0
 10
0.3078052906192994
 20
1.211108881211701
 30
0.0
  0
SPLINE
  5
BD69
330
1A
100
AcDbEntity
  8
0
100
AcDbSpline
210
0.0
220
0.0
230
1.0
 70
     8
 71
     3
 72
     8
 73
     4
 74
     0
 42
0.0000000001
 43
0.0000000001
 40
0.0
 40
0.0
 40
0.0
 40
0.0
 40
1.0
 40
1.0
 40
1.0
 40
1.0
 10
0.1975415644908267
 20
1.151095317843648
 30
0.0
 10
0.2009005325897864
 20
1.111840177327153
 30
0.0
 10
0.2044386456540241
 20
1.0692260687117
 30
0.0
 10
0.2017738642955163
 20
1.018953512830624
 30
0.0
  0
SPLINE
  5
BD6A
330
1A
100
AcDbEntity
  8
0
100
AcDbSpline
210
0.0
220
0.0
230
1.0
 70
     8
 71
     3
 72
     8
 73
     4
 74
     0
 42
0.0000000001
 43
0.0000000001
 40
1.0
 40
1.0
 40
1.0
 40
1.0
 40
2.0
 40
2.0
 40
2.0
 40
2.0
 10
0.2017738642955163
 20
1.018953512830624
 30
0.0
 10
0.1981685718692994
 20
0.9502738117672558
 30
0.0
 10
0.1836354365611399
 20
0.8963287840979848
 30
0.0
 10
0.1427903844778093
 20
0.8645529458818388
 30
0.0
  0
SPLINE
  5
BD6B
330
1A
100
AcDbEntity
  8
0
100
AcDbSpline
210
0.0
220
0.0
230
1.0
 70
     8
 71
     3
 72
     8
 73
     4
 74
     0
 42
0.0000000001
 43
0.0000000001
 40
2.0
 40
2.0
 40
2.0
 40
2.0
 40
3.0
 40
3.0
 40
3.0
 40
3.0
 10
0.1427903844778093
 20
0.8645529458818388
 30
0.0
 10
0.1019005461531535
 20
0.8327547145450329
 30
0.0
 10
0.0323699065047194
 20
0.7976646944712482
 30
0.0
 10
-0.0129985559518815
 20
0.7703674803870473
 30
0.0
  0
SPLINE
  5
BD6C
330
1A
100
AcDbEntity
  8
0
100
AcDbSpline
210
0.0
220
0.0
230
1.0
 70
     8
 71
     3
 72
     8
 73
     4
 74
     0
 42
0.0000000001
 43
0.0000000001
 40
3.0
 40
3.0
 40
3.0
 40
3.0
 40
4.0
 40
4.0
 40
4.0
 40
4.0
 10
-0.0129985559518815
 20
0.7703674803870473
 30
0.0
 10
-0.0584118046497988
 20
0.7431374456648263
 30
0.0
 10
-0.1434384837947622
 20
0.6738531303436477
 30
0.0
 10
-0.1343692699275767
 20
0.6375538817542368
 30
0.0
  0
SPLINE
  5
BD6D
330
1A
100
AcDbEntity
  8
0
100
AcDbSpline
210
0.0
220
0.0
230
1.0
 70
     8
 71
     3
 72
    11
 73
     7
 74
     0
 42
0.0000000001
 43
0.0000000001
 40
0.0
 40
0.0
 40
0.0
 40
0.0
 40
1.0
 40
1.0
 40
1.0
 40
2.0
 40
2.0
 40
2.0
 40
2.0
 10
-0.13806413483643
 20
3.530879429714306
 30
0.0
 10
-0.13806413483643
 20
3.530879429714306
 30
0.0
 10
-0.0899189254180239
 20
3.462401266736873
 30
0.0
 10
-0.0784536476402451
 20
3.446345399223855
 30
0.0
 10
-0.0669883698624698
 20
3.430289531710832
 30
0.0
 10
-0.0348766348364258
 20
3.416540155625766
 30
0.0
 10
-0.0142525707088215
 20
3.407358976155281
 30
0.0
  0
SPLINE
  5
BD6E
330
1A
100
AcDbEntity
  8
0
100
AcDbSpline
210
0.0
220
0.0
230
1.0
 70
     8
 71
     3
 72
     8
 73
     4
 74
     0
 42
0.0000000001
 43
0.0000000001
 40
2.0
 40
2.0
 40
2.0
 40
2.0
 40
3.0
 40
3.0
 40
3.0
 40
3.0
 10
-0.0142525707088215
 20
3.407358976155281
 30
0.0
 10
0.0063938865394384
 20
3.398200189805452
 30
0.0
 10
0.4261977195472504
 20
3.219435907578887
 30
0.0
 10
0.4535397198727704
 20
3.207567553629235
 30
0.0
  0
SPLINE
  5
BD6F
330
1A
100
AcDbEntity
  8
0
100
AcDbSpline
210
0.0
220
0.0
230
1.0
 70
     8
 71
     3
 72
     8
 73
     4
 74
     0
 42
0.0000000001
 43
0.0000000001
 40
3.0
 40
3.0
 40
3.0
 40
3.0
 40
4.0
 40
4.0
 40
4.0
 40
4.0
 10
0.4535397198727704
 20
3.207567553629235
 30
0.0
 10
0.5062755190264205
 20
3.184636998073679
 30
0.0
 10
0.5681924976505481
 20
3.189205194688263
 30
0.0
 10
0.5681924976505481
 20
3.189205194688263
 30
0.0
  0
SPLINE
  5
BD70
330
1A
100
AcDbEntity
  8
0
100
AcDbSpline
210
0.0
220
0.0
230
1.0
 70
    24
 71
     3
 72
     8
 73
     4
 74
     0
 42
0.0000000001
 43
0.0000000001
 40
4.0
 40
4.0
 40
4.0
 40
4.0
 40
5.0
 40
5.0
 40
5.0
 40
5.0
 10
0.5681924976505481
 20
3.189205194688263
 30
0.0
 10
0.5681924976505481
 20
3.189205194688263
 30
0.0
 10
0.6621988181800624
 20
3.193818177544169
 30
0.0
 10
0.6621988181800624
 20
3.193818177544169
 30
0.0
  0
SPLINE
  5
BD71
330
1A
100
AcDbEntity
  8
0
100
AcDbSpline
210
0.0
220
0.0
230
1.0
 70
    24
 71
     3
 72
     8
 73
     4
 74
     0
 42
0.0000000001
 43
0.0000000001
 40
0.0
 40
0.0
 40
0.0
 40
0.0
 40
1.0
 40
1.0
 40
1.0
 40
1.0
 10
0.3966164071557579
 20
2.324920309705626
 30
0.0
 10
0.3966164071557579
 20
2.324920309705626
 30
0.0
 10
0.3966164071557579
 20
2.172669482340173
 30
0.0
 10
0.3966164071557579
 20
2.172669482340173
 30
0.0
  0
SPLINE
  5
BD72
330
1A
100
AcDbEntity
  8
0
100
AcDbSpline
210
0.0
220
0.0
230
1.0
 70
    24
 71
     3
 72
     8
 73
     4
 74
     0
 42
0.0000000001
 43
0.0000000001
 40
1.0
 40
1.0
 40
1.0
 40
1.0
 40
2.0
 40
2.0
 40
2.0
 40
2.0
 10
0.3966164071557579
 20
2.172669482340173
 30
0.0
 10
0.3966164071557579
 20
2.172669482340173
 30
0.0
 10
0.3738202103241601
 20
2.182029806775939
 30
0.0
 10
0.3738202103241601
 20
2.182029806775939
 30
0.0
  0
SPLINE
  5
BD73
330
1A
100
AcDbEntity
  8
0
100
AcDbSpline
210
0.0
220
0.0
230
1.0
 70
    24
 71
     3
 72
     8
 73
     4
 74
     0
 42
0.0000000001
 43
0.0000000001
 40
2.0
 40
2.0
 40
2.0
 40
2.0
 40
3.0
 40
3.0
 40
3.0
 40
3.0
 10
0.3738202103241601
 20
2.182029806775939
 30
0.0
 10
0.3738202103241601
 20
2.182029806775939
 30
0.0
 10
0.3738202103241601
 20
1.958792786919166
 30
0.0
 10
0.3738202103241601
 20
1.958792786919166
 30
0.0
  0
SPLINE
  5
BD74
330
1A
100
AcDbEntity
  8
0
100
AcDbSpline
210
0.0
220
0.0
230
1.0
 70
    24
 71
     3
 72
     8
 73
     4
 74
     0
 42
0.0000000001
 43
0.0000000001
 40
3.0
 40
3.0
 40
3.0
 40
3.0
 40
4.0
 40
4.0
 40
4.0
 40
4.0
 10
0.3738202103241601
 20
1.958792786919166
 30
0.0
 10
0.3738202103241601
 20
1.958792786919166
 30
0.0
 10
0.3966164071557579
 20
1.948402378933055
 30
0.0
 10
0.3966164071557579
 20
1.948402378933055
 30
0.0
  0
SPLINE
  5
BD75
330
1A
100
AcDbEntity
  8
0
100
AcDbSpline
210
0.0
220
0.0
230
1.0
 70
    24
 71
     3
 72
     8
 73
     4
 74
     0
 42
0.0000000001
 43
0.0000000001
 40
4.0
 40
4.0
 40
4.0
 40
4.0
 40
5.0
 40
5.0
 40
5.0
 40
5.0
 10
0.3966164071557579
 20
1.948402378933055
 30
0.0
 10
0.3966164071557579
 20
1.948402378933055
 30
0.0
 10
0.3966164071557579
 20
1.314050056884442
 30
0.0
 10
0.3966164071557579
 20
1.314050056884442
 30
0.0
  0
SPLINE
  5
BD76
330
1A
100
AcDbEntity
  8
0
100
AcDbSpline
210
0.0
220
0.0
230
1.0
 70
     8
 71
     3
 72
     8
 73
     4
 74
     0
 42
0.0000000001
 43
0.0000000001
 40
5.0
 40
5.0
 40
5.0
 40
5.0
 40
6.0
 40
6.0
 40
6.0
 40
6.0
 10
0.3966164071557579
 20
1.314050056884442
 30
0.0
 10
0.3966164071557579
 20
1.314050056884442
 30
0.0
 10
0.3854870261878762
 20
1.184931323160486
 30
0.0
 10
0.380918829573293
 20
1.094104825764653
 30
0.0
  0
SPLINE
  5
BD77
330
1A
100
AcDbEntity
  8
0
100
AcDbSpline
210
0.0
220
0.0
230
1.0
 70
     8
 71
     3
 72
     8
 73
     4
 74
     0
 42
0.0000000001
 43
0.0000000001
 40
6.0
 40
6.0
 40
6.0
 40
6.0
 40
7.0
 40
7.0
 40
7.0
 40
7.0
 10
0.380918829573293
 20
1.094104825764653
 30
0.0
 10
0.376373026079369
 20
1.003278328368821
 30
0.0
 10
0.3944890606930844
 20
0.9442500623097891
 30
0.0
 10
0.4003560583059311
 20
0.8847739338375713
 30
0.0
  0
SPLINE
  5
BD78
330
1A
100
AcDbEntity
  8
0
100
AcDbSpline
210
0.0
220
0.0
230
1.0
 70
     8
 71
     3
 72
     8
 73
     4
 74
     0
 42
0.0000000001
 43
0.0000000001
 40
7.0
 40
7.0
 40
7.0
 40
7.0
 40
8.0
 40
8.0
 40
8.0
 40
8.0
 10
0.4003560583059311
 20
0.8847739338375713
 30
0.0
 10
0.4096044171383966
 20
0.7904317164981598
 30
0.0
 10
0.358704853878848
 20
0.7760329399139585
 30
0.0
 10
0.3010873544213819
 20
0.7431150525441663
 30
0.0
  0
SPLINE
  5
BD79
330
1A
100
AcDbEntity
  8
0
100
AcDbSpline
210
0.0
220
0.0
230
1.0
 70
     8
 71
     3
 72
     8
 73
     4
 74
     0
 42
0.0000000001
 43
0.0000000001
 40
8.0
 40
8.0
 40
8.0
 40
8.0
 40
9.0
 40
9.0
 40
9.0
 40
9.0
 10
0.3010873544213819
 20
0.7431150525441663
 30
0.0
 10
0.242059088362355
 20
0.7093910128306233
 30
0.0
 10
0.1790448468258958
 20
0.6585810220537156
 30
0.0
 10
0.124607170502113
 20
0.6077486381561479
 30
0.0
  0
SPLINE
  5
BD7A
330
1A
100
AcDbEntity
  8
0
100
AcDbSpline
210
0.0
220
0.0
230
1.0
 70
     8
 71
     3
 72
     8
 73
     4
 74
     0
 42
0.0000000001
 43
0.0000000001
 40
9.0
 40
9.0
 40
9.0
 40
9.0
 40
10.0
 40
10.0
 40
10.0
 40
10.0
 10
0.124607170502113
 20
0.6077486381561479
 30
0.0
 10
0.0647503589786744
 20
0.5518330158688198
 30
0.0
 10
-0.114081102609866
 20
0.4017543212073602
 30
0.0
 10
-0.114081102609866
 20
0.4017543212073602
 30
0.0
  0
SPLINE
  5
BD7B
330
1A
100
AcDbEntity
  8
0
100
AcDbSpline
210
0.0
220
0.0
230
1.0
 70
    24
 71
     3
 72
     8
 73
     4
 74
     0
 42
0.0000000001
 43
0.0000000001
 40
10.0
 40
10.0
 40
10.0
 40
10.0
 40
11.0
 40
11.0
 40
11.0
 40
11.0
 10
-0.114081102609866
 20
0.4017543212073602
 30
0.0
 10
-0.114081102609866
 20
0.4017543212073602
 30
0.0
 10
-0.3145443187556971
 20
0.409390375352324
 30
0.0
 10
-0.3145443187556971
 20
0.409390375352324
 30
0.0
  0
SPLINE
  5
BD7C
330
1A
100
AcDbEntity
  8
0
100
AcDbSpline
210
0.0
220
0.0
230
1.0
 70
    24
 71
     3
 72
     8
 73
     4
 74
     0
 42
0.0000000001
 43
0.0000000001
 40
11.0
 40
11.0
 40
11.0
 40
11.0
 40
12.0
 40
12.0
 40
12.0
 40
12.0
 10
-0.3145443187556971
 20
0.409390375352324
 30
0.0
 10
-0.3145443187556971
 20
0.409390375352324
 30
0.0
 10
-0.4520156864857334
 20
0.5450702934295824
 30
0.0
 10
-0.4520156864857334
 20
0.5450702934295824
 30
0.0
  0
LINE
  5
BD7F
330
1A
100
AcDbEntity
  8
0
100
AcDbLine
 10
0.0545502925181669
 20
2.146088848117083
 30
0.0
 11
0.0545502925181669
 21
2.122016243407882
 31
0.0
  0
LINE
  5
BD80
330
1A
100
AcDbEntity
  8
0
100
AcDbLine
 10
0.0545502925181669
 20
2.122016243407882
 30
0.0
 11
0.0243307761878722
 21
2.137042027370555
 31
0.0
  0
SPLINE
  5
BE04
330
1A
100
AcDbEntity
  8
0
 62
     7
100
AcDbSpline
210
0.0
220
0.0
230
1.0
 70
     8
 71
     3
 72
    11
 73
     7
 74
     0
 42
0.0000000001
 43
0.0000000001
 40
0.0
 40
0.0
 40
0.0
 40
0.0
 40
1.0
 40
1.0
 40
1.0
 40
2.0
 40
2.0
 40
2.0
 40
2.0
 10
0.2354531177677339
 20
2.624943340304584
 30
0.0
 10
0.2302579137746781
 20
2.629354785074549
 30
0.0
 10
0.2235623706974215
 20
2.637080411702153
 30
0.0
 10
0.2199346851505464
 20
2.643932706624028
 30
0.0
 10
0.2122090585229421
 20
2.658443448811528
 30
0.0
 10
0.2113133336965531
 20
2.674208205755972
 30
0.0
 10
0.2162846064830117
 20
2.685897414740348
 30
0.0
  0
ELLIPSE
  5
BE05
330
1A
100
AcDbEntity
  8
0
 62
     7
100
AcDbEllipse
 10
0.2124553828501994
 20
2.651613547010313
 30
0.0
 11
0.02100474717881943
 21
-0.03965821668836802
 31
0.0
210
0.0
220
0.0
230
1.0
 40
0.7486796564290403
 41
0.0
 42
6.283185307179586
  0
SPLINE
  5
BE06
330
1A
100
AcDbEntity
  8
0
 62
     7
100
AcDbSpline
210
0.0
220
0.0
230
1.0
 70
     8
 71
     3
 72
    11
 73
     7
 74
     0
 42
0.0000000001
 43
0.0000000001
 40
0.0
 40
0.0
 40
0.0
 40
0.0
 40
1.0
 40
1.0
 40
1.0
 40
2.0
 40
2.0
 40
2.0
 40
2.0
 10
0.2354531177677339
 20
3.935635085638785
 30
0.0
 10
0.2302579137746781
 20
3.94009131665007
 30
0.0
 10
0.2235623706974215
 20
3.947772157036354
 30
0.0
 10
0.2199346851505464
 20
3.954646845078889
 30
0.0
 10
0.2122090585229421
 20
3.969157587266389
 30
0.0
 10
0.2113133336965531
 20
3.984922344210833
 30
0.0
 10
0.2162846064830117
 20
3.996589160074549
 30
0.0
  0
ELLIPSE
  5
BE07
330
1A
100
AcDbEntity
  8
0
 62
     7
100
AcDbEllipse
 10
0.2124553828501994
 20
3.962305292344514
 30
0.0
 11
0.0210047471788195
 21
-0.03965821668836816
 31
0.0
210
0.0
220
0.0
230
1.0
 40
0.7486796564290403
 41
0.0
 42
6.283185307179586
  0
SPLINE
  5
BE08
330
1A
100
AcDbEntity
  8
0
 62
     7
100
AcDbSpline
210
0.0
220
0.0
230
1.0
 70
     8
 71
     3
 72
    11
 73
     7
 74
     0
 42
0.0000000001
 43
0.0000000001
 40
0.0
 40
0.0
 40
0.0
 40
0.0
 40
1.0
 40
1.0
 40
1.0
 40
2.0
 40
2.0
 40
2.0
 40
2.0
 10
0.1827397117347469
 20
1.7319952608775
 30
0.0
 10
0.177499721500372
 20
1.736496278130104
 30
0.0
 10
0.1708041784231149
 20
1.744244297878368
 30
0.0
 10
0.1671988859968998
 20
1.751029413438264
 30
0.0
 10
0.1594732593692956
 20
1.765584941867083
 30
0.0
 10
0.1585999276635666
 20
1.781349698811527
 30
0.0
 10
0.1635712004500247
 20
1.793038907795902
 30
0.0
  0
ELLIPSE
  5
BE09
330
1A
100
AcDbEntity
  8
0
 62
     7
100
AcDbEllipse
 10
0.1597419768172119
 20
1.758732646945208
 30
0.0
 11
0.02100474717881943
 21
-0.03968060980902775
 31
0.0
210
0.0
220
0.0
230
1.0
 40
0.7481114303893718
 41
0.0
 42
6.283185307179586
  0
SPLINE
  5
BE0A
330
1A
100
AcDbEntity
  8
0
 62
     7
100
AcDbSpline
210
0.0
220
0.0
230
1.0
 70
     8
 71
     3
 72
    11
 73
     7
 74
     0
 42
0.0000000001
 43
0.0000000001
 40
0.0
 40
0.0
 40
0.0
 40
0.0
 40
1.0
 40
1.0
 40
1.0
 40
2.0
 40
2.0
 40
2.0
 40
2.0
 10
0.1470898636444691
 20
4.372726407795902
 30
0.0
 10
0.1418274802894342
 20
4.377205031927847
 30
0.0
 10
0.1351319372121771
 20
4.384953051676111
 30
0.0
 10
0.131526644785962
 20
4.391738167236007
 30
0.0
 10
0.1238458043996773
 20
4.406248909423507
 30
0.0
 10
0.1229500795732883
 20
4.422058452609271
 30
0.0
 10
0.1279213523597469
 20
4.433747661593646
 30
0.0
  0
ELLIPSE
  5
BE0B
330
1A
100
AcDbEntity
  8
0
 62
     7
100
AcDbEllipse
 10
0.1240809321666041
 20
4.399441400742951
 30
0.0
 11
0.02099355061848963
 21
-0.03970300292968759
 31
0.0
210
0.0
220
0.0
230
1.0
 40
0.7478880921603269
 41
0.0
 42
6.283185307179586
  0
SPLINE
  5
BE0C
330
1A
100
AcDbEntity
  8
0
 62
     7
100
AcDbSpline
210
0.0
220
0.0
230
1.0
 70
     8
 71
     3
 72
    11
 73
     7
 74
     0
 42
0.0000000001
 43
0.0000000001
 40
0.0
 40
0.0
 40
0.0
 40
0.0
 40
1.0
 40
1.0
 40
1.0
 40
2.0
 40
2.0
 40
2.0
 40
2.0
 10
0.2316686803762416
 20
4.671517816758577
 30
0.0
 10
0.2264286901418666
 20
4.675974047769861
 30
0.0
 10
0.2197331470646096
 20
4.683654888156146
 30
0.0
 10
0.216127854638394
 20
4.690507183078021
 30
0.0
 10
0.2084246211314498
 20
4.705017925265521
 30
0.0
 10
0.2075288963050608
 20
4.720849861571945
 30
0.0
 10
0.2124777759708594
 20
4.73251667743566
 30
0.0
  0
ELLIPSE
  5
BE0D
330
1A
100
AcDbEntity
  8
0
 62
     7
100
AcDbEllipse
 10
0.2086597488983766
 20
4.698232809705625
 30
0.0
 11
0.02099355061848963
 21
-0.03972539605034731
 31
0.0
210
0.0
220
0.0
230
1.0
 40
0.7475585646756161
 41
0.0
 42
6.283185307179586
  0
SPLINE
  5
BE0E
330
1A
100
AcDbEntity
  8
0
 62
     7
100
AcDbSpline
210
0.0
220
0.0
230
1.0
 70
     8
 71
     3
 72
    11
 73
     7
 74
     0
 42
0.0000000001
 43
0.0000000001
 40
0.0
 40
0.0
 40
0.0
 40
0.0
 40
1.0
 40
1.0
 40
1.0
 40
2.0
 40
2.0
 40
2.0
 40
2.0
 10
0.332325757741692
 20
4.825689668832915
 30
0.0
 10
0.3270633743866571
 20
4.83012350672354
 30
0.0
 10
0.3204350106713796
 20
4.837826740230485
 30
0.0
 10
0.316762538883185
 20
4.844701428273019
 30
0.0
 10
0.3090816984969003
 20
4.85918977733986
 30
0.0
 10
0.3081859736705113
 20
4.874976927404964
 30
0.0
 10
0.3131572464569699
 20
4.886666136389339
 30
0.0
  0
ELLIPSE
  5
BE0F
330
1A
100
AcDbEntity
  8
0
 62
     7
100
AcDbEllipse
 10
0.3093280228241571
 20
4.852382268659304
 30
0.0
 11
0.0210047471788195
 21
-0.03970300292968761
 31
0.0
210
0.0
220
0.0
230
1.0
 40
0.7482582577570213
 41
0.0
 42
6.283185307179586
  0
SPLINE
  5
BE10
330
1A
100
AcDbEntity
  8
0
 62
     7
100
AcDbSpline
210
0.0
220
0.0
230
1.0
 70
     8
 71
     3
 72
    11
 73
     7
 74
     0
 42
0.0000000001
 43
0.0000000001
 40
0.0
 40
0.0
 40
0.0
 40
0.0
 40
1.0
 40
1.0
 40
1.0
 40
2.0
 40
2.0
 40
2.0
 40
2.0
 10
0.1377967185706841
 20
5.399294238199548
 30
0.0
 10
0.1325343352156496
 20
5.403728076090173
 30
0.0
 10
0.125816399017733
 20
5.411431309597118
 30
0.0
 10
0.1222334997121775
 20
5.418238818277673
 30
0.0
 10
0.1145302662052328
 20
5.432727167344513
 30
0.0
 10
0.1136569344995038
 20
5.448581496771597
 30
0.0
 10
0.1185386348033233
 20
5.460225919514652
 30
0.0
  0
ELLIPSE
  5
BE11
330
1A
100
AcDbEntity
  8
0
 62
     7
100
AcDbEllipse
 10
0.11477659053249
 20
5.425964444905278
 30
0.0
 11
0.02093756781684033
 21
-0.03972539605034733
 31
0.0
210
0.0
220
0.0
230
1.0
 40
0.7477745629627957
 41
0.0
 42
6.283185307179586
  0
SPLINE
  5
BE12
330
1A
100
AcDbEntity
  8
0
 62
     7
100
AcDbSpline
210
0.0
220
0.0
230
1.0
 70
     8
 71
     3
 72
    11
 73
     7
 74
     0
 42
0.0000000001
 43
0.0000000001
 40
0.0
 40
0.0
 40
0.0
 40
0.0
 40
1.0
 40
1.0
 40
1.0
 40
2.0
 40
2.0
 40
2.0
 40
2.0
 10
0.3405664261444708
 20
8.995718988633575
 30
0.0
 10
0.3353264359100958
 20
9.0001528265242
 30
0.0
 10
0.326705084456103
 20
9.007856060031145
 30
0.0
 10
0.3230326126679084
 20
9.014708354953019
 30
0.0
 10
0.3153293791609642
 20
9.02919670401986
 30
0.0
 10
0.3144560474552347
 20
9.044983854084963
 30
0.0
 10
0.3194273202416933
 20
9.056650669948679
 30
0.0
  0
ELLIPSE
  5
BE13
330
1A
100
AcDbEntity
  8
0
 62
     7
100
AcDbEllipse
 10
0.3155869000485509
 20
9.022411588459963
 30
0.0
 11
0.02097115749782978
 21
-0.03970300292968734
 31
0.0
210
0.0
220
0.0
230
1.0
 40
0.7483008905574462
 41
0.0
 42
6.283185307179586
  0
SPLINE
  5
BE14
330
1A
100
AcDbEntity
  8
0
 62
     7
100
AcDbSpline
210
0.0
220
0.0
230
1.0
 70
     8
 71
     3
 72
    11
 73
     7
 74
     0
 42
0.0000000001
 43
0.0000000001
 40
0.0
 40
0.0
 40
0.0
 40
0.0
 40
1.0
 40
1.0
 40
1.0
 40
2.0
 40
2.0
 40
2.0
 40
2.0
 10
0.2680351083276289
 20
8.828285625460834
 30
0.0
 10
0.262795118093254
 20
8.832719463351459
 30
0.0
 10
0.2561219681366569
 20
8.840467483099722
 30
0.0
 10
0.2524942825897818
 20
8.847297384900937
 30
0.0
 10
0.2447686559621776
 20
8.861808127088438
 30
0.0
 10
0.2438953242564486
 20
8.877617670274201
 30
0.0
 10
0.2488218108015872
 20
8.889262093017257
 30
0.0
  0
ELLIPSE
  5
BE15
330
1A
100
AcDbEntity
  8
0
 62
     7
100
AcDbEllipse
 10
0.2450149802894344
 20
8.855000618407882
 30
0.0
 11
0.02098235405815963
 21
-0.0396806098090276
 31
0.0
210
0.0
220
0.0
230
1.0
 40
0.7485242380730655
 41
0.0
 42
6.283185307179586
  0
SPLINE
  5
BE16
330
1A
100
AcDbEntity
  8
0
 62
     7
100
AcDbSpline
210
0.0
220
0.0
230
1.0
 70
     8
 71
     3
 72
    11
 73
     7
 74
     0
 42
0.0000000001
 43
0.0000000001
 40
0.0
 40
0.0
 40
0.0
 40
0.0
 40
1.0
 40
1.0
 40
1.0
 40
2.0
 40
2.0
 40
2.0
 40
2.0
 10
0.1444250822859625
 20
8.49879324807368
 30
0.0
 10
0.1392074851722471
 20
8.503227085964305
 30
0.0
 10
0.1325343352156501
 20
8.510952712591909
 30
0.0
 10
0.128906649668775
 20
8.517760221272464
 30
0.0
 10
0.1211586299205112
 20
8.532270963459965
 30
0.0
 10
0.1202852982147822
 20
8.548080506645729
 30
0.0
 10
0.1252565710012403
 20
8.559747322509443
 30
0.0
  0
ELLIPSE
  5
BE17
330
1A
100
AcDbEntity
  8
0
 62
     7
100
AcDbEllipse
 10
0.121416150808098
 20
8.525474651339739
 30
0.0
 11
0.02099355061848949
 21
-0.03969180636935746
 31
0.0
210
0.0
220
0.0
230
1.0
 40
0.7486101921554207
 41
0.0
 42
6.283185307179586
  0
SPLINE
  5
BE18
330
1A
100
AcDbEntity
  8
0
 62
     7
100
AcDbSpline
210
0.0
220
0.0
230
1.0
 70
     8
 71
     3
 72
    11
 73
     7
 74
     0
 42
0.0000000001
 43
0.0000000001
 40
0.0
 40
0.0
 40
0.0
 40
0.0
 40
1.0
 40
1.0
 40
1.0
 40
2.0
 40
2.0
 40
2.0
 40
2.0
 10
0.3386182246470741
 20
7.945638381537224
 30
0.0
 10
0.3333782344126992
 20
7.950072219427849
 30
0.0
 10
0.3267274775767617
 20
7.957820239176112
 30
0.0
 10
0.3230550057885671
 20
7.964650140977327
 30
0.0
 10
0.3153741654022824
 20
7.979160883164827
 30
0.0
 10
0.3144784405758934
 20
7.994925640109271
 30
0.0
 10
0.319449713362352
 20
8.006614849093646
 30
0.0
  0
ELLIPSE
  5
BE19
330
1A
100
AcDbEntity
  8
0
 62
     7
100
AcDbEllipse
 10
0.3156204897295392
 20
7.972330981363612
 30
0.0
 11
0.02100474717881936
 21
-0.03965821668836789
 31
0.0
210
0.0
220
0.0
230
1.0
 40
0.7486796564290403
 41
0.0
 42
6.283185307179586
  0
SPLINE
  5
BE1A
330
1A
100
AcDbEntity
  8
0
 62
     7
100
AcDbSpline
210
0.0
220
0.0
230
1.0
 70
     8
 71
     3
 72
    11
 73
     7
 74
     0
 42
0.0000000001
 43
0.0000000001
 40
0.0
 40
0.0
 40
0.0
 40
0.0
 40
1.0
 40
1.0
 40
1.0
 40
2.0
 40
2.0
 40
2.0
 40
2.0
 10
0.1366770625376979
 20
7.469023201415694
 30
0.0
 10
0.1314370723033229
 20
7.473457039306319
 30
0.0
 10
0.1247415292260663
 20
7.481160272813263
 30
0.0
 10
0.1211138436791912
 20
7.488034960855798
 30
0.0
 10
0.1134106101722465
 20
7.502545703043298
 30
0.0
 10
0.1125148853458575
 20
7.518332853108402
 30
0.0
 10
0.1174861581323161
 20
7.530022062092777
 30
0.0
  0
ELLIPSE
  5
BE1B
330
1A
100
AcDbEntity
  8
0
 62
     7
100
AcDbEllipse
 10
0.1136457379391738
 20
7.495726997802413
 30
0.0
 11
0.02101594373914936
 21
-0.03969180636935774
 31
0.0
210
0.0
220
0.0
230
1.0
 40
0.747997693323892
 41
0.0
 42
6.283185307179586
  0
SPLINE
  5
BE1C
330
1A
100
AcDbEntity
  8
0
 62
     7
100
AcDbSpline
210
0.0
220
0.0
230
1.0
 70
     8
 71
     3
 72
    11
 73
     7
 74
     0
 42
0.0000000001
 43
0.0000000001
 40
0.0
 40
0.0
 40
0.0
 40
0.0
 40
1.0
 40
1.0
 40
1.0
 40
2.0
 40
2.0
 40
2.0
 40
2.0
 10
0.2386105477807554
 20
7.127729649440867
 30
0.0
 10
0.2333481644257209
 20
7.132163487331492
 30
0.0
 10
0.2266974075897834
 20
7.139889113959097
 30
0.0
 10
0.2230249358015888
 20
7.146741408880971
 30
0.0
 10
0.2153440954153041
 20
7.161229757947812
 30
0.0
 10
0.2144707637095746
 20
7.176994514892257
 30
0.0
 10
0.2194420364960332
 20
7.188683723876632
 30
0.0
  0
ELLIPSE
  5
BE1D
330
1A
100
AcDbEntity
  8
0
 62
     7
100
AcDbEllipse
 10
0.2156016163028909
 20
7.154433445827586
 30
0.0
 11
0.02099355061848963
 21
-0.03969180636935774
 31
0.0
210
0.0
220
0.0
230
1.0
 40
0.7486101921554209
 41
0.0
 42
6.283185307179586
  0
SPLINE
  5
BE1E
330
1A
100
AcDbEntity
  8
0
 62
     7
100
AcDbSpline
210
0.0
220
0.0
230
1.0
 70
     8
 71
     3
 72
    11
 73
     7
 74
     0
 42
0.0000000001
 43
0.0000000001
 40
0.0
 40
0.0
 40
0.0
 40
0.0
 40
1.0
 40
1.0
 40
1.0
 40
2.0
 40
2.0
 40
2.0
 40
2.0
 10
0.3347442147729427
 20
6.898244948920035
 30
0.0
 10
0.3295042245385678
 20
6.90267878681066
 30
0.0
 10
0.3228534677026302
 20
6.910404413438264
 30
0.0
 10
0.3191809959144356
 20
6.917256708360139
 30
0.0
 10
0.3115001555281509
 20
6.931767450547639
 30
0.0
 10
0.3106044307017619
 20
6.947554600612743
 30
0.0
 10
0.3155757034882205
 20
6.959243809597118
 30
0.0
  0
ELLIPSE
  5
BE1F
330
1A
100
AcDbEntity
  8
0
 62
     7
100
AcDbEllipse
 10
0.3117464798554077
 20
6.924948745306754
 30
0.0
 11
0.0210047471788195
 21
-0.03969180636935774
 31
0.0
210
0.0
220
0.0
230
1.0
 40
0.7483039156995116
 41
0.0
 42
6.283185307179586
  0
SPLINE
  5
BE20
330
1A
100
AcDbEntity
  8
0
 62
     7
100
AcDbSpline
210
0.0
220
0.0
230
1.0
 70
     8
 71
     3
 72
    11
 73
     7
 74
     0
 42
0.0000000001
 43
0.0000000001
 40
0.0
 40
0.0
 40
0.0
 40
0.0
 40
1.0
 40
1.0
 40
1.0
 40
2.0
 40
2.0
 40
2.0
 40
2.0
 10
0.1437980749074899
 20
6.441940329236875
 30
0.0
 10
0.1385132984317958
 20
6.4463741671275
 30
0.0
 10
0.1318625415958583
 20
6.454122186875764
 30
0.0
 10
0.1282124629283232
 20
6.460952088676979
 30
0.0
 10
0.1205316225420385
 20
6.475462830864479
 30
0.0
 10
0.1196358977156495
 20
6.491227587808924
 30
0.0
 10
0.1246071705021081
 20
6.502916796793299
 30
0.0
  0
ELLIPSE
  5
BE21
330
1A
100
AcDbEntity
  8
0
 62
     7
100
AcDbEllipse
 10
0.1207891434296253
 20
6.468655322183924
 30
0.0
 11
0.02099355061848963
 21
-0.03968060980902789
 31
0.0
210
0.0
220
0.0
230
1.0
 40
0.7486560511260796
 41
0.0
 42
6.283185307179586
  0
SPLINE
  5
BE22
330
1A
100
AcDbEntity
  8
0
 62
     7
100
AcDbSpline
210
0.0
220
0.0
230
1.0
 70
     8
 71
     3
 72
    11
 73
     7
 74
     0
 42
0.0000000001
 43
0.0000000001
 40
0.0
 40
0.0
 40
0.0
 40
0.0
 40
1.0
 40
1.0
 40
1.0
 40
2.0
 40
2.0
 40
2.0
 40
2.0
 10
0.2268093731930803
 20
6.274529359184792
 30
0.0
 10
0.2215693829587053
 20
6.278963197075417
 30
0.0
 10
0.2149186261227678
 20
6.286666430582361
 30
0.0
 10
0.2112685474552332
 20
6.293518725504236
 30
0.0
 10
0.2035429208276289
 20
6.308051860812395
 30
0.0
 10
0.2026695891218995
 20
6.32381661775684
 30
0.0
 10
0.2076408619083581
 20
6.335461040499895
 30
0.0
  0
ELLIPSE
  5
BE23
330
1A
100
AcDbEntity
  8
0
 62
     7
100
AcDbEllipse
 10
0.2038116382755457
 20
6.30123315557151
 30
0.0
 11
0.0210047471788195
 21
-0.03971419949001746
 31
0.0
210
0.0
220
0.0
230
1.0
 40
0.7479742294989794
 41
0.0
 42
6.283185307179586
  0
SPLINE
  5
BE24
330
1A
100
AcDbEntity
  8
0
 62
     7
100
AcDbSpline
210
0.0
220
0.0
230
1.0
 70
     8
 71
     3
 72
    11
 73
     7
 74
     0
 42
0.0000000001
 43
0.0000000001
 40
0.0
 40
0.0
 40
0.0
 40
0.0
 40
1.0
 40
1.0
 40
1.0
 40
2.0
 40
2.0
 40
2.0
 40
2.0
 10
0.3326616545515875
 20
5.843640931450416
 30
0.0
 10
0.3274440574378721
 20
5.848074769341041
 30
0.0
 10
0.320770907481275
 20
5.855800395968646
 30
0.0
 10
0.3171208288137404
 20
5.862652690890521
 30
0.0
 10
0.3093952021861361
 20
5.877163433078021
 30
0.0
 10
0.3085218704804067
 20
5.892928190022465
 30
0.0
 10
0.3134931432668653
 20
5.904595005886181
 30
0.0
  0
ELLIPSE
  5
BE25
330
1A
100
AcDbEntity
  8
0
 62
     7
100
AcDbEllipse
 10
0.3096527230737229
 20
5.870344727837136
 30
0.0
 11
0.02099355061848964
 21
-0.03971419949001747
 31
0.0
210
0.0
220
0.0
230
1.0
 40
0.7482802941420017
 41
0.0
 42
6.283185307179586
  0
SPLINE
  5
BE26
330
1A
100
AcDbEntity
  8
0
 62
     7
100
AcDbSpline
210
0.0
220
0.0
230
1.0
 70
     8
 71
     3
 72
    11
 73
     7
 74
     0
 42
0.0000000001
 43
0.0000000001
 40
0.0
 40
0.0
 40
0.0
 40
0.0
 40
1.0
 40
1.0
 40
1.0
 40
2.0
 40
2.0
 40
2.0
 40
2.0
 10
2.009312974267298
 20
2.159569506754236
 30
0.0
 10
2.004050590912264
 20
2.164003344644861
 30
0.0
 10
1.997399834076327
 20
2.171751364393125
 30
0.0
 10
1.993727362288132
 20
2.17858126619434
 30
0.0
 10
1.986024128781188
 20
2.193092008381841
 30
0.0
 10
1.985195583316778
 20
2.208834372205625
 30
0.0
 10
1.990166856103236
 20
2.22052358119
 30
0.0
  0
ELLIPSE
  5
BE27
330
1A
100
AcDbEntity
  8
0
 62
     7
100
AcDbEllipse
 10
1.986360025591083
 20
2.186250910020295
 30
0.0
 11
0.0210047471788195
 21
-0.03971419949001746
 31
0.0
210
0.0
220
0.0
230
1.0
 40
0.7482126737886825
 41
0.0
 42
6.283185307179586
  0
SPLINE
  5
BE28
330
1A
100
AcDbEntity
  8
0
 62
     7
100
AcDbSpline
210
0.0
220
0.0
230
1.0
 70
     8
 71
     3
 72
    11
 73
     7
 74
     0
 42
0.0000000001
 43
0.0000000001
 40
0.0
 40
0.0
 40
0.0
 40
0.0
 40
1.0
 40
1.0
 40
1.0
 40
2.0
 40
2.0
 40
2.0
 40
2.0
 10
1.658188842322855
 20
2.686255704670902
 30
0.0
 10
1.65292645896782
 20
2.690644756320208
 30
0.0
 10
1.646230915890564
 20
2.698392776068471
 30
0.0
 10
1.642625623464348
 20
2.705289857231666
 30
0.0
 10
1.634877603716084
 20
2.719800599419166
 30
0.0
 10
1.634071451372334
 20
2.73556535636361
 30
0.0
 10
1.638997937917472
 20
2.747254565347985
 30
0.0
  0
ELLIPSE
  5
BE29
330
1A
100
AcDbEntity
  8
0
 62
     7
100
AcDbEllipse
 10
1.635202303965651
 20
2.712937107936961
 30
0.0
 11
0.02097115749782991
 21
-0.03962462700737857
 31
0.0
210
0.0
220
0.0
230
1.0
 40
0.7488992857405391
 41
0.0
 42
6.283185307179586
  0
SPLINE
  5
BE2A
330
1A
100
AcDbEntity
  8
0
 62
     7
100
AcDbSpline
210
0.0
220
0.0
230
1.0
 70
     8
 71
     3
 72
    11
 73
     7
 74
     0
 42
0.0000000001
 43
0.0000000001
 40
0.0
 40
0.0
 40
0.0
 40
0.0
 40
1.0
 40
1.0
 40
1.0
 40
2.0
 40
2.0
 40
2.0
 40
2.0
 10
1.349454887787265
 20
2.619636170708229
 30
0.0
 10
1.34417011131157
 20
2.624047615478194
 30
0.0
 10
1.337541747596292
 20
2.631795635226458
 30
0.0
 10
1.333914062049417
 20
2.638692716389652
 30
0.0
 10
1.326188435421813
 20
2.653203458577152
 30
0.0
 10
1.325315103716084
 20
2.668901036159618
 30
0.0
 10
1.330263983381882
 20
2.680657424505972
 30
0.0
  0
ELLIPSE
  5
BE2B
330
1A
100
AcDbEntity
  8
0
 62
     7
100
AcDbEllipse
 10
1.32647954599039
 20
2.646362360215607
 30
0.0
 11
0.02098235405815977
 21
-0.03964702012803829
 31
0.0
210
0.0
220
0.0
230
1.0
 40
0.7480234114634508
 41
0.0
 42
6.283185307179586
  0
SPLINE
  5
BE2C
330
1A
100
AcDbEntity
  8
0
 62
     7
100
AcDbSpline
210
0.0
220
0.0
230
1.0
 70
     8
 71
     3
 72
    11
 73
     7
 74
     0
 42
0.0000000001
 43
0.0000000001
 40
0.0
 40
0.0
 40
0.0
 40
0.0
 40
1.0
 40
1.0
 40
1.0
 40
2.0
 40
2.0
 40
2.0
 40
2.0
 10
1.465540825287265
 20
3.064856195664826
 30
0.0
 10
1.458979640933967
 20
3.069491571641389
 30
0.0
 10
1.45304546395914
 20
3.076164721597986
 30
0.0
 10
1.448678805430494
 20
3.084405390000764
 30
0.0
 10
1.444737616194384
 20
3.091884692301111
 30
0.0
 10
1.44256548349039
 20
3.099767070773333
 30
0.0
 10
1.442140014197856
 20
3.107179193711701
 30
0.0
  0
SPLINE
  5
BE2D
330
1A
100
AcDbEntity
  8
0
 62
     7
100
AcDbSpline
210
0.0
220
0.0
230
1.0
 70
     8
 71
     3
 72
    11
 73
     7
 74
     0
 42
0.0000000001
 43
0.0000000001
 40
0.0
 40
0.0
 40
0.0
 40
0.0
 40
1.0
 40
1.0
 40
1.0
 40
2.0
 40
2.0
 40
2.0
 40
2.0
 10
1.457277763763828
 20
3.140141867322813
 30
0.0
 10
1.473579955604105
 20
3.149009543104063
 30
0.0
 10
1.496174614349766
 20
3.138439990152674
 30
0.0
 10
1.507684678368863
 20
3.116517125026805
 30
0.0
 10
1.519239528629279
 20
3.094616653021597
 30
0.0
 10
1.515432698117126
 20
3.069581144124028
 30
0.0
 10
1.499130506276849
 20
3.060803040825416
 30
0.0
  0
SPLINE
  5
BE2E
330
1A
100
AcDbEntity
  8
0
 62
     7
100
AcDbSpline
210
0.0
220
0.0
230
1.0
 70
     8
 71
     3
 72
    11
 73
     7
 74
     0
 42
0.0000000001
 43
0.0000000001
 40
0.0
 40
0.0
 40
0.0
 40
0.0
 40
1.0
 40
1.0
 40
1.0
 40
2.0
 40
2.0
 40
2.0
 40
2.0
 10
1.562144747813306
 20
1.849156068169166
 30
0.0
 10
1.556927150699591
 20
1.853634692301111
 30
0.0
 10
1.550186821381015
 20
1.861293139566735
 30
0.0
 10
1.546626315196119
 20
1.86819022072993
 30
0.0
 10
1.538833509206536
 20
1.882656176676111
 30
0.0
 10
1.538027356862786
 20
1.898398540499895
 30
0.0
 10
1.542998629649244
 20
1.91011014260493
 30
0.0
  0
ELLIPSE
  5
BE2F
330
1A
100
AcDbEntity
  8
0
 62
     7
100
AcDbEllipse
 10
1.539147012895772
 20
1.875848667995555
 30
0.0
 11
0.02102714029947923
 21
-0.03968060980902788
 31
0.0
210
0.0
220
0.0
230
1.0
 40
0.7475377865745559
 41
0.0
 42
6.283185307179586
  0
SPLINE
  5
BE30
330
1A
100
AcDbEntity
  8
0
 62
     7
100
AcDbSpline
210
0.0
220
0.0
230
1.0
 70
     8
 71
     3
 72
    11
 73
     7
 74
     0
 42
0.0000000001
 43
0.0000000001
 40
0.0
 40
0.0
 40
0.0
 40
0.0
 40
1.0
 40
1.0
 40
1.0
 40
2.0
 40
2.0
 40
2.0
 40
2.0
 10
1.501123494015562
 20
4.017325189805451
 30
0.0
 10
1.495883503781188
 20
4.021781420816736
 30
0.0
 10
1.489165567583271
 20
4.029439868082361
 30
0.0
 10
1.485605061398375
 20
4.036336949245555
 30
0.0
 10
1.477857041650111
 20
4.050780512071077
 30
0.0
 10
1.477006103065042
 20
4.066612448377501
 30
0.0
 10
1.4819773758515
 20
4.078279264241216
 30
0.0
  0
ELLIPSE
  5
BE31
330
1A
100
AcDbEntity
  8
0
 62
     7
100
AcDbEllipse
 10
1.478148152218688
 20
4.043984199950851
 30
0.0
 11
0.02098235405815985
 21
-0.03966941324869816
 31
0.0
210
0.0
220
0.0
230
1.0
 40
0.7479322189562953
 41
0.0
 42
6.283185307179586
  0
SPLINE
  5
BE32
330
1A
100
AcDbEntity
  8
0
 62
     7
100
AcDbSpline
210
0.0
220
0.0
230
1.0
 70
     8
 71
     3
 72
    11
 73
     7
 74
     0
 42
0.0000000001
 43
0.0000000001
 40
0.0
 40
0.0
 40
0.0
 40
0.0
 40
1.0
 40
1.0
 40
1.0
 40
2.0
 40
2.0
 40
2.0
 40
2.0
 10
1.546178452782925
 20
4.844235956407013
 30
0.0
 10
1.54093846254855
 20
4.848669794297638
 30
0.0
 10
1.534198133229974
 20
4.856350634683923
 30
0.0
 10
1.530637627045078
 20
4.863247715847118
 30
0.0
 10
1.522889607296814
 20
4.877713671793298
 30
0.0
 10
1.522038668711744
 20
4.893500821858403
 30
0.0
 10
1.527009941498203
 20
4.905190030842778
 30
0.0
  0
ELLIPSE
  5
BE33
330
1A
100
AcDbEntity
  8
0
 62
     7
100
AcDbEllipse
 10
1.52318071786539
 20
4.870906163112743
 30
0.0
 11
0.02100474717881957
 21
-0.03970300292968775
 31
0.0
210
0.0
220
0.0
230
1.0
 40
0.746945206977183
 41
0.0
 42
6.283185307179586
  0
SPLINE
  5
BE34
330
1A
100
AcDbEntity
  8
0
 62
     7
100
AcDbSpline
210
0.0
220
0.0
230
1.0
 70
     8
 71
     3
 72
    11
 73
     7
 74
     0
 42
0.0000000001
 43
0.0000000001
 40
0.0
 40
0.0
 40
0.0
 40
0.0
 40
1.0
 40
1.0
 40
1.0
 40
2.0
 40
2.0
 40
2.0
 40
2.0
 10
1.422098171207404
 20
5.027366897162223
 30
0.0
 10
1.416835787852369
 20
5.031800735052848
 30
0.0
 10
1.410162637895772
 20
5.039481575439133
 30
0.0
 10
1.406512559228237
 20
5.046333870361008
 30
0.0
 10
1.398854111962612
 20
5.060822219427848
 30
0.0
 10
1.397913600894904
 20
5.076631762613612
 30
0.0
 10
1.402907266802021
 20
5.088298578477327
 30
0.0
  0
ELLIPSE
  5
BE35
330
1A
100
AcDbEntity
  8
0
 62
     7
100
AcDbEllipse
 10
1.399134025970859
 20
5.054037103867953
 30
0.0
 11
0.02097115749782999
 21
-0.03970300292968775
 31
0.0
210
0.0
220
0.0
230
1.0
 40
0.7474252172777789
 41
0.0
 42
6.283185307179586
  0
SPLINE
  5
BE36
330
1A
100
AcDbEntity
  8
0
 62
     7
100
AcDbSpline
210
0.0
220
0.0
230
1.0
 70
     8
 71
     3
 72
    11
 73
     7
 74
     0
 42
0.0000000001
 43
0.0000000001
 40
0.0
 40
0.0
 40
0.0
 40
0.0
 40
1.0
 40
1.0
 40
1.0
 40
2.0
 40
2.0
 40
2.0
 40
2.0
 10
1.593786227305493
 20
5.504071649766388
 30
0.0
 10
1.588479057709139
 20
5.508505487657013
 30
0.0
 10
1.581850693993861
 20
5.516231114284618
 30
0.0
 10
1.578178222205667
 20
5.523083409206492
 30
0.0
 10
1.570474988698722
 20
5.537549365152673
 30
0.0
 10
1.569646443234312
 20
5.553336515217778
 30
0.0
 10
1.574595322900111
 20
5.565025724202153
 30
0.0
  0
ELLIPSE
  5
BE37
330
1A
100
AcDbEntity
  8
0
 62
     7
100
AcDbEllipse
 10
1.570822082068948
 20
5.530753053032448
 30
0.0
 11
0.02097115749782999
 21
-0.03969180636935788
 31
0.0
210
0.0
220
0.0
230
1.0
 40
0.7479085554440336
 41
0.0
 42
6.283185307179586
  0
SPLINE
  5
BE38
330
1A
100
AcDbEntity
  8
0
 62
     7
100
AcDbSpline
210
0.0
220
0.0
230
1.0
 70
     8
 71
     3
 72
    11
 73
     7
 74
     0
 42
0.0000000001
 43
0.0000000001
 40
0.0
 40
0.0
 40
0.0
 40
0.0
 40
1.0
 40
1.0
 40
1.0
 40
2.0
 40
2.0
 40
2.0
 40
2.0
 10
1.406893242279452
 20
6.08519552400684
 30
0.0
 10
1.401720431407056
 20
6.089629361897465
 30
0.0
 10
1.39498010208848
 20
6.097377381645729
 30
0.0
 10
1.391352416541605
 20
6.104207283446945
 30
0.0
 10
1.38367157615532
 20
6.118718025634444
 30
0.0
 10
1.382843030690911
 20
6.134482782578889
 30
0.0
 10
1.387791910356709
 20
6.146171991563264
 30
0.0
  0
ELLIPSE
  5
BE39
330
1A
100
AcDbEntity
  8
0
 62
     7
100
AcDbEllipse
 10
1.384018669525545
 20
6.111910516953889
 30
0.0
 11
0.0208815850151911
 21
-0.03968060980902802
 31
0.0
210
0.0
220
0.0
230
1.0
 40
0.7486511445001248
 41
0.0
 42
6.283185307179586
  0
SPLINE
  5
BE3A
330
1A
100
AcDbEntity
  8
0
 62
     7
100
AcDbSpline
210
0.0
220
0.0
230
1.0
 70
     8
 71
     3
 72
    11
 73
     7
 74
     0
 42
0.0000000001
 43
0.0000000001
 40
0.0
 40
0.0
 40
0.0
 40
0.0
 40
1.0
 40
1.0
 40
1.0
 40
2.0
 40
2.0
 40
2.0
 40
2.0
 10
1.51910516990532
 20
6.415158156927846
 30
0.0
 10
1.513842786550286
 20
6.419591994818471
 30
0.0
 10
1.507192029714348
 20
6.427317621446075
 30
0.0
 10
1.503586737288132
 20
6.434125130126631
 30
0.0
 10
1.495861110660528
 20
6.448635872314131
 30
0.0
 10
1.494987778954799
 20
6.464445415499895
 30
0.0
 10
1.499936658620598
 20
6.476112231363611
 30
0.0
  0
ELLIPSE
  5
BE3B
330
1A
100
AcDbEntity
  8
0
 62
     7
100
AcDbEllipse
 10
1.496163417789434
 20
6.441839560193905
 30
0.0
 11
0.02097115749782999
 21
-0.03969180636935788
 31
0.0
210
0.0
220
0.0
230
1.0
 40
0.7487847139039875
 41
0.0
 42
6.283185307179586
  0
SPLINE
  5
BE3C
330
1A
100
AcDbEntity
  8
0
 62
     7
100
AcDbSpline
210
0.0
220
0.0
230
1.0
 70
     8
 71
     3
 72
    11
 73
     7
 74
     0
 42
0.0000000001
 43
0.0000000001
 40
0.0
 40
0.0
 40
0.0
 40
0.0
 40
1.0
 40
1.0
 40
1.0
 40
2.0
 40
2.0
 40
2.0
 40
2.0
 10
1.591793239566778
 20
6.530169224636182
 30
0.0
 10
1.586508463091083
 20
6.534603062526807
 30
0.0
 10
1.579835313134486
 20
6.542328689154411
 30
0.0
 10
1.576207627587611
 20
6.549136197834967
 30
0.0
 10
1.568482000960007
 20
6.563646940022466
 30
0.0
 10
1.567675848616257
 20
6.579456483208231
 30
0.0
 10
1.572602335161395
 20
6.591123299071946
 30
0.0
  0
ELLIPSE
  5
BE3D
330
1A
100
AcDbEntity
  8
0
 62
     7
100
AcDbEllipse
 10
1.568817897769902
 20
6.556850627902241
 30
0.0
 11
0.02098235405815985
 21
-0.03969180636935788
 31
0.0
210
0.0
220
0.0
230
1.0
 40
0.7480403902559021
 41
0.0
 42
6.283185307179586
  0
SPLINE
  5
BE3E
330
1A
100
AcDbEntity
  8
0
 62
     7
100
AcDbSpline
210
0.0
220
0.0
230
1.0
 70
     8
 71
     3
 72
    11
 73
     7
 74
     0
 42
0.0000000001
 43
0.0000000001
 40
0.0
 40
0.0
 40
0.0
 40
0.0
 40
1.0
 40
1.0
 40
1.0
 40
2.0
 40
2.0
 40
2.0
 40
2.0
 10
1.394868136485181
 20
7.105246956298506
 30
0.0
 10
1.389605753130146
 20
7.109680794189131
 30
0.0
 10
1.382932603173549
 20
7.117428813937395
 30
0.0
 10
1.379304917626674
 20
7.124258715738611
 30
0.0
 10
1.371624077240389
 20
7.13876945792611
 30
0.0
 10
1.370683566172681
 20
7.154534214870555
 30
0.0
 10
1.375654838959139
 20
7.16622342385493
 30
0.0
  0
ELLIPSE
  5
BE3F
330
1A
100
AcDbEntity
  8
0
 62
     7
100
AcDbEllipse
 10
1.371870401567646
 20
7.131961949245556
 30
0.0
 11
0.02098235405815985
 21
-0.03968060980902801
 31
0.0
210
0.0
220
0.0
230
1.0
 40
0.7480860434513724
 41
0.0
 42
6.283185307179586
  0
SPLINE
  5
BE40
330
1A
100
AcDbEntity
  8
0
 62
     7
100
AcDbSpline
210
0.0
220
0.0
230
1.0
 70
     8
 71
     3
 72
    11
 73
     7
 74
     0
 42
0.0000000001
 43
0.0000000001
 40
0.0
 40
0.0
 40
0.0
 40
0.0
 40
1.0
 40
1.0
 40
1.0
 40
2.0
 40
2.0
 40
2.0
 40
2.0
 10
1.51113009448641
 20
7.30915490983543
 30
0.0
 10
1.505867711131375
 20
7.313588747726055
 30
0.0
 10
1.499261740536757
 20
7.321269588112339
 30
0.0
 10
1.495566875627903
 20
7.328121883034214
 30
0.0
 10
1.487886035241618
 20
7.342610232101055
 30
0.0
 10
1.48696791729457
 20
7.358419775286818
 30
0.0
 10
1.491939190081028
 20
7.370086591150534
 30
0.0
  0
ELLIPSE
  5
BE41
330
1A
100
AcDbEntity
  8
0
 62
     7
100
AcDbEllipse
 10
1.488177145810194
 20
7.335825116541159
 30
0.0
 11
0.02095996093750012
 21
-0.03970300292968772
 31
0.0
210
0.0
220
0.0
230
1.0
 40
0.7481690601066414
 41
0.0
 42
6.283185307179586
  0
SPLINE
  5
BE42
330
1A
100
AcDbEntity
  8
0
 62
     7
100
AcDbSpline
210
0.0
220
0.0
230
1.0
 70
     8
 71
     3
 72
    11
 73
     7
 74
     0
 42
0.0000000001
 43
0.0000000001
 40
0.0
 40
0.0
 40
0.0
 40
0.0
 40
1.0
 40
1.0
 40
1.0
 40
2.0
 40
2.0
 40
2.0
 40
2.0
 10
1.599787583642299
 20
7.574405227240347
 30
0.0
 10
1.594525200287264
 20
7.578839065130972
 30
0.0
 10
1.587896836571987
 20
7.586587084879236
 30
0.0
 10
1.584224364783792
 20
7.593416986680452
 30
0.0
 10
1.576521131276848
 20
7.607927728867951
 30
0.0
 10
1.575647799571118
 20
7.623714878933056
 30
0.0
 10
1.580596679236916
 20
7.635381694796771
 30
0.0
  0
ELLIPSE
  5
BE43
330
1A
100
AcDbEntity
  8
0
 62
     7
100
AcDbEllipse
 10
1.576834634966083
 20
7.601097827066736
 30
0.0
 11
0.02095996093750013
 21
-0.0396582166883683
 31
0.0
210
0.0
220
0.0
230
1.0
 40
0.7485907450578953
 41
0.0
 42
6.283185307179586
  0
SPLINE
  5
BE44
330
1A
100
AcDbEntity
  8
0
 62
     7
100
AcDbSpline
210
0.0
220
0.0
230
1.0
 70
     8
 71
     3
 72
    11
 73
     7
 74
     0
 42
0.0000000001
 43
0.0000000001
 40
0.0
 40
0.0
 40
0.0
 40
0.0
 40
1.0
 40
1.0
 40
1.0
 40
2.0
 40
2.0
 40
2.0
 40
2.0
 10
1.391218057817647
 20
8.125298388590172
 30
0.0
 10
1.385978067583272
 20
8.129732226480797
 30
0.0
 10
1.379282524506015
 20
8.137457853108401
 30
0.0
 10
1.375654838959139
 20
8.144310148030277
 30
0.0
 10
1.367951605452196
 20
8.158820890217776
 30
0.0
 10
1.367055880625807
 20
8.174585647162221
 30
0.0
 10
1.372049546532924
 20
8.186252463025936
 30
0.0
  0
ELLIPSE
  5
BE45
330
1A
100
AcDbEntity
  8
0
 62
     7
100
AcDbEllipse
 10
1.368220322900112
 20
8.151990988416561
 30
0.0
 11
0.02100474717881943
 21
-0.0397253960503472
 31
0.0
210
0.0
220
0.0
230
1.0
 40
0.7479286439654501
 41
0.0
 42
6.283185307179586
  0
SPLINE
  5
BE46
330
1A
100
AcDbEntity
  8
0
 62
     7
100
AcDbSpline
210
0.0
220
0.0
230
1.0
 70
     8
 71
     3
 72
    11
 73
     7
 74
     0
 42
0.0000000001
 43
0.0000000001
 40
0.0
 40
0.0
 40
0.0
 40
0.0
 40
1.0
 40
1.0
 40
1.0
 40
2.0
 40
2.0
 40
2.0
 40
2.0
 10
1.593786227305494
 20
8.609594409097985
 30
0.0
 10
1.58847905770914
 20
8.61402824698861
 30
0.0
 10
1.581850693993862
 20
8.621731480495553
 30
0.0
 10
1.578178222205668
 20
8.628583775417429
 30
0.0
 10
1.570474988698723
 20
8.643094517604929
 30
0.0
 10
1.569646443234313
 20
8.658904060790693
 30
0.0
 10
1.574595322900112
 20
8.670570876654407
 30
0.0
  0
ELLIPSE
  5
BE47
330
1A
100
AcDbEntity
  8
0
 62
     7
100
AcDbEllipse
 10
1.57077729582763
 20
8.636298205484703
 30
0.0
 11
0.02101594373914929
 21
-0.03969180636935762
 31
0.0
210
0.0
220
0.0
230
1.0
 40
0.7484356063185048
 41
0.0
 42
6.283185307179586
  0
SPLINE
  5
BE48
330
1A
100
AcDbEntity
  8
0
 62
     7
100
AcDbSpline
210
0.0
220
0.0
230
1.0
 70
     8
 71
     3
 72
    11
 73
     7
 74
     0
 42
0.0000000001
 43
0.0000000001
 40
0.0
 40
0.0
 40
0.0
 40
0.0
 40
1.0
 40
1.0
 40
1.0
 40
2.0
 40
2.0
 40
2.0
 40
2.0
 10
1.523327579491144
 20
8.92684801288828
 30
0.0
 10
1.51804280301545
 20
8.931281850778905
 30
0.0
 10
1.511392046179513
 20
8.939029870527168
 30
0.0
 10
1.507809146873957
 20
8.945859772328383
 30
0.0
 10
1.500083520246353
 20
8.960370514515883
 30
0.0
 10
1.499210188540624
 20
8.976135271460329
 30
0.0
 10
1.504136675085762
 20
8.987824480444703
 30
0.0
  0
ELLIPSE
  5
BE49
330
1A
100
AcDbEntity
  8
0
 62
     7
100
AcDbEllipse
 10
1.500374630814929
 20
8.953551809274998
 30
0.0
 11
0.02095996093749998
 21
-0.03966941324869789
 31
0.0
210
0.0
220
0.0
230
1.0
 40
0.7494216548860941
 41
0.0
 42
6.283185307179586
  0
SPLINE
  5
BE4A
330
1A
100
AcDbEntity
  8
0
 62
     7
100
AcDbSpline
210
0.0
220
0.0
230
1.0
 70
     8
 71
     3
 72
    11
 73
     7
 74
     0
 42
0.0000000001
 43
0.0000000001
 40
0.0
 40
0.0
 40
0.0
 40
0.0
 40
1.0
 40
1.0
 40
1.0
 40
2.0
 40
2.0
 40
2.0
 40
2.0
 10
1.394957708967819
 20
9.144028626762919
 30
0.0
 10
1.389695325612785
 20
9.148462464653544
 30
0.0
 10
1.383044568776848
 20
9.156188091281148
 30
0.0
 10
1.379394490109313
 20
9.163017993082363
 30
0.0
 10
1.371736042843688
 20
9.177528735269863
 30
0.0
 10
1.370817924896639
 20
9.193315885334968
 30
0.0
 10
1.375766804562438
 20
9.204982701198682
 30
0.0
  0
ELLIPSE
  5
BE4B
330
1A
100
AcDbEntity
  8
0
 62
     7
100
AcDbEllipse
 10
1.371971170610615
 20
9.170732423149637
 30
0.0
 11
0.02099355061848957
 21
-0.0396918063693576
 31
0.0
210
0.0
220
0.0
230
1.0
 40
0.7477342379046389
 41
0.0
 42
6.283185307179586
  0
ATTDEF
  5
BE4C
330
1A
100
AcDbEntity
  8
0
100
AcDbText
 10
0.8748147471916208
 20
-0.0355057498805754
 30
0.0
 40
0.135
  1

  7
HELVETICA
 72
     1
 11
1.170529032905907
 21
-0.0355057498805754
 31
0.0
100
AcDbAttributeDefinition
  3
Enter Model No.
  2
DETAL
 70
     0
  0
TEXT
  5
BE4E
330
1A
100
AcDbEntity
  8
0
100
AcDbText
 10
0.1532576820137932
 20
0.1969892346233136
 30
0.0
 40
0.135
  1
SIMPSON Strong-Tie
  7
HELVETICA
 72
     1
 11
1.194686253442365
 21
0.1969892346233136
 31
0.0
100
AcDbText
  0
TEXT
  5
BE4F
330
1A
100
AcDbEntity
  8
0
100
AcDbText
 10
2.311931038595517
 20
0.2607491191802972
 30
0.0
 40
0.07776
  1
R
  7
HELVETICA
100
AcDbText
  0
CIRCLE
  5
BE50
330
1A
100
AcDbEntity
  8
0
100
AcDbCircle
 10
2.335729293841786
 20
0.2994445233324591
 30
0.0
 40
0.050682164977952
  0
ENDSEC
  0
SECTION
  2
OBJECTS
  0
DICTIONARY
  5
C
330
0
100
AcDbDictionary
281
     1
  3
ACAD_COLOR
350
95B3
  3
ACAD_GROUP
350
D
  3
ACAD_LAYOUT
350
15D3
  3
ACAD_MATERIAL
350
95B2
  3
ACAD_MLINESTYLE
350
E
  3
ACAD_PLOTSETTINGS
350
15D4
  3
ACAD_PLOTSTYLENAME
350
15D1
  3
ACAD_TABLESTYLE
350
95B4
  3
ACDBHEADERROUNDTRIPXREC
350
BE5A
  3
AcDbVariableDictionary
350
95CD
  3
ASE_INDEX_DICTIONARY
350
BC43
  0
DICTIONARY
  5
95BA
330
2
100
AcDbDictionary
280
     1
281
     1
  3
ACAD_LAYERFILTERS
360
BE52
  3
ACAD_LAYERSTATES
360
A82B
  3
ACLYDICTIONARY
360
BE51
  0
DICTIONARY
  5
1600
330
1A
100
AcDbDictionary
280
     1
281
     1
  3
ACAD_SORTENTS
360
AB16
  0
DICTIONARY
  5
BD88
330
BD87
100
AcDbDictionary
280
     1
281
     1
  3
ACAD_SORTENTS
360
BDFB
  0
DICTIONARY
  5
95B3
102
{ACAD_REACTORS
330
C
102
}
330
C
100
AcDbDictionary
281
     1
  0
DICTIONARY
  5
D
102
{ACAD_REACTORS
330
C
102
}
330
C
100
AcDbDictionary
281
     1
  0
DICTIONARY
  5
15D3
102
{ACAD_REACTORS
330
C
102
}
330
C
100
AcDbDictionary
281
     1
  3
Layout1
350
15D6
  3
Model
350
15D5
  0
DICTIONARY
  5
95B2
102
{ACAD_REACTORS
330
C
102
}
330
C
100
AcDbDictionary
281
     1
  0
DICTIONARY
  5
E
102
{ACAD_REACTORS
330
C
102
}
330
C
100
AcDbDictionary
281
     1
  3
STANDARD
350
13
  0
DICTIONARY
  5
15D4
102
{ACAD_REACTORS
330
C
102
}
330
C
100
AcDbDictionary
281
     1
  0
ACDBDICTIONARYWDFLT
  5
15D1
102
{ACAD_REACTORS
330
C
102
}
330
C
100
AcDbDictionary
281
     1
  3
Normal
350
15D2
100
AcDbDictionaryWithDefault
340
15D2
  0
DICTIONARY
  5
95B4
102
{ACAD_REACTORS
330
C
102
}
330
C
100
AcDbDictionary
281
     1
  3
Standard
350
95B5
  0
DICTIONARY
  5
BE5A
102
{ACAD_REACTORS
330
C
102
}
330
C
100
AcDbDictionary
281
     1
  3
COLORDICT
350
BE5B
  3
MATERIALDICT
350
BE5C
  0
DICTIONARY
  5
95CD
102
{ACAD_REACTORS
330
C
102
}
330
C
100
AcDbDictionary
281
     1
  3
CTABLESTYLE
350
95CE
  0
DICTIONARY
  5
BC43
102
{ACAD_REACTORS
330
C
102
}
330
C
100
AcDbDictionary
281
     1
  3
ASEBlockHierarchyIndexRecord
350
BC45
1001
DCO15
1040
1650276571.677
  0
DICTIONARY
  5
BE52
102
{ACAD_REACTORS
330
95BA
102
}
330
95BA
100
AcDbDictionary
281
     1
  0
DICTIONARY
  5
A82B
102
{ACAD_REACTORS
330
95BA
102
}
330
95BA
100
AcDbDictionary
281
     1
  0
DICTIONARY
  5
BE51
102
{ACAD_REACTORS
330
95BA
102
}
330
95BA
100
AcDbDictionary
281
     1
1001
ACAD
1000
<All
  0
SORTENTSTABLE
  5
AB16
102
{ACAD_REACTORS
330
1600
102
}
330
1600
100
AcDbSortentsTable
330
1A
331
0
  5
BE4D
331
BC59
  5
BD7D
331
BC5A
  5
BD7E
331
B704
  5
B704
331
BCDC
  5
BCEA
331
BCDD
  5
BCEB
331
BCDE
  5
BCEC
331
B73B
  5
BCA3
331
B760
  5
BD0A
331
BE34
  5
BE34
331
BE35
  5
BE35
331
BE36
  5
BE36
331
BE37
  5
BE37
331
BE38
  5
BE38
331
BE39
  5
BE39
331
BCB4
  5
BD20
331
BCB5
  5
BD21
331
BCB6
  5
BD18
331
BD66
  5
B770
331
BD67
  5
B771
331
BD68
  5
B773
331
BD69
  5
B75F
331
BD6A
  5
B760
331
BC57
  5
BD7F
331
B711
  5
B758
331
B753
  5
BCD6
331
B76A
  5
BD14
331
B76B
  5
BD15
331
BE40
  5
BE40
331
BE41
  5
BE41
331
BE42
  5
BE42
331
BE43
  5
BE43
331
BE44
  5
BE44
331
BE45
  5
BE45
331
BE46
  5
BE46
331
BC71
  5
BD65
331
BC72
  5
BD66
331
B76F
  5
BD1C
331
B773
  5
BD37
331
BCAE
  5
BD31
331
BCAF
  5
BD32
331
BCB0
  5
BD33
331
B715
  5
B774
331
BC69
  5
BD78
331
BC6A
  5
BD79
331
BD4D
  5
B78E
331
BD4E
  5
B794
331
BD4F
  5
B799
331
BD50
  5
B7C4
331
BD51
  5
BC57
331
BE11
  5
BE11
331
BE12
  5
BE12
331
BE13
  5
BE13
331
BE14
  5
BE14
331
BE15
  5
BE15
331
B74F
  5
BCD0
331
BD04
  5
BCAD
331
BD05
  5
BCAE
331
BD06
  5
BCAF
331
BD07
  5
BCB0
331
BC58
  5
BD80
331
BD6B
  5
B761
331
BD6C
  5
B762
331
BD6D
  5
B74F
331
BD6E
  5
B750
331
BD6F
  5
B751
331
BD70
  5
B756
331
B705
  5
B705
331
BCF1
  5
BCCB
331
BCF2
  5
BCC8
331
BCF3
  5
BCC9
331
BCF4
  5
BCC6
331
BCA6
  5
BD29
331
BCA7
  5
BD2A
331
BCA8
  5
BD2B
331
BCA1
  5
BD24
331
BCA2
  5
BD25
331
BCA3
  5
BD26
331
B768
  5
BD12
331
BD08
  5
BCB1
331
BD09
  5
BCB2
331
BD0A
  5
BCAB
331
BD0B
  5
BCAC
331
BC7B
  5
BD5A
331
BC9A
  5
BD39
331
BC9B
  5
BD38
331
BCFF
  5
BCB8
331
BD00
  5
BCB9
331
BD01
  5
BCBA
331
BD02
  5
BCB3
331
BD03
  5
BCB4
331
B765
  5
BD0F
331
B766
  5
BD10
331
B761
  5
BD0B
331
B762
  5
BD0C
331
B703
  5
B703
331
BC6F
  5
BD63
331
BC70
  5
BD64
331
B763
  5
BD0D
331
BC63
  5
BD72
331
BC64
  5
BD73
331
BC67
  5
BD76
331
BC68
  5
BD77
331
BE28
  5
BE28
331
BE29
  5
BE29
331
BE2A
  5
BE2A
331
BE2B
  5
BE2B
331
BE2C
  5
BE2C
331
BE2D
  5
BE2D
331
B742
  5
BCBC
331
B75F
  5
BD09
331
BCB7
  5
BD19
331
BCB8
  5
BD1A
331
BCB9
  5
BD1B
331
B7E3
  5
BCA4
331
BC75
  5
BD60
331
BC76
  5
BD61
331
BD35
  5
BC77
331
BD36
  5
BC78
331
BD37
  5
BC74
331
BD38
  5
BC75
331
B7E5
  5
BCA6
331
B7E6
  5
BCA7
331
BCD6
  5
BCE4
331
BCD7
  5
BCE5
331
BCD8
  5
BCE6
331
B7E4
  5
BCA5
331
BD61
  5
B76B
331
BD62
  5
B76C
331
BD63
  5
B76D
331
BD64
  5
B76E
331
BD65
  5
B76F
331
B76C
  5
BD16
331
BC5C
  5
BD7C
331
BC5D
  5
BD6C
331
BD39
  5
BC76
331
BD3A
  5
BC71
331
BD3B
  5
BC72
331
BD3C
  5
BC73
331
BD3D
  5
BC6A
331
B754
  5
BCD7
331
B755
  5
BCD8
331
B73A
  5
BCA2
331
B7E8
  5
BCA9
331
BD48
  5
BC69
331
BD49
  5
B775
331
BD4A
  5
B776
331
BD4B
  5
B778
331
BD4C
  5
B77C
331
BE0B
  5
BE0B
331
BE0C
  5
BE0C
331
BE0D
  5
BE0D
331
BE0E
  5
BE0E
331
BE0F
  5
BE0F
331
BE10
  5
BE10
331
BE05
  5
BE05
331
BE06
  5
BE06
331
BE07
  5
BE07
331
BE08
  5
BE08
331
BE09
  5
BE09
331
BE0A
  5
BE0A
331
BCAB
  5
BD2E
331
BCAC
  5
BD2F
331
BCAD
  5
BD30
331
BE3A
  5
BE3A
331
BE3B
  5
BE3B
331
BE3C
  5
BE3C
331
BE3D
  5
BE3D
331
BE3E
  5
BE3E
331
BE3F
  5
BE3F
331
BCDF
  5
BCED
331
BCE0
  5
BCEE
331
BCE1
  5
BCEF
331
BCE2
  5
BCDC
331
BC9C
  5
BD34
331
BC9D
  5
BD35
331
BC9E
  5
BD36
331
BCF5
  5
BCC7
331
BCFC
  5
BCB5
331
BCFD
  5
BCB6
331
BCFE
  5
BCB7
331
B764
  5
BD0E
331
B741
  5
BCBB
331
BCED
  5
BCD4
331
BCEE
  5
BCCC
331
BCEF
  5
BCCD
331
BCF0
  5
BCCA
331
B748
  5
BCC5
331
BCCA
  5
BD01
331
BCCB
  5
BD02
331
BCCC
  5
BD03
331
BE22
  5
BE22
331
BE23
  5
BE23
331
BE24
  5
BE24
331
BE25
  5
BE25
331
BE26
  5
BE26
331
BE27
  5
BE27
331
BCC7
  5
BCFE
331
BCC8
  5
BCFF
331
BCC9
  5
BD00
331
BC73
  5
BD67
331
BC74
  5
BD68
331
BD52
  5
BC58
331
BD53
  5
BC59
331
BD54
  5
BC5A
331
BD55
  5
BC5B
331
BD56
  5
BC5C
331
BC6B
  5
BD69
331
BC6C
  5
BD6A
331
B70C
  5
B712
331
BE1C
  5
BE1C
331
BE1D
  5
BE1D
331
BE1E
  5
BE1E
331
BE1F
  5
BE1F
331
BE20
  5
BE20
331
BE21
  5
BE21
331
BE16
  5
BE16
331
BE17
  5
BE17
331
BE18
  5
BE18
331
BE19
  5
BE19
331
BE1A
  5
BE1A
331
BE1B
  5
BE1B
331
B746
  5
BCC3
331
BC65
  5
BD74
331
BC66
  5
BD75
331
BC5E
  5
BD6D
331
B750
  5
BCD1
331
B752
  5
BCD5
331
BCB1
  5
BD1D
331
BCB2
  5
BD1E
331
BCB3
  5
BD1F
331
BD5C
  5
BC62
331
BD5D
  5
BC63
331
BD5E
  5
B768
331
BD5F
  5
B769
331
BD60
  5
B76A
331
B70D
  5
B715
331
B710
  5
B757
331
B767
  5
BD11
331
BD57
  5
BC5D
331
BD58
  5
BC5E
331
BD59
  5
BC5F
331
BD5A
  5
BC60
331
BD5B
  5
BC61
331
B74E
  5
BCCF
331
BC5F
  5
BD6E
331
BC60
  5
BD6F
331
BCE6
  5
BCE0
331
BCE7
  5
BCE1
331
BCE8
  5
BCD9
331
BCE9
  5
BCDA
331
BD7C
  5
B74B
331
BD7F
  5
B70C
331
BD80
  5
B70D
331
B76D
  5
BD17
331
BCBB
  5
BCF2
331
BCBC
  5
BCF3
331
BCBD
  5
BCF4
331
BCA9
  5
BD2C
331
BCAA
  5
BD2D
331
B717
  5
BC64
331
BE47
  5
BE47
331
BE48
  5
BE48
331
BE49
  5
BE49
331
BE4A
  5
BE4A
331
BE4B
  5
BE4B
331
BE4C
  5
BE4C
331
BC9F
  5
BD22
331
BCA0
  5
BD23
331
B785
  5
BD58
331
BCCD
  5
BD04
331
BCCE
  5
BD05
331
BCCF
  5
BD06
331
BCC4
  5
BCFB
331
BCC5
  5
BCFC
331
BCC6
  5
BCFD
331
BCC1
  5
BCF8
331
BCC2
  5
BCF9
331
BCC3
  5
BCFA
331
BCBE
  5
BCF5
331
BCBF
  5
BCF6
331
BCC0
  5
BCF7
331
BC6D
  5
BD6B
331
BC6E
  5
BD62
331
BCE3
  5
BCDD
331
BCE4
  5
BCDE
331
BCE5
  5
BCDF
331
B74D
  5
BCCE
331
BD43
  5
BC70
331
BD44
  5
BC65
331
BD45
  5
BC66
331
BD46
  5
BC67
331
BD47
  5
BC68
331
BC79
  5
BD5F
331
BC7A
  5
BD59
331
B712
  5
B759
331
B747
  5
BCC4
331
BC5B
  5
BD7B
331
BE04
  5
BE04
331
BC61
  5
BD70
331
BC62
  5
BD71
331
BE4E
  5
BE4E
331
BE4F
  5
BE4F
331
BE50
  5
BE50
331
B7E7
  5
BCA8
331
BD3E
  5
BC6B
331
BD3F
  5
BC6C
331
BD40
  5
BC6D
331
BD41
  5
BC6E
331
BD42
  5
BC6F
331
BCD9
  5
BCE7
331
BCDA
  5
BCE8
331
BCDB
  5
BCE9
331
BD0C
  5
BC9E
331
BD0D
  5
BC9F
331
BD0E
  5
BCA0
331
BD0F
  5
BCA1
331
BD76
  5
B73F
331
BD77
  5
B740
331
BD78
  5
B741
331
BD79
  5
B742
331
BD7A
  5
B745
331
BD7B
  5
B74A
331
BD71
  5
B717
331
BD72
  5
B73A
331
BD73
  5
B73B
331
BD74
  5
B73D
331
BD75
  5
B73E
331
BE2E
  5
BE2E
331
BE2F
  5
BE2F
331
BE30
  5
BE30
331
BE31
  5
BE31
331
BE32
  5
BE32
331
BE33
  5
BE33
331
B7EB
  5
BCAA
331
BCEA
  5
BCDB
331
BCEB
  5
BCD2
331
BCEC
  5
BCD3
331
BCD0
  5
BD07
331
BCD1
  5
BD08
331
BCD2
  5
BCF0
331
B787
  5
BD5B
331
B788
  5
BD5C
331
B78E
  5
BD7A
331
BC77
  5
BD5D
331
BC78
  5
BD5E
331
BCD3
  5
BCF1
331
BCD4
  5
BCE2
331
BCD5
  5
BCE3
331
BCA4
  5
BD27
331
BCA5
  5
BD28
331
BD10
  5
BC9C
331
BD11
  5
BC9D
331
BD32
  5
BC79
331
BD33
  5
BC7A
331
BD34
  5
BC7B
  0
SORTENTSTABLE
  5
BDFB
102
{ACAD_REACTORS
330
BD88
102
}
330
BD88
100
AcDbSortentsTable
330
BD87
  0
LAYOUT
  5
15D6
102
{ACAD_REACTORS
330
15D3
102
}
102
{ACAD_XDICTIONARY
360
BE5D
102
}
330
15D3
100
AcDbPlotSettings
  1

  2
HP LaserJet 2100
  4

  6

 40
0.0
 41
0.0
 42
0.0
 43
0.0
 44
0.0
 45
0.0
 46
0.0
 47
0.0
 48
0.0
 49
0.0
140
0.0
141
0.0
142
1.0
143
1.0
 70
   688
 72
     0
 73
     0
 74
     5
  7
monochrome.ctb
 75
    16
147
1.0
148
0.0
149
0.0
100
AcDbLayout
  1
Layout1
 70
     1
 71
     1
 10
0.0
 20
0.0
 11
12.0
 21
9.0
 12
0.0
 22
0.0
 32
0.0
 14
1.000000000000000E+20
 24
1.000000000000000E+20
 34
1.000000000000000E+20
 15
-1.000000000000000E+20
 25
-1.000000000000000E+20
 35
-1.000000000000000E+20
146
0.0
 13
0.0
 23
0.0
 33
0.0
 16
1.0
 26
0.0
 36
0.0
 17
0.0
 27
1.0
 37
0.0
 76
     0
330
17
  0
LAYOUT
  5
15D5
102
{ACAD_REACTORS
330
15D3
102
}
102
{ACAD_XDICTIONARY
360
BE5F
102
}
330
15D3
100
AcDbPlotSettings
  1

  2
HP LaserJet 2100 Series PS
  4
Letter
  6

 40
5.365749835968018
 41
5.408073902130127
 42
5.132904052734375
 43
5.090576171875
 44
215.8999938964844
 45
279.3999938964844
 46
0.0
 47
0.0
 48
-0.1845787191096751
 49
-0.1871044975987655
140
8.315421280890325
141
10.81289550240124
142
1.0
143
1.051274540707238
 70
 28336
 72
     0
 73
     0
 74
     1
  7
monochrome.ctb
 75
     0
147
0.951226307951162
148
4.698742372472428
149
4.763695017022238
100
AcDbLayout
  1
Model
 70
     1
 71
     0
 10
0.0
 20
0.0
 11
12.0
 21
9.0
 12
0.0
 22
0.0
 32
0.0
 14
0.0
 24
0.0
 34
0.0
 15
0.0
 25
0.0
 35
0.0
146
0.0
 13
0.0
 23
0.0
 33
0.0
 16
1.0
 26
0.0
 36
0.0
 17
0.0
 27
1.0
 37
0.0
 76
     0
330
1A
1001
ACAD_PSEXT
1000
HP LaserJet 2100 Series PS
1000
HP LaserJet 2100 Series PS
1000
LPT1:
1000

1070
     0
  0
MLINESTYLE
  5
13
102
{ACAD_REACTORS
330
E
102
}
330
E
100
AcDbMlineStyle
  2
STANDARD
 70
     0
  3

 62
     0
 51
90.0
 52
90.0
 71
     2
 49
0.5
 62
   256
  6
BYLAYER
 49
-0.5
 62
   256
  6
BYLAYER
  0
ACDBPLACEHOLDER
  5
15D2
102
{ACAD_REACTORS
330
15D1
102
}
330
15D1
  0
ACAD_PROXY_OBJECT
  5
95B5
102
{ACAD_REACTORS
330
95B4
102
}
330
95B4
100
AcDbProxyObject
 90
      499
 91
      580
 95
   983063
 70
     0
 93
     1841
310
4214DD185B99185C9928B81E85EB51B8AE3F2E07A17AD46E2B8FC02B5E8DC0F42B1CFD028000000C1008070000C3001FDFF8000000C1003FBFF000000182007F7FE00000030400FEFFC00000060801FDFF8000000C1003FBFF00000018200000000000000681FA0B0000001820100E000186003FBFF000000182007F7FE000
310
00030400FEFFC00000060801FDFF8000000C1003FBFF000000182007F7FE000000304000AD7A3703D0AC73F4160000003040201C00030C007F7FE00000030400FEFFC00000060801FDFF8000000C1003FBFF000000182007F7FE00000030400FEFFC000000608000
340
10
340
10
340
10
 94
        0
  0
XRECORD
  5
BE5B
102
{ACAD_REACTORS
330
BE5A
102
}
330
BE5A
100
AcDbXrecord
340
95B3
  0
XRECORD
  5
BE5C
102
{ACAD_REACTORS
330
BE5A
102
}
330
BE5A
100
AcDbXrecord
340
95B2
  0
DICTIONARYVAR
  5
95CE
102
{ACAD_REACTORS
330
95CD
102
}
330
95CD
100
DictionaryVariables
280
     0
  1
STANDARD
  0
XRECORD
  5
BC45
102
{ACAD_REACTORS
330
BC43
102
}
330
BC43
100
AcDbXrecord
280
     1
330
0
330
0
330
0
330
0
330
0
330
0
330
0
330
0
330
0
330
0
330
0
330
0
330
0
330
0
330
0
330
0
330
0
330
0
330
0
330
0
330
0
330
0
330
0
330
0
330
0
330
0
330
0
330
0
330
0
330
0
330
0
330
0
330
0
330
0
330
0
330
0
330
0
330
0
330
0
330
0
330
0
330
0
330
0
330
0
330
0
330
0
330
0
330
0
330
0
330
0
330
0
330
0
330
0
330
0
330
0
330
0
330
0
330
0
330
0
330
0
330
0
330
0
330
0
330
0
330
0
330
0
330
0
330
0
330
0
330
0
330
0
330
0
330
0
330
0
330
0
330
0
330
0
330
0
330
0
330
0
330
0
330
0
330
0
330
0
330
0
330
0
330
0
330
0
330
0
330
0
330
0
330
0
330
0
330
0
330
0
330
0
330
0
330
0
330
0
330
0
330
0
330
0
330
0
330
0
330
0
330
0
330
0
330
0
330
0
  0
DICTIONARY
  5
BE5D
330
15D6
100
AcDbDictionary
280
     1
281
     1
  3
ACAD_XREC_ROUNDTRIP
360
BE5E
  0
DICTIONARY
  5
BE5F
330
15D5
100
AcDbDictionary
280
     1
281
     1
  3
ACAD_XREC_ROUNDTRIP
360
BE60
  0
XRECORD
  5
BE5E
102
{ACAD_REACTORS
330
BE5D
102
}
330
BE5D
100
AcDbXrecord
102
SHADEPLOT
 70
     0
102
SHADEPLOTRESLEVEL
 70
     2
102
SHADEPLOTCUSTOMDPI
 70
   300
  0
XRECORD
  5
BE60
102
{ACAD_REACTORS
330
BE5F
102
}
330
BE5F
100
AcDbXrecord
102
SHADEPLOT
 70
     0
102
SHADEPLOTRESLEVEL
 70
     2
102
SHADEPLOTCUSTOMDPI
 70
   300
  0
ENDSEC
  0
EOF
