  0
SECTION
  2
HEADER
  9
$ACADVER
  1
AC1015
  9
$ACADMAINTVER
 70
     6
  9
$DWGCODEPAGE
  3
ANSI_1252
  9
$INSBASE
 10
0.0
 20
0.0
 30
0.0
  9
$EXTMIN
 10
-0.0412307020856001
 20
-0.8161143408999017
 30
0.0
  9
$EXTMAX
 10
2.843459216217748
 20
4.135931476430318
 30
0.0
  9
$LIMMIN
 10
0.0
 20
0.0
  9
$LIMMAX
 10
12.0
 20
9.0
  9
$ORTHOMODE
 70
     0
  9
$REGENMODE
 70
     1
  9
$FILLMODE
 70
     1
  9
$QTEXTMODE
 70
     0
  9
$MIRRTEXT
 70
     1
  9
$LTSCALE
 40
1.0
  9
$ATTMODE
 70
     1
  9
$TEXTSIZE
 40
0.2
  9
$TRACEWID
 40
0.05
  9
$TEXTSTYLE
  7
Standard
  9
$CLAYER
  8
0
  9
$CELTYPE
  6
ByLayer
  9
$CECOLOR
 62
   256
  9
$CELTSCALE
 40
1.0
  9
$DISPSILH
 70
     0
  9
$DIMSCALE
 40
1.0
  9
$DIMASZ
 40
0.18
  9
$DIMEXO
 40
0.0625
  9
$DIMDLI
 40
0.38
  9
$DIMRND
 40
0.0
  9
$DIMDLE
 40
0.0
  9
$DIMEXE
 40
0.18
  9
$DIMTP
 40
0.0
  9
$DIMTM
 40
0.0
  9
$DIMTXT
 40
0.18
  9
$DIMCEN
 40
0.09
  9
$DIMTSZ
 40
0.0
  9
$DIMTOL
 70
     0
  9
$DIMLIM
 70
     0
  9
$DIMTIH
 70
     1
  9
$DIMTOH
 70
     1
  9
$DIMSE1
 70
     0
  9
$DIMSE2
 70
     0
  9
$DIMTAD
 70
     0
  9
$DIMZIN
 70
     0
  9
$DIMBLK
  1

  9
$DIMASO
 70
     1
  9
$DIMSHO
 70
     1
  9
$DIMPOST
  1

  9
$DIMAPOST
  1

  9
$DIMALT
 70
     0
  9
$DIMALTD
 70
     2
  9
$DIMALTF
 40
25.4
  9
$DIMLFAC
 40
1.0
  9
$DIMTOFL
 70
     0
  9
$DIMTVP
 40
0.0
  9
$DIMTIX
 70
     0
  9
$DIMSOXD
 70
     0
  9
$DIMSAH
 70
     0
  9
$DIMBLK1
  1

  9
$DIMBLK2
  1

  9
$DIMSTYLE
  2
Standard
  9
$DIMCLRD
 70
     0
  9
$DIMCLRE
 70
     0
  9
$DIMCLRT
 70
     0
  9
$DIMTFAC
 40
1.0
  9
$DIMGAP
 40
0.09
  9
$DIMJUST
 70
     0
  9
$DIMSD1
 70
     0
  9
$DIMSD2
 70
     0
  9
$DIMTOLJ
 70
     1
  9
$DIMTZIN
 70
     0
  9
$DIMALTZ
 70
     0
  9
$DIMALTTZ
 70
     0
  9
$DIMUPT
 70
     0
  9
$DIMDEC
 70
     4
  9
$DIMTDEC
 70
     4
  9
$DIMALTU
 70
     2
  9
$DIMALTTD
 70
     2
  9
$DIMTXSTY
  7
Standard
  9
$DIMAUNIT
 70
     0
  9
$DIMADEC
 70
     0
  9
$DIMALTRND
 40
0.0
  9
$DIMAZIN
 70
     0
  9
$DIMDSEP
 70
    46
  9
$DIMATFIT
 70
     3
  9
$DIMFRAC
 70
     0
  9
$DIMLDRBLK
  1

  9
$DIMLUNIT
 70
     2
  9
$DIMLWD
 70
    -2
  9
$DIMLWE
 70
    -2
  9
$DIMTMOVE
 70
     0
  9
$LUNITS
 70
     2
  9
$LUPREC
 70
     4
  9
$SKETCHINC
 40
0.1
  9
$FILLETRAD
 40
0.5
  9
$AUNITS
 70
     0
  9
$AUPREC
 70
     0
  9
$MENU
  1
.
  9
$ELEVATION
 40
0.0
  9
$PELEVATION
 40
0.0
  9
$THICKNESS
 40
0.0
  9
$LIMCHECK
 70
     0
  9
$CHAMFERA
 40
0.5
  9
$CHAMFERB
 40
0.5
  9
$CHAMFERC
 40
1.0
  9
$CHAMFERD
 40
0.0
  9
$SKPOLY
 70
     0
  9
$TDCREATE
 40
2454903.928666146
  9
$TDUCREATE
 40
2454904.261999479
  9
$TDUPDATE
 40
2454907.65365853
  9
$TDUUPDATE
 40
2454907.986991863
  9
$TDINDWG
 40
0.0006243403
  9
$TDUSRTIMER
 40
0.0006243403
  9
$USRTIMER
 70
     1
  9
$ANGBASE
 50
0.0
  9
$ANGDIR
 70
     0
  9
$PDMODE
 70
     0
  9
$PDSIZE
 40
0.0
  9
$PLINEWID
 40
0.0
  9
$SPLFRAME
 70
     0
  9
$SPLINETYPE
 70
     6
  9
$SPLINESEGS
 70
     8
  9
$HANDSEED
  5
F1
  9
$SURFTAB1
 70
     6
  9
$SURFTAB2
 70
     6
  9
$SURFTYPE
 70
     6
  9
$SURFU
 70
     6
  9
$SURFV
 70
     6
  9
$UCSBASE
  2

  9
$UCSNAME
  2

  9
$UCSORG
 10
0.0
 20
0.0
 30
0.0
  9
$UCSXDIR
 10
1.0
 20
0.0
 30
0.0
  9
$UCSYDIR
 10
0.0
 20
1.0
 30
0.0
  9
$UCSORTHOREF
  2

  9
$UCSORTHOVIEW
 70
     0
  9
$UCSORGTOP
 10
0.0
 20
0.0
 30
0.0
  9
$UCSORGBOTTOM
 10
0.0
 20
0.0
 30
0.0
  9
$UCSORGLEFT
 10
0.0
 20
0.0
 30
0.0
  9
$UCSORGRIGHT
 10
0.0
 20
0.0
 30
0.0
  9
$UCSORGFRONT
 10
0.0
 20
0.0
 30
0.0
  9
$UCSORGBACK
 10
0.0
 20
0.0
 30
0.0
  9
$PUCSBASE
  2

  9
$PUCSNAME
  2

  9
$PUCSORG
 10
0.0
 20
0.0
 30
0.0
  9
$PUCSXDIR
 10
1.0
 20
0.0
 30
0.0
  9
$PUCSYDIR
 10
0.0
 20
1.0
 30
0.0
  9
$PUCSORTHOREF
  2

  9
$PUCSORTHOVIEW
 70
     0
  9
$PUCSORGTOP
 10
0.0
 20
0.0
 30
0.0
  9
$PUCSORGBOTTOM
 10
0.0
 20
0.0
 30
0.0
  9
$PUCSORGLEFT
 10
0.0
 20
0.0
 30
0.0
  9
$PUCSORGRIGHT
 10
0.0
 20
0.0
 30
0.0
  9
$PUCSORGFRONT
 10
0.0
 20
0.0
 30
0.0
  9
$PUCSORGBACK
 10
0.0
 20
0.0
 30
0.0
  9
$USERI1
 70
     0
  9
$USERI2
 70
     0
  9
$USERI3
 70
     0
  9
$USERI4
 70
     0
  9
$USERI5
 70
     0
  9
$USERR1
 40
0.0
  9
$USERR2
 40
0.0
  9
$USERR3
 40
0.0
  9
$USERR4
 40
0.0
  9
$USERR5
 40
0.0
  9
$WORLDVIEW
 70
     1
  9
$SHADEDGE
 70
     3
  9
$SHADEDIF
 70
    70
  9
$TILEMODE
 70
     1
  9
$MAXACTVP
 70
    64
  9
$PINSBASE
 10
0.0
 20
0.0
 30
0.0
  9
$PLIMCHECK
 70
     0
  9
$PEXTMIN
 10
1.000000000000000E+20
 20
1.000000000000000E+20
 30
1.000000000000000E+20
  9
$PEXTMAX
 10
-1.000000000000000E+20
 20
-1.000000000000000E+20
 30
-1.000000000000000E+20
  9
$PLIMMIN
 10
0.0
 20
0.0
  9
$PLIMMAX
 10
12.0
 20
9.0
  9
$UNITMODE
 70
     0
  9
$VISRETAIN
 70
     1
  9
$PLINEGEN
 70
     0
  9
$PSLTSCALE
 70
     1
  9
$TREEDEPTH
 70
  3020
  9
$CMLSTYLE
  2
Standard
  9
$CMLJUST
 70
     0
  9
$CMLSCALE
 40
1.0
  9
$PROXYGRAPHICS
 70
     1
  9
$MEASUREMENT
 70
     0
  9
$CELWEIGHT
370
    -1
  9
$ENDCAPS
280
     0
  9
$JOINSTYLE
280
     0
  9
$LWDISPLAY
290
     1
  9
$INSUNITS
 70
     1
  9
$HYPERLINKBASE
  1

  9
$STYLESHEET
  1

  9
$XEDIT
290
     1
  9
$CEPSNTYPE
380
     0
  9
$PSTYLEMODE
290
     1
  9
$FINGERPRINTGUID
  2
{1618AE52-EB9D-41ED-B367-800A65307FEE}
  9
$VERSIONGUID
  2
{A101330D-A2A5-417F-B248-EC31F009CED6}
  9
$EXTNAMES
290
     1
  9
$PSVPSCALE
 40
0.0
  9
$OLESTARTUP
290
     0
  0
ENDSEC
  0
SECTION
  2
CLASSES
  0
CLASS
  1
ACDBDICTIONARYWDFLT
  2
AcDbDictionaryWithDefault
  3
AutoCAD 2000
 90
        0
280
     0
281
     0
  0
CLASS
  1
VISUALSTYLE
  2
AcDbVisualStyle
  3
ObjectDBX Classes
 90
     4095
280
     1
281
     0
  0
CLASS
  1
ACDBPLACEHOLDER
  2
AcDbPlaceHolder
  3
ObjectDBX Classes
 90
        0
280
     0
281
     0
  0
CLASS
  1
LAYOUT
  2
AcDbLayout
  3
ObjectDBX Classes
 90
        0
280
     0
281
     0
  0
CLASS
  1
TABLESTYLE
  2
AcDbTableStyle
  3
ObjectDBX Classes
 90
     2047
280
     1
281
     0
  0
CLASS
  1
DICTIONARYVAR
  2
AcDbDictionaryVar
  3
AutoCAD 2000
 90
        0
280
     0
281
     0
  0
CLASS
  1
SORTENTSTABLE
  2
AcDbSortentsTable
  3
AutoCAD 2000
 90
        0
280
     0
281
     0
  0
ENDSEC
  0
SECTION
  2
TABLES
  0
TABLE
  2
VPORT
  5
8
330
0
100
AcDbSymbolTable
 70
     2
  0
VPORT
  5
DF
330
8
100
AcDbSymbolTableRecord
100
AcDbViewportTableRecord
  2
*Active
 70
     0
 10
0.0
 20
0.0
 11
1.0
 21
1.0
 12
1.216146590334846
 22
5.107628467650347
 13
0.0
 23
0.0
 14
0.5
 24
0.5
 15
0.5
 25
0.5
 16
0.0
 26
0.0
 36
1.0
 17
1.400472928742426
 27
-2.548612791779658
 37
0.0
 40
9.916814570407304
 41
1.703065134099617
 42
50.0
 43
0.0
 44
0.0
 50
0.0
 51
0.0
 71
     0
 72
   100
 73
     1
 74
     3
 75
     0
 76
     0
 77
     0
 78
     0
281
     0
 65
     1
110
0.0
120
0.0
130
0.0
111
1.0
121
0.0
131
0.0
112
0.0
122
1.0
132
0.0
 79
     0
146
0.0
  0
ENDTAB
  0
TABLE
  2
LTYPE
  5
5
330
0
100
AcDbSymbolTable
 70
     1
  0
LTYPE
  5
14
330
5
100
AcDbSymbolTableRecord
100
AcDbLinetypeTableRecord
  2
ByBlock
 70
     0
  3

 72
    65
 73
     0
 40
0.0
  0
LTYPE
  5
15
330
5
100
AcDbSymbolTableRecord
100
AcDbLinetypeTableRecord
  2
ByLayer
 70
     0
  3

 72
    65
 73
     0
 40
0.0
  0
LTYPE
  5
16
330
5
100
AcDbSymbolTableRecord
100
AcDbLinetypeTableRecord
  2
Continuous
 70
     0
  3
Solid line
 72
    65
 73
     0
 40
0.0
  0
ENDTAB
  0
TABLE
  2
LAYER
  5
2
102
{ACAD_XDICTIONARY
360
CE
102
}
330
0
100
AcDbSymbolTable
 70
     2
  0
LAYER
  5
10
330
2
100
AcDbSymbolTableRecord
100
AcDbLayerTableRecord
  2
0
 70
     0
 62
     7
  6
Continuous
370
    -3
390
F
  0
LAYER
  5
CB
330
2
100
AcDbSymbolTableRecord
100
AcDbLayerTableRecord
  2
NOTE
 70
     0
 62
     7
  6
Continuous
370
    -3
390
F
  0
ENDTAB
  0
TABLE
  2
STYLE
  5
3
330
0
100
AcDbSymbolTable
 70
     2
  0
STYLE
  5
11
330
3
100
AcDbSymbolTableRecord
100
AcDbTextStyleTableRecord
  2
Standard
 70
     0
 40
0.0
 41
1.0
 50
0.0
 71
     0
 42
0.2
  3
txt
  4

  0
STYLE
  5
CC
330
3
100
AcDbSymbolTableRecord
100
AcDbTextStyleTableRecord
  2
HELVETICA
 70
     0
 40
0.0
 41
1.0
 50
0.0
 71
     0
 42
0.09
  3
G:\ACADWIN\FONTS\SIMPLEX.SHX
  4

  0
ENDTAB
  0
TABLE
  2
VIEW
  5
6
330
0
100
AcDbSymbolTable
 70
     0
  0
ENDTAB
  0
TABLE
  2
UCS
  5
7
330
0
100
AcDbSymbolTable
 70
     0
  0
ENDTAB
  0
TABLE
  2
APPID
  5
9
330
0
100
AcDbSymbolTable
 70
     3
  0
APPID
  5
12
330
9
100
AcDbSymbolTableRecord
100
AcDbRegAppTableRecord
  2
ACAD
 70
     0
  0
APPID
  5
A4
330
9
100
AcDbSymbolTableRecord
100
AcDbRegAppTableRecord
  2
DCO15
 70
     0
  0
APPID
  5
CD
330
9
100
AcDbSymbolTableRecord
100
AcDbRegAppTableRecord
  2
ACAD_PSEXT
 70
     0
  0
ENDTAB
  0
TABLE
  2
DIMSTYLE
  5
A
330
0
100
AcDbSymbolTable
 70
     1
100
AcDbDimStyleTable
  0
DIMSTYLE
105
27
330
A
100
AcDbSymbolTableRecord
100
AcDbDimStyleTableRecord
  2
Standard
 70
     0
  3

  4

340
11
  0
ENDTAB
  0
TABLE
  2
BLOCK_RECORD
  5
1
330
0
100
AcDbSymbolTable
 70
     3
  0
BLOCK_RECORD
  5
1F
330
1
100
AcDbSymbolTableRecord
100
AcDbBlockTableRecord
  2
*Model_Space
340
22
  0
BLOCK_RECORD
  5
1B
330
1
100
AcDbSymbolTableRecord
100
AcDbBlockTableRecord
  2
*Paper_Space
340
1E
  0
BLOCK_RECORD
  5
23
330
1
100
AcDbSymbolTableRecord
100
AcDbBlockTableRecord
  2
*Paper_Space0
340
26
  0
BLOCK_RECORD
  5
C1
102
{ACAD_XDICTIONARY
360
C2
102
}
330
1
100
AcDbSymbolTableRecord
100
AcDbBlockTableRecord
  2
sstmodel
340
0
102
{BLKREFS
331
DB
102
}
  0
ENDTAB
  0
ENDSEC
  0
SECTION
  2
BLOCKS
  0
BLOCK
  5
20
330
1F
100
AcDbEntity
  8
0
100
AcDbBlockBegin
  2
*Model_Space
 70
     0
 10
0.0
 20
0.0
 30
0.0
  3
*Model_Space
  1

  4

  0
ENDBLK
  5
21
330
1F
100
AcDbEntity
  8
0
100
AcDbBlockEnd
  0
BLOCK
  5
1C
330
1B
100
AcDbEntity
 67
     1
  8
0
100
AcDbBlockBegin
  2
*Paper_Space
 70
     0
 10
0.0
 20
0.0
 30
0.0
  3
*Paper_Space
  1

  4

  0
ENDBLK
  5
1D
330
1B
100
AcDbEntity
 67
     1
  8
0
100
AcDbBlockEnd
  0
BLOCK
  5
24
330
23
100
AcDbEntity
  8
0
100
AcDbBlockBegin
  2
*Paper_Space0
 70
     0
 10
0.0
 20
0.0
 30
0.0
  3
*Paper_Space0
  1

  4

  0
ENDBLK
  5
25
330
23
100
AcDbEntity
  8
0
100
AcDbBlockEnd
  0
BLOCK
  5
C4
330
C1
100
AcDbEntity
  8
0
100
AcDbBlockBegin
  2
sstmodel
 70
     2
 10
0.0
 20
0.0
 30
0.0
  3
sstmodel
  1

  4

  0
ATTDEF
  5
C5
330
C1
100
AcDbEntity
  8
NOTE
100
AcDbText
 10
-0.017158740347781
 20
-0.047694410726082
 30
0.0
 40
0.09
  1

  7
HELVETICA
 72
     1
 11
-0.017158740347781
 21
-0.047694410726082
 31
0.0
100
AcDbAttributeDefinition
  3
Enter Model No.
  2
MODEL
 70
     0
  0
ATTDEF
  5
C6
330
C1
100
AcDbEntity
  8
NOTE
100
AcDbText
 10
-0.0004587403477809
 20
-0.2007844647268215
 30
0.0
 40
0.09
  1

  7
HELVETICA
 72
     1
 11
-0.0004587403477809
 21
-0.2007844647268215
 31
0.0
100
AcDbAttributeDefinition
  3
Enter Code No. or Patent
  2
APPROVAL
 70
     4
  0
TEXT
  5
C7
330
C1
100
AcDbEntity
  8
0
100
AcDbText
 10
-0.6953396409425234
 20
0.107302245609844
 30
0.0
 40
0.09
  1
SIMPSON Strong-Tie
  7
HELVETICA
 72
     1
 11
-0.0010539266568089
 21
0.107302245609844
 31
0.0
100
AcDbText
  0
TEXT
  5
C8
330
C1
100
AcDbEntity
  8
NOTE
100
AcDbText
 10
0.7437759301119596
 20
0.1498088353144997
 30
0.0
 40
0.05184
  1
R
  7
HELVETICA
100
AcDbText
  0
CIRCLE
  5
C9
330
C1
100
AcDbEntity
  8
NOTE
100
AcDbCircle
 10
0.759641433609472
 20
0.175605771415941
 30
0.0
 40
0.0337881099853014
  0
ENDBLK
  5
CA
330
C1
100
AcDbEntity
  8
0
100
AcDbBlockEnd
  0
ENDSEC
  0
SECTION
  2
ENTITIES
  0
SPLINE
  5
3D
330
1F
100
AcDbEntity
  8
0
100
AcDbSpline
210
0.0
220
0.0
230
1.0
 70
    11
 71
     3
 72
   131
 73
   127
 74
     0
 42
0.0000000001
 43
0.0000000001
 40
0.0
 40
0.0
 40
0.0
 40
0.0
 40
1.0
 40
1.0
 40
1.0
 40
2.0
 40
2.0
 40
2.0
 40
3.0
 40
3.0
 40
3.0
 40
4.0
 40
4.0
 40
4.0
 40
5.0
 40
5.0
 40
5.0
 40
6.0
 40
6.0
 40
6.0
 40
7.0
 40
7.0
 40
7.0
 40
8.0
 40
8.0
 40
8.0
 40
9.0
 40
9.0
 40
9.0
 40
10.0
 40
10.0
 40
10.0
 40
11.0
 40
11.0
 40
11.0
 40
12.0
 40
12.0
 40
12.0
 40
13.0
 40
13.0
 40
13.0
 40
14.0
 40
14.0
 40
14.0
 40
15.0
 40
15.0
 40
15.0
 40
16.0
 40
16.0
 40
16.0
 40
17.0
 40
17.0
 40
17.0
 40
18.0
 40
18.0
 40
18.0
 40
19.0
 40
19.0
 40
19.0
 40
20.0
 40
20.0
 40
20.0
 40
21.0
 40
21.0
 40
21.0
 40
22.0
 40
22.0
 40
22.0
 40
23.0
 40
23.0
 40
23.0
 40
24.0
 40
24.0
 40
24.0
 40
25.0
 40
25.0
 40
25.0
 40
26.0
 40
26.0
 40
26.0
 40
27.0
 40
27.0
 40
27.0
 40
28.0
 40
28.0
 40
28.0
 40
29.0
 40
29.0
 40
29.0
 40
30.0
 40
30.0
 40
30.0
 40
31.0
 40
31.0
 40
31.0
 40
32.0
 40
32.0
 40
32.0
 40
33.0
 40
33.0
 40
33.0
 40
34.0
 40
34.0
 40
34.0
 40
35.0
 40
35.0
 40
35.0
 40
36.0
 40
36.0
 40
36.0
 40
37.0
 40
37.0
 40
37.0
 40
38.0
 40
38.0
 40
38.0
 40
39.0
 40
39.0
 40
39.0
 40
40.0
 40
40.0
 40
40.0
 40
41.0
 40
41.0
 40
41.0
 40
42.0
 40
42.0
 40
42.0
 40
42.0
 10
1.080623471057346
 20
3.839289850298075
 30
0.0
 10
1.080623471057346
 20
3.839289850298075
 30
0.0
 10
1.256947372055385
 20
3.973546937531082
 30
0.0
 10
1.256947372055385
 20
3.973546937531082
 30
0.0
 10
1.256947372055385
 20
3.973546937531082
 30
0.0
 10
1.30412079726086
 20
3.996699622069824
 30
0.0
 10
1.30412079726086
 20
3.996699622069824
 30
0.0
 10
1.30412079726086
 20
3.996699622069824
 30
0.0
 10
1.773115247161645
 20
3.723546772669862
 30
0.0
 10
1.773115247161645
 20
3.723546772669862
 30
0.0
 10
1.773115247161645
 20
3.723546772669862
 30
0.0
 10
2.035024057028732
 20
3.269845030336407
 30
0.0
 10
2.035024057028732
 20
3.269845030336407
 30
0.0
 10
2.035024057028732
 20
3.269845030336407
 30
0.0
 10
2.035024057028732
 20
1.571988279183789
 30
0.0
 10
2.035024057028732
 20
1.571988279183789
 30
0.0
 10
2.035024057028732
 20
1.571988279183789
 30
0.0
 10
2.052642883751536
 20
1.493252875699664
 30
0.0
 10
2.053551630010526
 20
1.44234952181923
 30
0.0
 10
2.054704517055513
 20
1.377543706513951
 30
0.0
 10
1.988732251328247
 20
1.346293685906298
 30
0.0
 10
1.970218241723453
 20
1.2742314639061
 30
0.0
 10
1.955651174825615
 20
1.217509421292731
 30
0.0
 10
1.613732004036417
 20
0.0025427997772418
 30
0.0
 10
1.613732004036417
 20
0.0025427997772418
 30
0.0
 10
1.613732004036417
 20
0.0025427997772418
 30
0.0
 10
1.613732004036417
 20
-0.0425961188782562
 30
0.0
 10
1.603315330500533
 20
-0.0703739149739473
 30
0.0
 10
1.592898656964649
 20
-0.0981517110696384
 30
0.0
 10
1.558176411845035
 20
-0.1432906297251364
 30
0.0
 10
1.533870840261305
 20
-0.1675962013088661
 30
0.0
 10
1.509565268677576
 20
-0.1919017728925958
 30
0.0
 10
1.502620819653653
 20
-0.1953739974045572
 30
0.0
 10
1.481787472581885
 20
-0.2127351199643641
 30
0.0
 10
1.460954125510116
 20
-0.2300962425241711
 30
0.0
 10
1.429704104902464
 20
-0.2405129160600552
 30
0.0
 10
1.429704104902464
 20
-0.2405129160600552
 30
0.0
 10
1.429704104902464
 20
-0.2405129160600552
 30
0.0
 10
1.190120613577128
 20
-0.5321797750648116
 30
0.0
 10
1.162342817481437
 20
-0.5599575711605027
 30
0.0
 10
1.134565021385746
 20
-0.5877353672561938
 30
0.0
 10
1.099842776266132
 20
-0.5877353672561938
 30
0.0
 10
1.099842776266132
 20
-0.5877353672561938
 30
0.0
 10
1.099842776266132
 20
-0.5877353672561938
 30
0.0
 10
1.026926061514943
 20
-0.7300965722466106
 30
0.0
 10
1.006092714443174
 20
-0.7474576948064176
 30
0.0
 10
0.985259367371406
 20
-0.7648188173662245
 30
0.0
 10
0.9420464482498866
 20
-0.7733094913681304
 30
0.0
 10
0.9246853256900797
 20
-0.7802539403920532
 30
0.0
 10
0.9073242031302727
 20
-0.787198389415976
 30
0.0
 10
0.8810926320125644
 20
-0.8085742715677382
 30
0.0
 10
0.8810926320125644
 20
-0.8085742715677382
 30
0.0
 10
0.8810926320125644
 20
-0.8085742715677382
 30
0.0
 10
0.0229377692321077
 20
-0.4047925382822282
 30
0.0
 10
0.0229377692321077
 20
-0.4047925382822282
 30
0.0
 10
0.0229377692321077
 20
-0.4047925382822282
 30
0.0
 10
0.0229377692321077
 20
-0.3689852230026265
 30
0.0
 10
0.0229377692321077
 20
-0.3689852230026265
 30
0.0
 10
0.0229377692321077
 20
-0.3689852230026265
 30
0.0
 10
-0.0227165577493846
 20
-0.3298684437350614
 30
0.0
 10
-0.0227165577493846
 20
-0.2257017083762198
 30
0.0
 10
-0.0227165577493846
 20
-0.2257017083762198
 30
0.0
 10
-0.0227165577493846
 20
-0.1317210691442652
 30
0.0
 10
-0.0227165577493846
 20
-0.1317210691442652
 30
0.0
 10
-0.0227165577493846
 20
-0.1317210691442652
 30
0.0
 10
-0.0412441307311786
 20
-0.1224572826533681
 30
0.0
 10
-0.0412441307311786
 20
-0.1224572826533681
 30
0.0
 10
-0.0412441307311786
 20
-0.1224572826533681
 30
0.0
 10
0.0581754226777158
 20
1.974759540882809
 30
0.0
 10
0.0628140976116642
 20
2.062724822415331
 30
0.0
 10
0.0674256457916129
 20
2.150690103947853
 30
0.0
 10
0.0674256457916129
 20
2.150683322259353
 30
0.0
 10
0.0813145438394585
 20
2.201613802893787
 30
0.0
 10
0.095203441887304
 20
2.25254428352822
 30
0.0
 10
0.1044807917552009
 20
2.303467982474154
 30
0.0
 10
0.0998421168212524
 20
2.359023574665536
 30
0.0
 10
0.095203441887304
 20
2.414579166856918
 30
0.0
 10
0.0952170052643039
 20
3.853687374983415
 30
0.0
 10
0.0952170052643039
 20
3.853687374983415
 30
0.0
 10
0.0952170052643039
 20
3.853687374983415
 30
0.0
 10
0.3289275543487049
 20
4.075909743748944
 30
0.0
 10
0.3289275543487049
 20
4.075909743748944
 30
0.0
 10
0.3289275543487049
 20
4.075909743748944
 30
0.0
 10
0.3714216144892323
 20
4.099055646599186
 30
0.0
 10
0.3714216144892323
 20
4.099055646599186
 30
0.0
 10
0.3714216144892323
 20
4.099055646599186
 30
0.0
 10
0.8340005870690882
 20
4.137087355706763
 30
0.0
 10
0.8340005870690882
 20
4.137087355706763
 30
0.0
 10
0.8340005870690882
 20
4.137087355706763
 30
0.0
 10
1.01911355636303
 20
3.877830186043146
 30
0.0
 10
1.01911355636303
 20
3.877830186043146
 30
0.0
 10
1.01911355636303
 20
3.877830186043146
 30
0.0
 10
1.018910105708032
 20
2.298890342736705
 30
0.0
 10
1.02269428789099
 20
2.234023492234926
 30
0.0
 10
1.026193639156951
 20
2.174025894076094
 30
0.0
 10
1.013430501400093
 20
2.118280414606713
 30
0.0
 10
1.013430501400093
 20
2.118280414606713
 30
0.0
 10
1.013430501400093
 20
2.118280414606713
 30
0.0
 10
0.7098956875204682
 20
0.4405720599873706
 30
0.0
 10
0.7098956875204682
 20
0.4405720599873706
 30
0.0
 10
0.7098956875204682
 20
0.4405720599873706
 30
0.0
 10
0.678537159896817
 20
0.4192097412126081
 30
0.0
 10
0.678537159896817
 20
0.4192097412126081
 30
0.0
 10
0.678537159896817
 20
0.4192097412126081
 30
0.0
 10
0.6415091406872288
 20
0.4145710662786595
 30
0.0
 10
0.6368704657532803
 20
0.3682792605781744
 30
0.0
 10
0.6322589175733316
 20
0.3219874548776893
 30
0.0
 10
0.6276202426393832
 20
0.25716807619541
 30
0.0
 10
0.6507593638011259
 20
0.2432791781475645
 30
0.0
 10
0.6739256117168683
 20
0.229390280099719
 30
0.0
 10
0.6924260579446625
 20
0.2432791781475645
 30
0.0
 10
0.6924260579446625
 20
0.2432791781475645
 30
0.0
 10
0.6924260579446625
 20
0.2432791781475645
 30
0.0
 10
1.290435349868012
 20
-0.0216135746594901
 30
0.0
 10
1.290435349868012
 20
-0.0216135746594901
 30
0.0
 10
1.290435349868012
 20
-0.0216135746594901
 30
0.0
 10
1.457332703851157
 20
0.3219874548776893
 30
0.0
 10
1.457332703851157
 20
0.3219874548776893
 30
0.0
 10
1.457332703851157
 20
0.3219874548776893
 30
0.0
 10
1.110652787735011
 20
2.011794341780897
 30
0.0
 10
1.096763889687166
 20
2.062724822415331
 30
0.0
 10
1.08287499163932
 20
2.113655303049765
 30
0.0
 10
1.078249880082372
 20
2.210877589384684
 30
0.0
 10
1.078249880082372
 20
2.210877589384684
 30
0.0
 10
1.078249880082372
 20
2.210877589384684
 30
0.0
 10
1.080623471057346
 20
3.839289850298075
 30
0.0
 10
1.080623471057346
 20
3.839289850298075
 30
0.0
  0
SPLINE
  5
3E
330
1F
100
AcDbEntity
  8
0
100
AcDbSpline
210
0.0
220
0.0
230
1.0
 70
     8
 71
     3
 72
    23
 73
    19
 74
     0
 42
0.0000000001
 43
0.0000000001
 40
0.0
 40
0.0
 40
0.0
 40
0.0
 40
1.0
 40
1.0
 40
1.0
 40
2.0
 40
2.0
 40
2.0
 40
3.0
 40
3.0
 40
3.0
 40
4.0
 40
4.0
 40
4.0
 40
5.0
 40
5.0
 40
5.0
 40
6.0
 40
6.0
 40
6.0
 40
6.0
 10
1.267933707425263
 20
3.976476626963049
 30
0.0
 10
1.267933707425263
 20
3.976476626963049
 30
0.0
 10
1.742177184224989
 20
3.699051313808134
 30
0.0
 10
1.742177184224989
 20
3.699051313808134
 30
0.0
 10
1.742177184224989
 20
3.699051313808134
 30
0.0
 10
1.998226615228141
 20
3.252965407660095
 30
0.0
 10
1.998226615228141
 20
3.252965407660095
 30
0.0
 10
1.998226615228141
 20
3.252965407660095
 30
0.0
 10
1.997996037819144
 20
1.544210483088097
 30
0.0
 10
1.997996037819144
 20
1.544210483088097
 30
0.0
 10
1.997996037819144
 20
1.544210483088097
 30
0.0
 10
2.013892315662967
 20
1.478767189063825
 30
0.0
 10
2.013892315662967
 20
1.441739169854237
 30
0.0
 10
2.013892315662967
 20
1.404711150644649
 30
0.0
 10
1.980078816802343
 20
1.382182381447899
 30
0.0
 10
1.9569396956406
 20
1.345140798861311
 30
0.0
 10
1.933800574478858
 20
1.308099216274723
 30
0.0
 10
1.456017056282171
 20
0.3173487799437407
 30
0.0
 10
1.456017056282171
 20
0.3173487799437407
 30
0.0
  0
SPLINE
  5
3F
330
1F
100
AcDbEntity
  8
0
100
AcDbSpline
210
0.0
220
0.0
230
1.0
 70
     8
 71
     3
 72
    41
 73
    37
 74
     0
 42
0.0000000001
 43
0.0000000001
 40
0.0
 40
0.0
 40
0.0
 40
0.0
 40
1.0
 40
1.0
 40
1.0
 40
2.0
 40
2.0
 40
2.0
 40
3.0
 40
3.0
 40
3.0
 40
4.0
 40
4.0
 40
4.0
 40
5.0
 40
5.0
 40
5.0
 40
6.0
 40
6.0
 40
6.0
 40
7.0
 40
7.0
 40
7.0
 40
8.0
 40
8.0
 40
8.0
 40
9.0
 40
9.0
 40
9.0
 40
10.0
 40
10.0
 40
10.0
 40
11.0
 40
11.0
 40
11.0
 40
12.0
 40
12.0
 40
12.0
 40
12.0
 10
1.290435349868012
 20
-0.0226172645574785
 30
0.0
 10
1.290435349868012
 20
-0.0226172645574785
 30
0.0
 10
1.007096404341163
 20
-0.611579784021929
 30
0.0
 10
1.007096404341163
 20
-0.611579784021929
 30
0.0
 10
1.007096404341163
 20
-0.611579784021929
 30
0.0
 10
1.009849769872133
 20
-0.6296190754317284
 30
0.0
 10
1.009293671415139
 20
-0.640171382737611
 30
0.0
 10
1.008561249057147
 20
-0.6540602807854565
 30
0.0
 10
1.008561249057147
 20
-0.6589159697514022
 30
0.0
 10
1.000151955317241
 20
-0.6765483598512061
 30
0.0
 10
0.9906982815483455
 20
-0.696378017024986
 30
0.0
 10
0.9837131423934232
 20
-0.7234233907626848
 30
0.0
 10
0.9383843364599273
 20
-0.7332975292185751
 30
0.0
 10
0.9091145688942529
 20
-0.7396723164085044
 30
0.0
 10
0.8781358158265974
 20
-0.7606141704962717
 30
0.0
 10
0.8781358158265974
 20
-0.7606141704962717
 30
0.0
 10
0.8781358158265974
 20
-0.7606141704962717
 30
0.0
 10
0.0236430648360998
 20
-0.3629630836146935
 30
0.0
 10
0.0236430648360998
 20
-0.3629630836146935
 30
0.0
 10
0.0236430648360998
 20
-0.3629630836146935
 30
0.0
 10
0.0331374287359942
 20
-0.3447881584348957
 30
0.0
 10
0.0279290919680522
 20
-0.3239548113631274
 30
0.0
 10
0.0227207552001101
 20
-0.3031214642913591
 30
0.0
 10
0.0095642795102564
 20
-0.2834545676415781
 30
0.0
 10
0.0095642795102564
 20
-0.2531268566699154
 30
0.0
 10
0.0095642795102564
 20
-0.2114601625263788
 30
0.0
 10
0.0125482224502232
 20
-0.1420970525491496
 30
0.0
 10
0.0125482224502232
 20
-0.1420970525491496
 30
0.0
 10
0.0125482224502232
 20
-0.1420970525491496
 30
0.0
 10
-0.0065761391195641
 20
-0.1346100684452329
 30
0.0
 10
-0.0065761391195641
 20
-0.1346100684452329
 30
0.0
 10
-0.0065761391195641
 20
-0.1346100684452329
 30
0.0
 10
0.0996522295432546
 20
2.039483975926089
 30
0.0
 10
0.1013883417992353
 20
2.081150670069627
 30
0.0
 10
0.103124454055216
 20
2.122817364213163
 30
0.0
 10
0.0668559839576193
 20
2.129280313353591
 30
0.0
 10
0.0790087697494841
 20
2.190044242312915
 30
0.0
  0
SPLINE
  5
40
330
1F
100
AcDbEntity
  8
0
100
AcDbSpline
210
0.0
220
0.0
230
1.0
 70
     8
 71
     3
 72
    20
 73
    16
 74
     0
 42
0.0000000001
 43
0.0000000001
 40
0.0
 40
0.0
 40
0.0
 40
0.0
 40
1.0
 40
1.0
 40
1.0
 40
2.0
 40
2.0
 40
2.0
 40
3.0
 40
3.0
 40
3.0
 40
4.0
 40
4.0
 40
4.0
 40
5.0
 40
5.0
 40
5.0
 40
5.0
 10
0.3378793831686053
 20
4.077259299760429
 30
0.0
 10
0.3378793831686053
 20
4.077259299760429
 30
0.0
 10
0.8079453398523778
 20
4.112659713730035
 30
0.0
 10
0.8079453398523778
 20
4.112659713730035
 30
0.0
 10
0.8079453398523778
 20
4.112659713730035
 30
0.0
 10
0.9834147480994265
 20
3.863337717718808
 30
0.0
 10
0.9834147480994265
 20
3.863337717718808
 30
0.0
 10
0.9834147480994265
 20
3.863337717718808
 30
0.0
 10
0.9844455647514151
 20
2.241205300356346
 30
0.0
 10
0.9862766206463948
 20
2.201620584582287
 30
0.0
 10
0.987863535755377
 20
2.167359494280668
 30
0.0
 10
0.9770128341554977
 20
2.120599752073688
 30
0.0
 10
0.9770128341554977
 20
2.120599752073688
 30
0.0
 10
0.9770128341554977
 20
2.120599752073688
 30
0.0
 10
0.6756888507268487
 20
0.4173244318096292
 30
0.0
 10
0.6756888507268487
 20
0.4173244318096292
 30
0.0
  0
SPLINE
  5
41
330
1F
100
AcDbEntity
  8
0
100
AcDbSpline
210
0.0
220
0.0
230
1.0
 70
     8
 71
     3
 72
    17
 73
    13
 74
     0
 42
0.0000000001
 43
0.0000000001
 40
0.0
 40
0.0
 40
0.0
 40
0.0
 40
1.0
 40
1.0
 40
1.0
 40
2.0
 40
2.0
 40
2.0
 40
3.0
 40
3.0
 40
3.0
 40
4.0
 40
4.0
 40
4.0
 40
4.0
 10
1.974843353280401
 20
1.294210318226877
 30
0.0
 10
1.974843353280401
 20
1.294210318226877
 30
0.0
 10
1.940121108160787
 20
1.228238052499611
 30
0.0
 10
1.915815536577058
 20
1.179626909332152
 30
0.0
 10
1.891509964993328
 20
1.131015766164692
 30
0.0
 10
1.047759408586711
 20
-0.625929836887769
 30
0.0
 10
1.047759408586711
 20
-0.625929836887769
 30
0.0
 10
1.047759408586711
 20
-0.625929836887769
 30
0.0
 10
1.051190942967673
 20
-0.6461257052405447
 30
0.0
 10
1.047759408586711
 20
-0.6571798574954215
 30
0.0
 10
1.042551071818769
 20
-0.6739577548442357
 30
0.0
 10
1.023453837002982
 20
-0.726339516817653
 30
0.0
 10
1.009564938955136
 20
-0.7425341889554726
 30
0.0
  0
SPLINE
  5
42
330
1F
100
AcDbEntity
  8
0
100
AcDbSpline
210
0.0
220
0.0
230
1.0
 70
    11
 71
     3
 72
    17
 73
    13
 74
     0
 42
0.0000000001
 43
0.0000000001
 40
0.0
 40
0.0
 40
0.0
 40
0.0
 40
1.0
 40
1.0
 40
1.0
 40
2.0
 40
2.0
 40
2.0
 40
3.0
 40
3.0
 40
3.0
 40
4.0
 40
4.0
 40
4.0
 40
4.0
 10
0.9609402324106765
 20
-0.2613462631318235
 30
0.0
 10
0.9609402324106765
 20
-0.3329473303140276
 30
0.0
 10
0.8738904788256446
 20
-0.3869702609044268
 30
0.0
 10
0.7665092231178387
 20
-0.3869702609044268
 30
0.0
 10
0.6591144040330329
 20
-0.3869702609044268
 30
0.0
 10
0.572064650448001
 20
-0.3329473303140276
 30
0.0
 10
0.572064650448001
 20
-0.2613462631318235
 30
0.0
 10
0.572064650448001
 20
-0.1897451959496204
 30
0.0
 10
0.6591144040330329
 20
-0.131707505767265
 30
0.0
 10
0.7665092231178387
 20
-0.131707505767265
 30
0.0
 10
0.8738904788256446
 20
-0.131707505767265
 30
0.0
 10
0.9609402324106765
 20
-0.1897451959496204
 30
0.0
 10
0.9609402324106765
 20
-0.2613462631318235
 30
0.0
  0
SPLINE
  5
43
330
1F
100
AcDbEntity
  8
0
100
AcDbSpline
210
0.0
220
0.0
230
1.0
 70
    11
 71
     3
 72
    17
 73
    13
 74
     0
 42
0.0000000001
 43
0.0000000001
 40
0.0
 40
0.0
 40
0.0
 40
0.0
 40
1.0
 40
1.0
 40
1.0
 40
2.0
 40
2.0
 40
2.0
 40
3.0
 40
3.0
 40
3.0
 40
4.0
 40
4.0
 40
4.0
 40
4.0
 10
0.979237227983473
 20
-0.2454499852880003
 30
0.0
 10
0.979237227983473
 20
-0.323439403037133
 30
0.0
 10
0.8838324341665339
 20
-0.3866583032334301
 30
0.0
 10
0.766210828823842
 20
-0.3866583032334301
 30
0.0
 10
0.64858922348115
 20
-0.3866583032334301
 30
0.0
 10
0.5532386831722104
 20
-0.323439403037133
 30
0.0
 10
0.5532386831722104
 20
-0.2454499852880003
 30
0.0
 10
0.5532386831722104
 20
-0.1674605675388676
 30
0.0
 10
0.6300073969913568
 20
-0.1046621320295662
 30
0.0
 10
0.766210828823842
 20
-0.1002269077506153
 30
0.0
 10
0.9007595286623457
 20
-0.0958459369796643
 30
0.0
 10
0.979237227983473
 20
-0.1674605675388676
 30
0.0
 10
0.979237227983473
 20
-0.2454499852880003
 30
0.0
  0
SPLINE
  5
44
330
1F
100
AcDbEntity
  8
0
100
AcDbSpline
210
0.0
220
0.0
230
1.0
 70
     8
 71
     3
 72
    23
 73
    19
 74
     0
 42
0.0000000001
 43
0.0000000001
 40
0.0
 40
0.0
 40
0.0
 40
0.0
 40
1.0
 40
1.0
 40
1.0
 40
2.0
 40
2.0
 40
2.0
 40
3.0
 40
3.0
 40
3.0
 40
4.0
 40
4.0
 40
4.0
 40
5.0
 40
5.0
 40
5.0
 40
6.0
 40
6.0
 40
6.0
 40
6.0
 10
1.173912378062308
 20
-0.2613462631318235
 30
0.0
 10
1.173912378062308
 20
-0.2613462631318235
 30
0.0
 10
1.173220645835316
 20
-0.2240334130052384
 30
0.0
 10
1.173220645835316
 20
-0.2240334130052384
 30
0.0
 10
1.149837383887576
 20
-0.0851986860347829
 30
0.0
 10
0.9883246905733719
 20
0.0135426985241196
 30
0.0
 10
0.7644882799448612
 20
0.0028547574482385
 30
0.0
 10
0.5279158583134921
 20
-0.0084435355926358
 30
0.0
 10
0.3765078808641758
 20
-0.1424361369741458
 30
0.0
 10
0.3853512026680774
 20
-0.2930303118034718
 30
0.0
 10
0.3941809610949792
 20
-0.443624486632797
 30
0.0
 10
0.572064650448001
 20
-0.5576517970705286
 30
0.0
 10
0.7964842862875053
 20
-0.5425286317156965
 30
0.0
 10
0.8997015852563576
 20
-0.5355706193147745
 30
0.0
 10
0.99209530937933
 20
-0.5027065568441396
 30
0.0
 10
1.059871504247576
 20
-0.4540547235456804
 30
0.0
 10
1.059871504247576
 20
-0.4540547235456804
 30
0.0
 10
1.096207791230172
 20
-0.4263176175809891
 30
0.0
 10
1.096207791230172
 20
-0.4263176175809891
 30
0.0
  0
SPLINE
  5
45
330
1F
100
AcDbEntity
  8
0
100
AcDbSpline
210
0.0
220
0.0
230
1.0
 70
     8
 71
     3
 72
     8
 73
     4
 74
     0
 42
0.0000000001
 43
0.0000000001
 40
0.0
 40
0.0
 40
0.0
 40
0.0
 40
1.0
 40
1.0
 40
1.0
 40
1.0
 10
1.171999941905329
 20
-0.1036041886235779
 30
0.0
 10
1.1836237559942
 20
-0.1191749454194051
 30
0.0
 10
1.193280880418093
 20
-0.1356815752282214
 30
0.0
 10
1.200822118030009
 20
-0.1529884442800285
 30
0.0
  0
SPLINE
  5
46
330
1F
100
AcDbEntity
  8
0
100
AcDbSpline
210
0.0
220
0.0
230
1.0
 70
     8
 71
     3
 72
     8
 73
     4
 74
     0
 42
0.0000000001
 43
0.0000000001
 40
0.0
 40
0.0
 40
0.0
 40
0.0
 40
1.0
 40
1.0
 40
1.0
 40
1.0
 10
0.7627521676888805
 20
0.0489973660017249
 30
0.0
 10
0.9357666046989565
 20
0.0572574625946336
 30
0.0
 10
1.075293063896405
 20
0.0026784335472403
 30
0.0
 10
1.152943397220541
 20
-0.0808041518868317
 30
0.0
  0
SPLINE
  5
47
330
1F
100
AcDbEntity
  8
0
100
AcDbSpline
210
0.0
220
0.0
230
1.0
 70
     8
 71
     3
 72
     8
 73
     4
 74
     0
 42
0.0000000001
 43
0.0000000001
 40
0.0
 40
0.0
 40
0.0
 40
0.0
 40
1.0
 40
1.0
 40
1.0
 40
1.0
 10
0.4833601648689875
 20
-0.0370893878163177
 30
0.0
 10
0.5338973075704255
 20
-0.0043338323616817
 30
0.0
 10
0.5964787290477295
 20
0.024515470516997
 30
0.0
 10
0.6687579650799257
 20
0.0381195376478463
 30
0.0
  0
SPLINE
  5
48
330
1F
100
AcDbEntity
  8
0
100
AcDbSpline
210
0.0
220
0.0
230
1.0
 70
     8
 71
     3
 72
    11
 73
     7
 74
     0
 42
0.0000000001
 43
0.0000000001
 40
0.0
 40
0.0
 40
0.0
 40
0.0
 40
1.0
 40
1.0
 40
1.0
 40
2.0
 40
2.0
 40
2.0
 40
2.0
 10
0.4354271905515206
 20
-0.462464017285587
 30
0.0
 10
0.3796410209511409
 20
-0.4132560855301346
 30
0.0
 10
0.3453528038955223
 20
-0.3510951287398259
 30
0.0
 10
0.3414058611885661
 20
-0.283834342197574
 30
0.0
 10
0.3366044257306194
 20
-0.2018708549874848
 30
0.0
 10
0.3745005010681981
 20
-0.1243425920563475
 30
0.0
 10
0.4453284557614105
 20
-0.0650706345670065
 30
0.0
  0
SPLINE
  5
49
330
1F
100
AcDbEntity
  8
0
100
AcDbSpline
210
0.0
220
0.0
230
1.0
 70
    11
 71
     3
 72
    17
 73
    13
 74
     0
 42
0.0000000001
 43
0.0000000001
 40
0.0
 40
0.0
 40
0.0
 40
0.0
 40
1.0
 40
1.0
 40
1.0
 40
2.0
 40
2.0
 40
2.0
 40
3.0
 40
3.0
 40
3.0
 40
4.0
 40
4.0
 40
4.0
 40
4.0
 10
1.106434577488058
 20
-0.250251420745947
 30
0.0
 10
1.113935124968975
 20
-0.3782490094935236
 30
0.0
 10
0.9758328203565109
 20
-0.4909742357392704
 30
0.0
 10
0.7900823723435765
 20
-0.498732487383184
 30
0.0
 10
0.5986759961217051
 20
-0.5067213164360949
 30
0.0
 10
0.4609534660652367
 20
-0.4187628165920732
 30
0.0
 10
0.4525848624563297
 20
-0.2896665943075085
 30
0.0
 10
0.4442976391094219
 20
-0.1617232590679318
 30
0.0
 10
0.5672903417440541
 20
-0.0483876808571919
 30
0.0
 10
0.7668754342968346
 20
-0.0381608945993053
 30
0.0
 10
0.9285373247580367
 20
-0.0298736712523979
 30
0.0
 10
1.098920466630142
 20
-0.1222538319983704
 30
0.0
 10
1.106434577488058
 20
-0.250251420745947
 30
0.0
  0
SPLINE
  5
4A
330
1F
100
AcDbEntity
  8
0
100
AcDbSpline
210
0.0
220
0.0
230
1.0
 70
     8
 71
     3
 72
     8
 73
     4
 74
     0
 42
0.0000000001
 43
0.0000000001
 40
0.0
 40
0.0
 40
0.0
 40
0.0
 40
1.0
 40
1.0
 40
1.0
 40
1.0
 10
0.9806342558144575
 20
-0.4060539323432142
 30
0.0
 10
0.9302191835060182
 20
-0.4391756989768458
 30
0.0
 10
0.8639078333537557
 20
-0.4607414684066065
 30
0.0
 10
0.7892143162155861
 20
-0.4638610451165715
 30
0.0
  0
SPLINE
  5
4B
330
1F
100
AcDbEntity
  8
0
100
AcDbSpline
210
0.0
220
0.0
230
1.0
 70
     8
 71
     3
 72
     8
 73
     4
 74
     0
 42
0.0000000001
 43
0.0000000001
 40
0.0
 40
0.0
 40
0.0
 40
0.0
 40
1.0
 40
1.0
 40
1.0
 40
1.0
 10
1.08025725987835
 20
-0.2352638891611134
 30
0.0
 10
1.083336146457315
 20
-0.2877948482815294
 30
0.0
 10
1.059749433854578
 20
-0.3375317517399763
 30
0.0
 10
1.017513077877048
 20
-0.3771368125795362
 30
0.0
  0
SPLINE
  5
4C
330
1F
100
AcDbEntity
  8
0
100
AcDbSpline
210
0.0
220
0.0
230
1.0
 70
     8
 71
     3
 72
     8
 73
     4
 74
     0
 42
0.0000000001
 43
0.0000000001
 40
0.0
 40
0.0
 40
0.0
 40
0.0
 40
1.0
 40
1.0
 40
1.0
 40
1.0
 10
0.4787214899350391
 20
-0.2715323592587104
 30
0.0
 10
0.4773380254810544
 20
-0.2503734911389461
 30
0.0
 10
0.4798743769800262
 20
-0.2296486510831759
 30
0.0
 10
0.4860185867609579
 20
-0.2098325572863971
 30
0.0
  0
SPLINE
  5
4D
330
1F
100
AcDbEntity
  8
0
100
AcDbSpline
210
0.0
220
0.0
230
1.0
 70
     8
 71
     3
 72
    11
 73
     7
 74
     0
 42
0.0000000001
 43
0.0000000001
 40
0.0
 40
0.0
 40
0.0
 40
0.0
 40
1.0
 40
1.0
 40
1.0
 40
2.0
 40
2.0
 40
2.0
 40
2.0
 10
0.7270669228022774
 20
-0.4626945946945851
 30
0.0
 10
0.6102319933255765
 20
-0.4530510336476921
 30
0.0
 10
0.5231279862325452
 20
-0.401225370131268
 30
0.0
 10
0.4914168108068979
 20
-0.3257858672581069
 30
0.0
 10
0.4868866428889482
 20
-0.315002982543227
 30
0.0
 10
0.4834822352619861
 20
-0.3037453796333525
 30
0.0
 10
0.4812985315650105
 20
-0.2920537486594821
 30
0.0
  0
LWPOLYLINE
  5
4E
330
1F
100
AcDbEntity
  8
0
100
AcDbPolyline
 90
        2
 70
     0
 43
0.0
 10
0.070924997057574
 20
-0.2591896861888481
 10
0.0391053146159278
 20
-0.289747974569508
  0
LWPOLYLINE
  5
52
330
1F
100
AcDbEntity
  8
0
100
AcDbPolyline
 90
        2
 70
     0
 43
0.0
 10
0.4676537743031621
 20
0.0709293466104812
 10
0.2133947090639896
 20
-0.1224708460303683
  0
LWPOLYLINE
  5
56
330
1F
100
AcDbEntity
  8
0
100
AcDbPolyline
 90
        2
 70
     0
 43
0.0
 10
0.6223169622324422
 20
0.2195161416438287
 10
0.5904023361517971
 20
0.1888493462471699
  0
SPLINE
  5
5A
330
1F
100
AcDbEntity
  8
0
100
AcDbSpline
210
0.0
220
0.0
230
1.0
 70
    11
 71
     3
 72
    26
 73
    22
 74
     0
 42
0.0000000001
 43
0.0000000001
 40
0.0
 40
0.0
 40
0.0
 40
0.0
 40
1.0
 40
1.0
 40
1.0
 40
2.0
 40
2.0
 40
2.0
 40
3.0
 40
3.0
 40
3.0
 40
4.0
 40
4.0
 40
4.0
 40
5.0
 40
5.0
 40
5.0
 40
6.0
 40
6.0
 40
6.0
 40
7.0
 40
7.0
 40
7.0
 40
7.0
 10
0.4606279450172403
 20
0.1404145269807087
 30
0.0
 10
0.4623640572732209
 20
0.1682330132073995
 30
0.0
 10
0.4632728035322109
 20
0.2016124840040279
 30
0.0
 10
0.4632728035322109
 20
0.2270709426327446
 30
0.0
 10
0.4632728035322109
 20
0.2525294012614618
 30
0.0
 10
0.485923643121959
 20
0.2796832820151596
 30
0.0
 10
0.5231008594785455
 20
0.2490571767495005
 30
0.0
 10
0.5624617795321077
 20
0.2166407057198612
 30
0.0
 10
0.593386279091764
 20
0.1848345866552146
 30
0.0
 10
0.593386279091764
 20
0.1848345866552146
 30
0.0
 10
0.593386279091764
 20
0.1848345866552146
 30
0.0
 10
0.6091062330345892
 20
0.1298350929208265
 30
0.0
 10
0.616050682058512
 20
0.1066959717590832
 30
0.0
 10
0.6229951310824348
 20
0.0835568505973407
 30
0.0
 10
0.5998424465436921
 20
0.069654389172495
 30
0.0
 10
0.5674395388910524
 20
0.0719737266394693
 30
0.0
 10
0.5416284324603394
 20
0.073818345911449
 30
0.0
 10
0.5188148323465932
 20
0.076612401573418
 30
0.0
 10
0.4956757111848505
 20
0.0835568505973407
 30
0.0
 10
0.4725365900231079
 20
0.0905012996212635
 30
0.0
 10
0.4583221709272659
 20
0.1033729443941205
 30
0.0
 10
0.4606279450172403
 20
0.1404145269807087
 30
0.0
  0
SPLINE
  5
5B
330
1F
100
AcDbEntity
  8
0
100
AcDbSpline
210
0.0
220
0.0
230
1.0
 70
     8
 71
     3
 72
    11
 73
     7
 74
     0
 42
0.0000000001
 43
0.0000000001
 40
0.0
 40
0.0
 40
0.0
 40
0.0
 40
1.0
 40
1.0
 40
1.0
 40
2.0
 40
2.0
 40
2.0
 40
2.0
 10
0.4930444160468798
 20
0.2343273493276641
 30
0.0
 10
0.4930444160468798
 20
0.2343273493276641
 30
0.0
 10
0.5012231323777888
 20
0.2117714533769153
 30
0.0
 10
0.535470659302408
 20
0.1658322954784257
 30
0.0
 10
0.5697181862270272
 20
0.119893137579937
 30
0.0
 10
0.5925724764717729
 20
0.1023828178731314
 30
0.0
 10
0.5925724764717729
 20
0.1023828178731314
 30
0.0
  0
SPLINE
  5
5C
330
1F
100
AcDbEntity
  8
0
100
AcDbSpline
210
0.0
220
0.0
230
1.0
 70
    11
 71
     3
 72
    26
 73
    22
 74
     0
 42
0.0000000001
 43
0.0000000001
 40
0.0
 40
0.0
 40
0.0
 40
0.0
 40
1.0
 40
1.0
 40
1.0
 40
2.0
 40
2.0
 40
2.0
 40
3.0
 40
3.0
 40
3.0
 40
4.0
 40
4.0
 40
4.0
 40
5.0
 40
5.0
 40
5.0
 40
6.0
 40
6.0
 40
6.0
 40
7.0
 40
7.0
 40
7.0
 40
7.0
 10
0.0648892942926411
 20
-0.1871545909426491
 30
0.0
 10
0.0663948291396244
 20
-0.1584816119649677
 30
0.0
 10
0.0696500396195882
 20
-0.1243019019253477
 30
0.0
 10
0.0696500396195882
 20
-0.0980703308076398
 30
0.0
 10
0.0696500396195882
 20
-0.0718523230669312
 30
0.0
 10
0.0929926114363286
 20
-0.0438846396932417
 30
0.0
 10
0.1312820247069028
 20
-0.0754330545948916
 30
0.0
 10
0.1718093951824521
 20
-0.10881252539152
 30
0.0
 10
0.2036833311320977
 20
-0.1415816442231552
 30
0.0
 10
0.2036833311320977
 20
-0.1415816442231552
 30
0.0
 10
0.2036833311320977
 20
-0.1415816442231552
 30
0.0
 10
0.2198644398929177
 20
-0.1982223065745261
 30
0.0
 10
0.2270123395718382
 20
-0.2220531599632611
 30
0.0
 10
0.2341738026277586
 20
-0.2458975767289955
 30
0.0
 10
0.2041444859500925
 20
-0.2613598265088237
 30
0.0
 10
0.1769499150653949
 20
-0.2578197851118631
 30
0.0
 10
0.150514893292689
 20
-0.2543746873539012
 30
0.0
 10
0.1268739271819518
 20
-0.253045476407916
 30
0.0
 10
0.103029510416217
 20
-0.2458975767289955
 30
0.0
 10
0.0791850936504821
 20
-0.2387361136730748
 30
0.0
 10
0.062922604627663
 20
-0.2243046805452353
 30
0.0
 10
0.0648892942926411
 20
-0.1871545909426491
 30
0.0
  0
SPLINE
  5
5D
330
1F
100
AcDbEntity
  8
0
100
AcDbSpline
210
0.0
220
0.0
230
1.0
 70
     8
 71
     3
 72
    11
 73
     7
 74
     0
 42
0.0000000001
 43
0.0000000001
 40
0.0
 40
0.0
 40
0.0
 40
0.0
 40
1.0
 40
1.0
 40
1.0
 40
2.0
 40
2.0
 40
2.0
 40
2.0
 10
0.09826876508927
 20
-0.0915463464707118
 30
0.0
 10
0.09826876508927
 20
-0.0915463464707118
 30
0.0
 10
0.1070578333851722
 20
-0.1171540022464273
 30
0.0
 10
0.1433669936137684
 20
-0.1649513427938958
 30
0.0
 10
0.1796761538423647
 20
-0.2127486833413643
 30
0.0
 10
0.2007943318311298
 20
-0.2274513840092007
 30
0.0
 10
0.2007943318311298
 20
-0.2274513840092007
 30
0.0
  0
LWPOLYLINE
  5
5E
330
1F
100
AcDbEntity
  8
0
100
AcDbPolyline
 90
        2
 70
     0
 43
0.0
 10
1.044680522007745
 20
-0.6270962873097563
 10
1.007096404341163
 20
-0.611579784021929
  0
LWPOLYLINE
  5
62
330
1F
100
AcDbEntity
  8
0
100
AcDbPolyline
 90
        2
 70
     0
 43
0.0
 10
0.0035285767453235
 20
-0.1403609402931689
 10
-0.0390468636572031
 20
-0.1238407471073533
  0
LWPOLYLINE
  5
66
330
1F
100
AcDbEntity
  8
0
100
AcDbPolyline
 90
        2
 70
     0
 43
0.0
 10
0.8781358158265974
 20
-0.7636252401902377
 10
0.8781358158265974
 20
-0.7987815133738474
  0
SPLINE
  5
6A
330
1F
100
AcDbEntity
  8
0
100
AcDbSpline
210
0.0
220
0.0
230
1.0
 70
     8
 71
     3
 72
    17
 73
    13
 74
     0
 42
0.0000000001
 43
0.0000000001
 40
0.0
 40
0.0
 40
0.0
 40
0.0
 40
1.0
 40
1.0
 40
1.0
 40
2.0
 40
2.0
 40
2.0
 40
3.0
 40
3.0
 40
3.0
 40
4.0
 40
4.0
 40
4.0
 40
4.0
 10
1.037424115312826
 20
-0.5413757446707095
 30
0.0
 10
1.037424115312826
 20
-0.5413757446707095
 30
0.0
 10
1.000314715841239
 20
-0.5599575711605027
 30
0.0
 10
0.9794813687694702
 20
-0.5645962460944514
 30
0.0
 10
0.9586480216977019
 20
-0.5692349210284
 30
0.0
 10
0.9315619578290032
 20
-0.5963888017820977
 30
0.0
 10
0.9454508558768487
 20
-0.6172221488538661
 30
0.0
 10
0.9593397539246943
 20
-0.6380554959256344
 30
0.0
 10
0.967898244811599
 20
-0.6479296343815246
 30
0.0
 10
0.9609537957876763
 20
-0.6687629814532929
 30
0.0
 10
0.9609537957876763
 20
-0.6687629814532929
 30
0.0
 10
0.935183379487963
 20
-0.7034852265729068
 30
0.0
 10
0.935183379487963
 20
-0.7034852265729068
 30
0.0
  0
SPLINE
  5
6B
330
1F
100
AcDbEntity
  8
0
100
AcDbSpline
210
0.0
220
0.0
230
1.0
 70
     8
 71
     3
 72
     8
 73
     4
 74
     0
 42
0.0000000001
 43
0.0000000001
 40
0.0
 40
0.0
 40
0.0
 40
0.0
 40
1.0
 40
1.0
 40
1.0
 40
1.0
 10
0.967898244811599
 20
-0.5946933796571168
 30
0.0
 10
0.967898244811599
 20
-0.5946933796571168
 30
0.0
 10
0.9982123924062619
 20
-0.5924554224521419
 30
0.0
 10
1.021446457207003
 20
-0.5768711022793145
 30
0.0
  0
SPLINE
  5
6C
330
1F
100
AcDbEntity
  8
0
100
AcDbSpline
210
0.0
220
0.0
230
1.0
 70
     8
 71
     3
 72
     8
 73
     4
 74
     0
 42
0.0000000001
 43
0.0000000001
 40
0.0
 40
0.0
 40
0.0
 40
0.0
 40
1.0
 40
1.0
 40
1.0
 40
1.0
 10
1.098839086368143
 20
-0.5877353672561938
 30
0.0
 10
1.098839086368143
 20
-0.5877353672561938
 30
0.0
 10
1.117678617020934
 20
-0.5422980543066993
 30
0.0
 10
1.131255557397783
 20
-0.5368184499987603
 30
0.0
  0
SPLINE
  5
6D
330
1F
100
AcDbEntity
  8
0
100
AcDbSpline
210
0.0
220
0.0
230
1.0
 70
     8
 71
     3
 72
     8
 73
     4
 74
     0
 42
0.0000000001
 43
0.0000000001
 40
0.0
 40
0.0
 40
0.0
 40
0.0
 40
1.0
 40
1.0
 40
1.0
 40
1.0
 10
1.429242950084469
 20
-0.234585720311121
 30
0.0
 10
1.429242950084469
 20
-0.234585720311121
 30
0.0
 10
1.444759453372296
 20
-0.1895959988026217
 30
0.0
 10
1.460031815874126
 20
-0.1850522675076718
 30
0.0
  0
SPLINE
  5
6E
330
1F
100
AcDbEntity
  8
0
100
AcDbSpline
210
0.0
220
0.0
230
1.0
 70
     8
 71
     3
 72
    20
 73
    16
 74
     0
 42
0.0000000001
 43
0.0000000001
 40
0.0
 40
0.0
 40
0.0
 40
0.0
 40
1.0
 40
1.0
 40
1.0
 40
2.0
 40
2.0
 40
2.0
 40
3.0
 40
3.0
 40
3.0
 40
4.0
 40
4.0
 40
4.0
 40
5.0
 40
5.0
 40
5.0
 40
5.0
 10
0.1961285301431817
 20
1.284661700818984
 30
0.0
 10
0.1961285301431817
 20
1.284661700818984
 30
0.0
 10
0.1576899197256091
 20
1.279236350019044
 30
0.0
 10
0.1552485118656363
 20
1.216763435557739
 30
0.0
 10
0.1536344700026542
 20
1.175123868168202
 30
0.0
 10
0.1216113369060103
 20
0.5335218825673369
 30
0.0
 10
0.1159689720740731
 20
0.4781426142769525
 30
0.0
 10
0.1103401706191357
 20
0.4227633459865685
 30
0.0
 10
0.1157790847960752
 20
0.3843247355689958
 30
0.0
 10
0.1312277711989034
 20
0.3350896770595435
 30
0.0
 10
0.1466900209787314
 20
0.2858274917960912
 30
0.0
 10
0.1581239477896043
 20
0.2228391690087919
 30
0.0
 10
0.1735726341924325
 20
0.1735905471223393
 30
0.0
 10
0.1890348839722605
 20
0.1243419252358873
 30
0.0
 10
0.2244081711878672
 20
0.1403195833417099
 30
0.0
 10
0.2244081711878672
 20
0.1403195833417099
 30
0.0
  0
SPLINE
  5
6F
330
1F
100
AcDbEntity
  8
0
100
AcDbSpline
210
0.0
220
0.0
230
1.0
 70
     8
 71
     3
 72
    11
 73
     7
 74
     0
 42
0.0000000001
 43
0.0000000001
 40
0.0
 40
0.0
 40
0.0
 40
0.0
 40
1.0
 40
1.0
 40
1.0
 40
2.0
 40
2.0
 40
2.0
 40
2.0
 10
0.2171924546239474
 20
0.3389281127505011
 30
0.0
 10
0.230362493690801
 20
0.2929889548520119
 30
0.0
 10
0.2360455486537377
 20
0.2659978346223118
 30
0.0
 10
0.2428408005306622
 20
0.2425467557895726
 30
0.0
 10
0.2520232067595601
 20
0.2109169606259247
 30
0.0
 10
0.2666309637883977
 20
0.1774561095672969
 30
0.0
 10
0.2520774602675595
 20
0.1606375220874838
 30
0.0
  0
SPLINE
  5
70
330
1F
100
AcDbEntity
  8
0
100
AcDbSpline
210
0.0
220
0.0
230
1.0
 70
     8
 71
     3
 72
    11
 73
     7
 74
     0
 42
0.0000000001
 43
0.0000000001
 40
0.0
 40
0.0
 40
0.0
 40
0.0
 40
1.0
 40
1.0
 40
1.0
 40
2.0
 40
2.0
 40
2.0
 40
2.0
 10
0.225764508887852
 20
1.015944075697972
 30
0.0
 10
0.2118213573320071
 20
0.8161012789821944
 30
0.0
 10
0.1943381643792016
 20
0.5376180224212912
 30
0.0
 10
0.1931174604492152
 20
0.5064222553216382
 30
0.0
 10
0.1912321510462361
 20
0.4578382389081783
 30
0.0
 10
0.1942839108712022
 20
0.4162800517806407
 30
0.0
 10
0.2089187946540394
 20
0.3668008524851909
 30
0.0
  0
SPLINE
  5
71
330
1F
100
AcDbEntity
  8
0
100
AcDbSpline
210
0.0
220
0.0
230
1.0
 70
     8
 71
     3
 72
    11
 73
     7
 74
     0
 42
0.0000000001
 43
0.0000000001
 40
0.0
 40
0.0
 40
0.0
 40
0.0
 40
1.0
 40
1.0
 40
1.0
 40
2.0
 40
2.0
 40
2.0
 40
2.0
 10
0.2279075224538283
 20
1.270447281723142
 30
0.0
 10
0.2413759558146785
 20
1.259515199861264
 30
0.0
 10
0.2402908856546906
 20
1.231737403765572
 30
0.0
 10
0.2396127168046981
 20
1.214376281205766
 30
0.0
 10
0.2394228295267002
 20
1.209384958469821
 30
0.0
 10
0.2342416195127578
 20
1.130554611346697
 30
0.0
 10
0.2286941983198195
 20
1.050584940555587
 30
0.0
  0
SPLINE
  5
72
330
1F
100
AcDbEntity
  8
0
100
AcDbSpline
210
0.0
220
0.0
230
1.0
 70
     8
 71
     3
 72
    11
 73
     7
 74
     0
 42
0.0000000001
 43
0.0000000001
 40
0.0
 40
0.0
 40
0.0
 40
0.0
 40
1.0
 40
1.0
 40
1.0
 40
2.0
 40
2.0
 40
2.0
 40
2.0
 10
0.5631942018900996
 20
0.587097221716741
 30
0.0
 10
0.5819794790348908
 20
0.515970872729532
 30
0.0
 10
0.5940780113187562
 20
0.4706149400420365
 30
0.0
 10
0.596343095277731
 20
0.4632635897081183
 30
0.0
 10
0.6102319933255765
 20
0.4181246710526203
 30
0.0
 10
0.6310653403973449
 20
0.4181246710526203
 30
0.0
 10
0.6310653403973449
 20
0.4181246710526203
 30
0.0
  0
SPLINE
  5
73
330
1F
100
AcDbEntity
  8
0
100
AcDbSpline
210
0.0
220
0.0
230
1.0
 70
     8
 71
     3
 72
     8
 73
     4
 74
     0
 42
0.0000000001
 43
0.0000000001
 40
0.0
 40
0.0
 40
0.0
 40
0.0
 40
1.0
 40
1.0
 40
1.0
 40
1.0
 10
0.2345942673147539
 20
1.836623327827846
 30
0.0
 10
0.3210336689347927
 20
1.510817448914469
 30
0.0
 10
0.4742998290330882
 20
0.9244455344569897
 30
0.0
 10
0.5507294584272383
 20
0.6343520271842156
 30
0.0
  0
SPLINE
  5
74
330
1F
100
AcDbEntity
  8
0
100
AcDbSpline
210
0.0
220
0.0
230
1.0
 70
     8
 71
     3
 72
    11
 73
     7
 74
     0
 42
0.0000000001
 43
0.0000000001
 40
0.0
 40
0.0
 40
0.0
 40
0.0
 40
1.0
 40
1.0
 40
1.0
 40
2.0
 40
2.0
 40
2.0
 40
2.0
 10
0.113731014869098
 20
2.165738670729186
 30
0.0
 10
0.113731014869098
 20
2.165738670729186
 30
0.0
 10
0.1484532599887118
 20
2.141433099145456
 30
0.0
 10
0.1727588315724415
 20
2.065044159882306
 30
0.0
 10
0.1768685348033958
 20
2.052131824978449
 30
0.0
 10
0.2001568531121368
 20
1.970880415060853
 30
0.0
 10
0.2213699747399009
 20
1.891432934284236
 30
0.0
  0
SPLINE
  5
75
330
1F
100
AcDbEntity
  8
0
100
AcDbSpline
210
0.0
220
0.0
230
1.0
 70
     8
 71
     3
 72
    20
 73
    16
 74
     0
 42
0.0000000001
 43
0.0000000001
 40
0.0
 40
0.0
 40
0.0
 40
0.0
 40
1.0
 40
1.0
 40
1.0
 40
2.0
 40
2.0
 40
2.0
 40
3.0
 40
3.0
 40
3.0
 40
4.0
 40
4.0
 40
4.0
 40
5.0
 40
5.0
 40
5.0
 40
5.0
 10
1.767133797904711
 20
0.6688165681408322
 30
0.0
 10
1.767133797904711
 20
0.6688165681408322
 30
0.0
 10
1.735259861955066
 20
0.6830988041216735
 30
0.0
 10
1.69706539232349
 20
0.5951403042776517
 30
0.0
 10
1.668202526067811
 20
0.5286661936013908
 30
0.0
 10
1.372995625666094
 20
-0.0483876808571919
 30
0.0
 10
1.345217829570403
 20
-0.1085683846055225
 30
0.0
 10
1.317440033474712
 20
-0.1687490883538532
 30
0.0
 10
1.308176246983815
 20
-0.2081100084074157
 30
0.0
 10
1.308176246983815
 20
-0.2081100084074157
 30
0.0
 10
1.308176246983815
 20
-0.2081100084074157
 30
0.0
 10
1.302072727333883
 20
-0.2281295528591931
 30
0.0
 10
1.290042011935017
 20
-0.2658221775417742
 30
0.0
 10
1.27268088937521
 20
-0.3202248826881693
 30
0.0
 10
1.307403134494824
 20
-0.3236971072001307
 30
0.0
 10
1.307403134494824
 20
-0.3236971072001307
 30
0.0
  0
SPLINE
  5
76
330
1F
100
AcDbEntity
  8
0
100
AcDbSpline
210
0.0
220
0.0
230
1.0
 70
     8
 71
     3
 72
    14
 73
    10
 74
     0
 42
0.0000000001
 43
0.0000000001
 40
0.0
 40
0.0
 40
0.0
 40
0.0
 40
1.0
 40
1.0
 40
1.0
 40
2.0
 40
2.0
 40
2.0
 40
3.0
 40
3.0
 40
3.0
 40
3.0
 10
1.453846915962195
 20
-0.0355702895923349
 30
0.0
 10
1.426069119866504
 20
-0.0911258817837171
 30
0.0
 10
1.40307919585176
 20
-0.1270823942103165
 30
0.0
 10
1.390261804586902
 20
-0.1670536662288722
 30
0.0
 10
1.380482609770011
 20
-0.1975305743475335
 30
0.0
 10
1.377308779552046
 20
-0.2012198128914928
 30
0.0
 10
1.359717079583242
 20
-0.2660391915737712
 30
0.0
 10
1.359717079583242
 20
-0.2660391915737712
 30
0.0
 10
1.347523603660378
 20
-0.303772506387352
 30
0.0
 10
1.333634705612532
 20
-0.3107169554112748
 30
0.0
  0
SPLINE
  5
77
330
1F
100
AcDbEntity
  8
0
100
AcDbSpline
210
0.0
220
0.0
230
1.0
 70
     8
 71
     3
 72
     8
 73
     4
 74
     0
 42
0.0000000001
 43
0.0000000001
 40
0.0
 40
0.0
 40
0.0
 40
0.0
 40
1.0
 40
1.0
 40
1.0
 40
1.0
 10
1.690120943299568
 20
0.4400430882843764
 30
0.0
 10
1.622995790527314
 20
0.303758276189892
 30
0.0
 10
1.51184391601355
 20
0.080667851296373
 30
0.0
 10
1.467898574534039
 20
-0.0078738737586423
 30
0.0
  0
SPLINE
  5
78
330
1F
100
AcDbEntity
  8
0
100
AcDbSpline
210
0.0
220
0.0
230
1.0
 70
     8
 71
     3
 72
    11
 73
     7
 74
     0
 42
0.0000000001
 43
0.0000000001
 40
0.0
 40
0.0
 40
0.0
 40
0.0
 40
1.0
 40
1.0
 40
1.0
 40
2.0
 40
2.0
 40
2.0
 40
2.0
 10
1.773454331586641
 20
0.6379598854661754
 30
0.0
 10
1.76998210707468
 20
0.6171265383944071
 30
0.0
 10
1.76998210707468
 20
0.606709864858523
 30
0.0
 10
1.759565433538795
 20
0.5824042932747933
 30
0.0
 10
1.756703560991827
 20
0.5757175484138677
 30
0.0
 10
1.734473186089074
 20
0.530185291825374
 30
0.0
 10
1.703168911973422
 20
0.466532363565082
 30
0.0
  0
SPLINE
  5
79
330
1F
100
AcDbEntity
  8
0
100
AcDbSpline
210
0.0
220
0.0
230
1.0
 70
    11
 71
     3
 72
    17
 73
    13
 74
     0
 42
0.0000000001
 43
0.0000000001
 40
0.0
 40
0.0
 40
0.0
 40
0.0
 40
1.0
 40
1.0
 40
1.0
 40
2.0
 40
2.0
 40
2.0
 40
3.0
 40
3.0
 40
3.0
 40
4.0
 40
4.0
 40
4.0
 40
4.0
 10
0.7498533961620238
 20
3.907337312706318
 30
0.0
 10
0.7805473183126827
 20
3.862083105346321
 30
0.0
 10
0.7843043737416408
 20
3.804777837521959
 30
0.0
 10
0.7648544911238572
 20
3.792129988469599
 30
0.0
 10
0.7440211440520889
 20
3.77858695653525
 30
0.0
 10
0.7006183376525715
 20
3.77858695653525
 30
0.0
 10
0.6653535574529635
 20
3.831836774636658
 30
0.0
 10
0.6351614802512994
 20
3.877430066421651
 30
0.0
 10
0.6336423820273162
 20
3.943517620853416
 30
0.0
 10
0.6536890532330933
 20
3.956009491070277
 30
0.0
 10
0.6747665410908589
 20
3.969138840006131
 30
0.0
 10
0.719173037388365
 20
3.952584738377815
 30
0.0
 10
0.7498533961620238
 20
3.907337312706318
 30
0.0
  0
SPLINE
  5
7A
330
1F
100
AcDbEntity
  8
0
100
AcDbSpline
210
0.0
220
0.0
230
1.0
 70
     8
 71
     3
 72
    14
 73
    10
 74
     0
 42
0.0000000001
 43
0.0000000001
 40
0.0
 40
0.0
 40
0.0
 40
0.0
 40
1.0
 40
1.0
 40
1.0
 40
2.0
 40
2.0
 40
2.0
 40
3.0
 40
3.0
 40
3.0
 40
3.0
 10
0.6558185034220697
 20
3.959400335320239
 30
0.0
 10
0.6558185034220697
 20
3.959400335320239
 30
0.0
 10
0.6234834126544292
 20
3.953866477504301
 30
0.0
 10
0.6135685840675395
 20
3.920995633345166
 30
0.0
 10
0.5999509535596909
 20
3.875809242870169
 30
0.0
 10
0.6199298078804688
 20
3.823203685176254
 30
0.0
 10
0.6393932538752524
 20
3.799901803490513
 30
0.0
 10
0.7021509992535543
 20
3.724767476599848
 30
0.0
 10
0.7661430119388427
 20
3.766434170743385
 30
0.0
 10
0.7730738975857657
 20
3.799678007770015
 30
0.0
  0
SPLINE
  5
7B
330
1F
100
AcDbEntity
  8
0
100
AcDbSpline
210
0.0
220
0.0
230
1.0
 70
    11
 71
     3
 72
    17
 73
    13
 74
     0
 42
0.0000000001
 43
0.0000000001
 40
0.0
 40
0.0
 40
0.0
 40
0.0
 40
1.0
 40
1.0
 40
1.0
 40
2.0
 40
2.0
 40
2.0
 40
3.0
 40
3.0
 40
3.0
 40
4.0
 40
4.0
 40
4.0
 40
4.0
 10
1.444311861931301
 20
3.667753821380982
 30
0.0
 10
1.474897277065961
 20
3.622499614020986
 30
0.0
 10
1.478518698724921
 20
3.565194346196623
 30
0.0
 10
1.459028125976138
 20
3.552546497144264
 30
0.0
 10
1.438167652150369
 20
3.539003465209914
 30
0.0
 10
1.394764845750852
 20
3.539003465209914
 30
0.0
 10
1.359635699321243
 20
3.592253283311322
 30
0.0
 10
1.329538565758578
 20
3.637846575096315
 30
0.0
 10
1.328195791435592
 20
3.70393412952808
 30
0.0
 10
1.348269589395369
 20
3.716425999744941
 30
0.0
 10
1.369360640630135
 20
3.729555348680795
 30
0.0
 10
1.413740010173641
 20
3.713001247052479
 30
0.0
 10
1.444311861931301
 20
3.667753821380982
 30
0.0
  0
SPLINE
  5
7C
330
1F
100
AcDbEntity
  8
0
100
AcDbSpline
210
0.0
220
0.0
230
1.0
 70
     8
 71
     3
 72
    14
 73
    10
 74
     0
 42
0.0000000001
 43
0.0000000001
 40
0.0
 40
0.0
 40
0.0
 40
0.0
 40
1.0
 40
1.0
 40
1.0
 40
2.0
 40
2.0
 40
2.0
 40
3.0
 40
3.0
 40
3.0
 40
3.0
 10
1.350399039584346
 20
3.719816843994904
 30
0.0
 10
1.350399039584346
 20
3.719816843994904
 30
0.0
 10
1.318063948816705
 20
3.714282986178965
 30
0.0
 10
1.308054176590817
 20
3.681412142019831
 30
0.0
 10
1.294341602443969
 20
3.636225751544833
 30
0.0
 10
1.314198386371748
 20
3.583620193850918
 30
0.0
 10
1.333594015481532
 20
3.560318312165177
 30
0.0
 10
1.396175436958837
 20
3.485183985274513
 30
0.0
 10
1.460262393283124
 20
3.526850679418049
 30
0.0
 10
1.467288222569046
 20
3.560094516444679
 30
0.0
  0
SPLINE
  5
7D
330
1F
100
AcDbEntity
  8
0
100
AcDbSpline
210
0.0
220
0.0
230
1.0
 70
    11
 71
     3
 72
    17
 73
    13
 74
     0
 42
0.0000000001
 43
0.0000000001
 40
0.0
 40
0.0
 40
0.0
 40
0.0
 40
1.0
 40
1.0
 40
1.0
 40
2.0
 40
2.0
 40
2.0
 40
3.0
 40
3.0
 40
3.0
 40
4.0
 40
4.0
 40
4.0
 40
4.0
 10
0.5448022626783041
 20
3.324003594696805
 30
0.0
 10
0.5755097482059627
 20
3.278749387336808
 30
0.0
 10
0.579253240257921
 20
3.221444119512446
 30
0.0
 10
0.5598033576401374
 20
3.208796270460086
 30
0.0
 10
0.5389700105683691
 20
3.195253238525737
 30
0.0
 10
0.4955672041688517
 20
3.195253238525737
 30
0.0
 10
0.4603024239692439
 20
3.248503056627145
 30
0.0
 10
0.4301103467675796
 20
3.294096348412138
 30
0.0
 10
0.4285912485435965
 20
3.360183902843903
 30
0.0
 10
0.4486379197493736
 20
3.372675773060764
 30
0.0
 10
0.4697154076071393
 20
3.385805121996618
 30
0.0
 10
0.5141219039046453
 20
3.369251020368302
 30
0.0
 10
0.5448022626783041
 20
3.324003594696805
 30
0.0
  0
SPLINE
  5
7E
330
1F
100
AcDbEntity
  8
0
100
AcDbSpline
210
0.0
220
0.0
230
1.0
 70
     8
 71
     3
 72
    14
 73
    10
 74
     0
 42
0.0000000001
 43
0.0000000001
 40
0.0
 40
0.0
 40
0.0
 40
0.0
 40
1.0
 40
1.0
 40
1.0
 40
2.0
 40
2.0
 40
2.0
 40
3.0
 40
3.0
 40
3.0
 40
3.0
 10
0.45076736993835
 20
3.376066617310726
 30
0.0
 10
0.45076736993835
 20
3.376066617310726
 30
0.0
 10
0.4184322791707095
 20
3.370532759494788
 30
0.0
 10
0.4085174505838198
 20
3.337661915335653
 30
0.0
 10
0.3948998200759712
 20
3.292475524860656
 30
0.0
 10
0.4148786743967491
 20
3.239869967166741
 30
0.0
 10
0.4343421203915326
 20
3.216568085481
 30
0.0
 10
0.4970998657698347
 20
3.141433758590336
 30
0.0
 10
0.561091878455123
 20
3.183100452733872
 30
0.0
 10
0.568022764102046
 20
3.216344289760502
 30
0.0
  0
SPLINE
  5
7F
330
1F
100
AcDbEntity
  8
0
100
AcDbSpline
210
0.0
220
0.0
230
1.0
 70
    11
 71
     3
 72
    17
 73
    13
 74
     0
 42
0.0000000001
 43
0.0000000001
 40
0.0
 40
0.0
 40
0.0
 40
0.0
 40
1.0
 40
1.0
 40
1.0
 40
2.0
 40
2.0
 40
2.0
 40
3.0
 40
3.0
 40
3.0
 40
4.0
 40
4.0
 40
4.0
 40
4.0
 10
1.662600851366873
 20
2.919835305166799
 30
0.0
 10
1.693186266501534
 20
2.874581097806803
 30
0.0
 10
1.696807688160493
 20
2.81727582998244
 30
0.0
 10
1.67731711541171
 20
2.804627980930081
 30
0.0
 10
1.656456641585942
 20
2.791084948995732
 30
0.0
 10
1.613053835186424
 20
2.791084948995732
 30
0.0
 10
1.577911125379815
 20
2.84433476709714
 30
0.0
 10
1.54782755519415
 20
2.889928058882132
 30
0.0
 10
1.546457654117165
 20
2.956015613313897
 30
0.0
 10
1.566545015453942
 20
2.968507483530758
 30
0.0
 10
1.587649630065707
 20
2.981636832466612
 30
0.0
 10
1.632015436232214
 20
2.965082730838296
 30
0.0
 10
1.662600851366873
 20
2.919835305166799
 30
0.0
  0
SPLINE
  5
80
330
1F
100
AcDbEntity
  8
0
100
AcDbSpline
210
0.0
220
0.0
230
1.0
 70
     8
 71
     3
 72
    14
 73
    10
 74
     0
 42
0.0000000001
 43
0.0000000001
 40
0.0
 40
0.0
 40
0.0
 40
0.0
 40
1.0
 40
1.0
 40
1.0
 40
2.0
 40
2.0
 40
2.0
 40
3.0
 40
3.0
 40
3.0
 40
3.0
 10
1.568688029019918
 20
2.971898327780721
 30
0.0
 10
1.568688029019918
 20
2.971898327780721
 30
0.0
 10
1.536339374875278
 20
2.966364469964782
 30
0.0
 10
1.526343166026389
 20
2.933493625805648
 30
0.0
 10
1.512617028502541
 20
2.88830723533065
 30
0.0
 10
1.532460249053321
 20
2.835701677636735
 30
0.0
 10
1.551896568294105
 20
2.812399795950994
 30
0.0
 10
1.614450863017409
 20
2.73726546906033
 30
0.0
 10
1.678551382718696
 20
2.778932163203867
 30
0.0
 10
1.685550085250618
 20
2.812176000230497
 30
0.0
  0
SPLINE
  5
81
330
1F
100
AcDbEntity
  8
0
100
AcDbSpline
210
0.0
220
0.0
230
1.0
 70
    11
 71
     3
 72
    17
 73
    13
 74
     0
 42
0.0000000001
 43
0.0000000001
 40
0.0
 40
0.0
 40
0.0
 40
0.0
 40
1.0
 40
1.0
 40
1.0
 40
2.0
 40
2.0
 40
2.0
 40
3.0
 40
3.0
 40
3.0
 40
4.0
 40
4.0
 40
4.0
 40
4.0
 10
0.8374863749580493
 20
2.37935507678831
 30
0.0
 10
0.8682074238627077
 20
2.336365953387288
 30
0.0
 10
0.8737277183016464
 20
2.281922558109894
 30
0.0
 10
0.8556748635148471
 20
2.269905406088027
 30
0.0
 10
0.836347051290062
 20
2.25704054300367
 30
0.0
 10
0.7951143852105206
 20
2.25704054300367
 30
0.0
 10
0.7598089148799133
 20
2.307631939213108
 30
0.0
 10
0.7295625841702497
 20
2.350939801973626
 30
0.0
 10
0.7258462188722908
 20
2.413724674105928
 30
0.0
 10
0.7444687354930838
 20
2.425592628980796
 30
0.0
 10
0.7640406885038661
 20
2.438064154132158
 30
0.0
 10
0.8067924528073908
 20
2.422337418500832
 30
0.0
 10
0.8374863749580493
 20
2.37935507678831
 30
0.0
  0
SPLINE
  5
82
330
1F
100
AcDbEntity
  8
0
100
AcDbSpline
210
0.0
220
0.0
230
1.0
 70
     8
 71
     3
 72
    14
 73
    10
 74
     0
 42
0.0000000001
 43
0.0000000001
 40
0.0
 40
0.0
 40
0.0
 40
0.0
 40
1.0
 40
1.0
 40
1.0
 40
2.0
 40
2.0
 40
2.0
 40
3.0
 40
3.0
 40
3.0
 40
3.0
 10
0.7463811716500625
 20
2.42881393101826
 30
0.0
 10
0.7463811716500625
 20
2.42881393101826
 30
0.0
 10
0.7158500100234021
 20
2.423558122430818
 30
0.0
 10
0.7075492232994943
 20
2.392328446888666
 30
0.0
 10
0.6961559866196211
 20
2.349400358684143
 30
0.0
 10
0.7169486435603899
 20
2.299426096128199
 30
0.0
 10
0.7362357656541753
 20
2.277290664864445
 30
0.0
 10
0.798410285821484
 20
2.205913393402739
 30
0.0
 10
0.8577907503268235
 20
2.245498109176799
 30
0.0
 10
0.863229664503763
 20
2.277080432520948
 30
0.0
  0
SPLINE
  5
83
330
1F
100
AcDbEntity
  8
0
100
AcDbSpline
210
0.0
220
0.0
230
1.0
 70
    11
 71
     3
 72
    17
 73
    13
 74
     0
 42
0.0000000001
 43
0.0000000001
 40
0.0
 40
0.0
 40
0.0
 40
0.0
 40
1.0
 40
1.0
 40
1.0
 40
2.0
 40
2.0
 40
2.0
 40
3.0
 40
3.0
 40
3.0
 40
4.0
 40
4.0
 40
4.0
 40
4.0
 10
1.355064841272294
 20
2.171021606070627
 30
0.0
 10
1.385785890176952
 20
2.128032482669605
 30
0.0
 10
1.391306184615891
 20
2.073589087392211
 30
0.0
 10
1.373253329829091
 20
2.061571935370344
 30
0.0
 10
1.353925517604306
 20
2.048707072285987
 30
0.0
 10
1.312692851524765
 20
2.048707072285987
 30
0.0
 10
1.277387381194158
 20
2.099298468495424
 30
0.0
 10
1.247141050484494
 20
2.142606331255943
 30
0.0
 10
1.243424685186535
 20
2.205391203388245
 30
0.0
 10
1.262047201807328
 20
2.217259158263113
 30
0.0
 10
1.28161915481811
 20
2.229730683414474
 30
0.0
 10
1.324370919121635
 20
2.214003947783149
 30
0.0
 10
1.355064841272294
 20
2.171021606070627
 30
0.0
  0
SPLINE
  5
84
330
1F
100
AcDbEntity
  8
0
100
AcDbSpline
210
0.0
220
0.0
230
1.0
 70
     8
 71
     3
 72
    14
 73
    10
 74
     0
 42
0.0000000001
 43
0.0000000001
 40
0.0
 40
0.0
 40
0.0
 40
0.0
 40
1.0
 40
1.0
 40
1.0
 40
2.0
 40
2.0
 40
2.0
 40
3.0
 40
3.0
 40
3.0
 40
3.0
 10
1.263959637964307
 20
2.220480460300577
 30
0.0
 10
1.263959637964307
 20
2.220480460300577
 30
0.0
 10
1.233428476337646
 20
2.215224651713135
 30
0.0
 10
1.225127689613739
 20
2.183994976170983
 30
0.0
 10
1.213734452933865
 20
2.14106688796646
 30
0.0
 10
1.234527109874634
 20
2.091092625410516
 30
0.0
 10
1.25381423196842
 20
2.068957194146762
 30
0.0
 10
1.315988752135728
 20
1.997579922685056
 30
0.0
 10
1.375369216641068
 20
2.037164638459116
 30
0.0
 10
1.380808130818007
 20
2.068746961803264
 30
0.0
  0
SPLINE
  5
85
330
1F
100
AcDbEntity
  8
0
100
AcDbSpline
210
0.0
220
0.0
230
1.0
 70
    11
 71
     3
 72
    17
 73
    13
 74
     0
 42
0.0000000001
 43
0.0000000001
 40
0.0
 40
0.0
 40
0.0
 40
0.0
 40
1.0
 40
1.0
 40
1.0
 40
2.0
 40
2.0
 40
2.0
 40
3.0
 40
3.0
 40
3.0
 40
4.0
 40
4.0
 40
4.0
 40
4.0
 10
0.4507809333153497
 20
1.956381165048014
 30
0.0
 10
0.4826277425109956
 20
1.917596688516945
 30
0.0
 10
0.4913354305448988
 20
1.866340686834515
 30
0.0
 10
0.4749915612600806
 20
1.853801344798155
 30
0.0
 10
0.4574948049302752
 20
1.840373601568304
 30
0.0
 10
0.4184051524167098
 20
1.837749088118833
 30
0.0
 10
0.3817162176321178
 20
1.883450886919825
 30
0.0
 10
0.3502898731234673
 20
1.92256766618739
 30
0.0
 10
0.342762198888551
 20
1.981839623676731
 30
0.0
 10
0.3596621666303631
 20
1.994277240385592
 30
0.0
 10
0.3774166271231656
 20
2.007345554124947
 30
0.0
 10
0.4189476874967038
 20
1.995165641579082
 30
0.0
 10
0.4507809333153497
 20
1.956381165048014
 30
0.0
  0
SPLINE
  5
86
330
1F
100
AcDbEntity
  8
0
100
AcDbSpline
210
0.0
220
0.0
230
1.0
 70
     8
 71
     3
 72
    14
 73
    10
 74
     0
 42
0.0000000001
 43
0.0000000001
 40
0.0
 40
0.0
 40
0.0
 40
0.0
 40
1.0
 40
1.0
 40
1.0
 40
2.0
 40
2.0
 40
2.0
 40
3.0
 40
3.0
 40
3.0
 40
3.0
 10
0.3612626451163453
 20
1.997444288915057
 30
0.0
 10
0.3612626451163453
 20
1.997444288915057
 30
0.0
 10
0.3326574830236634
 20
1.990520184956634
 30
0.0
 10
0.3267845407827287
 20
1.960389142951469
 30
0.0
 10
0.3187278948448183
 20
1.91897337128243
 30
0.0
 10
0.3416228752205637
 20
1.872932488056442
 30
0.0
 10
0.3613168986243447
 20
1.853184211144662
 30
0.0
 10
0.4247935029836388
 20
1.78949737444187
 30
0.0
 10
0.4785587294110408
 20
1.83079785740641
 30
0.0
 10
0.481691869498006
 20
1.861078096558574
 30
0.0
  0
SPLINE
  5
87
330
1F
100
AcDbEntity
  8
0
100
AcDbSpline
210
0.0
220
0.0
230
1.0
 70
    11
 71
     3
 72
    17
 73
    13
 74
     0
 42
0.0000000001
 43
0.0000000001
 40
0.0
 40
0.0
 40
0.0
 40
0.0
 40
1.0
 40
1.0
 40
1.0
 40
2.0
 40
2.0
 40
2.0
 40
3.0
 40
3.0
 40
3.0
 40
4.0
 40
4.0
 40
4.0
 40
4.0
 10
1.745771479129949
 20
1.434984608108312
 30
0.0
 10
1.777618288325594
 20
1.396206913265743
 30
0.0
 10
1.786325976359497
 20
1.344937348206313
 30
0.0
 10
1.76998210707468
 20
1.332404787858453
 30
0.0
 10
1.752485350744874
 20
1.318977044628602
 30
0.0
 10
1.713395698231309
 20
1.316345749490631
 30
0.0
 10
1.676706763446717
 20
1.362054329980123
 30
0.0
 10
1.645280418938066
 20
1.401171109247688
 30
0.0
 10
1.63775274470315
 20
1.460443066737029
 30
0.0
 10
1.654652712444962
 20
1.472880683445891
 30
0.0
 10
1.672407172937764
 20
1.485942215496745
 30
0.0
 10
1.713938233311303
 20
1.473762302950881
 30
0.0
 10
1.745771479129949
 20
1.434984608108312
 30
0.0
  0
SPLINE
  5
88
330
1F
100
AcDbEntity
  8
0
100
AcDbSpline
210
0.0
220
0.0
230
1.0
 70
     8
 71
     3
 72
    14
 73
    10
 74
     0
 42
0.0000000001
 43
0.0000000001
 40
0.0
 40
0.0
 40
0.0
 40
0.0
 40
1.0
 40
1.0
 40
1.0
 40
2.0
 40
2.0
 40
2.0
 40
3.0
 40
3.0
 40
3.0
 40
3.0
 10
1.656253190930944
 20
1.476040950286856
 30
0.0
 10
1.656253190930944
 20
1.476040950286856
 30
0.0
 10
1.627648028838262
 20
1.469123628016932
 30
0.0
 10
1.621775086597328
 20
1.438985804323268
 30
0.0
 10
1.613718440659417
 20
1.397576814342728
 30
0.0
 10
1.636613421035162
 20
1.35152914942824
 30
0.0
 10
1.656307444438943
 20
1.33178087251646
 30
0.0
 10
1.719784048798238
 20
1.268100817502168
 30
0.0
 10
1.77354927522564
 20
1.309401300466709
 30
0.0
 10
1.776682415312605
 20
1.339674757930372
 30
0.0
  0
LWPOLYLINE
  5
89
330
1F
100
AcDbEntity
  8
0
100
AcDbPolyline
 90
        2
 70
     0
 43
0.0
 10
1.998226615228141
 20
3.248977774822139
 10
2.035024057028732
 20
3.269845030336407
  0
LWPOLYLINE
  5
8D
330
1F
100
AcDbEntity
  8
0
100
AcDbPolyline
 90
        2
 70
     0
 43
0.0
 10
1.735571819626062
 20
3.703839185889081
 10
1.773169500669644
 20
3.724706441403349
  0
LWPOLYLINE
  5
91
330
1F
100
AcDbEntity
  8
0
100
AcDbPolyline
 90
        2
 70
     0
 43
0.0
 10
0.980498622044459
 20
3.855552339320894
 10
1.018069176334041
 20
3.876419594835162
  0
LWPOLYLINE
  5
95
330
1F
100
AcDbEntity
  8
0
100
AcDbPolyline
 90
        2
 70
     0
 43
0.0
 10
0.8023843552824398
 20
4.115969177717998
 10
0.8367675159770575
 20
4.131851892184821
  0
INSERT
  5
DB
330
1F
100
AcDbEntity
  8
0
100
AcDbBlockReference
 66
     1
  2
sstmodel
 10
2.050029672622975
 20
-0.768419930173819
 30
0.0
  0
ATTRIB
  5
DC
330
DB
100
AcDbEntity
  8
NOTE
 62
     7
100
AcDbText
 10
1.837870932275193
 20
-0.8161143408999011
 30
0.0
 40
0.09
  1
DTT2Z
  7
HELVETICA
 72
     1
 11
2.032870932275193
 21
-0.8161143408999011
 31
0.0
100
AcDbAttribute
  2
MODEL
 70
     0
  0
ATTRIB
  5
DD
330
DB
100
AcDbEntity
  8
NOTE
100
AcDbText
 10
2.049570932275194
 20
-0.9692043949006406
 30
0.0
 40
0.09
  1

  7
HELVETICA
 72
     1
 11
2.049570932275194
 21
-0.9692043949006406
 31
0.0
100
AcDbAttribute
  2
APPROVAL
 70
     4
  0
SEQEND
  5
DE
330
DB
100
AcDbEntity
  8
0
  0
ENDSEC
  0
SECTION
  2
OBJECTS
  0
DICTIONARY
  5
C
330
0
100
AcDbDictionary
281
     1
  3
ACAD_COLOR
350
9E
  3
ACAD_GROUP
350
D
  3
ACAD_LAYOUT
350
1A
  3
ACAD_MATERIAL
350
9D
  3
ACAD_MLINESTYLE
350
17
  3
ACAD_PLOTSETTINGS
350
19
  3
ACAD_PLOTSTYLENAME
350
E
  3
ACAD_TABLESTYLE
350
9B
  3
ACAD_VISUALSTYLE
350
2A
  3
ACDBHEADERROUNDTRIPXREC
350
E8
  3
AcDbVariableDictionary
350
BA
  3
ASE_INDEX_DICTIONARY
350
A3
  0
DICTIONARY
  5
CE
330
2
100
AcDbDictionary
280
     1
281
     1
  3
ACAD_LAYERSTATES
360
CF
  0
DICTIONARY
  5
C2
330
C1
100
AcDbDictionary
280
     1
281
     1
  3
ACAD_SORTENTS
360
C3
  0
DICTIONARY
  5
9E
102
{ACAD_REACTORS
330
C
102
}
330
C
100
AcDbDictionary
281
     1
  0
DICTIONARY
  5
D
102
{ACAD_REACTORS
330
C
102
}
330
C
100
AcDbDictionary
281
     1
  0
DICTIONARY
  5
1A
102
{ACAD_REACTORS
330
C
102
}
330
C
100
AcDbDictionary
281
     1
  3
Layout1
350
1E
  3
Layout2
350
26
  3
Model
350
22
  0
DICTIONARY
  5
9D
102
{ACAD_REACTORS
330
C
102
}
330
C
100
AcDbDictionary
281
     1
  0
DICTIONARY
  5
17
102
{ACAD_REACTORS
330
C
102
}
330
C
100
AcDbDictionary
281
     1
  3
Standard
350
18
  0
DICTIONARY
  5
19
102
{ACAD_REACTORS
330
C
102
}
330
C
100
AcDbDictionary
281
     1
  0
ACDBDICTIONARYWDFLT
  5
E
102
{ACAD_REACTORS
330
C
102
}
330
C
100
AcDbDictionary
281
     1
  3
Normal
350
F
100
AcDbDictionaryWithDefault
340
F
  0
DICTIONARY
  5
9B
102
{ACAD_REACTORS
330
C
102
}
330
C
100
AcDbDictionary
281
     1
  3
Standard
350
9F
  0
DICTIONARY
  5
2A
102
{ACAD_REACTORS
330
C
102
}
330
C
100
AcDbDictionary
281
     1
  3
2dWireframe
350
2F
  3
3D Hidden
350
31
  3
3dWireframe
350
30
  3
Basic
350
32
  3
Brighten
350
36
  3
ColorChange
350
3A
  3
Conceptual
350
34
  3
Dim
350
35
  3
Facepattern
350
39
  3
Flat
350
2B
  3
FlatWithEdges
350
2C
  3
Gouraud
350
2D
  3
GouraudWithEdges
350
2E
  3
Linepattern
350
38
  3
Realistic
350
33
  3
Thicken
350
37
  0
DICTIONARY
  5
E8
102
{ACAD_REACTORS
330
C
102
}
330
C
100
AcDbDictionary
281
     1
  3
COLORDICT
350
E9
  3
MATERIALDICT
350
EA
  0
DICTIONARY
  5
BA
102
{ACAD_REACTORS
330
C
102
}
330
C
100
AcDbDictionary
281
     1
  3
CTABLESTYLE
350
BB
  0
DICTIONARY
  5
A3
102
{ACAD_REACTORS
330
C
102
}
330
C
100
AcDbDictionary
281
     1
  3
ASEBlockHierarchyIndexRecord
350
A5
1001
DCO15
1040
1650276779.458
  0
DICTIONARY
  5
CF
102
{ACAD_REACTORS
330
CE
102
}
330
CE
100
AcDbDictionary
281
     1
  0
SORTENTSTABLE
  5
C3
102
{ACAD_REACTORS
330
C2
102
}
330
C2
100
AcDbSortentsTable
330
C1
  0
LAYOUT
  5
1E
102
{ACAD_REACTORS
330
1A
102
}
102
{ACAD_XDICTIONARY
360
EB
102
}
330
1A
100
AcDbPlotSettings
  1

  2
none_device
  4

  6

 40
0.0
 41
0.0
 42
0.0
 43
0.0
 44
0.0
 45
0.0
 46
0.0
 47
0.0
 48
0.0
 49
0.0
140
0.0
141
0.0
142
1.0
143
1.0
 70
   688
 72
     0
 73
     0
 74
     5
  7

 75
    16
147
1.0
148
0.0
149
0.0
100
AcDbLayout
  1
Layout1
 70
     1
 71
     1
 10
0.0
 20
0.0
 11
12.0
 21
9.0
 12
0.0
 22
0.0
 32
0.0
 14
1.000000000000000E+20
 24
1.000000000000000E+20
 34
1.000000000000000E+20
 15
-1.000000000000000E+20
 25
-1.000000000000000E+20
 35
-1.000000000000000E+20
146
0.0
 13
0.0
 23
0.0
 33
0.0
 16
1.0
 26
0.0
 36
0.0
 17
0.0
 27
1.0
 37
0.0
 76
     0
330
1B
  0
LAYOUT
  5
26
102
{ACAD_REACTORS
330
1A
102
}
102
{ACAD_XDICTIONARY
360
ED
102
}
330
1A
100
AcDbPlotSettings
  1

  2
none_device
  4

  6

 40
0.0
 41
0.0
 42
0.0
 43
0.0
 44
0.0
 45
0.0
 46
0.0
 47
0.0
 48
0.0
 49
0.0
140
0.0
141
0.0
142
1.0
143
1.0
 70
   688
 72
     0
 73
     0
 74
     5
  7

 75
    16
147
1.0
148
0.0
149
0.0
100
AcDbLayout
  1
Layout2
 70
     1
 71
     2
 10
0.0
 20
0.0
 11
0.0
 21
0.0
 12
0.0
 22
0.0
 32
0.0
 14
0.0
 24
0.0
 34
0.0
 15
0.0
 25
0.0
 35
0.0
146
0.0
 13
0.0
 23
0.0
 33
0.0
 16
1.0
 26
0.0
 36
0.0
 17
0.0
 27
1.0
 37
0.0
 76
     0
330
23
  0
LAYOUT
  5
22
102
{ACAD_REACTORS
330
1A
102
}
102
{ACAD_XDICTIONARY
360
EF
102
}
330
1A
100
AcDbPlotSettings
  1

  2
none_device
  4

  6

 40
0.0
 41
0.0
 42
0.0
 43
0.0
 44
0.0
 45
0.0
 46
0.0
 47
0.0
 48
0.0
 49
0.0
140
0.0
141
0.0
142
1.0
143
1.0
 70
  1712
 72
     0
 73
     0
 74
     0
  7

 75
     0
147
1.0
148
0.0
149
0.0
100
AcDbLayout
  1
Model
 70
     1
 71
     0
 10
0.0
 20
0.0
 11
12.0
 21
9.0
 12
0.0
 22
0.0
 32
0.0
 14
1.000000000000000E+20
 24
1.000000000000000E+20
 34
1.000000000000000E+20
 15
-1.000000000000000E+20
 25
-1.000000000000000E+20
 35
-1.000000000000000E+20
146
0.0
 13
0.0
 23
0.0
 33
0.0
 16
1.0
 26
0.0
 36
0.0
 17
0.0
 27
1.0
 37
0.0
 76
     0
330
1F
  0
MLINESTYLE
  5
18
102
{ACAD_REACTORS
330
17
102
}
330
17
100
AcDbMlineStyle
  2
STANDARD
 70
     0
  3

 62
   256
 51
90.0
 52
90.0
 71
     2
 49
0.5
 62
   256
  6
BYLAYER
 49
-0.5
 62
   256
  6
BYLAYER
  0
ACDBPLACEHOLDER
  5
F
102
{ACAD_REACTORS
330
E
102
}
330
E
  0
ACAD_PROXY_OBJECT
  5
9F
102
{ACAD_REACTORS
330
9B
102
}
330
9B
100
AcDbProxyObject
 90
      499
 91
      504
 95
   983063
 70
     0
 93
     1841
310
4214DD185B99185C9928B81E85EB51B8AE3F2E07A17AD46E2B8FC02B5E8DC0F42B1CFD028000000C1008070000C3001FDFF8000000C1003FBFF000000182007F7FE00000030400FEFFC00000060801FDFF8000000C1003FBFF00000018200000000000000681FA0B0000001820100E000186003FBFF000000182007F7FE000
310
00030400FEFFC00000060801FDFF8000000C1003FBFF000000182007F7FE000000304000AD7A3703D0AC73F4160000003040201C00030C007F7FE00000030400FEFFC00000060801FDFF8000000C1003FBFF000000182007F7FE00000030400FEFFC000000608000
340
11
340
11
340
11
 94
        0
  0
ACAD_PROXY_OBJECT
  5
2F
102
{ACAD_REACTORS
330
2A
102
}
330
2A
100
AcDbProxyObject
 90
      499
 91
      501
 95
   983063
 70
     0
 93
      436
310
42CC9915DA5C99599C985B595049028333333333333E3BF0000000000000FB0107901411070040501600405405064090741402480A0340
 94
        0
1001
ACAD
1000
AcDbSavedByObjectVersion
1070
     0
1000
AcRTDxfName
1000
VISUALSTYLE
1000
AcRTDxfName
1000
VISUALSTYLE
  0
ACAD_PROXY_OBJECT
  5
31
102
{ACAD_REACTORS
330
2A
102
}
330
2A
100
AcDbProxyObject
 90
      499
 91
      501
 95
   983063
 70
     0
 93
      500
310
424CD108121A5919195B90640502408333333333333E3BF0000000000000FB01079024090700405020000000000001110200405405064090740C02480A0340
 94
        0
1001
ACAD
1000
AcDbSavedByObjectVersion
1070
     0
1000
AcRTDxfName
1000
VISUALSTYLE
1000
AcRTDxfName
1000
VISUALSTYLE
  0
ACAD_PROXY_OBJECT
  5
30
102
{ACAD_REACTORS
330
2A
102
}
330
2A
100
AcDbProxyObject
 90
      499
 91
      501
 95
   983063
 70
     0
 93
      436
310
42CCD915DA5C99599C985B595059028333333333333E3BF0000000000000FB0107901411070040501600405405064090741402480A0340
 94
        0
1001
ACAD
1000
AcDbSavedByObjectVersion
1070
     0
1000
AcRTDxfName
1000
VISUALSTYLE
1000
AcRTDxfName
1000
VISUALSTYLE
  0
ACAD_PROXY_OBJECT
  5
32
102
{ACAD_REACTORS
330
2A
102
}
330
2A
100
AcDbProxyObject
 90
      499
 91
      501
 95
   983063
 70
     0
 93
      388
310
4150985CDA58D07406404333333333333E3BF0000000000000FB0107A41107004050150841D405064090741402480A0350
 94
        0
1001
ACAD
1000
AcDbSavedByObjectVersion
1070
     0
1000
AcRTDxfName
1000
VISUALSTYLE
1000
AcRTDxfName
1000
VISUALSTYLE
  0
ACAD_PROXY_OBJECT
  5
36
102
{ACAD_REACTORS
330
2A
102
}
330
2A
100
AcDbProxyObject
 90
      499
 91
      501
 95
   983063
 70
     0
 93
      428
310
42109C9A59DA1D195B90C409028333333333333E3BF0000000000000FB010790141107004050150841D405064090741402480A029950
 94
        0
1001
ACAD
1000
AcDbSavedByObjectVersion
1070
     0
1000
AcRTDxfName
1000
VISUALSTYLE
1000
AcRTDxfName
1000
VISUALSTYLE
  0
ACAD_PROXY_OBJECT
  5
3A
102
{ACAD_REACTORS
330
2A
102
}
330
2A
100
AcDbProxyObject
 90
      499
 91
      501
 95
   983063
 70
     0
 93
      452
310
42D0DBDB1BDC90DA185B99D95104090240C333333333333E3BF0000000000000FB0108901411070040501508421405064090741402480A0350
 94
        0
1001
ACAD
1000
AcDbSavedByObjectVersion
1070
     0
1000
AcRTDxfName
1000
VISUALSTYLE
1000
AcRTDxfName
1000
VISUALSTYLE
  0
ACAD_PROXY_OBJECT
  5
34
102
{ACAD_REACTORS
330
2A
102
}
330
2A
100
AcDbProxyObject
 90
      499
 91
      501
 95
   983063
 70
     0
 93
      500
310
4290DBDB98D95C1D1D585B10940D028333333333333E3BF0000000000000FB0107902409070040501000000000000111010841D405064090740C02480A0340
 94
        0
1001
ACAD
1000
AcDbSavedByObjectVersion
1070
     0
1000
AcRTDxfName
1000
VISUALSTYLE
1000
AcRTDxfName
1000
VISUALSTYLE
  0
ACAD_PROXY_OBJECT
  5
35
102
{ACAD_REACTORS
330
2A
102
}
330
2A
100
AcDbProxyObject
 90
      499
 91
      501
 95
   983063
 70
     0
 93
      412
310
40D11A5B50B409028333333333333E3BF0000000000000FB010790141107004050150841D405064090741402480A02677FFFFFD0
 94
        0
1001
ACAD
1000
AcDbSavedByObjectVersion
1070
     0
1000
AcRTDxfName
1000
VISUALSTYLE
1000
AcRTDxfName
1000
VISUALSTYLE
  0
ACAD_PROXY_OBJECT
  5
39
102
{ACAD_REACTORS
330
2A
102
}
330
2A
100
AcDbProxyObject
 90
      499
 91
      501
 95
   983063
 70
     0
 93
      444
310
42D19858D95C185D1D195C9B90F409028333333333333E3BF0000000000000FB010790141107004050150841D405064090741402480A0350
 94
        0
1001
ACAD
1000
AcDbSavedByObjectVersion
1070
     0
1000
AcRTDxfName
1000
VISUALSTYLE
1000
AcRTDxfName
1000
VISUALSTYLE
  0
ACAD_PROXY_OBJECT
  5
2B
102
{ACAD_REACTORS
330
2A
102
}
330
2A
100
AcDbProxyObject
 90
      499
 91
      501
 95
   983063
 70
     0
 93
      388
310
41119B185D240901404333333333333E3BF0000000000000F9010740A41107004050150841D405064090741402480A1B50
 94
        0
1001
ACAD
1000
AcDbSavedByObjectVersion
1070
     0
1000
AcRTDxfName
1000
VISUALSTYLE
1000
AcRTDxfName
1000
VISUALSTYLE
  0
ACAD_PROXY_OBJECT
  5
2C
102
{ACAD_REACTORS
330
2A
102
}
330
2A
100
AcDbProxyObject
 90
      499
 91
      501
 95
   983063
 70
     0
 93
      476
310
43519B185D15DA5D1A115919D95CD0140901404333333333333E3BF0000000000000F9010740901411070040501600405405064090741402480A1B50
 94
        0
1001
ACAD
1000
AcDbSavedByObjectVersion
1070
     0
1000
AcRTDxfName
1000
VISUALSTYLE
1000
AcRTDxfName
1000
VISUALSTYLE
  0
ACAD_PROXY_OBJECT
  5
2D
102
{ACAD_REACTORS
330
2A
102
}
330
2A
100
AcDbProxyObject
 90
      499
 91
      501
 95
   983063
 70
     0
 93
      412
310
41D1DBDD5C985D5910240902404333333333333E3BF0000000000000F9010740A411070040501641D405064090741402480A1B50
 94
        0
1001
ACAD
1000
AcDbSavedByObjectVersion
1070
     0
1000
AcRTDxfName
1000
VISUALSTYLE
1000
AcRTDxfName
1000
VISUALSTYLE
  0
ACAD_PROXY_OBJECT
  5
2E
102
{ACAD_REACTORS
330
2A
102
}
330
2A
100
AcDbProxyObject
 90
      499
 91
      501
 95
   983063
 70
     0
 93
      500
310
4411DBDD5C985D5915DA5D1A115919D95CD0340902404333333333333E3BF0000000000000F9010740901411070040501600405405064090741402480A1B50
 94
        0
1001
ACAD
1000
AcDbSavedByObjectVersion
1070
     0
1000
AcRTDxfName
1000
VISUALSTYLE
1000
AcRTDxfName
1000
VISUALSTYLE
  0
ACAD_PROXY_OBJECT
  5
38
102
{ACAD_REACTORS
330
2A
102
}
330
2A
100
AcDbProxyObject
 90
      499
 91
      501
 95
   983063
 70
     0
 93
      444
310
42D31A5B995C185D1D195C9B90E409028333333333333E3BF0000000000000FB010790141107004050750841D405064090741402483A0350
 94
        0
1001
ACAD
1000
AcDbSavedByObjectVersion
1070
     0
1000
AcRTDxfName
1000
VISUALSTYLE
1000
AcRTDxfName
1000
VISUALSTYLE
  0
ACAD_PROXY_OBJECT
  5
33
102
{ACAD_REACTORS
330
2A
102
}
330
2A
100
AcDbProxyObject
 90
      499
 91
      501
 95
   983063
 70
     0
 93
      420
310
425499585B1A5CDD1A58D08409028333333333333E3BF0000000000000FB01079019070040501508421405064090741402480A1B40
 94
        0
1001
ACAD
1000
AcDbSavedByObjectVersion
1070
     0
1000
AcRTDxfName
1000
VISUALSTYLE
1000
AcRTDxfName
1000
VISUALSTYLE
  0
ACAD_PROXY_OBJECT
  5
37
102
{ACAD_REACTORS
330
2A
102
}
330
2A
100
AcDbProxyObject
 90
      499
 91
      501
 95
   983063
 70
     0
 93
      412
310
41D51A1A58DAD95B90D409028333333333333E3BF0000000000000FB010790141107004050150C41D405064090741402480A0350
 94
        0
1001
ACAD
1000
AcDbSavedByObjectVersion
1070
     0
1000
AcRTDxfName
1000
VISUALSTYLE
1000
AcRTDxfName
1000
VISUALSTYLE
  0
XRECORD
  5
E9
102
{ACAD_REACTORS
330
E8
102
}
330
E8
100
AcDbXrecord
340
9E
  0
XRECORD
  5
EA
102
{ACAD_REACTORS
330
E8
102
}
330
E8
100
AcDbXrecord
340
9D
  0
DICTIONARYVAR
  5
BB
102
{ACAD_REACTORS
330
BA
102
}
330
BA
100
DictionaryVariables
280
     0
  1
STANDARD
  0
XRECORD
  5
A5
102
{ACAD_REACTORS
330
A3
102
}
330
A3
100
AcDbXrecord
280
     1
  0
DICTIONARY
  5
EB
330
1E
100
AcDbDictionary
280
     1
281
     1
  3
ACAD_XREC_ROUNDTRIP
360
EC
  0
DICTIONARY
  5
ED
330
26
100
AcDbDictionary
280
     1
281
     1
  3
ACAD_XREC_ROUNDTRIP
360
EE
  0
DICTIONARY
  5
EF
330
22
100
AcDbDictionary
280
     1
281
     1
  3
ACAD_XREC_ROUNDTRIP
360
F0
  0
XRECORD
  5
EC
102
{ACAD_REACTORS
330
EB
102
}
330
EB
100
AcDbXrecord
102
SHADEPLOT
 70
     0
102
SHADEPLOTRESLEVEL
 70
     2
102
SHADEPLOTCUSTOMDPI
 70
   300
  0
XRECORD
  5
EE
102
{ACAD_REACTORS
330
ED
102
}
330
ED
100
AcDbXrecord
102
SHADEPLOT
 70
     0
102
SHADEPLOTRESLEVEL
 70
     2
102
SHADEPLOTCUSTOMDPI
 70
   300
  0
XRECORD
  5
F0
102
{ACAD_REACTORS
330
EF
102
}
330
EF
100
AcDbXrecord
102
SHADEPLOT
 70
     0
102
SHADEPLOTRESLEVEL
 70
     2
102
SHADEPLOTCUSTOMDPI
 70
   300
  0
ENDSEC
  0
EOF
