  0
SECTION
  2
HEADER
  9
$ACADVER
  1
AC1015
  9
$ACADMAINTVER
 70
     6
  9
$DWGCODEPAGE
  3
ANSI_1252
  9
$INSBASE
 10
0.0
 20
0.0
 30
0.0
  9
$EXTMIN
 10
0.0000000181460118
 20
0.0000000002748868
 30
0.0
  9
$EXTMAX
 10
3.794013547318888
 20
4.339677069950127
 30
0.0
  9
$LIMMIN
 10
0.0
 20
0.0
  9
$LIMMAX
 10
12.0
 20
9.0
  9
$ORTHOMODE
 70
     0
  9
$REGENMODE
 70
     1
  9
$FILLMODE
 70
     1
  9
$QTEXTMODE
 70
     0
  9
$MIRRTEXT
 70
     0
  9
$LTSCALE
 40
1.0
  9
$ATTMODE
 70
     1
  9
$TEXTSIZE
 40
0.2
  9
$TRACEWID
 40
0.05
  9
$TEXTSTYLE
  7
Standard
  9
$CLAYER
  8
0
  9
$CELTYPE
  6
ByLayer
  9
$CECOLOR
 62
   256
  9
$CELTSCALE
 40
1.0
  9
$DISPSILH
 70
     0
  9
$DIMSCALE
 40
1.0
  9
$DIMASZ
 40
0.18
  9
$DIMEXO
 40
0.0625
  9
$DIMDLI
 40
0.38
  9
$DIMRND
 40
0.0
  9
$DIMDLE
 40
0.0
  9
$DIMEXE
 40
0.18
  9
$DIMTP
 40
0.0
  9
$DIMTM
 40
0.0
  9
$DIMTXT
 40
0.18
  9
$DIMCEN
 40
0.09
  9
$DIMTSZ
 40
0.0
  9
$DIMTOL
 70
     0
  9
$DIMLIM
 70
     0
  9
$DIMTIH
 70
     1
  9
$DIMTOH
 70
     1
  9
$DIMSE1
 70
     0
  9
$DIMSE2
 70
     0
  9
$DIMTAD
 70
     0
  9
$DIMZIN
 70
     0
  9
$DIMBLK
  1

  9
$DIMASO
 70
     1
  9
$DIMSHO
 70
     1
  9
$DIMPOST
  1

  9
$DIMAPOST
  1

  9
$DIMALT
 70
     0
  9
$DIMALTD
 70
     2
  9
$DIMALTF
 40
25.4
  9
$DIMLFAC
 40
1.0
  9
$DIMTOFL
 70
     0
  9
$DIMTVP
 40
0.0
  9
$DIMTIX
 70
     0
  9
$DIMSOXD
 70
     0
  9
$DIMSAH
 70
     0
  9
$DIMBLK1
  1

  9
$DIMBLK2
  1

  9
$DIMSTYLE
  2
Standard
  9
$DIMCLRD
 70
     0
  9
$DIMCLRE
 70
     0
  9
$DIMCLRT
 70
     0
  9
$DIMTFAC
 40
1.0
  9
$DIMGAP
 40
0.09
  9
$DIMJUST
 70
     0
  9
$DIMSD1
 70
     0
  9
$DIMSD2
 70
     0
  9
$DIMTOLJ
 70
     1
  9
$DIMTZIN
 70
     0
  9
$DIMALTZ
 70
     0
  9
$DIMALTTZ
 70
     0
  9
$DIMUPT
 70
     0
  9
$DIMDEC
 70
     4
  9
$DIMTDEC
 70
     4
  9
$DIMALTU
 70
     2
  9
$DIMALTTD
 70
     2
  9
$DIMTXSTY
  7
Standard
  9
$DIMAUNIT
 70
     0
  9
$DIMADEC
 70
     0
  9
$DIMALTRND
 40
0.0
  9
$DIMAZIN
 70
     0
  9
$DIMDSEP
 70
    46
  9
$DIMATFIT
 70
     3
  9
$DIMFRAC
 70
     0
  9
$DIMLDRBLK
  1

  9
$DIMLUNIT
 70
     2
  9
$DIMLWD
 70
    -2
  9
$DIMLWE
 70
    -2
  9
$DIMTMOVE
 70
     0
  9
$LUNITS
 70
     2
  9
$LUPREC
 70
     4
  9
$SKETCHINC
 40
0.1
  9
$FILLETRAD
 40
0.0
  9
$AUNITS
 70
     0
  9
$AUPREC
 70
     0
  9
$MENU
  1
.
  9
$ELEVATION
 40
0.0
  9
$PELEVATION
 40
0.0
  9
$THICKNESS
 40
0.0
  9
$LIMCHECK
 70
     0
  9
$CHAMFERA
 40
0.0
  9
$CHAMFERB
 40
0.0
  9
$CHAMFERC
 40
0.0
  9
$CHAMFERD
 40
0.0
  9
$SKPOLY
 70
     0
  9
$TDCREATE
 40
2455076.88955772
  9
$TDUCREATE
 40
2455077.222891053
  9
$TDUPDATE
 40
2455076.931332349
  9
$TDUUPDATE
 40
2455077.264665683
  9
$TDINDWG
 40
0.0052497454
  9
$TDUSRTIMER
 40
0.0052497454
  9
$USRTIMER
 70
     1
  9
$ANGBASE
 50
0.0
  9
$ANGDIR
 70
     0
  9
$PDMODE
 70
     0
  9
$PDSIZE
 40
0.0
  9
$PLINEWID
 40
0.0
  9
$SPLFRAME
 70
     0
  9
$SPLINETYPE
 70
     6
  9
$SPLINESEGS
 70
     8
  9
$HANDSEED
  5
90F
  9
$SURFTAB1
 70
     6
  9
$SURFTAB2
 70
     6
  9
$SURFTYPE
 70
     6
  9
$SURFU
 70
     6
  9
$SURFV
 70
     6
  9
$UCSBASE
  2

  9
$UCSNAME
  2

  9
$UCSORG
 10
0.0
 20
0.0
 30
0.0
  9
$UCSXDIR
 10
1.0
 20
0.0
 30
0.0
  9
$UCSYDIR
 10
0.0
 20
1.0
 30
0.0
  9
$UCSORTHOREF
  2

  9
$UCSORTHOVIEW
 70
     0
  9
$UCSORGTOP
 10
0.0
 20
0.0
 30
0.0
  9
$UCSORGBOTTOM
 10
0.0
 20
0.0
 30
0.0
  9
$UCSORGLEFT
 10
0.0
 20
0.0
 30
0.0
  9
$UCSORGRIGHT
 10
0.0
 20
0.0
 30
0.0
  9
$UCSORGFRONT
 10
0.0
 20
0.0
 30
0.0
  9
$UCSORGBACK
 10
0.0
 20
0.0
 30
0.0
  9
$PUCSBASE
  2

  9
$PUCSNAME
  2

  9
$PUCSORG
 10
0.0
 20
0.0
 30
0.0
  9
$PUCSXDIR
 10
1.0
 20
0.0
 30
0.0
  9
$PUCSYDIR
 10
0.0
 20
1.0
 30
0.0
  9
$PUCSORTHOREF
  2

  9
$PUCSORTHOVIEW
 70
     0
  9
$PUCSORGTOP
 10
0.0
 20
0.0
 30
0.0
  9
$PUCSORGBOTTOM
 10
0.0
 20
0.0
 30
0.0
  9
$PUCSORGLEFT
 10
0.0
 20
0.0
 30
0.0
  9
$PUCSORGRIGHT
 10
0.0
 20
0.0
 30
0.0
  9
$PUCSORGFRONT
 10
0.0
 20
0.0
 30
0.0
  9
$PUCSORGBACK
 10
0.0
 20
0.0
 30
0.0
  9
$USERI1
 70
     0
  9
$USERI2
 70
     0
  9
$USERI3
 70
     0
  9
$USERI4
 70
     0
  9
$USERI5
 70
     0
  9
$USERR1
 40
0.0
  9
$USERR2
 40
0.0
  9
$USERR3
 40
0.0
  9
$USERR4
 40
0.0
  9
$USERR5
 40
0.0
  9
$WORLDVIEW
 70
     1
  9
$SHADEDGE
 70
     3
  9
$SHADEDIF
 70
    70
  9
$TILEMODE
 70
     1
  9
$MAXACTVP
 70
    64
  9
$PINSBASE
 10
0.0
 20
0.0
 30
0.0
  9
$PLIMCHECK
 70
     0
  9
$PEXTMIN
 10
1.000000000000000E+20
 20
1.000000000000000E+20
 30
1.000000000000000E+20
  9
$PEXTMAX
 10
-1.000000000000000E+20
 20
-1.000000000000000E+20
 30
-1.000000000000000E+20
  9
$PLIMMIN
 10
0.0
 20
0.0
  9
$PLIMMAX
 10
12.0
 20
9.0
  9
$UNITMODE
 70
     0
  9
$VISRETAIN
 70
     1
  9
$PLINEGEN
 70
     0
  9
$PSLTSCALE
 70
     1
  9
$TREEDEPTH
 70
  3020
  9
$CMLSTYLE
  2
Standard
  9
$CMLJUST
 70
     0
  9
$CMLSCALE
 40
1.0
  9
$PROXYGRAPHICS
 70
     1
  9
$MEASUREMENT
 70
     0
  9
$CELWEIGHT
370
    -1
  9
$ENDCAPS
280
     0
  9
$JOINSTYLE
280
     0
  9
$LWDISPLAY
290
     0
  9
$INSUNITS
 70
     1
  9
$HYPERLINKBASE
  1

  9
$STYLESHEET
  1

  9
$XEDIT
290
     1
  9
$CEPSNTYPE
380
     0
  9
$PSTYLEMODE
290
     1
  9
$FINGERPRINTGUID
  2
{E2C7ECE7-790C-4619-A5FE-5EE6EABA7445}
  9
$VERSIONGUID
  2
{61CF780E-BC50-4EF7-89C3-D31F0EED0C71}
  9
$EXTNAMES
290
     1
  9
$PSVPSCALE
 40
0.0
  9
$OLESTARTUP
290
     0
  0
ENDSEC
  0
SECTION
  2
CLASSES
  0
CLASS
  1
ACDBDICTIONARYWDFLT
  2
AcDbDictionaryWithDefault
  3
AutoCAD 2000
 90
        0
280
     0
281
     0
  0
CLASS
  1
TABLESTYLE
  2
AcDbTableStyle
  3
ObjectDBX Classes
 90
     2047
280
     1
281
     0
  0
CLASS
  1
SORTENTSTABLE
  2
AcDbSortentsTable
  3
AutoCAD 2000
 90
        0
280
     0
281
     0
  0
CLASS
  1
DICTIONARYVAR
  2
AcDbDictionaryVar
  3
AutoCAD 2000
 90
        0
280
     0
281
     0
  0
CLASS
  1
ACDBPLACEHOLDER
  2
AcDbPlaceHolder
  3
ObjectDBX Classes
 90
        0
280
     0
281
     0
  0
CLASS
  1
LAYOUT
  2
AcDbLayout
  3
ObjectDBX Classes
 90
        0
280
     0
281
     0
  0
ENDSEC
  0
SECTION
  2
TABLES
  0
TABLE
  2
VPORT
  5
8
330
0
100
AcDbSymbolTable
 70
     3
  0
VPORT
  5
8FE
330
8
100
AcDbSymbolTableRecord
100
AcDbViewportTableRecord
  2
*Active
 70
     0
 10
0.0
 20
0.0
 11
1.0
 21
1.0
 12
3.805387440999983
 22
2.045613510190152
 13
0.0
 23
0.0
 14
0.5
 24
0.5
 15
0.5
 25
0.5
 16
0.0
 26
0.0
 36
1.0
 17
0.0
 27
0.0
 37
0.0
 40
5.621677029984253
 41
2.335504885993486
 42
50.0
 43
0.0
 44
0.0
 50
0.0
 51
0.0
 71
     0
 72
  1000
 73
     1
 74
     3
 75
     0
 76
     0
 77
     0
 78
     0
281
     0
 65
     1
110
0.0
120
0.0
130
0.0
111
1.0
121
0.0
131
0.0
112
0.0
122
1.0
132
0.0
 79
     0
146
0.0
  0
ENDTAB
  0
TABLE
  2
LTYPE
  5
5
330
0
100
AcDbSymbolTable
 70
     2
  0
LTYPE
  5
14
330
5
100
AcDbSymbolTableRecord
100
AcDbLinetypeTableRecord
  2
ByBlock
 70
     0
  3

 72
    65
 73
     0
 40
0.0
  0
LTYPE
  5
15
330
5
100
AcDbSymbolTableRecord
100
AcDbLinetypeTableRecord
  2
ByLayer
 70
     0
  3

 72
    65
 73
     0
 40
0.0
  0
LTYPE
  5
16
330
5
100
AcDbSymbolTableRecord
100
AcDbLinetypeTableRecord
  2
Continuous
 70
     0
  3
Solid line
 72
    65
 73
     0
 40
0.0
  0
LTYPE
  5
2F
330
5
100
AcDbSymbolTableRecord
100
AcDbLinetypeTableRecord
  2
AI-Linetype-1
 70
     0
  3
Adobe Illustrator Linetype No. 1
 72
    65
 73
     6
 40
0.2916668590047565
 49
0.0555555921913822
 74
     0
 49
-0.0416666941435366
 74
     0
 49
0.0555555921913822
 74
     0
 49
-0.0416666941435366
 74
     0
 49
0.0555555921913822
 74
     0
 49
-0.0416666941435366
 74
     0
  0
ENDTAB
  0
TABLE
  2
LAYER
  5
2
330
0
100
AcDbSymbolTable
 70
     2
  0
LAYER
  5
10
330
2
100
AcDbSymbolTableRecord
100
AcDbLayerTableRecord
  2
0
 70
     0
 62
     7
  6
Continuous
370
    -3
390
F
  0
LAYER
  5
8C3
330
2
100
AcDbSymbolTableRecord
100
AcDbLayerTableRecord
  2
NOTE
 70
     0
 62
     4
  6
Continuous
370
    -3
390
F
  0
ENDTAB
  0
TABLE
  2
STYLE
  5
3
330
0
100
AcDbSymbolTable
 70
     2
  0
STYLE
  5
11
330
3
100
AcDbSymbolTableRecord
100
AcDbTextStyleTableRecord
  2
Standard
 70
     0
 40
0.0
 41
1.0
 50
0.0
 71
     0
 42
0.2
  3
txt
  4

  0
STYLE
  5
8D2
330
3
100
AcDbSymbolTableRecord
100
AcDbTextStyleTableRecord
  2
HELVETICA
 70
     0
 40
0.0
 41
1.0
 50
0.0
 71
     0
 42
0.09
  3
G:\ACADWIN\FONTS\SIMPLEX.SHX
  4

  0
ENDTAB
  0
TABLE
  2
VIEW
  5
6
330
0
100
AcDbSymbolTable
 70
     0
  0
ENDTAB
  0
TABLE
  2
UCS
  5
7
330
0
100
AcDbSymbolTable
 70
     0
  0
ENDTAB
  0
TABLE
  2
APPID
  5
9
330
0
100
AcDbSymbolTable
 70
     1
  0
APPID
  5
12
330
9
100
AcDbSymbolTableRecord
100
AcDbRegAppTableRecord
  2
ACAD
 70
     0
  0
ENDTAB
  0
TABLE
  2
DIMSTYLE
  5
A
330
0
100
AcDbSymbolTable
 70
     1
100
AcDbDimStyleTable
  0
DIMSTYLE
105
2B
330
A
100
AcDbSymbolTableRecord
100
AcDbDimStyleTableRecord
  2
Standard
 70
     0
  3

  4

340
11
  0
ENDTAB
  0
TABLE
  2
BLOCK_RECORD
  5
1
330
0
100
AcDbSymbolTable
 70
     2
  0
BLOCK_RECORD
  5
23
102
{ACAD_XDICTIONARY
360
712
102
}
330
1
100
AcDbSymbolTableRecord
100
AcDbBlockTableRecord
  2
*Model_Space
340
26
  0
BLOCK_RECORD
  5
1F
330
1
100
AcDbSymbolTableRecord
100
AcDbBlockTableRecord
  2
*Paper_Space
340
22
  0
BLOCK_RECORD
  5
27
330
1
100
AcDbSymbolTableRecord
100
AcDbBlockTableRecord
  2
*Paper_Space0
340
2A
  0
BLOCK_RECORD
  5
8D3
102
{ACAD_XDICTIONARY
360
8EE
102
}
330
1
100
AcDbSymbolTableRecord
100
AcDbBlockTableRecord
  2
sstmodel
340
0
102
{BLKREFS
331
8DD
102
}
  0
ENDTAB
  0
ENDSEC
  0
SECTION
  2
BLOCKS
  0
BLOCK
  5
24
330
23
100
AcDbEntity
  8
0
100
AcDbBlockBegin
  2
*Model_Space
 70
     0
 10
0.0
 20
0.0
 30
0.0
  3
*Model_Space
  1

  4

  0
ENDBLK
  5
25
330
23
100
AcDbEntity
  8
0
100
AcDbBlockEnd
  0
BLOCK
  5
20
330
1F
100
AcDbEntity
 67
     1
  8
0
100
AcDbBlockBegin
  2
*Paper_Space
 70
     0
 10
0.0
 20
0.0
 30
0.0
  3
*Paper_Space
  1

  4

  0
ENDBLK
  5
21
330
1F
100
AcDbEntity
 67
     1
  8
0
100
AcDbBlockEnd
  0
BLOCK
  5
28
330
27
100
AcDbEntity
  8
0
100
AcDbBlockBegin
  2
*Paper_Space0
 70
     0
 10
0.0
 20
0.0
 30
0.0
  3
*Paper_Space0
  1

  4

  0
ENDBLK
  5
29
330
27
100
AcDbEntity
  8
0
100
AcDbBlockEnd
  0
BLOCK
  5
8D9
330
8D3
100
AcDbEntity
  8
0
100
AcDbBlockBegin
  2
sstmodel
 70
     2
 10
0.0
 20
0.0
 30
0.0
  3
sstmodel
  1

  4

  0
ATTDEF
  5
8D4
330
8D3
100
AcDbEntity
  8
0
100
AcDbText
 10
-0.0171587403477811
 20
-0.0476944107260819
 30
0.0
 40
0.09
  1

  7
HELVETICA
 72
     1
 11
-0.0171587403477811
 21
-0.0476944107260819
 31
0.0
100
AcDbAttributeDefinition
  3
Enter Model No.
  2
MODEL
 70
     0
  0
ATTDEF
  5
8D5
330
8D3
100
AcDbEntity
  8
0
100
AcDbText
 10
-0.0004587403477809
 20
-0.2007844647268215
 30
0.0
 40
0.09
  1

  7
HELVETICA
 72
     1
 11
-0.0004587403477809
 21
-0.2007844647268215
 31
0.0
100
AcDbAttributeDefinition
  3
Enter Code No. or Patent
  2
APPROVAL
 70
     4
  0
TEXT
  5
8D6
330
8D3
100
AcDbEntity
  8
0
100
AcDbText
 10
-0.6953396409425233
 20
0.107302245609844
 30
0.0
 40
0.09
  1
SIMPSON Strong-Tie
  7
HELVETICA
 72
     1
 11
-0.0010539266568088
 21
0.107302245609844
 31
0.0
100
AcDbText
  0
TEXT
  5
8D7
330
8D3
100
AcDbEntity
  8
0
100
AcDbText
 10
0.7437759301119598
 20
0.1498088353144997
 30
0.0
 40
0.05184
  1
R
  7
HELVETICA
100
AcDbText
  0
CIRCLE
  5
8D8
330
8D3
100
AcDbEntity
  8
0
100
AcDbCircle
 10
0.7596414336094721
 20
0.1756057714159409
 30
0.0
 40
0.0337881099853014
  0
ENDBLK
  5
8DA
330
8D3
100
AcDbEntity
  8
0
100
AcDbBlockEnd
  0
ENDSEC
  0
SECTION
  2
ENTITIES
  0
SPLINE
  5
43F
330
23
100
AcDbEntity
  8
0
100
AcDbSpline
210
0.0
220
0.0
230
1.0
 70
    11
 71
     3
 72
    17
 73
    13
 74
     0
 42
0.0000000001
 43
0.0000000001
 40
0.0
 40
0.0
 40
0.0
 40
0.0
 40
1.0
 40
1.0
 40
1.0
 40
2.0
 40
2.0
 40
2.0
 40
3.0
 40
3.0
 40
3.0
 40
4.0
 40
4.0
 40
4.0
 40
4.0
 10
0.6097687579282312
 20
0.6387808034597828
 30
0.0
 10
0.6097687579282312
 20
0.634738917113828
 30
0.0
 10
0.6064999840712675
 20
0.6314837066338646
 30
0.0
 10
0.6024852244793122
 20
0.6314837066338646
 30
0.0
 10
0.5984569015103567
 20
0.6314837066338646
 30
0.0
 10
0.595188127653393
 20
0.634738917113828
 30
0.0
 10
0.595188127653393
 20
0.6387808034597828
 30
0.0
 10
0.595188127653393
 20
0.6427684362977386
 30
0.0
 10
0.5984569015103567
 20
0.6460236467777021
 30
0.0
 10
0.6024852244793122
 20
0.6460236467777021
 30
0.0
 10
0.6064999840712675
 20
0.6460236467777021
 30
0.0
 10
0.6097687579282312
 20
0.6427684362977386
 30
0.0
 10
0.6097687579282312
 20
0.6387808034597828
 30
0.0
  0
SPLINE
  5
440
330
23
100
AcDbEntity
  8
0
100
AcDbSpline
210
0.0
220
0.0
230
1.0
 70
    11
 71
     3
 72
    17
 73
    13
 74
     0
 42
0.0000000001
 43
0.0000000001
 40
0.0
 40
0.0
 40
0.0
 40
0.0
 40
1.0
 40
1.0
 40
1.0
 40
2.0
 40
2.0
 40
2.0
 40
3.0
 40
3.0
 40
3.0
 40
4.0
 40
4.0
 40
4.0
 40
4.0
 10
0.4656307505508339
 20
1.021878386820523
 30
0.0
 10
0.4656307505508339
 20
1.017850063851568
 30
0.0
 10
0.4623619766938703
 20
1.014581289994604
 30
0.0
 10
0.4583336537249148
 20
1.014581289994604
 30
0.0
 10
0.4543188941329595
 20
1.014581289994604
 30
0.0
 10
0.451063683652996
 20
1.017850063851568
 30
0.0
 10
0.451063683652996
 20
1.021878386820523
 30
0.0
 10
0.451063683652996
 20
1.025866019658479
 30
0.0
 10
0.4543188941329595
 20
1.029134793515442
 30
0.0
 10
0.4583336537249148
 20
1.029134793515442
 30
0.0
 10
0.4623619766938703
 20
1.029134793515442
 30
0.0
 10
0.4656307505508339
 20
1.025866019658479
 30
0.0
 10
0.4656307505508339
 20
1.021878386820523
 30
0.0
  0
SPLINE
  5
441
330
23
100
AcDbEntity
  8
0
100
AcDbSpline
210
0.0
220
0.0
230
1.0
 70
    11
 71
     3
 72
    17
 73
    13
 74
     0
 42
0.0000000001
 43
0.0000000001
 40
0.0
 40
0.0
 40
0.0
 40
0.0
 40
1.0
 40
1.0
 40
1.0
 40
2.0
 40
2.0
 40
2.0
 40
3.0
 40
3.0
 40
3.0
 40
4.0
 40
4.0
 40
4.0
 40
4.0
 10
0.3366565986592676
 20
1.215319269592372
 30
0.0
 10
0.3366565986592676
 20
1.211290946623417
 30
0.0
 10
0.3334013881793041
 20
1.208049299520452
 30
0.0
 10
0.3293730652103486
 20
1.208049299520452
 30
0.0
 10
0.3253583056183933
 20
1.208049299520452
 30
0.0
 10
0.3220895317614296
 20
1.211290946623417
 30
0.0
 10
0.3220895317614296
 20
1.215319269592372
 30
0.0
 10
0.3220895317614296
 20
1.219334029184327
 30
0.0
 10
0.3253583056183933
 20
1.222602803041291
 30
0.0
 10
0.3293730652103486
 20
1.222602803041291
 30
0.0
 10
0.3334013881793041
 20
1.222602803041291
 30
0.0
 10
0.3366565986592676
 20
1.219334029184327
 30
0.0
 10
0.3366565986592676
 20
1.215319269592372
 30
0.0
  0
SPLINE
  5
442
330
23
100
AcDbEntity
  8
0
100
AcDbSpline
210
0.0
220
0.0
230
1.0
 70
    11
 71
     3
 72
    17
 73
    13
 74
     0
 42
0.0000000001
 43
0.0000000001
 40
0.0
 40
0.0
 40
0.0
 40
0.0
 40
1.0
 40
1.0
 40
1.0
 40
2.0
 40
2.0
 40
2.0
 40
3.0
 40
3.0
 40
3.0
 40
4.0
 40
4.0
 40
4.0
 40
4.0
 10
0.313897252053521
 20
1.367025641335685
 30
0.0
 10
0.313897252053521
 20
1.363024445120729
 30
0.0
 10
0.3106420415735576
 20
1.359782798017765
 30
0.0
 10
0.3066137186046021
 20
1.359782798017765
 30
0.0
 10
0.3025989590126468
 20
1.359782798017765
 30
0.0
 10
0.2993301851556831
 20
1.363024445120729
 30
0.0
 10
0.2993301851556831
 20
1.367025641335685
 30
0.0
 10
0.2993301851556831
 20
1.37106752768164
 30
0.0
 10
0.3025989590126468
 20
1.374309174784604
 30
0.0
 10
0.3066137186046021
 20
1.374309174784604
 30
0.0
 10
0.3106420415735576
 20
1.374309174784604
 30
0.0
 10
0.313897252053521
 20
1.37106752768164
 30
0.0
 10
0.313897252053521
 20
1.367025641335685
 30
0.0
  0
SPLINE
  5
443
330
23
100
AcDbEntity
  8
0
100
AcDbSpline
210
0.0
220
0.0
230
1.0
 70
    11
 71
     3
 72
    17
 73
    13
 74
     0
 42
0.0000000001
 43
0.0000000001
 40
0.0
 40
0.0
 40
0.0
 40
0.0
 40
1.0
 40
1.0
 40
1.0
 40
2.0
 40
2.0
 40
2.0
 40
3.0
 40
3.0
 40
3.0
 40
4.0
 40
4.0
 40
4.0
 40
4.0
 10
0.1394044069504616
 20
1.780505189176087
 30
0.0
 10
0.1394044069504616
 20
1.776463302830131
 30
0.0
 10
0.1361491964704973
 20
1.773221655727168
 30
0.0
 10
0.132134436878542
 20
1.773221655727168
 30
0.0
 10
0.1281061139095874
 20
1.773221655727168
 30
0.0
 10
0.124850903429623
 20
1.776463302830131
 30
0.0
 10
0.124850903429623
 20
1.780505189176087
 30
0.0
 10
0.124850903429623
 20
1.784506385391042
 30
0.0
 10
0.1281061139095874
 20
1.787775159248005
 30
0.0
 10
0.132134436878542
 20
1.787775159248005
 30
0.0
 10
0.1361491964704973
 20
1.787775159248005
 30
0.0
 10
0.1394044069504616
 20
1.784506385391042
 30
0.0
 10
0.1394044069504616
 20
1.780505189176087
 30
0.0
  0
SPLINE
  5
444
330
23
100
AcDbEntity
  8
0
100
AcDbSpline
210
0.0
220
0.0
230
1.0
 70
    11
 71
     3
 72
    17
 73
    13
 74
     0
 42
0.0000000001
 43
0.0000000001
 40
0.0
 40
0.0
 40
0.0
 40
0.0
 40
1.0
 40
1.0
 40
1.0
 40
2.0
 40
2.0
 40
2.0
 40
3.0
 40
3.0
 40
3.0
 40
4.0
 40
4.0
 40
4.0
 40
4.0
 10
0.1318360425845455
 20
1.742568423707508
 30
0.0
 10
0.1318360425845455
 20
1.738540100738553
 30
0.0
 10
0.1285672687275818
 20
1.735298453635589
 30
0.0
 10
0.1245389457586272
 20
1.735298453635589
 30
0.0
 10
0.1205377495436713
 20
1.735298453635589
 30
0.0
 10
0.1172689756867076
 20
1.738540100738553
 30
0.0
 10
0.1172689756867076
 20
1.742568423707508
 30
0.0
 10
0.1172689756867076
 20
1.746583183299464
 30
0.0
 10
0.1205377495436713
 20
1.749838393779427
 30
0.0
 10
0.1245389457586272
 20
1.749838393779427
 30
0.0
 10
0.1285672687275818
 20
1.749838393779427
 30
0.0
 10
0.1318360425845455
 20
1.746583183299464
 30
0.0
 10
0.1318360425845455
 20
1.742568423707508
 30
0.0
  0
SPLINE
  5
445
330
23
100
AcDbEntity
  8
0
100
AcDbSpline
210
0.0
220
0.0
230
1.0
 70
    11
 71
     3
 72
    17
 73
    13
 74
     0
 42
0.0000000001
 43
0.0000000001
 40
0.0
 40
0.0
 40
0.0
 40
0.0
 40
1.0
 40
1.0
 40
1.0
 40
2.0
 40
2.0
 40
2.0
 40
3.0
 40
3.0
 40
3.0
 40
4.0
 40
4.0
 40
4.0
 40
4.0
 10
0.5490726458539061
 20
0.8663471427632525
 30
0.0
 10
0.5490726458539061
 20
0.8623323831712972
 30
0.0
 10
0.5458174353739418
 20
0.8590771726913333
 30
0.0
 10
0.5417891124049872
 20
0.8590771726913333
 30
0.0
 10
0.5377743528130319
 20
0.8590771726913333
 30
0.0
 10
0.5345055789560673
 20
0.8623323831712972
 30
0.0
 10
0.5345055789560673
 20
0.8663471427632525
 30
0.0
 10
0.5345055789560673
 20
0.8703619023552078
 30
0.0
 10
0.5377743528130319
 20
0.8736171128351717
 30
0.0
 10
0.5417891124049872
 20
0.8736171128351717
 30
0.0
 10
0.5458174353739418
 20
0.8736171128351717
 30
0.0
 10
0.5490726458539061
 20
0.8703619023552078
 30
0.0
 10
0.5490726458539061
 20
0.8663471427632525
 30
0.0
  0
SPLINE
  5
446
330
23
100
AcDbEntity
  8
0
100
AcDbSpline
210
0.0
220
0.0
230
1.0
 70
    11
 71
     3
 72
    17
 73
    13
 74
     0
 42
0.0000000001
 43
0.0000000001
 40
0.0
 40
0.0
 40
0.0
 40
0.0
 40
1.0
 40
1.0
 40
1.0
 40
2.0
 40
2.0
 40
2.0
 40
3.0
 40
3.0
 40
3.0
 40
4.0
 40
4.0
 40
4.0
 40
4.0
 10
0.0787218582531368
 20
2.326715944337012
 30
0.0
 10
0.0787218582531368
 20
2.322687621368057
 30
0.0
 10
0.0754802111501727
 20
2.319432410888093
 30
0.0
 10
0.071438324804217
 20
2.319432410888093
 30
0.0
 10
0.0674100018352624
 20
2.319432410888093
 30
0.0
 10
0.064154791355298
 20
2.322687621368057
 30
0.0
 10
0.064154791355298
 20
2.326715944337012
 30
0.0
 10
0.064154791355298
 20
2.330703577174968
 30
0.0
 10
0.0674100018352624
 20
2.333972351031932
 30
0.0
 10
0.071438324804217
 20
2.333972351031932
 30
0.0
 10
0.0754802111501727
 20
2.333972351031932
 30
0.0
 10
0.0787218582531368
 20
2.330703577174968
 30
0.0
 10
0.0787218582531368
 20
2.326715944337012
 30
0.0
  0
SPLINE
  5
447
330
23
100
AcDbEntity
  8
0
100
AcDbSpline
210
0.0
220
0.0
230
1.0
 70
    11
 71
     3
 72
    17
 73
    13
 74
     0
 42
0.0000000001
 43
0.0000000001
 40
0.0
 40
0.0
 40
0.0
 40
0.0
 40
1.0
 40
1.0
 40
1.0
 40
2.0
 40
2.0
 40
2.0
 40
3.0
 40
3.0
 40
3.0
 40
4.0
 40
4.0
 40
4.0
 40
4.0
 10
0.0749376760701788
 20
2.345663982005802
 30
0.0
 10
0.0749376760701788
 20
2.341635659036846
 30
0.0
 10
0.0716689022132151
 20
2.338407575310882
 30
0.0
 10
0.0676405792442596
 20
2.338407575310882
 30
0.0
 10
0.0636393830293036
 20
2.338407575310882
 30
0.0
 10
0.0603706091723408
 20
2.341635659036846
 30
0.0
 10
0.0603706091723408
 20
2.345663982005802
 30
0.0
 10
0.0603706091723408
 20
2.349692304974757
 30
0.0
 10
0.0636393830293036
 20
2.352947515454721
 30
0.0
 10
0.0676405792442596
 20
2.352947515454721
 30
0.0
 10
0.0716689022132151
 20
2.352947515454721
 30
0.0
 10
0.0749376760701788
 20
2.349692304974757
 30
0.0
 10
0.0749376760701788
 20
2.345663982005802
 30
0.0
  0
SPLINE
  5
448
330
23
100
AcDbEntity
  8
0
100
AcDbSpline
210
0.0
220
0.0
230
1.0
 70
    11
 71
     3
 72
    17
 73
    13
 74
     0
 42
0.0000000001
 43
0.0000000001
 40
0.0
 40
0.0
 40
0.0
 40
0.0
 40
1.0
 40
1.0
 40
1.0
 40
2.0
 40
2.0
 40
2.0
 40
3.0
 40
3.0
 40
3.0
 40
4.0
 40
4.0
 40
4.0
 40
4.0
 10
0.048380583904474
 20
2.376005256354464
 30
0.0
 10
0.048380583904474
 20
2.371990496762509
 30
0.0
 10
0.0451253734245096
 20
2.368748849659545
 30
0.0
 10
0.041097050455555
 20
2.368748849659545
 30
0.0
 10
0.0370687274865995
 20
2.368748849659545
 30
0.0
 10
0.0338270803836354
 20
2.371990496762509
 30
0.0
 10
0.0338270803836354
 20
2.376005256354464
 30
0.0
 10
0.0338270803836354
 20
2.380033579323419
 30
0.0
 10
0.0370687274865995
 20
2.383275226426383
 30
0.0
 10
0.041097050455555
 20
2.383275226426383
 30
0.0
 10
0.0451253734245096
 20
2.383275226426383
 30
0.0
 10
0.048380583904474
 20
2.380033579323419
 30
0.0
 10
0.048380583904474
 20
2.376005256354464
 30
0.0
  0
SPLINE
  5
44F
330
23
100
AcDbEntity
  8
0
100
AcDbSpline
210
0.0
220
0.0
230
1.0
 70
    11
 71
     3
 72
    14
 73
    10
 74
     0
 42
0.0000000001
 43
0.0000000001
 40
0.0
 40
0.0
 40
0.0
 40
0.0
 40
1.0
 40
1.0
 40
1.0
 40
2.0
 40
2.0
 40
2.0
 40
3.0
 40
3.0
 40
3.0
 40
3.0
 10
1.949036947958837
 20
0.496528105485365
 30
0.0
 10
1.949036947958837
 20
0.496528105485365
 30
0.0
 10
1.907302436930301
 20
0.4585777766397872
 30
0.0
 10
1.949036947958837
 20
0.4585777766397872
 30
0.0
 10
1.990757895610374
 20
0.4585777766397872
 30
0.0
 10
1.983175967867457
 20
0.4623890855767447
 30
0.0
 10
1.983175967867457
 20
0.4775529410625756
 30
0.0
 10
1.983175967867457
 20
0.4927167965484074
 30
0.0
 10
1.9793646589305
 20
0.5003258510453224
 30
0.0
 10
1.949036947958837
 20
0.496528105485365
 30
0.0
  0
SPLINE
  5
451
330
23
100
AcDbEntity
  8
0
100
AcDbSpline
210
0.0
220
0.0
230
1.0
 70
    11
 71
     3
 72
    14
 73
    10
 74
     0
 42
0.0000000001
 43
0.0000000001
 40
0.0
 40
0.0
 40
0.0
 40
0.0
 40
1.0
 40
1.0
 40
1.0
 40
2.0
 40
2.0
 40
2.0
 40
3.0
 40
3.0
 40
3.0
 40
3.0
 10
2.108352374199066
 20
0.3523765347309684
 30
0.0
 10
2.108352374199066
 20
0.3523765347309684
 30
0.0
 10
2.078011099850403
 20
0.3182375148223473
 30
0.0
 10
2.104554628639108
 20
0.3106555870794319
 30
0.0
 10
2.131098157427813
 20
0.3030736593365164
 30
0.0
 10
2.146275576290644
 20
0.3106555870794319
 30
0.0
 10
2.146275576290644
 20
0.3220488237593049
 30
0.0
 10
2.146275576290644
 20
0.3334013703081791
 30
0.0
 10
2.13490946636477
 20
0.3637697714108414
 30
0.0
 10
2.108352374199066
 20
0.3523765347309684
 30
0.0
  0
SPLINE
  5
459
330
23
100
AcDbEntity
  8
0
100
AcDbSpline
210
0.0
220
0.0
230
1.0
 70
    11
 71
     3
 72
    17
 73
    13
 74
     0
 42
0.0000000001
 43
0.0000000001
 40
0.0
 40
0.0
 40
0.0
 40
0.0
 40
1.0
 40
1.0
 40
1.0
 40
2.0
 40
2.0
 40
2.0
 40
3.0
 40
3.0
 40
3.0
 40
4.0
 40
4.0
 40
4.0
 40
4.0
 10
2.593582186368669
 20
0.3902997368225467
 30
0.0
 10
2.593582186368669
 20
0.3863121039845909
 30
0.0
 10
2.590299849134707
 20
0.3830433301276273
 30
0.0
 10
2.586257962788751
 20
0.3830433301276273
 30
0.0
 10
2.582270329950795
 20
0.3830433301276273
 30
0.0
 10
2.579015119470832
 20
0.3863121039845909
 30
0.0
 10
2.579015119470832
 20
0.3902997368225467
 30
0.0
 10
2.579015119470832
 20
0.3943280597915013
 30
0.0
 10
2.582270329950795
 20
0.397596833648465
 30
0.0
 10
2.586257962788751
 20
0.397596833648465
 30
0.0
 10
2.590299849134707
 20
0.397596833648465
 30
0.0
 10
2.593582186368669
 20
0.3943280597915013
 30
0.0
 10
2.593582186368669
 20
0.3902997368225467
 30
0.0
  0
SPLINE
  5
45A
330
23
100
AcDbEntity
  8
0
100
AcDbSpline
210
0.0
220
0.0
230
1.0
 70
    11
 71
     3
 72
    17
 73
    13
 74
     0
 42
0.0000000001
 43
0.0000000001
 40
0.0
 40
0.0
 40
0.0
 40
0.0
 40
1.0
 40
1.0
 40
1.0
 40
2.0
 40
2.0
 40
2.0
 40
3.0
 40
3.0
 40
3.0
 40
4.0
 40
4.0
 40
4.0
 40
4.0
 10
2.745288558111983
 20
0.3865155546395886
 30
0.0
 10
2.745288558111983
 20
0.3825143584246327
 30
0.0
 10
2.742033347632018
 20
0.3792320211906697
 30
0.0
 10
2.737991461286064
 20
0.3792320211906697
 30
0.0
 10
2.733990265071109
 20
0.3792320211906697
 30
0.0
 10
2.730735054591144
 20
0.3825143584246327
 30
0.0
 10
2.730735054591144
 20
0.3865155546395886
 30
0.0
 10
2.730735054591144
 20
0.3905438776085433
 30
0.0
 10
2.733990265071109
 20
0.3937990880885076
 30
0.0
 10
2.737991461286064
 20
0.3937990880885076
 30
0.0
 10
2.742033347632018
 20
0.3937990880885076
 30
0.0
 10
2.745288558111983
 20
0.3905438776085433
 30
0.0
 10
2.745288558111983
 20
0.3865155546395886
 30
0.0
  0
SPLINE
  5
45B
330
23
100
AcDbEntity
  8
0
100
AcDbSpline
210
0.0
220
0.0
230
1.0
 70
    11
 71
     3
 72
    17
 73
    13
 74
     0
 42
0.0000000001
 43
0.0000000001
 40
0.0
 40
0.0
 40
0.0
 40
0.0
 40
1.0
 40
1.0
 40
1.0
 40
2.0
 40
2.0
 40
2.0
 40
3.0
 40
3.0
 40
3.0
 40
4.0
 40
4.0
 40
4.0
 40
4.0
 10
2.730111139249152
 20
0.536350180356922
 30
0.0
 10
2.730111139249152
 20
0.5323489841419669
 30
0.0
 10
2.726869492146188
 20
0.5290802102850032
 30
0.0
 10
2.722827605800233
 20
0.5290802102850032
 30
0.0
 10
2.718826409585277
 20
0.5290802102850032
 30
0.0
 10
2.715571199105313
 20
0.5323489841419669
 30
0.0
 10
2.715571199105313
 20
0.536350180356922
 30
0.0
 10
2.715571199105313
 20
0.5403649399488772
 30
0.0
 10
2.718826409585277
 20
0.5436337138058409
 30
0.0
 10
2.722827605800233
 20
0.5436337138058409
 30
0.0
 10
2.726869492146188
 20
0.5436337138058409
 30
0.0
 10
2.730111139249152
 20
0.5403649399488772
 30
0.0
 10
2.730111139249152
 20
0.536350180356922
 30
0.0
  0
SPLINE
  5
45C
330
23
100
AcDbEntity
  8
0
100
AcDbSpline
210
0.0
220
0.0
230
1.0
 70
    11
 71
     3
 72
    17
 73
    13
 74
     0
 42
0.0000000001
 43
0.0000000001
 40
0.0
 40
0.0
 40
0.0
 40
0.0
 40
1.0
 40
1.0
 40
1.0
 40
2.0
 40
2.0
 40
2.0
 40
3.0
 40
3.0
 40
3.0
 40
4.0
 40
4.0
 40
4.0
 40
4.0
 10
2.707365356020405
 20
0.4832359960255124
 30
0.0
 10
2.707365356020405
 20
0.4792212364335571
 30
0.0
 10
2.70411014554044
 20
0.4759660259535936
 30
0.0
 10
2.700081822571486
 20
0.4759660259535936
 30
0.0
 10
2.69605349960253
 20
0.4759660259535936
 30
0.0
 10
2.692784725745566
 20
0.4792212364335571
 30
0.0
 10
2.692784725745566
 20
0.4832359960255124
 30
0.0
 10
2.692784725745566
 20
0.4872643189944679
 30
0.0
 10
2.69605349960253
 20
0.4905195294744322
 30
0.0
 10
2.700081822571486
 20
0.4905195294744322
 30
0.0
 10
2.70411014554044
 20
0.4905195294744322
 30
0.0
 10
2.707365356020405
 20
0.4872643189944679
 30
0.0
 10
2.707365356020405
 20
0.4832359960255124
 30
0.0
  0
SPLINE
  5
45D
330
23
100
AcDbEntity
  8
0
100
AcDbSpline
210
0.0
220
0.0
230
1.0
 70
    11
 71
     3
 72
    17
 73
    13
 74
     0
 42
0.0000000001
 43
0.0000000001
 40
0.0
 40
0.0
 40
0.0
 40
0.0
 40
1.0
 40
1.0
 40
1.0
 40
2.0
 40
2.0
 40
2.0
 40
3.0
 40
3.0
 40
3.0
 40
4.0
 40
4.0
 40
4.0
 40
4.0
 10
2.783238886957561
 20
0.5856666191283741
 30
0.0
 10
2.783238886957561
 20
0.581651859536418
 30
0.0
 10
2.779956549723597
 20
0.578369522302455
 30
0.0
 10
2.775941790131641
 20
0.578369522302455
 30
0.0
 10
2.771927030539686
 20
0.578369522302455
 30
0.0
 10
2.768658256682723
 20
0.581651859536418
 30
0.0
 10
2.768658256682723
 20
0.5856666191283741
 30
0.0
 10
2.768658256682723
 20
0.5896813787203294
 30
0.0
 10
2.771927030539686
 20
0.5929365892002929
 30
0.0
 10
2.775941790131641
 20
0.5929365892002929
 30
0.0
 10
2.779956549723597
 20
0.5929365892002929
 30
0.0
 10
2.783238886957561
 20
0.5896813787203294
 30
0.0
 10
2.783238886957561
 20
0.5856666191283741
 30
0.0
  0
SPLINE
  5
45E
330
23
100
AcDbEntity
  8
0
100
AcDbSpline
210
0.0
220
0.0
230
1.0
 70
    11
 71
     3
 72
    17
 73
    13
 74
     0
 42
0.0000000001
 43
0.0000000001
 40
0.0
 40
0.0
 40
0.0
 40
0.0
 40
1.0
 40
1.0
 40
1.0
 40
2.0
 40
2.0
 40
2.0
 40
3.0
 40
3.0
 40
3.0
 40
4.0
 40
4.0
 40
4.0
 40
4.0
 10
2.840123690094928
 20
0.6956656065971503
 30
0.0
 10
2.840123690094928
 20
0.691650847005195
 30
0.0
 10
2.836882042991964
 20
0.6883685097712315
 30
0.0
 10
2.832826593269009
 20
0.6883685097712315
 30
0.0
 10
2.828825397054054
 20
0.6883685097712315
 30
0.0
 10
2.82555662319709
 20
0.691650847005195
 30
0.0
 10
2.82555662319709
 20
0.6956656065971503
 30
0.0
 10
2.82555662319709
 20
0.699680366189106
 30
0.0
 10
2.828825397054054
 20
0.7029355766690695
 30
0.0
 10
2.832826593269009
 20
0.7029355766690695
 30
0.0
 10
2.836882042991964
 20
0.7029355766690695
 30
0.0
 10
2.840123690094928
 20
0.699680366189106
 30
0.0
 10
2.840123690094928
 20
0.6956656065971503
 30
0.0
  0
SPLINE
  5
45F
330
23
100
AcDbEntity
  8
0
100
AcDbSpline
210
0.0
220
0.0
230
1.0
 70
    11
 71
     3
 72
    17
 73
    13
 74
     0
 42
0.0000000001
 43
0.0000000001
 40
0.0
 40
0.0
 40
0.0
 40
0.0
 40
1.0
 40
1.0
 40
1.0
 40
2.0
 40
2.0
 40
2.0
 40
3.0
 40
3.0
 40
3.0
 40
4.0
 40
4.0
 40
4.0
 40
4.0
 10
2.790820814700476
 20
0.7298046265057709
 30
0.0
 10
2.790820814700476
 20
0.7257627401598157
 30
0.0
 10
2.787565604220513
 20
0.722521093056852
 30
0.0
 10
2.783523717874558
 20
0.722521093056852
 30
0.0
 10
2.779495394905602
 20
0.722521093056852
 30
0.0
 10
2.776240184425638
 20
0.7257627401598157
 30
0.0
 10
2.776240184425638
 20
0.7298046265057709
 30
0.0
 10
2.776240184425638
 20
0.733832949474726
 30
0.0
 10
2.779495394905602
 20
0.7370881599546899
 30
0.0
 10
2.783523717874558
 20
0.7370881599546899
 30
0.0
 10
2.787565604220513
 20
0.7370881599546899
 30
0.0
 10
2.790820814700476
 20
0.733832949474726
 30
0.0
 10
2.790820814700476
 20
0.7298046265057709
 30
0.0
  0
SPLINE
  5
460
330
23
100
AcDbEntity
  8
0
100
AcDbSpline
210
0.0
220
0.0
230
1.0
 70
    11
 71
     3
 72
    17
 73
    13
 74
     0
 42
0.0000000001
 43
0.0000000001
 40
0.0
 40
0.0
 40
0.0
 40
0.0
 40
1.0
 40
1.0
 40
1.0
 40
2.0
 40
2.0
 40
2.0
 40
3.0
 40
3.0
 40
3.0
 40
4.0
 40
4.0
 40
4.0
 40
4.0
 10
2.494935745448767
 20
0.2670222032709173
 30
0.0
 10
2.494935745448767
 20
0.2630210070559613
 30
0.0
 10
2.491680534968803
 20
0.2597793599529981
 30
0.0
 10
2.487679338753847
 20
0.2597793599529981
 30
0.0
 10
2.483637452407892
 20
0.2597793599529981
 30
0.0
 10
2.480368678550929
 20
0.2630210070559613
 30
0.0
 10
2.480368678550929
 20
0.2670222032709173
 30
0.0
 10
2.480368678550929
 20
0.2710640896168721
 30
0.0
 10
2.483637452407892
 20
0.2743057367198363
 30
0.0
 10
2.487679338753847
 20
0.2743057367198363
 30
0.0
 10
2.491680534968803
 20
0.2743057367198363
 30
0.0
 10
2.494935745448767
 20
0.2710640896168721
 30
0.0
 10
2.494935745448767
 20
0.2670222032709173
 30
0.0
  0
SPLINE
  5
461
330
23
100
AcDbEntity
  8
0
100
AcDbSpline
210
0.0
220
0.0
230
1.0
 70
    11
 71
     3
 72
    17
 73
    13
 74
     0
 42
0.0000000001
 43
0.0000000001
 40
0.0
 40
0.0
 40
0.0
 40
0.0
 40
1.0
 40
1.0
 40
1.0
 40
2.0
 40
2.0
 40
2.0
 40
3.0
 40
3.0
 40
3.0
 40
4.0
 40
4.0
 40
4.0
 40
4.0
 10
2.460823852294146
 20
0.308743150922453
 30
0.0
 10
2.460823852294146
 20
0.3047419547074979
 30
0.0
 10
2.457541515060182
 20
0.3015003076045337
 30
0.0
 10
2.453513192091227
 20
0.3015003076045337
 30
0.0
 10
2.449511995876271
 20
0.3015003076045337
 30
0.0
 10
2.446256785396308
 20
0.3047419547074979
 30
0.0
 10
2.446256785396308
 20
0.308743150922453
 30
0.0
 10
2.446256785396308
 20
0.3127714738914085
 30
0.0
 10
2.449511995876271
 20
0.3160266843713719
 30
0.0
 10
2.453513192091227
 20
0.3160266843713719
 30
0.0
 10
2.457541515060182
 20
0.3160266843713719
 30
0.0
 10
2.460823852294146
 20
0.3127714738914085
 30
0.0
 10
2.460823852294146
 20
0.308743150922453
 30
0.0
  0
SPLINE
  5
462
330
23
100
AcDbEntity
  8
0
100
AcDbSpline
210
0.0
220
0.0
230
1.0
 70
    11
 71
     3
 72
    17
 73
    13
 74
     0
 42
0.0000000001
 43
0.0000000001
 40
0.0
 40
0.0
 40
0.0
 40
0.0
 40
1.0
 40
1.0
 40
1.0
 40
2.0
 40
2.0
 40
2.0
 40
3.0
 40
3.0
 40
3.0
 40
4.0
 40
4.0
 40
4.0
 40
4.0
 10
2.650466989506037
 20
0.4035918462823984
 30
0.0
 10
2.650466989506037
 20
0.3995770866904431
 30
0.0
 10
2.647225342403073
 20
0.3963218762104797
 30
0.0
 10
2.643183456057118
 20
0.3963218762104797
 30
0.0
 10
2.639155133088162
 20
0.3963218762104797
 30
0.0
 10
2.635899922608199
 20
0.3995770866904431
 30
0.0
 10
2.635899922608199
 20
0.4035918462823984
 30
0.0
 10
2.635899922608199
 20
0.4076066058743537
 30
0.0
 10
2.639155133088162
 20
0.4108753797313174
 30
0.0
 10
2.643183456057118
 20
0.4108753797313174
 30
0.0
 10
2.647225342403073
 20
0.4108753797313174
 30
0.0
 10
2.650466989506037
 20
0.4076066058743537
 30
0.0
 10
2.650466989506037
 20
0.4035918462823984
 30
0.0
  0
SPLINE
  5
463
330
23
100
AcDbEntity
  8
0
100
AcDbSpline
210
0.0
220
0.0
230
1.0
 70
    11
 71
     3
 72
    17
 73
    13
 74
     0
 42
0.0000000001
 43
0.0000000001
 40
0.0
 40
0.0
 40
0.0
 40
0.0
 40
1.0
 40
1.0
 40
1.0
 40
2.0
 40
2.0
 40
2.0
 40
3.0
 40
3.0
 40
3.0
 40
4.0
 40
4.0
 40
4.0
 40
4.0
 10
2.677037645048742
 20
0.3770347541166936
 30
0.0
 10
2.677037645048742
 20
0.3730199945247383
 30
0.0
 10
2.673755307814778
 20
0.3697783474217742
 30
0.0
 10
2.669740548222823
 20
0.3697783474217742
 30
0.0
 10
2.665698661876868
 20
0.3697783474217742
 30
0.0
 10
2.662457014773904
 20
0.3730199945247383
 30
0.0
 10
2.662457014773904
 20
0.3770347541166936
 30
0.0
 10
2.662457014773904
 20
0.3810495137086489
 30
0.0
 10
2.665698661876868
 20
0.3843182875656126
 30
0.0
 10
2.669740548222823
 20
0.3843182875656126
 30
0.0
 10
2.673755307814778
 20
0.3843182875656126
 30
0.0
 10
2.677037645048742
 20
0.3810495137086489
 30
0.0
 10
2.677037645048742
 20
0.3770347541166936
 30
0.0
  0
SPLINE
  5
464
330
23
100
AcDbEntity
  8
0
100
AcDbSpline
210
0.0
220
0.0
230
1.0
 70
    11
 71
     3
 72
    17
 73
    13
 74
     0
 42
0.0000000001
 43
0.0000000001
 40
0.0
 40
0.0
 40
0.0
 40
0.0
 40
1.0
 40
1.0
 40
1.0
 40
2.0
 40
2.0
 40
2.0
 40
3.0
 40
3.0
 40
3.0
 40
4.0
 40
4.0
 40
4.0
 40
4.0
 10
2.669442153928826
 20
0.2859973676937067
 30
0.0
 10
2.669442153928826
 20
0.2819961714787507
 30
0.0
 10
2.666173380071863
 20
0.278727397621787
 30
0.0
 10
2.662131493725908
 20
0.278727397621787
 30
0.0
 10
2.658116734133952
 20
0.278727397621787
 30
0.0
 10
2.654875087030988
 20
0.2819961714787507
 30
0.0
 10
2.654875087030988
 20
0.2859973676937067
 30
0.0
 10
2.654875087030988
 20
0.290012127285662
 30
0.0
 10
2.658116734133952
 20
0.2932809011426256
 30
0.0
 10
2.662131493725908
 20
0.2932809011426256
 30
0.0
 10
2.666173380071863
 20
0.2932809011426256
 30
0.0
 10
2.669442153928826
 20
0.290012127285662
 30
0.0
 10
2.669442153928826
 20
0.2859973676937067
 30
0.0
  0
SPLINE
  5
465
330
23
100
AcDbEntity
  8
0
100
AcDbSpline
210
0.0
220
0.0
230
1.0
 70
    11
 71
     3
 72
    17
 73
    13
 74
     0
 42
0.0000000001
 43
0.0000000001
 40
0.0
 40
0.0
 40
0.0
 40
0.0
 40
1.0
 40
1.0
 40
1.0
 40
2.0
 40
2.0
 40
2.0
 40
3.0
 40
3.0
 40
3.0
 40
4.0
 40
4.0
 40
4.0
 40
4.0
 10
2.301508426053918
 20
0.1342638691963938
 30
0.0
 10
2.301508426053918
 20
0.1302626729814378
 30
0.0
 10
2.298226088819954
 20
0.1270074625014743
 30
0.0
 10
2.294197765850999
 20
0.1270074625014743
 30
0.0
 10
2.290183006259044
 20
0.1270074625014743
 30
0.0
 10
2.28694135915608
 20
0.1302626729814378
 30
0.0
 10
2.28694135915608
 20
0.1342638691963938
 30
0.0
 10
2.28694135915608
 20
0.1383057555423486
 30
0.0
 10
2.290183006259044
 20
0.1415474026453127
 30
0.0
 10
2.294197765850999
 20
0.1415474026453127
 30
0.0
 10
2.298226088819954
 20
0.1415474026453127
 30
0.0
 10
2.301508426053918
 20
0.1383057555423486
 30
0.0
 10
2.301508426053918
 20
0.1342638691963938
 30
0.0
  0
SPLINE
  5
466
330
23
100
AcDbEntity
  8
0
100
AcDbSpline
210
0.0
220
0.0
230
1.0
 70
    11
 71
     3
 72
    17
 73
    13
 74
     0
 42
0.0000000001
 43
0.0000000001
 40
0.0
 40
0.0
 40
0.0
 40
0.0
 40
1.0
 40
1.0
 40
1.0
 40
2.0
 40
2.0
 40
2.0
 40
3.0
 40
3.0
 40
3.0
 40
4.0
 40
4.0
 40
4.0
 40
4.0
 10
2.555631857523092
 20
0.1229113226475196
 30
0.0
 10
2.555631857523092
 20
0.1188694363015648
 30
0.0
 10
2.552376647043128
 20
0.1156142258216013
 30
0.0
 10
2.548348324074173
 20
0.1156142258216013
 30
0.0
 10
2.544347127859218
 20
0.1156142258216013
 30
0.0
 10
2.541064790625254
 20
0.1188694363015648
 30
0.0
 10
2.541064790625254
 20
0.1229113226475196
 30
0.0
 10
2.541064790625254
 20
0.1269125188624756
 30
0.0
 10
2.544347127859218
 20
0.1301812927194392
 30
0.0
 10
2.548348324074173
 20
0.1301812927194392
 30
0.0
 10
2.552376647043128
 20
0.1301812927194392
 30
0.0
 10
2.555631857523092
 20
0.1269125188624756
 30
0.0
 10
2.555631857523092
 20
0.1229113226475196
 30
0.0
  0
SPLINE
  5
467
330
23
100
AcDbEntity
  8
0
100
AcDbSpline
210
0.0
220
0.0
230
1.0
 70
    11
 71
     3
 72
    17
 73
    13
 74
     0
 42
0.0000000001
 43
0.0000000001
 40
0.0
 40
0.0
 40
0.0
 40
0.0
 40
1.0
 40
1.0
 40
1.0
 40
2.0
 40
2.0
 40
2.0
 40
3.0
 40
3.0
 40
3.0
 40
4.0
 40
4.0
 40
4.0
 40
4.0
 10
2.498747054385724
 20
0.1494412880592249
 30
0.0
 10
2.498747054385724
 20
0.1454265284672696
 30
0.0
 10
2.495491843905761
 20
0.1421848813643054
 30
0.0
 10
2.491449957559805
 20
0.1421848813643054
 30
0.0
 10
2.48744876134485
 20
0.1421848813643054
 30
0.0
 10
2.484179987487886
 20
0.1454265284672696
 30
0.0
 10
2.484179987487886
 20
0.1494412880592249
 30
0.0
 10
2.484179987487886
 20
0.1534696110281804
 30
0.0
 10
2.48744876134485
 20
0.156738384885144
 30
0.0
 10
2.491449957559805
 20
0.156738384885144
 30
0.0
 10
2.495491843905761
 20
0.156738384885144
 30
0.0
 10
2.498747054385724
 20
0.1534696110281804
 30
0.0
 10
2.498747054385724
 20
0.1494412880592249
 30
0.0
  0
SPLINE
  5
468
330
23
100
AcDbEntity
  8
0
100
AcDbSpline
210
0.0
220
0.0
230
1.0
 70
    11
 71
     3
 72
    17
 73
    13
 74
     0
 42
0.0000000001
 43
0.0000000001
 40
0.0
 40
0.0
 40
0.0
 40
0.0
 40
1.0
 40
1.0
 40
1.0
 40
2.0
 40
2.0
 40
2.0
 40
3.0
 40
3.0
 40
3.0
 40
4.0
 40
4.0
 40
4.0
 40
4.0
 10
2.536683819854303
 20
0.1532390336191822
 30
0.0
 10
2.536683819854303
 20
0.1492378374042271
 30
0.0
 10
2.533415045997339
 20
0.1459555001702633
 30
0.0
 10
2.529373159651383
 20
0.1459555001702633
 30
0.0
 10
2.525358400059428
 20
0.1459555001702633
 30
0.0
 10
2.522116752956465
 20
0.1492378374042271
 30
0.0
 10
2.522116752956465
 20
0.1532390336191822
 30
0.0
 10
2.522116752956465
 20
0.1572402298341382
 30
0.0
 10
2.525358400059428
 20
0.1605225670681012
 30
0.0
 10
2.529373159651383
 20
0.1605225670681012
 30
0.0
 10
2.533415045997339
 20
0.1605225670681012
 30
0.0
 10
2.536683819854303
 20
0.1572402298341382
 30
0.0
 10
2.536683819854303
 20
0.1532390336191822
 30
0.0
  0
SPLINE
  5
469
330
23
100
AcDbEntity
  8
0
100
AcDbSpline
210
0.0
220
0.0
230
1.0
 70
    11
 71
     3
 72
    17
 73
    13
 74
     0
 42
0.0000000001
 43
0.0000000001
 40
0.0
 40
0.0
 40
0.0
 40
0.0
 40
1.0
 40
1.0
 40
1.0
 40
2.0
 40
2.0
 40
2.0
 40
3.0
 40
3.0
 40
3.0
 40
4.0
 40
4.0
 40
4.0
 40
4.0
 10
2.601164114111585
 20
0.1570367791791405
 30
0.0
 10
2.601164114111585
 20
0.153008456210185
 30
0.0
 10
2.597895340254621
 20
0.1497668091072208
 30
0.0
 10
2.593867017285667
 20
0.1497668091072208
 30
0.0
 10
2.589838694316711
 20
0.1497668091072208
 30
0.0
 10
2.586597047213747
 20
0.153008456210185
 30
0.0
 10
2.586597047213747
 20
0.1570367791791405
 30
0.0
 10
2.586597047213747
 20
0.1610515387710958
 30
0.0
 10
2.589838694316711
 20
0.1643067492510593
 30
0.0
 10
2.593867017285667
 20
0.1643067492510593
 30
0.0
 10
2.597895340254621
 20
0.1643067492510593
 30
0.0
 10
2.601164114111585
 20
0.1610515387710958
 30
0.0
 10
2.601164114111585
 20
0.1570367791791405
 30
0.0
  0
SPLINE
  5
46A
330
23
100
AcDbEntity
  8
0
100
AcDbSpline
210
0.0
220
0.0
230
1.0
 70
    11
 71
     3
 72
    17
 73
    13
 74
     0
 42
0.0000000001
 43
0.0000000001
 40
0.0
 40
0.0
 40
0.0
 40
0.0
 40
1.0
 40
1.0
 40
1.0
 40
2.0
 40
2.0
 40
2.0
 40
3.0
 40
3.0
 40
3.0
 40
4.0
 40
4.0
 40
4.0
 40
4.0
 10
2.309103917173833
 20
0.3656686441908201
 30
0.0
 10
2.309103917173833
 20
0.3616403212218646
 30
0.0
 10
2.305821579939869
 20
0.3583851107419012
 30
0.0
 10
2.301793256970915
 20
0.3583851107419012
 30
0.0
 10
2.297764934001959
 20
0.3583851107419012
 30
0.0
 10
2.294523286898995
 20
0.3616403212218646
 30
0.0
 10
2.294523286898995
 20
0.3656686441908201
 30
0.0
 10
2.294523286898995
 20
0.3696698404057761
 30
0.0
 10
2.297764934001959
 20
0.3729250508857396
 30
0.0
 10
2.301793256970915
 20
0.3729250508857396
 30
0.0
 10
2.305821579939869
 20
0.3729250508857396
 30
0.0
 10
2.309103917173833
 20
0.3696698404057761
 30
0.0
 10
2.309103917173833
 20
0.3656686441908201
 30
0.0
  0
SPLINE
  5
46B
330
23
100
AcDbEntity
  8
0
100
AcDbSpline
210
0.0
220
0.0
230
1.0
 70
    11
 71
     3
 72
    17
 73
    13
 74
     0
 42
0.0000000001
 43
0.0000000001
 40
0.0
 40
0.0
 40
0.0
 40
0.0
 40
1.0
 40
1.0
 40
1.0
 40
2.0
 40
2.0
 40
2.0
 40
3.0
 40
3.0
 40
3.0
 40
4.0
 40
4.0
 40
4.0
 40
4.0
 10
2.134583945316774
 20
0.4187557017682302
 30
0.0
 10
2.134583945316774
 20
0.4147545055532742
 30
0.0
 10
2.13134229821381
 20
0.4114857316963105
 30
0.0
 10
2.127327538621855
 20
0.4114857316963105
 30
0.0
 10
2.123285652275899
 20
0.4114857316963105
 30
0.0
 10
2.120044005172936
 20
0.4147545055532742
 30
0.0
 10
2.120044005172936
 20
0.4187557017682302
 30
0.0
 10
2.120044005172936
 20
0.4227704613601855
 30
0.0
 10
2.123285652275899
 20
0.4260392352171492
 30
0.0
 10
2.127327538621855
 20
0.4260392352171492
 30
0.0
 10
2.13134229821381
 20
0.4260392352171492
 30
0.0
 10
2.134583945316774
 20
0.4227704613601855
 30
0.0
 10
2.134583945316774
 20
0.4187557017682302
 30
0.0
  0
SPLINE
  5
46C
330
23
100
AcDbEntity
  8
0
100
AcDbSpline
210
0.0
220
0.0
230
1.0
 70
    11
 71
     3
 72
    17
 73
    13
 74
     0
 42
0.0000000001
 43
0.0000000001
 40
0.0
 40
0.0
 40
0.0
 40
0.0
 40
1.0
 40
1.0
 40
1.0
 40
2.0
 40
2.0
 40
2.0
 40
3.0
 40
3.0
 40
3.0
 40
4.0
 40
4.0
 40
4.0
 40
4.0
 10
2.051169176767702
 20
0.4566789038598085
 30
0.0
 10
2.051169176767702
 20
0.4526641442678532
 30
0.0
 10
2.047886839533738
 20
0.449422497164889
 30
0.0
 10
2.043872079941782
 20
0.449422497164889
 30
0.0
 10
2.039830193595828
 20
0.449422497164889
 30
0.0
 10
2.036588546492864
 20
0.4526641442678532
 30
0.0
 10
2.036588546492864
 20
0.4566789038598085
 30
0.0
 10
2.036588546492864
 20
0.4607072268287631
 30
0.0
 10
2.039830193595828
 20
0.4639760006857268
 30
0.0
 10
2.043872079941782
 20
0.4639760006857268
 30
0.0
 10
2.047886839533738
 20
0.4639760006857268
 30
0.0
 10
2.051169176767702
 20
0.4607072268287631
 30
0.0
 10
2.051169176767702
 20
0.4566789038598085
 30
0.0
  0
SPLINE
  5
46D
330
23
100
AcDbEntity
  8
0
100
AcDbSpline
210
0.0
220
0.0
230
1.0
 70
    11
 71
     3
 72
    17
 73
    13
 74
     0
 42
0.0000000001
 43
0.0000000001
 40
0.0
 40
0.0
 40
0.0
 40
0.0
 40
1.0
 40
1.0
 40
1.0
 40
2.0
 40
2.0
 40
2.0
 40
3.0
 40
3.0
 40
3.0
 40
4.0
 40
4.0
 40
4.0
 40
4.0
 10
2.229432640676719
 20
0.4984269782653437
 30
0.0
 10
2.229432640676719
 20
0.4944122186733884
 30
0.0
 10
2.226177430196755
 20
0.4911434448164247
 30
0.0
 10
2.222135543850801
 20
0.4911434448164247
 30
0.0
 10
2.218134347635845
 20
0.4911434448164247
 30
0.0
 10
2.214879137155881
 20
0.4944122186733884
 30
0.0
 10
2.214879137155881
 20
0.4984269782653437
 30
0.0
 10
2.214879137155881
 20
0.5024281744802996
 30
0.0
 10
2.218134347635845
 20
0.5056969483372633
 30
0.0
 10
2.222135543850801
 20
0.5056969483372633
 30
0.0
 10
2.226177430196755
 20
0.5056969483372633
 30
0.0
 10
2.229432640676719
 20
0.5024281744802996
 30
0.0
 10
2.229432640676719
 20
0.4984269782653437
 30
0.0
  0
SPLINE
  5
46E
330
23
100
AcDbEntity
  8
0
100
AcDbSpline
210
0.0
220
0.0
230
1.0
 70
    11
 71
     3
 72
    17
 73
    13
 74
     0
 42
0.0000000001
 43
0.0000000001
 40
0.0
 40
0.0
 40
0.0
 40
0.0
 40
1.0
 40
1.0
 40
1.0
 40
2.0
 40
2.0
 40
2.0
 40
3.0
 40
3.0
 40
3.0
 40
4.0
 40
4.0
 40
4.0
 40
4.0
 10
2.218052967373846
 20
0.5742733824485002
 30
0.0
 10
2.218052967373846
 20
0.5702586228565449
 30
0.0
 10
2.214784193516882
 20
0.5670169757535808
 30
0.0
 10
2.210769433924927
 20
0.5670169757535808
 30
0.0
 10
2.206741110955972
 20
0.5670169757535808
 30
0.0
 10
2.203485900476008
 20
0.5702586228565449
 30
0.0
 10
2.203485900476008
 20
0.5742733824485002
 30
0.0
 10
2.203485900476008
 20
0.5783017054174557
 30
0.0
 10
2.206741110955972
 20
0.5815704792744194
 30
0.0
 10
2.210769433924927
 20
0.5815704792744194
 30
0.0
 10
2.214784193516882
 20
0.5815704792744194
 30
0.0
 10
2.218052967373846
 20
0.5783017054174557
 30
0.0
 10
2.218052967373846
 20
0.5742733824485002
 30
0.0
  0
SPLINE
  5
46F
330
23
100
AcDbEntity
  8
0
100
AcDbSpline
210
0.0
220
0.0
230
1.0
 70
    11
 71
     3
 72
    17
 73
    13
 74
     0
 42
0.0000000001
 43
0.0000000001
 40
0.0
 40
0.0
 40
0.0
 40
0.0
 40
1.0
 40
1.0
 40
1.0
 40
2.0
 40
2.0
 40
2.0
 40
3.0
 40
3.0
 40
3.0
 40
4.0
 40
4.0
 40
4.0
 40
4.0
 10
2.274951333888213
 20
0.0925564849218574
 30
0.0
 10
2.274951333888213
 20
0.0885417253299021
 30
0.0
 10
2.271709686785249
 20
0.0852593880959382
 30
0.0
 10
2.267667800439294
 20
0.0852593880959382
 30
0.0
 10
2.263653040847339
 20
0.0852593880959382
 30
0.0
 10
2.260370703613376
 20
0.0885417253299021
 30
0.0
 10
2.260370703613376
 20
0.0925564849218574
 30
0.0
 10
2.260370703613376
 20
0.0965712445138127
 30
0.0
 10
2.263653040847339
 20
0.0998264549937762
 30
0.0
 10
2.267667800439294
 20
0.0998264549937762
 30
0.0
 10
2.271709686785249
 20
0.0998264549937762
 30
0.0
 10
2.274951333888213
 20
0.0965712445138127
 30
0.0
 10
2.274951333888213
 20
0.0925564849218574
 30
0.0
  0
SPLINE
  5
470
330
23
100
AcDbEntity
  8
0
100
AcDbSpline
210
0.0
220
0.0
230
1.0
 70
    11
 71
     3
 72
    17
 73
    13
 74
     0
 42
0.0000000001
 43
0.0000000001
 40
0.0
 40
0.0
 40
0.0
 40
0.0
 40
1.0
 40
1.0
 40
1.0
 40
2.0
 40
2.0
 40
2.0
 40
3.0
 40
3.0
 40
3.0
 40
4.0
 40
4.0
 40
4.0
 40
4.0
 10
2.08909237885928
 20
0.0925564849218574
 30
0.0
 10
2.08909237885928
 20
0.0885417253299021
 30
0.0
 10
2.085837168379316
 20
0.0852593880959382
 30
0.0
 10
2.081781718656361
 20
0.0852593880959382
 30
0.0
 10
2.077780522441405
 20
0.0852593880959382
 30
0.0
 10
2.074511748584442
 20
0.0885417253299021
 30
0.0
 10
2.074511748584442
 20
0.0925564849218574
 30
0.0
 10
2.074511748584442
 20
0.0965712445138127
 30
0.0
 10
2.077780522441405
 20
0.0998264549937762
 30
0.0
 10
2.081781718656361
 20
0.0998264549937762
 30
0.0
 10
2.085837168379316
 20
0.0998264549937762
 30
0.0
 10
2.08909237885928
 20
0.0965712445138127
 30
0.0
 10
2.08909237885928
 20
0.0925564849218574
 30
0.0
  0
SPLINE
  5
471
330
23
100
AcDbEntity
  8
0
100
AcDbSpline
210
0.0
220
0.0
230
1.0
 70
    11
 71
     3
 72
    17
 73
    13
 74
     0
 42
0.0000000001
 43
0.0000000001
 40
0.0
 40
0.0
 40
0.0
 40
0.0
 40
1.0
 40
1.0
 40
1.0
 40
2.0
 40
2.0
 40
2.0
 40
3.0
 40
3.0
 40
3.0
 40
4.0
 40
4.0
 40
4.0
 40
4.0
 10
2.127029144327858
 20
0.1115180859676466
 30
0.0
 10
2.127029144327858
 20
0.1075033263756913
 30
0.0
 10
2.123760370470895
 20
0.1042345525187276
 30
0.0
 10
2.119718484124939
 20
0.1042345525187276
 30
0.0
 10
2.115703724532984
 20
0.1042345525187276
 30
0.0
 10
2.11244851405302
 20
0.1075033263756913
 30
0.0
 10
2.11244851405302
 20
0.1115180859676466
 30
0.0
 10
2.11244851405302
 20
0.1155192821826017
 30
0.0
 10
2.115703724532984
 20
0.1188016194165655
 30
0.0
 10
2.119718484124939
 20
0.1188016194165655
 30
0.0
 10
2.123760370470895
 20
0.1188016194165655
 30
0.0
 10
2.127029144327858
 20
0.1155192821826017
 30
0.0
 10
2.127029144327858
 20
0.1115180859676466
 30
0.0
  0
SPLINE
  5
472
330
23
100
AcDbEntity
  8
0
100
AcDbSpline
210
0.0
220
0.0
230
1.0
 70
    11
 71
     3
 72
    17
 73
    13
 74
     0
 42
0.0000000001
 43
0.0000000001
 40
0.0
 40
0.0
 40
0.0
 40
0.0
 40
1.0
 40
1.0
 40
1.0
 40
2.0
 40
2.0
 40
2.0
 40
3.0
 40
3.0
 40
3.0
 40
4.0
 40
4.0
 40
4.0
 40
4.0
 10
2.233230386236677
 20
0.3391115520251153
 30
0.0
 10
2.233230386236677
 20
0.3350696656791605
 30
0.0
 10
2.229948049002713
 20
0.3318280185761964
 30
0.0
 10
2.225946852787758
 20
0.3318280185761964
 30
0.0
 10
2.221932093195803
 20
0.3318280185761964
 30
0.0
 10
2.218649755961839
 20
0.3350696656791605
 30
0.0
 10
2.218649755961839
 20
0.3391115520251153
 30
0.0
 10
2.218649755961839
 20
0.3431127482400713
 30
0.0
 10
2.221932093195803
 20
0.346381522097035
 30
0.0
 10
2.225946852787758
 20
0.346381522097035
 30
0.0
 10
2.229948049002713
 20
0.346381522097035
 30
0.0
 10
2.233230386236677
 20
0.3431127482400713
 30
0.0
 10
2.233230386236677
 20
0.3391115520251153
 30
0.0
  0
SPLINE
  5
473
330
23
100
AcDbEntity
  8
0
100
AcDbSpline
210
0.0
220
0.0
230
1.0
 70
    11
 71
     3
 72
    17
 73
    13
 74
     0
 42
0.0000000001
 43
0.0000000001
 40
0.0
 40
0.0
 40
0.0
 40
0.0
 40
1.0
 40
1.0
 40
1.0
 40
2.0
 40
2.0
 40
2.0
 40
3.0
 40
3.0
 40
3.0
 40
4.0
 40
4.0
 40
4.0
 40
4.0
 10
2.290115189374045
 20
0.3011612231795375
 30
0.0
 10
2.290115189374045
 20
0.2971600269645824
 30
0.0
 10
2.28687354227108
 20
0.2938912531076188
 30
0.0
 10
2.282831655925126
 20
0.2938912531076188
 30
0.0
 10
2.27883045971017
 20
0.2938912531076188
 30
0.0
 10
2.275548122476207
 20
0.2971600269645824
 30
0.0
 10
2.275548122476207
 20
0.3011612231795375
 30
0.0
 10
2.275548122476207
 20
0.3051759827714928
 30
0.0
 10
2.27883045971017
 20
0.3084447566284565
 30
0.0
 10
2.282831655925126
 20
0.3084447566284565
 30
0.0
 10
2.28687354227108
 20
0.3084447566284565
 30
0.0
 10
2.290115189374045
 20
0.3051759827714928
 30
0.0
 10
2.290115189374045
 20
0.3011612231795375
 30
0.0
  0
SPLINE
  5
474
330
23
100
AcDbEntity
  8
0
100
AcDbSpline
210
0.0
220
0.0
230
1.0
 70
    11
 71
     3
 72
    17
 73
    13
 74
     0
 42
0.0000000001
 43
0.0000000001
 40
0.0
 40
0.0
 40
0.0
 40
0.0
 40
1.0
 40
1.0
 40
1.0
 40
2.0
 40
2.0
 40
2.0
 40
3.0
 40
3.0
 40
3.0
 40
4.0
 40
4.0
 40
4.0
 40
4.0
 10
1.417698435678246
 20
0.3428821708310732
 30
0.0
 10
1.417698435678246
 20
0.3388945379931183
 30
0.0
 10
1.414443225198283
 20
0.3356122007591544
 30
0.0
 10
1.410414902229327
 20
0.3356122007591544
 30
0.0
 10
1.406400142637372
 20
0.3356122007591544
 30
0.0
 10
1.403144932157407
 20
0.3388945379931183
 30
0.0
 10
1.403144932157407
 20
0.3428821708310732
 30
0.0
 10
1.403144932157407
 20
0.3469240571770289
 30
0.0
 10
1.406400142637372
 20
0.3501792676569924
 30
0.0
 10
1.410414902229327
 20
0.3501792676569924
 30
0.0
 10
1.414443225198283
 20
0.3501792676569924
 30
0.0
 10
1.417698435678246
 20
0.3469240571770289
 30
0.0
 10
1.417698435678246
 20
0.3428821708310732
 30
0.0
  0
SPLINE
  5
475
330
23
100
AcDbEntity
  8
0
100
AcDbSpline
210
0.0
220
0.0
230
1.0
 70
    11
 71
     3
 72
    17
 73
    13
 74
     0
 42
0.0000000001
 43
0.0000000001
 40
0.0
 40
0.0
 40
0.0
 40
0.0
 40
1.0
 40
1.0
 40
1.0
 40
2.0
 40
2.0
 40
2.0
 40
3.0
 40
3.0
 40
3.0
 40
4.0
 40
4.0
 40
4.0
 40
4.0
 10
1.448039710026909
 20
0.3656686441908201
 30
0.0
 10
1.448039710026909
 20
0.3616403212218646
 30
0.0
 10
1.444784499546945
 20
0.3583851107419012
 30
0.0
 10
1.44075617657799
 20
0.3583851107419012
 30
0.0
 10
1.436741416986035
 20
0.3583851107419012
 30
0.0
 10
1.43348620650607
 20
0.3616403212218646
 30
0.0
 10
1.43348620650607
 20
0.3656686441908201
 30
0.0
 10
1.43348620650607
 20
0.3696698404057761
 30
0.0
 10
1.436741416986035
 20
0.3729250508857396
 30
0.0
 10
1.44075617657799
 20
0.3729250508857396
 30
0.0
 10
1.444784499546945
 20
0.3729250508857396
 30
0.0
 10
1.448039710026909
 20
0.3696698404057761
 30
0.0
 10
1.448039710026909
 20
0.3656686441908201
 30
0.0
  0
SPLINE
  5
476
330
23
100
AcDbEntity
  8
0
100
AcDbSpline
210
0.0
220
0.0
230
1.0
 70
    11
 71
     3
 72
    17
 73
    13
 74
     0
 42
0.0000000001
 43
0.0000000001
 40
0.0
 40
0.0
 40
0.0
 40
0.0
 40
1.0
 40
1.0
 40
1.0
 40
2.0
 40
2.0
 40
2.0
 40
3.0
 40
3.0
 40
3.0
 40
4.0
 40
4.0
 40
4.0
 40
4.0
 10
1.569411589110059
 20
0.536350180356922
 30
0.0
 10
1.569411589110059
 20
0.5323489841419669
 30
0.0
 10
1.566169942007095
 20
0.5290802102850032
 30
0.0
 10
1.56212805566114
 20
0.5290802102850032
 30
0.0
 10
1.558113296069185
 20
0.5290802102850032
 30
0.0
 10
1.554871648966221
 20
0.5323489841419669
 30
0.0
 10
1.554871648966221
 20
0.536350180356922
 30
0.0
 10
1.554871648966221
 20
0.5403649399488772
 30
0.0
 10
1.558113296069185
 20
0.5436337138058409
 30
0.0
 10
1.56212805566114
 20
0.5436337138058409
 30
0.0
 10
1.566169942007095
 20
0.5436337138058409
 30
0.0
 10
1.569411589110059
 20
0.5403649399488772
 30
0.0
 10
1.569411589110059
 20
0.536350180356922
 30
0.0
  0
SPLINE
  5
477
330
23
100
AcDbEntity
  8
0
100
AcDbSpline
210
0.0
220
0.0
230
1.0
 70
    11
 71
     3
 72
    17
 73
    13
 74
     0
 42
0.0000000001
 43
0.0000000001
 40
0.0
 40
0.0
 40
0.0
 40
0.0
 40
1.0
 40
1.0
 40
1.0
 40
2.0
 40
2.0
 40
2.0
 40
3.0
 40
3.0
 40
3.0
 40
4.0
 40
4.0
 40
4.0
 40
4.0
 10
1.929763389242051
 20
0.2935928588136214
 30
0.0
 10
1.929763389242051
 20
0.2895780992216661
 30
0.0
 10
1.926521742139088
 20
0.2862957619877031
 30
0.0
 10
1.922479855793132
 20
0.2862957619877031
 30
0.0
 10
1.918478659578177
 20
0.2862957619877031
 30
0.0
 10
1.915196322344213
 20
0.2895780992216661
 30
0.0
 10
1.915196322344213
 20
0.2935928588136214
 30
0.0
 10
1.915196322344213
 20
0.2976076184055767
 30
0.0
 10
1.918478659578177
 20
0.3008763922625404
 30
0.0
 10
1.922479855793132
 20
0.3008763922625404
 30
0.0
 10
1.926521742139088
 20
0.3008763922625404
 30
0.0
 10
1.929763389242051
 20
0.2976076184055767
 30
0.0
 10
1.929763389242051
 20
0.2935928588136214
 30
0.0
  0
SPLINE
  5
478
330
23
100
AcDbEntity
  8
0
100
AcDbSpline
210
0.0
220
0.0
230
1.0
 70
    11
 71
     3
 72
    17
 73
    13
 74
     0
 42
0.0000000001
 43
0.0000000001
 40
0.0
 40
0.0
 40
0.0
 40
0.0
 40
1.0
 40
1.0
 40
1.0
 40
2.0
 40
2.0
 40
2.0
 40
3.0
 40
3.0
 40
3.0
 40
4.0
 40
4.0
 40
4.0
 40
4.0
 10
1.899435678270389
 20
0.2442764200421701
 30
0.0
 10
1.899435678270389
 20
0.2402616604502148
 30
0.0
 10
1.896166904413425
 20
0.2370064499702513
 30
0.0
 10
1.89215214482147
 20
0.2370064499702513
 30
0.0
 10
1.888110258475515
 20
0.2370064499702513
 30
0.0
 10
1.884855047995551
 20
0.2402616604502148
 30
0.0
 10
1.884855047995551
 20
0.2442764200421701
 30
0.0
 10
1.884855047995551
 20
0.2482911796341254
 30
0.0
 10
1.888110258475515
 20
0.2515599534910891
 30
0.0
 10
1.89215214482147
 20
0.2515599534910891
 30
0.0
 10
1.896166904413425
 20
0.2515599534910891
 30
0.0
 10
1.899435678270389
 20
0.2482911796341254
 30
0.0
 10
1.899435678270389
 20
0.2442764200421701
 30
0.0
  0
SPLINE
  5
479
330
23
100
AcDbEntity
  8
0
100
AcDbSpline
210
0.0
220
0.0
230
1.0
 70
    11
 71
     3
 72
    17
 73
    13
 74
     0
 42
0.0000000001
 43
0.0000000001
 40
0.0
 40
0.0
 40
0.0
 40
0.0
 40
1.0
 40
1.0
 40
1.0
 40
2.0
 40
2.0
 40
2.0
 40
3.0
 40
3.0
 40
3.0
 40
4.0
 40
4.0
 40
4.0
 40
4.0
 10
1.273573991677849
 20
0.2177193278764653
 30
0.0
 10
1.273573991677849
 20
0.21370456828451
 30
0.0
 10
1.270305217820885
 20
0.2104493578045465
 30
0.0
 10
1.26627689485193
 20
0.2104493578045465
 30
0.0
 10
1.262248571882975
 20
0.2104493578045465
 30
0.0
 10
1.258993361403011
 20
0.21370456828451
 30
0.0
 10
1.258993361403011
 20
0.2177193278764653
 30
0.0
 10
1.258993361403011
 20
0.2217612142224201
 30
0.0
 10
1.262248571882975
 20
0.2250028613253843
 30
0.0
 10
1.26627689485193
 20
0.2250028613253843
 30
0.0
 10
1.270305217820885
 20
0.2250028613253843
 30
0.0
 10
1.273573991677849
 20
0.2217612142224201
 30
0.0
 10
1.273573991677849
 20
0.2177193278764653
 30
0.0
  0
SPLINE
  5
47A
330
23
100
AcDbEntity
  8
0
100
AcDbSpline
210
0.0
220
0.0
230
1.0
 70
    11
 71
     3
 72
    17
 73
    13
 74
     0
 42
0.0000000001
 43
0.0000000001
 40
0.0
 40
0.0
 40
0.0
 40
0.0
 40
1.0
 40
1.0
 40
1.0
 40
2.0
 40
2.0
 40
2.0
 40
3.0
 40
3.0
 40
3.0
 40
4.0
 40
4.0
 40
4.0
 40
4.0
 10
1.174941114134946
 20
0.3466934797680317
 30
0.0
 10
1.174941114134946
 20
0.3426651567990762
 30
0.0
 10
1.171672340277982
 20
0.3394370730731122
 30
0.0
 10
1.167657580686027
 20
0.3394370730731122
 30
0.0
 10
1.163642821094071
 20
0.3394370730731122
 30
0.0
 10
1.160374047237108
 20
0.3426651567990762
 30
0.0
 10
1.160374047237108
 20
0.3466934797680317
 30
0.0
 10
1.160374047237108
 20
0.3507218027369863
 30
0.0
 10
1.163642821094071
 20
0.3539770132169506
 30
0.0
 10
1.167657580686027
 20
0.3539770132169506
 30
0.0
 10
1.171672340277982
 20
0.3539770132169506
 30
0.0
 10
1.174941114134946
 20
0.3507218027369863
 30
0.0
 10
1.174941114134946
 20
0.3466934797680317
 30
0.0
  0
SPLINE
  5
47B
330
23
100
AcDbEntity
  8
0
100
AcDbSpline
210
0.0
220
0.0
230
1.0
 70
    11
 71
     3
 72
    17
 73
    13
 74
     0
 42
0.0000000001
 43
0.0000000001
 40
0.0
 40
0.0
 40
0.0
 40
0.0
 40
1.0
 40
1.0
 40
1.0
 40
2.0
 40
2.0
 40
2.0
 40
3.0
 40
3.0
 40
3.0
 40
4.0
 40
4.0
 40
4.0
 40
4.0
 10
1.334242976998175
 20
0.4984269782653437
 30
0.0
 10
1.334242976998175
 20
0.4944122186733884
 30
0.0
 10
1.33098776651821
 20
0.4911434448164247
 30
0.0
 10
1.326973006926255
 20
0.4911434448164247
 30
0.0
 10
1.3229446839573
 20
0.4911434448164247
 30
0.0
 10
1.319675910100336
 20
0.4944122186733884
 30
0.0
 10
1.319675910100336
 20
0.4984269782653437
 30
0.0
 10
1.319675910100336
 20
0.5024281744802996
 30
0.0
 10
1.3229446839573
 20
0.5056969483372633
 30
0.0
 10
1.326973006926255
 20
0.5056969483372633
 30
0.0
 10
1.33098776651821
 20
0.5056969483372633
 30
0.0
 10
1.334242976998175
 20
0.5024281744802996
 30
0.0
 10
1.334242976998175
 20
0.4984269782653437
 30
0.0
  0
SPLINE
  5
47C
330
23
100
AcDbEntity
  8
0
100
AcDbSpline
210
0.0
220
0.0
230
1.0
 70
    11
 71
     3
 72
    17
 73
    13
 74
     0
 42
0.0000000001
 43
0.0000000001
 40
0.0
 40
0.0
 40
0.0
 40
0.0
 40
1.0
 40
1.0
 40
1.0
 40
2.0
 40
2.0
 40
2.0
 40
3.0
 40
3.0
 40
3.0
 40
4.0
 40
4.0
 40
4.0
 40
4.0
 10
1.353218141420963
 20
0.38461668185961
 30
0.0
 10
1.353218141420963
 20
0.380615485644654
 30
0.0
 10
1.349949367563999
 20
0.3773602751646905
 30
0.0
 10
1.345921044595044
 20
0.3773602751646905
 30
0.0
 10
1.341919848380089
 20
0.3773602751646905
 30
0.0
 10
1.338651074523125
 20
0.380615485644654
 30
0.0
 10
1.338651074523125
 20
0.38461668185961
 30
0.0
 10
1.338651074523125
 20
0.3886450048285646
 30
0.0
 10
1.341919848380089
 20
0.3919002153085289
 30
0.0
 10
1.345921044595044
 20
0.3919002153085289
 30
0.0
 10
1.349949367563999
 20
0.3919002153085289
 30
0.0
 10
1.353218141420963
 20
0.3886450048285646
 30
0.0
 10
1.353218141420963
 20
0.38461668185961
 30
0.0
  0
SPLINE
  5
47D
330
23
100
AcDbEntity
  8
0
100
AcDbSpline
210
0.0
220
0.0
230
1.0
 70
    11
 71
     3
 72
    17
 73
    13
 74
     0
 42
0.0000000001
 43
0.0000000001
 40
0.0
 40
0.0
 40
0.0
 40
0.0
 40
1.0
 40
1.0
 40
1.0
 40
2.0
 40
2.0
 40
2.0
 40
3.0
 40
3.0
 40
3.0
 40
4.0
 40
4.0
 40
4.0
 40
4.0
 10
1.42907810898112
 20
0.4415014849969765
 30
0.0
 10
1.42907810898112
 20
0.4375274155360209
 30
0.0
 10
1.425822898501155
 20
0.4342586416790573
 30
0.0
 10
1.421794575532201
 20
0.4342586416790573
 30
0.0
 10
1.417766252563245
 20
0.4342586416790573
 30
0.0
 10
1.414524605460281
 20
0.4375274155360209
 30
0.0
 10
1.414524605460281
 20
0.4415014849969765
 30
0.0
 10
1.414524605460281
 20
0.4455433713429322
 30
0.0
 10
1.417766252563245
 20
0.4488121451998959
 30
0.0
 10
1.421794575532201
 20
0.4488121451998959
 30
0.0
 10
1.425822898501155
 20
0.4488121451998959
 30
0.0
 10
1.42907810898112
 20
0.4455433713429322
 30
0.0
 10
1.42907810898112
 20
0.4415014849969765
 30
0.0
  0
SPLINE
  5
47E
330
23
100
AcDbEntity
  8
0
100
AcDbSpline
210
0.0
220
0.0
230
1.0
 70
    11
 71
     3
 72
    17
 73
    13
 74
     0
 42
0.0000000001
 43
0.0000000001
 40
0.0
 40
0.0
 40
0.0
 40
0.0
 40
1.0
 40
1.0
 40
1.0
 40
2.0
 40
2.0
 40
2.0
 40
3.0
 40
3.0
 40
3.0
 40
4.0
 40
4.0
 40
4.0
 40
4.0
 10
1.432875854541077
 20
0.6729062599914037
 30
0.0
 10
1.432875854541077
 20
0.6688915003994485
 30
0.0
 10
1.429607080684114
 20
0.6656227265424848
 30
0.0
 10
1.425592321092158
 20
0.6656227265424848
 30
0.0
 10
1.421577561500203
 20
0.6656227265424848
 30
0.0
 10
1.418308787643239
 20
0.6688915003994485
 30
0.0
 10
1.418308787643239
 20
0.6729062599914037
 30
0.0
 10
1.418308787643239
 20
0.676921019583359
 30
0.0
 10
1.421577561500203
 20
0.6801762300633225
 30
0.0
 10
1.425592321092158
 20
0.6801762300633225
 30
0.0
 10
1.429607080684114
 20
0.6801762300633225
 30
0.0
 10
1.432875854541077
 20
0.676921019583359
 30
0.0
 10
1.432875854541077
 20
0.6729062599914037
 30
0.0
  0
SPLINE
  5
47F
330
23
100
AcDbEntity
  8
0
100
AcDbSpline
210
0.0
220
0.0
230
1.0
 70
    11
 71
     3
 72
    17
 73
    13
 74
     0
 42
0.0000000001
 43
0.0000000001
 40
0.0
 40
0.0
 40
0.0
 40
0.0
 40
1.0
 40
1.0
 40
1.0
 40
2.0
 40
2.0
 40
2.0
 40
3.0
 40
3.0
 40
3.0
 40
4.0
 40
4.0
 40
4.0
 40
4.0
 10
0.8639057527744045
 20
0.650133350008657
 30
0.0
 10
0.8639057527744045
 20
0.6461185904167017
 30
0.0
 10
0.8606505422944411
 20
0.6428769433137376
 30
0.0
 10
0.8566222193254856
 20
0.6428769433137376
 30
0.0
 10
0.8525938963565301
 20
0.6428769433137376
 30
0.0
 10
0.8493386858765666
 20
0.6461185904167017
 30
0.0
 10
0.8493386858765666
 20
0.650133350008657
 30
0.0
 10
0.8493386858765666
 20
0.6541752363546118
 30
0.0
 10
0.8525938963565301
 20
0.6574033200805758
 30
0.0
 10
0.8566222193254856
 20
0.6574033200805758
 30
0.0
 10
0.8606505422944411
 20
0.6574033200805758
 30
0.0
 10
0.8639057527744045
 20
0.6541752363546118
 30
0.0
 10
0.8639057527744045
 20
0.650133350008657
 30
0.0
  0
SPLINE
  5
480
330
23
100
AcDbEntity
  8
0
100
AcDbSpline
210
0.0
220
0.0
230
1.0
 70
    11
 71
     3
 72
    17
 73
    13
 74
     0
 42
0.0000000001
 43
0.0000000001
 40
0.0
 40
0.0
 40
0.0
 40
0.0
 40
1.0
 40
1.0
 40
1.0
 40
2.0
 40
2.0
 40
2.0
 40
3.0
 40
3.0
 40
3.0
 40
4.0
 40
4.0
 40
4.0
 40
4.0
 10
0.9587408847573498
 20
0.6046282201741633
 30
0.0
 10
0.9587408847573498
 20
0.6006134605822071
 30
0.0
 10
0.9554721109003861
 20
0.5973446867252434
 30
0.0
 10
0.9514437879314315
 20
0.5973446867252434
 30
0.0
 10
0.9474290283394762
 20
0.5973446867252434
 30
0.0
 10
0.9441738178595118
 20
0.6006134605822071
 30
0.0
 10
0.9441738178595118
 20
0.6046282201741633
 30
0.0
 10
0.9441738178595118
 20
0.6086294163891184
 30
0.0
 10
0.9474290283394762
 20
0.6119117536230823
 30
0.0
 10
0.9514437879314315
 20
0.6119117536230823
 30
0.0
 10
0.9554721109003861
 20
0.6119117536230823
 30
0.0
 10
0.9587408847573498
 20
0.6086294163891184
 30
0.0
 10
0.9587408847573498
 20
0.6046282201741633
 30
0.0
  0
SPLINE
  5
481
330
23
100
AcDbEntity
  8
0
100
AcDbSpline
210
0.0
220
0.0
230
1.0
 70
    11
 71
     3
 72
    17
 73
    13
 74
     0
 42
0.0000000001
 43
0.0000000001
 40
0.0
 40
0.0
 40
0.0
 40
0.0
 40
1.0
 40
1.0
 40
1.0
 40
2.0
 40
2.0
 40
2.0
 40
3.0
 40
3.0
 40
3.0
 40
4.0
 40
4.0
 40
4.0
 40
4.0
 10
0.9473612114544769
 20
0.6994633521571081
 30
0.0
 10
0.9473612114544769
 20
0.695435029188153
 30
0.0
 10
0.9440924375975133
 20
0.6921933820851889
 30
0.0
 10
0.9400641146285578
 20
0.6921933820851889
 30
0.0
 10
0.9360629184136018
 20
0.6921933820851889
 30
0.0
 10
0.932794144556639
 20
0.695435029188153
 30
0.0
 10
0.932794144556639
 20
0.6994633521571081
 30
0.0
 10
0.932794144556639
 20
0.7034781117490634
 30
0.0
 10
0.9360629184136018
 20
0.7067197588520275
 30
0.0
 10
0.9400641146285578
 20
0.7067197588520275
 30
0.0
 10
0.9440924375975133
 20
0.7067197588520275
 30
0.0
 10
0.9473612114544769
 20
0.7034781117490634
 30
0.0
 10
0.9473612114544769
 20
0.6994633521571081
 30
0.0
  0
SPLINE
  5
482
330
23
100
AcDbEntity
  8
0
100
AcDbSpline
210
0.0
220
0.0
230
1.0
 70
    11
 71
     3
 72
    17
 73
    13
 74
     0
 42
0.0000000001
 43
0.0000000001
 40
0.0
 40
0.0
 40
0.0
 40
0.0
 40
1.0
 40
1.0
 40
1.0
 40
2.0
 40
2.0
 40
2.0
 40
3.0
 40
3.0
 40
3.0
 40
4.0
 40
4.0
 40
4.0
 40
4.0
 10
0.9890821591060126
 20
0.6197920756599942
 30
0.0
 10
0.9890821591060126
 20
0.6157773160680389
 30
0.0
 10
0.9858269486260491
 20
0.6125221055880754
 30
0.0
 10
0.9817850622800934
 20
0.6125221055880754
 30
0.0
 10
0.9777703026881381
 20
0.6125221055880754
 30
0.0
 10
0.9745015288311745
 20
0.6157773160680389
 30
0.0
 10
0.9745015288311745
 20
0.6197920756599942
 30
0.0
 10
0.9745015288311745
 20
0.6238068352519495
 30
0.0
 10
0.9777703026881381
 20
0.6270756091089131
 30
0.0
 10
0.9817850622800934
 20
0.6270756091089131
 30
0.0
 10
0.9858269486260491
 20
0.6270756091089131
 30
0.0
 10
0.9890821591060126
 20
0.6238068352519495
 30
0.0
 10
0.9890821591060126
 20
0.6197920756599942
 30
0.0
  0
SPLINE
  5
483
330
23
100
AcDbEntity
  8
0
100
AcDbSpline
210
0.0
220
0.0
230
1.0
 70
    11
 71
     3
 72
    17
 73
    13
 74
     0
 42
0.0000000001
 43
0.0000000001
 40
0.0
 40
0.0
 40
0.0
 40
0.0
 40
1.0
 40
1.0
 40
1.0
 40
2.0
 40
2.0
 40
2.0
 40
3.0
 40
3.0
 40
3.0
 40
4.0
 40
4.0
 40
4.0
 40
4.0
 10
0.7501090197456701
 20
0.5249840704310484
 30
0.0
 10
0.7501090197456701
 20
0.5209557474620929
 30
0.0
 10
0.7468402458887065
 20
0.5176869736051293
 30
0.0
 10
0.7428254862967512
 20
0.5176869736051293
 30
0.0
 10
0.7388107267047959
 20
0.5176869736051293
 30
0.0
 10
0.7355419528478322
 20
0.5209557474620929
 30
0.0
 10
0.7355419528478322
 20
0.5249840704310484
 30
0.0
 10
0.7355419528478322
 20
0.5289852666460044
 30
0.0
 10
0.7388107267047959
 20
0.5322404771259679
 30
0.0
 10
0.7428254862967512
 20
0.5322404771259679
 30
0.0
 10
0.7468402458887065
 20
0.5322404771259679
 30
0.0
 10
0.7501090197456701
 20
0.5289852666460044
 30
0.0
 10
0.7501090197456701
 20
0.5249840704310484
 30
0.0
  0
SPLINE
  5
484
330
23
100
AcDbEntity
  8
0
100
AcDbSpline
210
0.0
220
0.0
230
1.0
 70
    11
 71
     3
 72
    17
 73
    13
 74
     0
 42
0.0000000001
 43
0.0000000001
 40
0.0
 40
0.0
 40
0.0
 40
0.0
 40
1.0
 40
1.0
 40
1.0
 40
2.0
 40
2.0
 40
2.0
 40
3.0
 40
3.0
 40
3.0
 40
4.0
 40
4.0
 40
4.0
 40
4.0
 10
0.7956412763341634
 20
0.6425514222657407
 30
0.0
 10
0.7956412763341634
 20
0.6385502260507856
 30
0.0
 10
0.7923725024772006
 20
0.6352814521938219
 30
0.0
 10
0.7883306161312449
 20
0.6352814521938219
 30
0.0
 10
0.7843158565392896
 20
0.6352814521938219
 30
0.0
 10
0.7810742094363254
 20
0.6385502260507856
 30
0.0
 10
0.7810742094363254
 20
0.6425514222657407
 30
0.0
 10
0.7810742094363254
 20
0.6465797452346962
 30
0.0
 10
0.7843158565392896
 20
0.6498349557146605
 30
0.0
 10
0.7883306161312449
 20
0.6498349557146605
 30
0.0
 10
0.7923725024772006
 20
0.6498349557146605
 30
0.0
 10
0.7956412763341634
 20
0.6465797452346962
 30
0.0
 10
0.7956412763341634
 20
0.6425514222657407
 30
0.0
  0
SPLINE
  5
485
330
23
100
AcDbEntity
  8
0
100
AcDbSpline
210
0.0
220
0.0
230
1.0
 70
    11
 71
     3
 72
    17
 73
    13
 74
     0
 42
0.0000000001
 43
0.0000000001
 40
0.0
 40
0.0
 40
0.0
 40
0.0
 40
1.0
 40
1.0
 40
1.0
 40
2.0
 40
2.0
 40
2.0
 40
3.0
 40
3.0
 40
3.0
 40
4.0
 40
4.0
 40
4.0
 40
4.0
 10
0.9094244459858984
 20
0.3732641353107358
 30
0.0
 10
0.9094244459858984
 20
0.369222248964781
 30
0.0
 10
0.906169235505935
 20
0.3659670384848166
 30
0.0
 10
0.9021273491599793
 20
0.3659670384848166
 30
0.0
 10
0.8981261529450242
 20
0.3659670384848166
 30
0.0
 10
0.8948573790880605
 20
0.369222248964781
 30
0.0
 10
0.8948573790880605
 20
0.3732641353107358
 30
0.0
 10
0.8948573790880605
 20
0.3772517681486916
 30
0.0
 10
0.8981261529450242
 20
0.380506978628655
 30
0.0
 10
0.9021273491599793
 20
0.380506978628655
 30
0.0
 10
0.906169235505935
 20
0.380506978628655
 30
0.0
 10
0.9094244459858984
 20
0.3772517681486916
 30
0.0
 10
0.9094244459858984
 20
0.3732641353107358
 30
0.0
  0
SPLINE
  5
486
330
23
100
AcDbEntity
  8
0
100
AcDbSpline
210
0.0
220
0.0
230
1.0
 70
    11
 71
     3
 72
    17
 73
    13
 74
     0
 42
0.0000000001
 43
0.0000000001
 40
0.0
 40
0.0
 40
0.0
 40
0.0
 40
1.0
 40
1.0
 40
1.0
 40
2.0
 40
2.0
 40
2.0
 40
3.0
 40
3.0
 40
3.0
 40
4.0
 40
4.0
 40
4.0
 40
4.0
 10
1.01182794233476
 20
0.3315160609051997
 30
0.0
 10
1.01182794233476
 20
0.3275013013132444
 30
0.0
 10
1.008572731854796
 20
0.3242460908332809
 30
0.0
 10
1.00455797226284
 20
0.3242460908332809
 30
0.0
 10
1.000529649293886
 20
0.3242460908332809
 30
0.0
 10
0.9972608754369219
 20
0.3275013013132444
 30
0.0
 10
0.9972608754369219
 20
0.3315160609051997
 30
0.0
 10
0.9972608754369219
 20
0.335530820497155
 30
0.0
 10
1.000529649293886
 20
0.3388131577311189
 30
0.0
 10
1.00455797226284
 20
0.3388131577311189
 30
0.0
 10
1.008572731854796
 20
0.3388131577311189
 30
0.0
 10
1.01182794233476
 20
0.335530820497155
 30
0.0
 10
1.01182794233476
 20
0.3315160609051997
 30
0.0
  0
SPLINE
  5
487
330
23
100
AcDbEntity
  8
0
100
AcDbSpline
210
0.0
220
0.0
230
1.0
 70
    11
 71
     3
 72
    17
 73
    13
 74
     0
 42
0.0000000001
 43
0.0000000001
 40
0.0
 40
0.0
 40
0.0
 40
0.0
 40
1.0
 40
1.0
 40
1.0
 40
2.0
 40
2.0
 40
2.0
 40
3.0
 40
3.0
 40
3.0
 40
4.0
 40
4.0
 40
4.0
 40
4.0
 10
0.6628693788826405
 20
0.7753097563402647
 30
0.0
 10
0.6628693788826405
 20
0.7712949967483094
 30
0.0
 10
0.6596141684026762
 20
0.7680397862683455
 30
0.0
 10
0.6555722820567214
 20
0.7680397862683455
 30
0.0
 10
0.6515710858417663
 20
0.7680397862683455
 30
0.0
 10
0.6483158753618019
 20
0.7712949967483094
 30
0.0
 10
0.6483158753618019
 20
0.7753097563402647
 30
0.0
 10
0.6483158753618019
 20
0.7793380793092202
 30
0.0
 10
0.6515710858417663
 20
0.7825797264121839
 30
0.0
 10
0.6555722820567214
 20
0.7825797264121839
 30
0.0
 10
0.6596141684026762
 20
0.7825797264121839
 30
0.0
 10
0.6628693788826405
 20
0.7793380793092202
 30
0.0
 10
0.6628693788826405
 20
0.7753097563402647
 30
0.0
  0
SPLINE
  5
488
330
23
100
AcDbEntity
  8
0
100
AcDbSpline
210
0.0
220
0.0
230
1.0
 70
    11
 71
     3
 72
    17
 73
    13
 74
     0
 42
0.0000000001
 43
0.0000000001
 40
0.0
 40
0.0
 40
0.0
 40
0.0
 40
1.0
 40
1.0
 40
1.0
 40
2.0
 40
2.0
 40
2.0
 40
3.0
 40
3.0
 40
3.0
 40
4.0
 40
4.0
 40
4.0
 40
4.0
 10
0.6970083987912608
 20
0.767741391974349
 30
0.0
 10
0.6970083987912608
 20
0.7637130690053939
 30
0.0
 10
0.6937531883112973
 20
0.7604442951484303
 30
0.0
 10
0.6897113019653416
 20
0.7604442951484303
 30
0.0
 10
0.6857101057503865
 20
0.7604442951484303
 30
0.0
 10
0.6824413318934228
 20
0.7637130690053939
 30
0.0
 10
0.6824413318934228
 20
0.767741391974349
 30
0.0
 10
0.6824413318934228
 20
0.7717561515663043
 30
0.0
 10
0.6857101057503865
 20
0.7749977986692684
 30
0.0
 10
0.6897113019653416
 20
0.7749977986692684
 30
0.0
 10
0.6937531883112973
 20
0.7749977986692684
 30
0.0
 10
0.6970083987912608
 20
0.7717561515663043
 30
0.0
 10
0.6970083987912608
 20
0.767741391974349
 30
0.0
  0
SPLINE
  5
489
330
23
100
AcDbEntity
  8
0
100
AcDbSpline
210
0.0
220
0.0
230
1.0
 70
    11
 71
     3
 72
    17
 73
    13
 74
     0
 42
0.0000000001
 43
0.0000000001
 40
0.0
 40
0.0
 40
0.0
 40
0.0
 40
1.0
 40
1.0
 40
1.0
 40
2.0
 40
2.0
 40
2.0
 40
3.0
 40
3.0
 40
3.0
 40
4.0
 40
4.0
 40
4.0
 40
4.0
 10
0.87148768051732
 20
0.9270296914605773
 30
0.0
 10
0.87148768051732
 20
0.9230284952456223
 30
0.0
 10
0.8682324700373565
 20
0.9197597213886586
 30
0.0
 10
0.864204147068401
 20
0.9197597213886586
 30
0.0
 10
0.8601893874764457
 20
0.9197597213886586
 30
0.0
 10
0.856920613619482
 20
0.9230284952456223
 30
0.0
 10
0.856920613619482
 20
0.9270296914605773
 30
0.0
 10
0.856920613619482
 20
0.9310444510525331
 30
0.0
 10
0.8601893874764457
 20
0.9343132249094968
 30
0.0
 10
0.864204147068401
 20
0.9343132249094968
 30
0.0
 10
0.8682324700373565
 20
0.9343132249094968
 30
0.0
 10
0.87148768051732
 20
0.9310444510525331
 30
0.0
 10
0.87148768051732
 20
0.9270296914605773
 30
0.0
  0
SPLINE
  5
48A
330
23
100
AcDbEntity
  8
0
100
AcDbSpline
210
0.0
220
0.0
230
1.0
 70
    11
 71
     3
 72
    17
 73
    13
 74
     0
 42
0.0000000001
 43
0.0000000001
 40
0.0
 40
0.0
 40
0.0
 40
0.0
 40
1.0
 40
1.0
 40
1.0
 40
2.0
 40
2.0
 40
2.0
 40
3.0
 40
3.0
 40
3.0
 40
4.0
 40
4.0
 40
4.0
 40
4.0
 10
0.9208041192887722
 20
1.029460314563439
 30
0.0
 10
0.9208041192887722
 20
1.025459118348483
 30
0.0
 10
0.9175353454318085
 20
1.02219034449152
 30
0.0
 10
0.9135205858398532
 20
1.02219034449152
 30
0.0
 10
0.9094922628708977
 20
1.02219034449152
 30
0.0
 10
0.9062370523909342
 20
1.025459118348483
 30
0.0
 10
0.9062370523909342
 20
1.029460314563439
 30
0.0
 10
0.9062370523909342
 20
1.033475074155394
 30
0.0
 10
0.9094922628708977
 20
1.036730284635357
 30
0.0
 10
0.9135205858398532
 20
1.036730284635357
 30
0.0
 10
0.9175353454318085
 20
1.036730284635357
 30
0.0
 10
0.9208041192887722
 20
1.033475074155394
 30
0.0
 10
0.9208041192887722
 20
1.029460314563439
 30
0.0
  0
SPLINE
  5
48B
330
23
100
AcDbEntity
  8
0
100
AcDbSpline
210
0.0
220
0.0
230
1.0
 70
    11
 71
     3
 72
    17
 73
    13
 74
     0
 42
0.0000000001
 43
0.0000000001
 40
0.0
 40
0.0
 40
0.0
 40
0.0
 40
1.0
 40
1.0
 40
1.0
 40
2.0
 40
2.0
 40
2.0
 40
3.0
 40
3.0
 40
3.0
 40
4.0
 40
4.0
 40
4.0
 40
4.0
 10
1.319079121512343
 20
1.112902209866511
 30
0.0
 10
1.319079121512343
 20
1.108887450274555
 30
0.0
 10
1.315823911032379
 20
1.105618676417592
 30
0.0
 10
1.311795588063424
 20
1.105618676417592
 30
0.0
 10
1.307767265094468
 20
1.105618676417592
 30
0.0
 10
1.304512054614505
 20
1.108887450274555
 30
0.0
 10
1.304512054614505
 20
1.112902209866511
 30
0.0
 10
1.304512054614505
 20
1.116916969458466
 30
0.0
 10
1.307767265094468
 20
1.12017217993843
 30
0.0
 10
1.311795588063424
 20
1.12017217993843
 30
0.0
 10
1.315823911032379
 20
1.12017217993843
 30
0.0
 10
1.319079121512343
 20
1.116916969458466
 30
0.0
 10
1.319079121512343
 20
1.112902209866511
 30
0.0
  0
SPLINE
  5
48C
330
23
100
AcDbEntity
  8
0
100
AcDbSpline
210
0.0
220
0.0
230
1.0
 70
    11
 71
     3
 72
    17
 73
    13
 74
     0
 42
0.0000000001
 43
0.0000000001
 40
0.0
 40
0.0
 40
0.0
 40
0.0
 40
1.0
 40
1.0
 40
1.0
 40
2.0
 40
2.0
 40
2.0
 40
3.0
 40
3.0
 40
3.0
 40
4.0
 40
4.0
 40
4.0
 40
4.0
 10
1.163561440832072
 20
1.188775740803667
 30
0.0
 10
1.163561440832072
 20
1.184760981211711
 30
0.0
 10
1.160292666975109
 20
1.181478643977748
 30
0.0
 10
1.156277907383154
 20
1.181478643977748
 30
0.0
 10
1.152249584414198
 20
1.181478643977748
 30
0.0
 10
1.148994373934234
 20
1.184760981211711
 30
0.0
 10
1.148994373934234
 20
1.188775740803667
 30
0.0
 10
1.148994373934234
 20
1.192763373641622
 30
0.0
 10
1.152249584414198
 20
1.196045710875586
 30
0.0
 10
1.156277907383154
 20
1.196045710875586
 30
0.0
 10
1.160292666975109
 20
1.196045710875586
 30
0.0
 10
1.163561440832072
 20
1.192763373641622
 30
0.0
 10
1.163561440832072
 20
1.188775740803667
 30
0.0
  0
SPLINE
  5
48D
330
23
100
AcDbEntity
  8
0
100
AcDbSpline
210
0.0
220
0.0
230
1.0
 70
    11
 71
     3
 72
    17
 73
    13
 74
     0
 42
0.0000000001
 43
0.0000000001
 40
0.0
 40
0.0
 40
0.0
 40
0.0
 40
1.0
 40
1.0
 40
1.0
 40
2.0
 40
2.0
 40
2.0
 40
3.0
 40
3.0
 40
3.0
 40
4.0
 40
4.0
 40
4.0
 40
4.0
 10
1.46323069226674
 20
1.234267307261161
 30
0.0
 10
1.46323069226674
 20
1.230266111046205
 30
0.0
 10
1.459961918409776
 20
1.227024463943241
 30
0.0
 10
1.455920032063821
 20
1.227024463943241
 30
0.0
 10
1.451918835848866
 20
1.227024463943241
 30
0.0
 10
1.448650061991902
 20
1.230266111046205
 30
0.0
 10
1.448650061991902
 20
1.234267307261161
 30
0.0
 10
1.448650061991902
 20
1.238309193607116
 30
0.0
 10
1.451918835848866
 20
1.24155084071008
 30
0.0
 10
1.455920032063821
 20
1.24155084071008
 30
0.0
 10
1.459961918409776
 20
1.24155084071008
 30
0.0
 10
1.46323069226674
 20
1.238309193607116
 30
0.0
 10
1.46323069226674
 20
1.234267307261161
 30
0.0
  0
SPLINE
  5
48E
330
23
100
AcDbEntity
  8
0
100
AcDbSpline
210
0.0
220
0.0
230
1.0
 70
    11
 71
     3
 72
    17
 73
    13
 74
     0
 42
0.0000000001
 43
0.0000000001
 40
0.0
 40
0.0
 40
0.0
 40
0.0
 40
1.0
 40
1.0
 40
1.0
 40
2.0
 40
2.0
 40
2.0
 40
3.0
 40
3.0
 40
3.0
 40
4.0
 40
4.0
 40
4.0
 40
4.0
 10
2.335647445962538
 20
0.8056645940659273
 30
0.0
 10
2.335647445962538
 20
0.801649834473972
 30
0.0
 10
2.332378672105574
 20
0.7983810606170083
 30
0.0
 10
2.328363912513619
 20
0.7983810606170083
 30
0.0
 10
2.324322026167664
 20
0.7983810606170083
 30
0.0
 10
2.3210532523107
 20
0.801649834473972
 30
0.0
 10
2.3210532523107
 20
0.8056645940659273
 30
0.0
 10
2.3210532523107
 20
0.8096793536578826
 30
0.0
 10
2.324322026167664
 20
0.8129481275148462
 30
0.0
 10
2.328363912513619
 20
0.8129481275148462
 30
0.0
 10
2.332378672105574
 20
0.8129481275148462
 30
0.0
 10
2.335647445962538
 20
0.8096793536578826
 30
0.0
 10
2.335647445962538
 20
0.8056645940659273
 30
0.0
  0
SPLINE
  5
48F
330
23
100
AcDbEntity
  8
0
100
AcDbSpline
210
0.0
220
0.0
230
1.0
 70
    11
 71
     3
 72
    17
 73
    13
 74
     0
 42
0.0000000001
 43
0.0000000001
 40
0.0
 40
0.0
 40
0.0
 40
0.0
 40
1.0
 40
1.0
 40
1.0
 40
2.0
 40
2.0
 40
2.0
 40
3.0
 40
3.0
 40
3.0
 40
4.0
 40
4.0
 40
4.0
 40
4.0
 10
2.521506400991471
 20
0.8018532851289697
 30
0.0
 10
2.521506400991471
 20
0.7978520889140142
 30
0.0
 10
2.518251190511507
 20
0.79461044181105
 30
0.0
 10
2.514195740788552
 20
0.79461044181105
 30
0.0
 10
2.510208107950597
 20
0.79461044181105
 30
0.0
 10
2.506952897470633
 20
0.7978520889140142
 30
0.0
 10
2.506952897470633
 20
0.8018532851289697
 30
0.0
 10
2.506952897470633
 20
0.8058951714749245
 30
0.0
 10
2.510208107950597
 20
0.8091503819548884
 30
0.0
 10
2.514195740788552
 20
0.8091503819548884
 30
0.0
 10
2.518251190511507
 20
0.8091503819548884
 30
0.0
 10
2.521506400991471
 20
0.8058951714749245
 30
0.0
 10
2.521506400991471
 20
0.8018532851289697
 30
0.0
  0
SPLINE
  5
490
330
23
100
AcDbEntity
  8
0
100
AcDbSpline
210
0.0
220
0.0
230
1.0
 70
    11
 71
     3
 72
    17
 73
    13
 74
     0
 42
0.0000000001
 43
0.0000000001
 40
0.0
 40
0.0
 40
0.0
 40
0.0
 40
1.0
 40
1.0
 40
1.0
 40
2.0
 40
2.0
 40
2.0
 40
3.0
 40
3.0
 40
3.0
 40
4.0
 40
4.0
 40
4.0
 40
4.0
 10
2.051169176767702
 20
0.7601323374774336
 30
0.0
 10
2.051169176767702
 20
0.7561311412624781
 30
0.0
 10
2.047886839533738
 20
0.7528759307825141
 30
0.0
 10
2.043872079941782
 20
0.7528759307825141
 30
0.0
 10
2.039830193595828
 20
0.7528759307825141
 30
0.0
 10
2.036588546492864
 20
0.7561311412624781
 30
0.0
 10
2.036588546492864
 20
0.7601323374774336
 30
0.0
 10
2.036588546492864
 20
0.7641606604463886
 30
0.0
 10
2.039830193595828
 20
0.7674158709263526
 30
0.0
 10
2.043872079941782
 20
0.7674158709263526
 30
0.0
 10
2.047886839533738
 20
0.7674158709263526
 30
0.0
 10
2.051169176767702
 20
0.7641606604463886
 30
0.0
 10
2.051169176767702
 20
0.7601323374774336
 30
0.0
  0
SPLINE
  5
491
330
23
100
AcDbEntity
  8
0
100
AcDbSpline
210
0.0
220
0.0
230
1.0
 70
    11
 71
     3
 72
    17
 73
    13
 74
     0
 42
0.0000000001
 43
0.0000000001
 40
0.0
 40
0.0
 40
0.0
 40
0.0
 40
1.0
 40
1.0
 40
1.0
 40
2.0
 40
2.0
 40
2.0
 40
3.0
 40
3.0
 40
3.0
 40
4.0
 40
4.0
 40
4.0
 40
4.0
 10
1.250814645072102
 20
1.071181262214974
 30
0.0
 10
1.250814645072102
 20
1.067166502623019
 30
0.0
 10
1.247545871215139
 20
1.063897728766055
 30
0.0
 10
1.243503984869183
 20
1.063897728766055
 30
0.0
 10
1.239516352031227
 20
1.063897728766055
 30
0.0
 10
1.236247578174264
 20
1.067166502623019
 30
0.0
 10
1.236247578174264
 20
1.071181262214974
 30
0.0
 10
1.236247578174264
 20
1.07518245842993
 30
0.0
 10
1.239516352031227
 20
1.078464795663893
 30
0.0
 10
1.243503984869183
 20
1.078464795663893
 30
0.0
 10
1.247545871215139
 20
1.078464795663893
 30
0.0
 10
1.250814645072102
 20
1.07518245842993
 30
0.0
 10
1.250814645072102
 20
1.071181262214974
 30
0.0
  0
SPLINE
  5
492
330
23
100
AcDbEntity
  8
0
100
AcDbSpline
210
0.0
220
0.0
230
1.0
 70
    11
 71
     3
 72
    17
 73
    13
 74
     0
 42
0.0000000001
 43
0.0000000001
 40
0.0
 40
0.0
 40
0.0
 40
0.0
 40
1.0
 40
1.0
 40
1.0
 40
2.0
 40
2.0
 40
2.0
 40
3.0
 40
3.0
 40
3.0
 40
4.0
 40
4.0
 40
4.0
 40
4.0
 10
0.9056267004259402
 20
1.643935546164605
 30
0.0
 10
0.9056267004259402
 20
1.63993434994965
 30
0.0
 10
0.9023714899459767
 20
1.636665576092686
 30
0.0
 10
0.8983296036000219
 20
1.636665576092686
 30
0.0
 10
0.8943148440080666
 20
1.636665576092686
 30
0.0
 10
0.8910731969051025
 20
1.63993434994965
 30
0.0
 10
0.8910731969051025
 20
1.643935546164605
 30
0.0
 10
0.8910731969051025
 20
1.64795030575656
 30
0.0
 10
0.8943148440080666
 20
1.651219079613524
 30
0.0
 10
0.8983296036000219
 20
1.651219079613524
 30
0.0
 10
0.9023714899459767
 20
1.651219079613524
 30
0.0
 10
0.9056267004259402
 20
1.64795030575656
 30
0.0
 10
0.9056267004259402
 20
1.643935546164605
 30
0.0
  0
SPLINE
  5
493
330
23
100
AcDbEntity
  8
0
100
AcDbSpline
210
0.0
220
0.0
230
1.0
 70
    11
 71
     3
 72
    17
 73
    13
 74
     0
 42
0.0000000001
 43
0.0000000001
 40
0.0
 40
0.0
 40
0.0
 40
0.0
 40
1.0
 40
1.0
 40
1.0
 40
2.0
 40
2.0
 40
2.0
 40
3.0
 40
3.0
 40
3.0
 40
4.0
 40
4.0
 40
4.0
 40
4.0
 10
2.293926498311002
 20
0.9384229281404508
 30
0.0
 10
2.293926498311002
 20
0.9344081685484955
 30
0.0
 10
2.290644161077038
 20
0.9311393946915318
 30
0.0
 10
2.286629401485083
 20
0.9311393946915318
 30
0.0
 10
2.282601078516128
 20
0.9311393946915318
 30
0.0
 10
2.279359431413164
 20
0.9344081685484955
 30
0.0
 10
2.279359431413164
 20
0.9384229281404508
 30
0.0
 10
2.279359431413164
 20
0.9424376877324061
 30
0.0
 10
2.282601078516128
 20
0.9457064615893698
 30
0.0
 10
2.286629401485083
 20
0.9457064615893698
 30
0.0
 10
2.290644161077038
 20
0.9457064615893698
 30
0.0
 10
2.293926498311002
 20
0.9424376877324061
 30
0.0
 10
2.293926498311002
 20
0.9384229281404508
 30
0.0
  0
SPLINE
  5
494
330
23
100
AcDbEntity
  8
0
100
AcDbSpline
210
0.0
220
0.0
230
1.0
 70
    11
 71
     3
 72
    17
 73
    13
 74
     0
 42
0.0000000001
 43
0.0000000001
 40
0.0
 40
0.0
 40
0.0
 40
0.0
 40
1.0
 40
1.0
 40
1.0
 40
2.0
 40
2.0
 40
2.0
 40
3.0
 40
3.0
 40
3.0
 40
4.0
 40
4.0
 40
4.0
 40
4.0
 10
2.684619572791657
 20
1.025662569003481
 30
0.0
 10
2.684619572791657
 20
1.021647809411526
 30
0.0
 10
2.681337235557693
 20
1.018392598931562
 30
0.0
 10
2.677322475965738
 20
1.018392598931562
 30
0.0
 10
2.673294152996784
 20
1.018392598931562
 30
0.0
 10
2.670038942516819
 20
1.021647809411526
 30
0.0
 10
2.670038942516819
 20
1.025662569003481
 30
0.0
 10
2.670038942516819
 20
1.029690891972436
 30
0.0
 10
2.673294152996784
 20
1.0329325390754
 30
0.0
 10
2.677322475965738
 20
1.0329325390754
 30
0.0
 10
2.681337235557693
 20
1.0329325390754
 30
0.0
 10
2.684619572791657
 20
1.029690891972436
 30
0.0
 10
2.684619572791657
 20
1.025662569003481
 30
0.0
  0
SPLINE
  5
495
330
23
100
AcDbEntity
  8
0
100
AcDbSpline
210
0.0
220
0.0
230
1.0
 70
    11
 71
     3
 72
    17
 73
    13
 74
     0
 42
0.0000000001
 43
0.0000000001
 40
0.0
 40
0.0
 40
0.0
 40
0.0
 40
1.0
 40
1.0
 40
1.0
 40
2.0
 40
2.0
 40
2.0
 40
3.0
 40
3.0
 40
3.0
 40
4.0
 40
4.0
 40
4.0
 40
4.0
 10
2.172534274162352
 20
0.7298046265057709
 30
0.0
 10
2.172534274162352
 20
0.7257627401598157
 30
0.0
 10
2.169279063682388
 20
0.722521093056852
 30
0.0
 10
2.165250740713433
 20
0.722521093056852
 30
0.0
 10
2.161235981121478
 20
0.722521093056852
 30
0.0
 10
2.157953643887514
 20
0.7257627401598157
 30
0.0
 10
2.157953643887514
 20
0.7298046265057709
 30
0.0
 10
2.157953643887514
 20
0.733832949474726
 30
0.0
 10
2.161235981121478
 20
0.7370881599546899
 30
0.0
 10
2.165250740713433
 20
0.7370881599546899
 30
0.0
 10
2.169279063682388
 20
0.7370881599546899
 30
0.0
 10
2.172534274162352
 20
0.733832949474726
 30
0.0
 10
2.172534274162352
 20
0.7298046265057709
 30
0.0
  0
SPLINE
  5
496
330
23
100
AcDbEntity
  8
0
100
AcDbSpline
210
0.0
220
0.0
230
1.0
 70
    11
 71
     3
 72
    17
 73
    13
 74
     0
 42
0.0000000001
 43
0.0000000001
 40
0.0
 40
0.0
 40
0.0
 40
0.0
 40
1.0
 40
1.0
 40
1.0
 40
2.0
 40
2.0
 40
2.0
 40
3.0
 40
3.0
 40
3.0
 40
4.0
 40
4.0
 40
4.0
 40
4.0
 10
2.130799763133816
 20
0.790500738580096
 30
0.0
 10
2.130799763133816
 20
0.7864588522341407
 30
0.0
 10
2.127530989276853
 20
0.783217205131177
 30
0.0
 10
2.123516229684897
 20
0.783217205131177
 30
0.0
 10
2.119515033469941
 20
0.783217205131177
 30
0.0
 10
2.116232696235978
 20
0.7864588522341407
 30
0.0
 10
2.116232696235978
 20
0.790500738580096
 30
0.0
 10
2.116232696235978
 20
0.7945019347950515
 30
0.0
 10
2.119515033469941
 20
0.7977435818980152
 30
0.0
 10
2.123516229684897
 20
0.7977435818980152
 30
0.0
 10
2.127530989276853
 20
0.7977435818980152
 30
0.0
 10
2.130799763133816
 20
0.7945019347950515
 30
0.0
 10
2.130799763133816
 20
0.790500738580096
 30
0.0
  0
LINE
  5
4A8
330
23
100
AcDbEntity
  8
0
100
AcDbLine
 10
0.773166760645414
 20
2.814122678515092
 30
0.0
 11
0.6274554015360341
 21
2.780404123293467
 31
0.0
  0
LINE
  5
4A9
330
23
100
AcDbEntity
  8
0
100
AcDbLine
 10
0.6274554015360341
 20
2.780404123293467
 30
0.0
 11
0.6290287532680168
 21
2.749642384257809
 31
0.0
  0
LINE
  5
4AA
330
23
100
AcDbEntity
  8
0
100
AcDbLine
 10
0.6290287532680168
 20
2.749642384257809
 30
0.0
 11
0.4014488505875473
 21
2.785680276946408
 31
0.0
  0
LINE
  5
4AB
330
23
100
AcDbEntity
  8
0
100
AcDbLine
 10
0.4014488505875473
 20
2.785680276946408
 30
0.0
 11
0.3978274289285873
 21
2.731847233634007
 31
0.0
  0
LINE
  5
4AC
330
23
100
AcDbEntity
  8
0
100
AcDbLine
 10
0.3978274289285873
 20
2.731847233634007
 30
0.0
 11
0.2193740777415725
 21
2.692744017743442
 31
0.0
  0
LINE
  5
4AD
330
23
100
AcDbEntity
  8
0
100
AcDbLine
 10
0.2193740777415725
 20
2.692744017743442
 30
0.0
 11
0.2193740777415725
 21
2.438600241208768
 31
0.0
  0
LINE
  5
4AE
330
23
100
AcDbEntity
  8
0
100
AcDbLine
 10
0.2193740777415725
 20
2.438600241208768
 30
0.0
 11
2.024896915518994
 21
0.917562454314683
 31
0.0
  0
LINE
  5
4AF
330
23
100
AcDbEntity
  8
0
100
AcDbLine
 10
2.024896915518994
 20
0.917562454314683
 30
0.0
 11
2.260207943089377
 21
0.9927578164018467
 31
0.0
  0
LINE
  5
4B0
330
23
100
AcDbEntity
  8
0
100
AcDbLine
 10
2.260207943089377
 20
0.9927578164018467
 30
0.0
 11
2.260085872696378
 21
1.046536606206248
 31
0.0
  0
LINE
  5
4B1
330
23
100
AcDbEntity
  8
0
100
AcDbLine
 10
2.260085872696378
 20
1.046536606206248
 30
0.0
 11
2.487679338753847
 21
1.016168205103586
 31
0.0
  0
LINE
  5
4B2
330
23
100
AcDbEntity
  8
0
100
AcDbLine
 10
2.487679338753847
 20
1.016168205103586
 30
0.0
 11
2.489957986089822
 21
1.066149249348031
 31
0.0
  0
LINE
  5
4B3
330
23
100
AcDbEntity
  8
0
100
AcDbLine
 10
2.489957986089822
 20
1.066149249348031
 30
0.0
 11
2.665929239285865
 21
1.122396573766405
 31
0.0
  0
LINE
  5
4B4
330
23
100
AcDbEntity
  8
0
100
AcDbLine
 10
2.665929239285865
 20
1.122396573766405
 30
0.0
 11
2.665929239285865
 21
1.452379972795735
 31
0.0
  0
LINE
  5
4BE
330
23
100
AcDbEntity
  8
0
100
AcDbLine
 10
0.773166760645414
 20
2.256525468362793
 30
0.0
 11
0.773166760645414
 21
4.222781105276927
 31
0.0
  0
LINE
  5
4BF
330
23
100
AcDbEntity
  8
0
100
AcDbLine
 10
0.773166760645414
 20
4.222781105276927
 30
0.0
 11
0.9930019750589691
 21
4.251657534909605
 31
0.0
  0
LINE
  5
4C0
330
23
100
AcDbEntity
  8
0
100
AcDbLine
 10
1.287761284019691
 20
4.298091756068589
 30
0.0
 11
1.368693954577791
 21
4.300994318746557
 31
0.0
  0
LINE
  5
4C1
330
23
100
AcDbEntity
  8
0
100
AcDbLine
 10
1.368693954577791
 20
4.300994318746557
 30
0.0
 11
1.622824167735465
 21
4.2342150320878
 31
0.0
  0
LINE
  5
4C2
330
23
100
AcDbEntity
  8
0
100
AcDbLine
 10
1.622824167735465
 20
4.2342150320878
 30
0.0
 11
1.622824167735465
 21
3.944189633642561
 31
0.0
  0
LINE
  5
4C3
330
23
100
AcDbEntity
  8
0
100
AcDbLine
 10
0.773166760645414
 20
2.25050332897486
 30
0.0
 11
0.773166760645414
 21
4.222781105276927
 31
0.0
  0
LINE
  5
4C4
330
23
100
AcDbEntity
  8
0
100
AcDbLine
 10
0.773166760645414
 20
4.222781105276927
 30
0.0
 11
0.9930019750589691
 21
4.251657534909605
 31
0.0
  0
LINE
  5
4C5
330
23
100
AcDbEntity
  8
0
100
AcDbLine
 10
1.079471707654496
 20
4.227848865647931
 30
0.0
 11
1.130032772888446
 21
4.339677069950127
 31
0.0
  0
LINE
  5
4C6
330
23
100
AcDbEntity
  8
0
100
AcDbLine
 10
1.130032772888446
 20
4.339677069950127
 30
0.0
 11
1.345921044595044
 21
4.277427951209319
 31
0.0
  0
LINE
  5
4C7
330
23
100
AcDbEntity
  8
0
100
AcDbLine
 10
1.307048406113476
 20
4.291032018340168
 30
0.0
 11
1.368693954577791
 21
4.300994318746557
 31
0.0
  0
LINE
  5
4C8
330
23
100
AcDbEntity
  8
0
100
AcDbLine
 10
1.368693954577791
 20
4.300994318746557
 30
0.0
 11
1.622824167735465
 21
4.2342150320878
 31
0.0
  0
LINE
  5
4D6
330
23
100
AcDbEntity
  8
0
100
AcDbLine
 10
1.008342154445798
 20
4.147755285402261
 30
0.0
 11
1.008342154445798
 21
2.074464258893817
 31
0.0
  0
SPLINE
  5
528
330
23
100
AcDbEntity
  8
0
100
AcDbSpline
210
0.0
220
0.0
230
1.0
 70
     8
 71
     3
 72
     8
 73
     4
 74
     0
 42
0.0000000001
 43
0.0000000001
 40
0.0
 40
0.0
 40
0.0
 40
0.0
 40
1.0
 40
1.0
 40
1.0
 40
1.0
 10
1.758891965797952
 20
1.962444328252063
 30
0.0
 10
1.758200233570959
 20
1.968724171802993
 30
0.0
 10
1.757711951998965
 20
1.976306099545909
 30
0.0
 10
1.757522064720967
 20
1.982070534770845
 30
0.0
  0
SPLINE
  5
529
330
23
100
AcDbEntity
  8
0
100
AcDbSpline
210
0.0
220
0.0
230
1.0
 70
     8
 71
     3
 72
     8
 73
     4
 74
     0
 42
0.0000000001
 43
0.0000000001
 40
1.0
 40
1.0
 40
1.0
 40
1.0
 40
2.0
 40
2.0
 40
2.0
 40
2.0
 10
1.757522064720967
 20
1.982070534770845
 30
0.0
 10
1.757332177442969
 20
1.987848533372781
 30
0.0
 10
1.753724319161009
 20
1.99331457430372
 30
0.0
 10
1.743416152641124
 20
1.986899096982791
 30
0.0
  0
SPLINE
  5
52A
330
23
100
AcDbEntity
  8
0
100
AcDbSpline
210
0.0
220
0.0
230
1.0
 70
     8
 71
     3
 72
     8
 73
     4
 74
     0
 42
0.0000000001
 43
0.0000000001
 40
2.0
 40
2.0
 40
2.0
 40
2.0
 40
3.0
 40
3.0
 40
3.0
 40
3.0
 10
1.743416152641124
 20
1.986899096982791
 30
0.0
 10
1.732524760910245
 20
1.980090281728867
 30
0.0
 10
1.720995890460373
 20
1.971328340186964
 30
0.0
 10
1.720995890460373
 20
1.971328340186964
 30
0.0
  0
SPLINE
  5
52B
330
23
100
AcDbEntity
  8
0
100
AcDbSpline
210
0.0
220
0.0
230
1.0
 70
     8
 71
     3
 72
     8
 73
     4
 74
     0
 42
0.0000000001
 43
0.0000000001
 40
5.836721430461337
 40
5.836721430461337
 40
5.836721430461337
 40
5.836721430461337
 40
6.0
 40
6.0
 40
6.0
 40
6.0
 10
1.745989234374217
 20
1.946392953358852
 30
0.0
 10
1.747184338094071
 20
1.946595841597806
 30
0.0
 10
1.74832324090842
 20
1.946803246608333
 30
0.0
 10
1.749384038521058
 20
1.947009205226235
 30
0.0
  0
SPLINE
  5
52C
330
23
100
AcDbEntity
  8
0
100
AcDbSpline
210
0.0
220
0.0
230
1.0
 70
     8
 71
     3
 72
     8
 73
     4
 74
     0
 42
0.0000000001
 43
0.0000000001
 40
6.0
 40
6.0
 40
6.0
 40
6.0
 40
7.0
 40
7.0
 40
7.0
 40
7.0
 10
1.749384038521058
 20
1.947009205226235
 30
0.0
 10
1.755894459480985
 20
1.948270599287221
 30
0.0
 10
1.759800712056942
 20
1.954021471135157
 30
0.0
 10
1.758891965797952
 20
1.962444328252063
 30
0.0
  0
LINE
  5
577
330
23
100
AcDbEntity
  8
0
100
AcDbLine
 10
1.85799956153585
 20
3.87092676083534
 30
0.0
 11
1.85799956153585
 21
2.579953995028268
 31
0.0
  0
LINE
  5
578
330
23
100
AcDbEntity
  8
0
100
AcDbLine
 10
1.403458516379991
 20
1.921491402359981
 30
0.0
 11
1.243503984869183
 21
1.881009812744969
 31
0.0
  0
LINE
  5
579
330
23
100
AcDbEntity
  8
0
100
AcDbLine
 10
1.008342154445798
 20
2.066882331150902
 30
0.0
 11
1.008342154445798
 21
3.859479270647467
 31
0.0
  0
LINE
  5
57A
330
23
100
AcDbEntity
  8
0
100
AcDbLine
 10
1.008342154445798
 20
3.859479270647467
 30
0.0
 11
1.228177368859353
 21
3.888355700280146
 31
0.0
  0
LINE
  5
57B
330
23
100
AcDbEntity
  8
0
100
AcDbLine
 10
1.85799956153585
 20
3.87092676083534
 30
0.0
 11
1.85799956153585
 21
2.579953995028268
 31
0.0
  0
LINE
  5
57C
330
23
100
AcDbEntity
  8
0
100
AcDbLine
 10
1.008342154445798
 20
2.063871261456935
 30
0.0
 11
1.008342154445798
 21
3.859479270647467
 31
0.0
  0
LINE
  5
57D
330
23
100
AcDbEntity
  8
0
100
AcDbLine
 10
1.008342154445798
 20
3.859479270647467
 30
0.0
 11
1.228177368859353
 21
3.888355700280146
 31
0.0
  0
LINE
  5
57E
330
23
100
AcDbEntity
  8
0
100
AcDbLine
 10
1.315566206869382
 20
3.864209080618333
 30
0.0
 11
1.368693954577791
 21
3.979867804898128
 31
0.0
  0
LINE
  5
57F
330
23
100
AcDbEntity
  8
0
100
AcDbLine
 10
1.368693954577791
 20
3.979867804898128
 30
0.0
 11
1.581089656706929
 21
3.914126116579859
 31
0.0
  0
LINE
  5
580
330
23
100
AcDbEntity
  8
0
100
AcDbLine
 10
1.52167528375909
 20
3.933487837247144
 30
0.0
 11
1.619012858798508
 21
3.943931637537028
 31
0.0
  0
LINE
  5
581
330
23
100
AcDbEntity
  8
0
100
AcDbLine
 10
1.619012858798508
 20
3.943931637537028
 30
0.0
 11
1.85799956153585
 21
3.87092676083534
 31
0.0
  0
LINE
  5
5C7
330
23
100
AcDbEntity
  8
0
  6
AI-Linetype-1
100
AcDbLine
 10
1.719191961319393
 20
1.795470172079031
 30
0.0
 11
1.719191961319393
 21
0.4035240293973992
 31
0.0
  0
LINE
  5
5C8
330
23
100
AcDbEntity
  8
0
  6
AI-Linetype-1
100
AcDbLine
 10
1.719191961319393
 20
0.4035240293973992
 30
0.0
 11
1.695998586649651
 21
0.4035240293973992
 31
0.0
  0
LINE
  5
5C9
330
23
100
AcDbEntity
  8
0
  6
AI-Linetype-1
100
AcDbLine
 10
1.695998586649651
 20
0.4035240293973992
 30
0.0
 11
1.674609141120889
 21
0.3484295920240124
 31
0.0
  0
LINE
  5
5CA
330
23
100
AcDbEntity
  8
0
  6
AI-Linetype-1
100
AcDbLine
 10
1.674609141120889
 20
0.3484295920240124
 30
0.0
 11
1.651429329828146
 21
0.4585370865087874
 31
0.0
  0
LINE
  5
5CB
330
23
100
AcDbEntity
  8
0
  6
AI-Linetype-1
100
AcDbLine
 10
1.651429329828146
 20
0.4585370865087874
 30
0.0
 11
1.631789559932366
 21
0.4034833392663995
 31
0.0
  0
LINE
  5
5CC
330
23
100
AcDbEntity
  8
0
  6
AI-Linetype-1
100
AcDbLine
 10
1.631789559932366
 20
0.4034833392663995
 30
0.0
 11
1.612176916790584
 21
0.4034833392663995
 31
0.0
  0
LINE
  5
5CD
330
23
100
AcDbEntity
  8
0
  6
AI-Linetype-1
100
AcDbLine
 10
1.612176916790584
 20
0.4034833392663995
 30
0.0
 11
1.612176916790584
 21
1.776098458379233
 31
0.0
  0
SPLINE
  5
5E5
330
23
100
AcDbEntity
  8
0
100
AcDbSpline
210
0.0
220
0.0
230
1.0
 70
    24
 71
     3
 72
     8
 73
     4
 74
     0
 42
0.0000000001
 43
0.0000000001
 40
0.0
 40
0.0
 40
0.0
 40
0.0
 40
1.0
 40
1.0
 40
1.0
 40
1.0
 10
1.264337331940951
 20
3.118864632947703
 30
0.0
 10
1.264337331940951
 20
3.118864632947703
 30
0.0
 10
1.352879056995967
 20
3.233448041842429
 30
0.0
 10
1.352879056995967
 20
3.233448041842429
 30
0.0
  0
SPLINE
  5
5E6
330
23
100
AcDbEntity
  8
0
100
AcDbSpline
210
0.0
220
0.0
230
1.0
 70
    24
 71
     3
 72
     8
 73
     4
 74
     0
 42
0.0000000001
 43
0.0000000001
 40
1.0
 40
1.0
 40
1.0
 40
1.0
 40
2.0
 40
2.0
 40
2.0
 40
2.0
 10
1.352879056995967
 20
3.233448041842429
 30
0.0
 10
1.352879056995967
 20
3.233448041842429
 30
0.0
 10
1.488295812962461
 20
3.291478950336284
 30
0.0
 10
1.488295812962461
 20
3.291478950336284
 30
0.0
  0
SPLINE
  5
5E7
330
23
100
AcDbEntity
  8
0
100
AcDbSpline
210
0.0
220
0.0
230
1.0
 70
    24
 71
     3
 72
     8
 73
     4
 74
     0
 42
0.0000000001
 43
0.0000000001
 40
2.0
 40
2.0
 40
2.0
 40
2.0
 40
3.0
 40
3.0
 40
3.0
 40
3.0
 10
1.488295812962461
 20
3.291478950336284
 30
0.0
 10
1.488295812962461
 20
3.291478950336284
 30
0.0
 10
1.500448598754326
 20
3.288006725824322
 30
0.0
 10
1.500448598754326
 20
3.288006725824322
 30
0.0
  0
SPLINE
  5
5E8
330
23
100
AcDbEntity
  8
0
100
AcDbSpline
210
0.0
220
0.0
230
1.0
 70
    24
 71
     3
 72
     8
 73
     4
 74
     0
 42
0.0000000001
 43
0.0000000001
 40
3.0
 40
3.0
 40
3.0
 40
3.0
 40
4.0
 40
4.0
 40
4.0
 40
4.0
 10
1.500448598754326
 20
3.288006725824322
 30
0.0
 10
1.500448598754326
 20
3.288006725824322
 30
0.0
 10
1.547520298632302
 20
3.231711929586448
 30
0.0
 10
1.547520298632302
 20
3.231711929586448
 30
0.0
  0
SPLINE
  5
5E9
330
23
100
AcDbEntity
  8
0
100
AcDbSpline
210
0.0
220
0.0
230
1.0
 70
    24
 71
     3
 72
     8
 73
     4
 74
     0
 42
0.0000000001
 43
0.0000000001
 40
4.0
 40
4.0
 40
4.0
 40
4.0
 40
5.0
 40
5.0
 40
5.0
 40
5.0
 10
1.547520298632302
 20
3.231711929586448
 30
0.0
 10
1.547520298632302
 20
3.231711929586448
 30
0.0
 10
1.547520298632302
 20
2.68657268120851
 30
0.0
 10
1.547520298632302
 20
2.68657268120851
 30
0.0
  0
SPLINE
  5
5EA
330
23
100
AcDbEntity
  8
0
100
AcDbSpline
210
0.0
220
0.0
230
1.0
 70
    24
 71
     3
 72
     8
 73
     4
 74
     0
 42
0.0000000001
 43
0.0000000001
 40
5.0
 40
5.0
 40
5.0
 40
5.0
 40
6.0
 40
6.0
 40
6.0
 40
6.0
 10
1.547520298632302
 20
2.68657268120851
 30
0.0
 10
1.547520298632302
 20
2.68657268120851
 30
0.0
 10
1.455567384261825
 20
2.129178921711209
 30
0.0
 10
1.455567384261825
 20
2.129178921711209
 30
0.0
  0
SPLINE
  5
5EB
330
23
100
AcDbEntity
  8
0
100
AcDbSpline
210
0.0
220
0.0
230
1.0
 70
    24
 71
     3
 72
     8
 73
     4
 74
     0
 42
0.0000000001
 43
0.0000000001
 40
6.0
 40
6.0
 40
6.0
 40
6.0
 40
7.0
 40
7.0
 40
7.0
 40
7.0
 10
1.455567384261825
 20
2.129178921711209
 30
0.0
 10
1.455567384261825
 20
2.129178921711209
 30
0.0
 10
1.541376088851371
 20
1.936470461297352
 30
0.0
 10
1.541376088851371
 20
1.936470461297352
 30
0.0
  0
SPLINE
  5
5EC
330
23
100
AcDbEntity
  8
0
100
AcDbSpline
210
0.0
220
0.0
230
1.0
 70
    24
 71
     3
 72
     8
 73
     4
 74
     0
 42
0.0000000001
 43
0.0000000001
 40
7.0
 40
7.0
 40
7.0
 40
7.0
 40
8.0
 40
8.0
 40
8.0
 40
8.0
 10
1.541376088851371
 20
1.936470461297352
 30
0.0
 10
1.541376088851371
 20
1.936470461297352
 30
0.0
 10
1.58959219694933
 20
1.950433304852415
 30
0.0
 10
1.58959219694933
 20
1.950433304852415
 30
0.0
  0
SPLINE
  5
5ED
330
23
100
AcDbEntity
  8
0
100
AcDbSpline
210
0.0
220
0.0
230
1.0
 70
    24
 71
     3
 72
     8
 73
     4
 74
     0
 42
0.0000000001
 43
0.0000000001
 40
11.0
 40
11.0
 40
11.0
 40
11.0
 40
12.0
 40
12.0
 40
12.0
 40
12.0
 10
1.687941940711741
 20
2.038901084400213
 30
0.0
 10
1.687941940711741
 20
2.038901084400213
 30
0.0
 10
1.679844604642831
 20
2.044679083002149
 30
0.0
 10
1.679844604642831
 20
2.044679083002149
 30
0.0
  0
SPLINE
  5
5EE
330
23
100
AcDbEntity
  8
0
100
AcDbSpline
210
0.0
220
0.0
230
1.0
 70
     8
 71
     3
 72
     8
 73
     4
 74
     0
 42
0.0000000001
 43
0.0000000001
 40
12.0
 40
12.0
 40
12.0
 40
12.0
 40
13.0
 40
13.0
 40
13.0
 40
13.0
 10
1.679844604642831
 20
2.044679083002149
 30
0.0
 10
1.679844604642831
 20
2.044679083002149
 30
0.0
 10
1.584928092397886
 20
2.633906088318096
 30
0.0
 10
1.580859079297932
 20
2.653586548344877
 30
0.0
  0
SPLINE
  5
5EF
330
23
100
AcDbEntity
  8
0
100
AcDbSpline
210
0.0
220
0.0
230
1.0
 70
     8
 71
     3
 72
     8
 73
     4
 74
     0
 42
0.0000000001
 43
0.0000000001
 40
13.0
 40
13.0
 40
13.0
 40
13.0
 40
14.0
 40
14.0
 40
14.0
 40
14.0
 10
1.580859079297932
 20
2.653586548344877
 30
0.0
 10
1.577183404130973
 20
2.67133422714918
 30
0.0
 10
1.57565074252999
 20
2.714350477304202
 30
0.0
 10
1.57565074252999
 20
2.714350477304202
 30
0.0
  0
SPLINE
  5
5F0
330
23
100
AcDbEntity
  8
0
100
AcDbSpline
210
0.0
220
0.0
230
1.0
 70
    24
 71
     3
 72
     8
 73
     4
 74
     0
 42
0.0000000001
 43
0.0000000001
 40
14.0
 40
14.0
 40
14.0
 40
14.0
 40
15.0
 40
15.0
 40
15.0
 40
15.0
 10
1.57565074252999
 20
2.714350477304202
 30
0.0
 10
1.57565074252999
 20
2.714350477304202
 30
0.0
 10
1.57565074252999
 20
3.235184154098409
 30
0.0
 10
1.57565074252999
 20
3.235184154098409
 30
0.0
  0
SPLINE
  5
5F1
330
23
100
AcDbEntity
  8
0
100
AcDbSpline
210
0.0
220
0.0
230
1.0
 70
    24
 71
     3
 72
     8
 73
     4
 74
     0
 42
0.0000000001
 43
0.0000000001
 40
15.0
 40
15.0
 40
15.0
 40
15.0
 40
16.0
 40
16.0
 40
16.0
 40
16.0
 10
1.57565074252999
 20
3.235184154098409
 30
0.0
 10
1.57565074252999
 20
3.235184154098409
 30
0.0
 10
1.627178011752417
 20
3.308100868849599
 30
0.0
 10
1.627178011752417
 20
3.308100868849599
 30
0.0
  0
SPLINE
  5
5F2
330
23
100
AcDbEntity
  8
0
100
AcDbSpline
210
0.0
220
0.0
230
1.0
 70
    24
 71
     3
 72
     8
 73
     4
 74
     0
 42
0.0000000001
 43
0.0000000001
 40
16.0
 40
16.0
 40
16.0
 40
16.0
 40
17.0
 40
17.0
 40
17.0
 40
17.0
 10
1.627178011752417
 20
3.308100868849599
 30
0.0
 10
1.627178011752417
 20
3.308100868849599
 30
0.0
 10
1.76085865546293
 20
3.290739746289792
 30
0.0
 10
1.76085865546293
 20
3.290739746289792
 30
0.0
  0
SPLINE
  5
5F3
330
23
100
AcDbEntity
  8
0
100
AcDbSpline
210
0.0
220
0.0
230
1.0
 70
    24
 71
     3
 72
     8
 73
     4
 74
     0
 42
0.0000000001
 43
0.0000000001
 40
17.0
 40
17.0
 40
17.0
 40
17.0
 40
18.0
 40
18.0
 40
18.0
 40
18.0
 10
1.76085865546293
 20
3.290739746289792
 30
0.0
 10
1.76085865546293
 20
3.290739746289792
 30
0.0
 10
1.844192043750003
 20
3.202198021234776
 30
0.0
 10
1.844192043750003
 20
3.202198021234776
 30
0.0
  0
SPLINE
  5
5F4
330
23
100
AcDbEntity
  8
0
100
AcDbSpline
210
0.0
220
0.0
230
1.0
 70
    24
 71
     3
 72
     8
 73
     4
 74
     0
 42
0.0000000001
 43
0.0000000001
 40
18.0
 40
18.0
 40
18.0
 40
18.0
 40
19.0
 40
19.0
 40
19.0
 40
19.0
 10
1.844192043750003
 20
3.202198021234776
 30
0.0
 10
1.844192043750003
 20
3.202198021234776
 30
0.0
 10
1.844192043750003
 20
2.693517130232433
 30
0.0
 10
1.844192043750003
 20
2.693517130232433
 30
0.0
  0
SPLINE
  5
5F5
330
23
100
AcDbEntity
  8
0
100
AcDbSpline
210
0.0
220
0.0
230
1.0
 70
     8
 71
     3
 72
     8
 73
     4
 74
     0
 42
0.0000000001
 43
0.0000000001
 40
19.0
 40
19.0
 40
19.0
 40
19.0
 40
20.0
 40
20.0
 40
20.0
 40
20.0
 10
1.844192043750003
 20
2.693517130232433
 30
0.0
 10
1.844192043750003
 20
2.693517130232433
 30
0.0
 10
1.841899833037029
 20
2.67672566950662
 30
0.0
 10
1.8534693936179
 20
2.637378312830057
 30
0.0
  0
SPLINE
  5
5F6
330
23
100
AcDbEntity
  8
0
100
AcDbSpline
210
0.0
220
0.0
230
1.0
 70
    24
 71
     3
 72
     8
 73
     4
 74
     0
 42
0.0000000001
 43
0.0000000001
 40
20.0
 40
20.0
 40
20.0
 40
20.0
 40
21.0
 40
21.0
 40
21.0
 40
21.0
 10
1.8534693936179
 20
2.637378312830057
 30
0.0
 10
1.8534693936179
 20
2.637378312830057
 30
0.0
 10
1.855761604330874
 20
2.609600516734366
 30
0.0
 10
1.855761604330874
 20
2.609600516734366
 30
0.0
  0
SPLINE
  5
5F7
330
23
100
AcDbEntity
  8
0
100
AcDbSpline
210
0.0
220
0.0
230
1.0
 70
    24
 71
     3
 72
     8
 73
     4
 74
     0
 42
0.0000000001
 43
0.0000000001
 40
21.0
 40
21.0
 40
21.0
 40
21.0
 40
22.0
 40
22.0
 40
22.0
 40
22.0
 10
1.855761604330874
 20
2.609600516734366
 30
0.0
 10
1.855761604330874
 20
2.609600516734366
 30
0.0
 10
1.909024985809282
 20
1.904013300136713
 30
0.0
 10
1.909024985809282
 20
1.904013300136713
 30
0.0
  0
SPLINE
  5
5F8
330
23
100
AcDbEntity
  8
0
100
AcDbSpline
210
0.0
220
0.0
230
1.0
 70
     8
 71
     3
 72
    14
 73
    10
 74
     0
 42
0.0000000001
 43
0.0000000001
 40
22.0
 40
22.0
 40
22.0
 40
22.0
 40
23.0
 40
23.0
 40
23.0
 40
24.0
 40
24.0
 40
24.0
 40
25.0
 40
25.0
 40
25.0
 40
25.0
 10
1.909024985809282
 20
1.904013300136713
 30
0.0
 10
1.909024985809282
 20
1.904013300136713
 30
0.0
 10
1.900330861152379
 20
1.887154022525901
 30
0.0
 10
1.90206697340836
 20
1.878473461245997
 30
0.0
 10
1.90380308566434
 20
1.869792899966094
 30
0.0
 10
1.905959662607316
 20
1.858535297056219
 30
0.0
 10
1.900751325839374
 20
1.845514455136363
 30
0.0
 10
1.895542989071432
 20
1.832493613216508
 30
0.0
 10
1.88672679402153
 20
1.827285276448566
 30
0.0
 10
1.88672679402153
 20
1.827285276448566
 30
0.0
  0
SPLINE
  5
5F9
330
23
100
AcDbEntity
  8
0
100
AcDbSpline
210
0.0
220
0.0
230
1.0
 70
    24
 71
     3
 72
     8
 73
     4
 74
     0
 42
0.0000000001
 43
0.0000000001
 40
25.0
 40
25.0
 40
25.0
 40
25.0
 40
26.0
 40
26.0
 40
26.0
 40
26.0
 10
1.88672679402153
 20
1.827285276448566
 30
0.0
 10
1.88672679402153
 20
1.827285276448566
 30
0.0
 10
1.88585873789354
 20
1.813396378400721
 30
0.0
 10
1.88585873789354
 20
1.813396378400721
 30
0.0
  0
SPLINE
  5
5FA
330
23
100
AcDbEntity
  8
0
100
AcDbSpline
210
0.0
220
0.0
230
1.0
 70
    24
 71
     3
 72
     8
 73
     4
 74
     0
 42
0.0000000001
 43
0.0000000001
 40
26.0
 40
26.0
 40
26.0
 40
26.0
 40
27.0
 40
27.0
 40
27.0
 40
27.0
 10
1.88585873789354
 20
1.813396378400721
 30
0.0
 10
1.88585873789354
 20
1.813396378400721
 30
0.0
 10
1.636455361620313
 20
1.734945805833593
 30
0.0
 10
1.636455361620313
 20
1.734945805833593
 30
0.0
  0
SPLINE
  5
5FB
330
23
100
AcDbEntity
  8
0
100
AcDbSpline
210
0.0
220
0.0
230
1.0
 70
     8
 71
     3
 72
    14
 73
    10
 74
     0
 42
0.0000000001
 43
0.0000000001
 40
27.0
 40
27.0
 40
27.0
 40
27.0
 40
28.0
 40
28.0
 40
28.0
 40
29.0
 40
29.0
 40
29.0
 40
30.0
 40
30.0
 40
30.0
 40
30.0
 10
1.636455361620313
 20
1.734945805833593
 30
0.0
 10
1.636455361620313
 20
1.734945805833593
 30
0.0
 10
1.626309955624426
 20
1.743897634653493
 30
0.0
 10
1.619365506600503
 20
1.743897634653493
 30
0.0
 10
1.608799635917621
 20
1.743897634653493
 30
0.0
 10
1.598532159528735
 20
1.751574506035408
 30
0.0
 10
1.589851598248832
 20
1.764595347955263
 30
0.0
 10
1.581171036968928
 20
1.777616189875118
 30
0.0
 10
1.575962700200987
 20
1.785428695027032
 30
0.0
 10
1.575962700200987
 20
1.785428695027032
 30
0.0
  0
SPLINE
  5
5FC
330
23
100
AcDbEntity
  8
0
100
AcDbSpline
210
0.0
220
0.0
230
1.0
 70
     8
 71
     3
 72
    14
 73
    10
 74
     0
 42
0.0000000001
 43
0.0000000001
 40
30.0
 40
30.0
 40
30.0
 40
30.0
 40
31.0
 40
31.0
 40
31.0
 40
32.0
 40
32.0
 40
32.0
 40
33.0
 40
33.0
 40
33.0
 40
33.0
 10
1.575962700200987
 20
1.785428695027032
 30
0.0
 10
1.575962700200987
 20
1.785428695027032
 30
0.0
 10
1.56033768989716
 20
1.787164807283012
 30
0.0
 10
1.549921016361275
 20
1.794109256306935
 30
0.0
 10
1.539504342825391
 20
1.801053705330858
 30
0.0
 10
1.48569164457849
 20
1.841852343346404
 30
0.0
 10
1.479615251682557
 20
1.847928736242336
 30
0.0
 10
1.473538858786625
 20
1.854005129138269
 30
0.0
 10
1.463122185250741
 20
1.872234307826066
 30
0.0
 10
1.463122185250741
 20
1.872234307826066
 30
0.0
  0
SPLINE
  5
5FD
330
23
100
AcDbEntity
  8
0
100
AcDbSpline
210
0.0
220
0.0
230
1.0
 70
     8
 71
     3
 72
    11
 73
     7
 74
     0
 42
0.0000000001
 43
0.0000000001
 40
33.0
 40
33.0
 40
33.0
 40
33.0
 40
34.0
 40
34.0
 40
34.0
 40
35.0
 40
35.0
 40
35.0
 40
35.0
 10
1.463122185250741
 20
1.872234307826066
 30
0.0
 10
1.463122185250741
 20
1.872234307826066
 30
0.0
 10
1.448365231074905
 20
1.873102363954057
 30
0.0
 10
1.437948557539021
 20
1.88178292523396
 30
0.0
 10
1.427531884003137
 20
1.890463486513863
 30
0.0
 10
1.432869072852578
 20
1.887533797081896
 30
0.0
 10
1.426182327991652
 20
1.893067654897835
 30
0.0
  0
SPLINE
  5
5FE
330
23
100
AcDbEntity
  8
0
100
AcDbSpline
210
0.0
220
0.0
230
1.0
 70
     8
 71
     3
 72
     8
 73
     4
 74
     0
 42
0.0000000001
 43
0.0000000001
 40
35.0
 40
35.0
 40
35.0
 40
35.0
 40
36.0
 40
36.0
 40
36.0
 40
36.0
 10
1.426182327991652
 20
1.893067654897835
 30
0.0
 10
1.417786597628745
 20
1.900012103921757
 30
0.0
 10
1.415304499637773
 20
1.90340294817172
 30
0.0
 10
1.407688663452357
 20
1.912205579844622
 30
0.0
  0
SPLINE
  5
5FF
330
23
100
AcDbEntity
  8
0
100
AcDbSpline
210
0.0
220
0.0
230
1.0
 70
     8
 71
     3
 72
    14
 73
    10
 74
     0
 42
0.0000000001
 43
0.0000000001
 40
36.0
 40
36.0
 40
36.0
 40
36.0
 40
37.0
 40
37.0
 40
37.0
 40
38.0
 40
38.0
 40
38.0
 40
39.0
 40
39.0
 40
39.0
 40
39.0
 10
1.407688663452357
 20
1.912205579844622
 30
0.0
 10
1.403219530730907
 20
1.917373226481564
 30
0.0
 10
1.402134460570919
 20
1.926976097397458
 30
0.0
 10
1.402134460570919
 20
1.934788602549371
 30
0.0
 10
1.402134460570919
 20
1.942601107701284
 30
0.0
 10
1.400622144035436
 20
1.95817186449711
 30
0.0
 10
1.394545751139503
 20
1.98160937995285
 30
0.0
 10
1.388469358243571
 20
2.005046895408589
 30
0.0
 10
1.290379015780662
 20
2.441679127787734
 30
0.0
 10
1.283434566756739
 20
2.464329967377482
 30
0.0
  0
SPLINE
  5
600
330
23
100
AcDbEntity
  8
0
100
AcDbSpline
210
0.0
220
0.0
230
1.0
 70
     8
 71
     3
 72
     8
 73
     4
 74
     0
 42
0.0000000001
 43
0.0000000001
 40
39.0
 40
39.0
 40
39.0
 40
39.0
 40
40.0
 40
40.0
 40
40.0
 40
40.0
 10
1.283434566756739
 20
2.464329967377482
 30
0.0
 10
1.276490117732816
 20
2.48692655345923
 30
0.0
 10
1.266073444196932
 20
2.502551563763057
 30
0.0
 10
1.262601219684971
 20
2.512961455610441
 30
0.0
  0
SPLINE
  5
601
330
23
100
AcDbEntity
  8
0
100
AcDbSpline
210
0.0
220
0.0
230
1.0
 70
     8
 71
     3
 72
    11
 73
     7
 74
     0
 42
0.0000000001
 43
0.0000000001
 40
40.0
 40
40.0
 40
40.0
 40
40.0
 40
41.0
 40
41.0
 40
41.0
 40
42.0
 40
42.0
 40
42.0
 40
42.0
 10
1.262601219684971
 20
2.512961455610441
 30
0.0
 10
1.259128995173009
 20
2.523378129146325
 30
0.0
 10
1.265076535987443
 20
2.554628149753978
 30
0.0
 10
1.265076535987443
 20
2.568517047801823
 30
0.0
 10
1.265076535987443
 20
2.582405945849669
 30
0.0
 10
1.264337331940951
 20
3.118864632947703
 30
0.0
 10
1.264337331940951
 20
3.118864632947703
 30
0.0
  0
SPLINE
  5
60C
330
23
100
AcDbEntity
  8
0
100
AcDbSpline
210
0.0
220
0.0
230
1.0
 70
     8
 71
     3
 72
     8
 73
     4
 74
     0
 42
0.0000000001
 43
0.0000000001
 40
0.0
 40
0.0
 40
0.0
 40
0.0
 40
0.2534048766452066
 40
0.2534048766452066
 40
0.2534048766452066
 40
0.2534048766452066
 10
1.559957915341165
 20
1.897014597604791
 30
0.0
 10
1.564731944282288
 20
1.901506790424121
 30
0.0
 10
1.570432673724983
 20
1.90557308423474
 30
0.0
 10
1.576976014954571
 20
1.909166027399758
 30
0.0
  0
SPLINE
  5
60D
330
23
100
AcDbEntity
  8
0
100
AcDbSpline
210
0.0
220
0.0
230
1.0
 70
     8
 71
     3
 72
     8
 73
     4
 74
     0
 42
0.0000000001
 43
0.0000000001
 40
1.5470415547397
 40
1.5470415547397
 40
1.5470415547397
 40
1.5470415547397
 40
2.0
 40
2.0
 40
2.0
 40
2.0
 10
1.748475292261606
 20
1.906478989032316
 30
0.0
 10
1.766572494321737
 20
1.894897050863329
 30
0.0
 10
1.777347761624374
 20
1.879428494482703
 30
0.0
 10
1.778680932840732
 20
1.862373732747176
 30
0.0
  0
SPLINE
  5
60E
330
23
100
AcDbEntity
  8
0
100
AcDbSpline
210
0.0
220
0.0
230
1.0
 70
     8
 71
     3
 72
     8
 73
     4
 74
     0
 42
0.0000000001
 43
0.0000000001
 40
2.0
 40
2.0
 40
2.0
 40
2.0
 40
3.0
 40
3.0
 40
3.0
 40
3.0
 10
1.778680932840732
 20
1.862373732747176
 30
0.0
 10
1.781610622272699
 20
1.824599727802596
 30
0.0
 10
1.733921788741229
 20
1.791111749989968
 30
0.0
 10
1.665277537744993
 20
1.789714722158984
 30
0.0
  0
SPLINE
  5
60F
330
23
100
AcDbEntity
  8
0
100
AcDbSpline
210
0.0
220
0.0
230
1.0
 70
     8
 71
     3
 72
     8
 73
     4
 74
     0
 42
0.0000000001
 43
0.0000000001
 40
3.0
 40
3.0
 40
3.0
 40
3.0
 40
4.0
 40
4.0
 40
4.0
 40
4.0
 10
1.665277537744993
 20
1.789714722158984
 30
0.0
 10
1.648269062987182
 20
1.789416327864987
 30
0.0
 10
1.634041080514341
 20
1.791694975200962
 30
0.0
 10
1.618999295421507
 20
1.795058692696925
 30
0.0
  0
SPLINE
  5
610
330
23
100
AcDbEntity
  8
0
100
AcDbSpline
210
0.0
220
0.0
230
1.0
 70
     8
 71
     3
 72
     8
 73
     4
 74
     0
 42
0.0000000001
 43
0.0000000001
 40
4.0
 40
4.0
 40
4.0
 40
4.0
 40
5.0
 40
5.0
 40
5.0
 40
5.0
 10
1.618999295421507
 20
1.795058692696925
 30
0.0
 10
1.618999295421507
 20
1.795058692696925
 30
0.0
 10
1.60257404587469
 20
1.799263339566878
 30
0.0
 10
1.592835541188799
 20
1.804200408794823
 30
0.0
  0
SPLINE
  5
611
330
23
100
AcDbEntity
  8
0
100
AcDbSpline
210
0.0
220
0.0
230
1.0
 70
     8
 71
     3
 72
     8
 73
     4
 74
     0
 42
0.0000000001
 43
0.0000000001
 40
0.6902901543152553
 40
0.6902901543152553
 40
0.6902901543152553
 40
0.6902901543152553
 40
1.0
 40
1.0
 40
1.0
 40
1.0
 10
1.577280362561075
 20
1.924742824580445
 30
0.0
 10
1.56828705998498
 20
1.920846254672776
 30
0.0
 10
1.56028564703387
 20
1.916369264490603
 30
0.0
 10
1.553379677496237
 20
1.91144603073263
 30
0.0
  0
SPLINE
  5
613
330
23
100
AcDbEntity
  8
0
100
AcDbSpline
210
0.0
220
0.0
230
1.0
 70
     8
 71
     3
 72
     8
 73
     4
 74
     0
 42
0.0000000001
 43
0.0000000001
 40
0.0
 40
0.0
 40
0.0
 40
0.0
 40
1.0
 40
1.0
 40
1.0
 40
1.0
 10
1.592998301712797
 20
1.815091800525702
 30
0.0
 10
1.611770015480588
 20
1.804837887513816
 30
0.0
 10
1.637377671256303
 20
1.798761494617883
 30
0.0
 10
1.665711565808988
 20
1.799480353598876
 30
0.0
  0
SPLINE
  5
614
330
23
100
AcDbEntity
  8
0
100
AcDbSpline
210
0.0
220
0.0
230
1.0
 70
     8
 71
     3
 72
     8
 73
     4
 74
     0
 42
0.0000000001
 43
0.0000000001
 40
1.0
 40
1.0
 40
1.0
 40
1.0
 40
2.0
 40
2.0
 40
2.0
 40
2.0
 10
1.665711565808988
 20
1.799480353598876
 30
0.0
 10
1.724115467170339
 20
1.80093163493786
 30
0.0
 10
1.762974542274907
 20
1.825332150160588
 30
0.0
 10
1.761184176510926
 20
1.857789311321227
 30
0.0
  0
SPLINE
  5
615
330
23
100
AcDbEntity
  8
0
100
AcDbSpline
210
0.0
220
0.0
230
1.0
 70
     8
 71
     3
 72
     8
 73
     4
 74
     0
 42
0.0000000001
 43
0.0000000001
 40
2.0
 40
2.0
 40
2.0
 40
2.0
 40
2.313426697961785
 40
2.313426697961785
 40
2.313426697961785
 40
2.313426697961785
 10
1.761184176510926
 20
1.857789311321227
 30
0.0
 10
1.760606023583513
 20
1.867834718435031
 30
0.0
 10
1.756170526613763
 20
1.877297859798749
 30
0.0
 10
1.74847529226189
 20
1.885525168380071
 30
0.0
  0
SPLINE
  5
616
330
23
100
AcDbEntity
  8
0
100
AcDbSpline
210
0.0
220
0.0
230
1.0
 70
     8
 71
     3
 72
     8
 73
     4
 74
     0
 42
0.0000000001
 43
0.0000000001
 40
3.833740359498489
 40
3.833740359498489
 40
3.833740359498489
 40
3.833740359498489
 40
4.0
 40
4.0
 40
4.0
 40
4.0
 10
1.576549879149216
 20
1.88735599099201
 30
0.0
 10
1.57297704376434
 20
1.884135575165864
 30
0.0
 10
1.569934664759573
 20
1.880704862536831
 30
0.0
 10
1.56752627970708
 20
1.877103560169012
 30
0.0
  0
SPLINE
  5
617
330
23
100
AcDbEntity
  8
0
100
AcDbSpline
210
0.0
220
0.0
230
1.0
 70
     8
 71
     3
 72
     8
 73
     4
 74
     0
 42
0.0000000001
 43
0.0000000001
 40
0.0
 40
0.0
 40
0.0
 40
0.0
 40
1.0
 40
1.0
 40
1.0
 40
1.0
 10
1.602248524826694
 20
1.822212573450623
 30
0.0
 10
1.618605957488512
 20
1.814684899215707
 30
0.0
 10
1.63943930456028
 20
1.810181858051756
 30
0.0
 10
1.662198651166027
 20
1.810480252345753
 30
0.0
  0
SPLINE
  5
618
330
23
100
AcDbEntity
  8
0
100
AcDbSpline
210
0.0
220
0.0
230
1.0
 70
     8
 71
     3
 72
     8
 73
     4
 74
     0
 42
0.0000000001
 43
0.0000000001
 40
0.0
 40
0.0
 40
0.0
 40
0.0
 40
1.0
 40
1.0
 40
1.0
 40
1.0
 10
1.750713249467043
 20
1.867175168205123
 30
0.0
 10
1.750469108681045
 20
1.872451321858064
 30
0.0
 10
1.749004263965062
 20
1.873427885002053
 30
0.0
 10
1.74653572935109
 20
1.878297137344999
 30
0.0
  0
SPLINE
  5
622
330
23
100
AcDbEntity
  8
0
100
AcDbSpline
210
0.0
220
0.0
230
1.0
 70
     8
 71
     3
 72
     8
 73
     4
 74
     0
 42
0.0000000001
 43
0.0000000001
 40
0.0
 40
0.0
 40
0.0
 40
0.0
 40
1.0
 40
1.0
 40
1.0
 40
1.0
 10
1.749044954096061
 20
1.981121098380855
 30
0.0
 10
1.749044954096061
 20
1.981121098380855
 30
0.0
 10
1.746915503907085
 20
1.976170465775911
 30
0.0
 10
1.737556773777189
 20
1.966228510435021
 30
0.0
  0
SPLINE
  5
623
330
23
100
AcDbEntity
  8
0
100
AcDbSpline
210
0.0
220
0.0
230
1.0
 70
     8
 71
     3
 72
     8
 73
     4
 74
     0
 42
0.0000000001
 43
0.0000000001
 40
1.0
 40
1.0
 40
1.0
 40
1.0
 40
1.220607464486249
 40
1.220607464486249
 40
1.220607464486249
 40
1.220607464486249
 10
1.737556773777189
 20
1.966228510435021
 30
0.0
 10
1.735486183688002
 20
1.964035240875232
 30
0.0
 10
1.733563455490467
 20
1.962148256662434
 30
0.0
 10
1.731824121071327
 20
1.960539161411732
 30
0.0
  0
SPLINE
  5
62B
330
23
100
AcDbEntity
  8
0
100
AcDbSpline
210
0.0
220
0.0
230
1.0
 70
     8
 71
     3
 72
    14
 73
    10
 74
     0
 42
0.0000000001
 43
0.0000000001
 40
0.0
 40
0.0
 40
0.0
 40
0.0
 40
1.0
 40
1.0
 40
1.0
 40
2.0
 40
2.0
 40
2.0
 40
3.0
 40
3.0
 40
3.0
 40
3.0
 10
1.836243904828092
 20
2.634401151578591
 30
0.0
 10
1.836243904828092
 20
2.634401151578591
 30
0.0
 10
1.825691597522209
 20
2.621183640692238
 30
0.0
 10
1.821052922588261
 20
2.593405844596547
 30
0.0
 10
1.816414247654312
 20
2.565628048500856
 30
0.0
 10
1.723817072876342
 20
2.107192687594453
 30
0.0
 10
1.719191961319393
 20
2.084040003055711
 30
0.0
 10
1.714566849762445
 20
2.060887318516969
 30
0.0
 10
1.702997289181574
 20
2.053332517528053
 30
0.0
 10
1.702997289181574
 20
2.053332517528053
 30
0.0
  0
SPLINE
  5
62E
330
23
100
AcDbEntity
  8
0
100
AcDbSpline
210
0.0
220
0.0
230
1.0
 70
     8
 71
     3
 72
     8
 73
     4
 74
     0
 42
0.0000000001
 43
0.0000000001
 40
0.0
 40
0.0
 40
0.0
 40
0.0
 40
1.0
 40
1.0
 40
1.0
 40
1.0
 10
1.378608783164681
 20
2.161324125200852
 30
0.0
 10
1.396932905491477
 20
2.116049572775355
 30
0.0
 10
1.441590324263481
 20
2.020631215581416
 30
0.0
 10
1.453573567842847
 20
1.991157997360744
 30
0.0
  0
SPLINE
  5
630
330
23
100
AcDbEntity
  8
0
100
AcDbSpline
210
0.0
220
0.0
230
1.0
 70
     8
 71
     3
 72
     8
 73
     4
 74
     0
 42
0.0000000001
 43
0.0000000001
 40
0.0
 40
0.0
 40
0.0
 40
0.0
 40
1.0
 40
1.0
 40
1.0
 40
1.0
 10
1.446045893607931
 20
1.895386992364809
 30
0.0
 10
1.446045893607931
 20
1.895386992364809
 30
0.0
 10
1.458775122922289
 20
1.884970318828925
 30
0.0
 10
1.465719571946212
 20
1.872234307826066
 30
0.0
  0
SPLINE
  5
631
330
23
100
AcDbEntity
  8
0
100
AcDbSpline
210
0.0
220
0.0
230
1.0
 70
     8
 71
     3
 72
     8
 73
     4
 74
     0
 42
0.0000000001
 43
0.0000000001
 40
0.0
 40
0.0
 40
0.0
 40
0.0
 40
1.0
 40
1.0
 40
1.0
 40
1.0
 10
1.556160169781206
 20
1.810887153655749
 30
0.0
 10
1.556160169781206
 20
1.810887153655749
 30
0.0
 10
1.568882617407065
 20
1.800470480119865
 30
0.0
 10
1.575827066430988
 20
1.787734469117006
 30
0.0
  0
SPLINE
  5
635
330
23
100
AcDbEntity
  8
0
100
AcDbSpline
210
0.0
220
0.0
230
1.0
 70
     8
 71
     3
 72
    11
 73
     7
 74
     0
 42
0.0000000001
 43
0.0000000001
 40
0.0
 40
0.0
 40
0.0
 40
0.0
 40
1.0
 40
1.0
 40
1.0
 40
2.0
 40
2.0
 40
2.0
 40
2.0
 10
1.718147581290405
 20
2.019627525683427
 30
0.0
 10
1.718147581290405
 20
2.008302105888553
 30
0.0
 10
1.694181094131672
 20
1.999133263036655
 30
0.0
 10
1.664640059026
 20
1.999133263036655
 30
0.0
 10
1.635085460543329
 20
1.999133263036655
 30
0.0
 10
1.611132536761595
 20
2.008302105888553
 30
0.0
 10
1.611132536761595
 20
2.019627525683427
 30
0.0
  0
SPLINE
  5
636
330
23
100
AcDbEntity
  8
0
100
AcDbSpline
210
0.0
220
0.0
230
1.0
 70
     8
 71
     3
 72
    11
 73
     7
 74
     0
 42
0.0000000001
 43
0.0000000001
 40
0.0
 40
0.0
 40
0.0
 40
0.0
 40
1.0
 40
1.0
 40
1.0
 40
2.0
 40
2.0
 40
2.0
 40
2.0
 10
1.718147581290405
 20
2.005860698028581
 30
0.0
 10
1.718147581290405
 20
1.994562404987706
 30
0.0
 10
1.694181094131672
 20
1.985352872004809
 30
0.0
 10
1.664640059026
 20
1.985352872004809
 30
0.0
 10
1.635085460543329
 20
1.985352872004809
 30
0.0
 10
1.611132536761595
 20
1.994562404987706
 30
0.0
 10
1.611132536761595
 20
2.005860698028581
 30
0.0
  0
SPLINE
  5
637
330
23
100
AcDbEntity
  8
0
100
AcDbSpline
210
0.0
220
0.0
230
1.0
 70
     8
 71
     3
 72
    11
 73
     7
 74
     0
 42
0.0000000001
 43
0.0000000001
 40
0.0
 40
0.0
 40
0.0
 40
0.0
 40
1.0
 40
1.0
 40
1.0
 40
2.0
 40
2.0
 40
2.0
 40
2.0
 10
1.718147581290405
 20
1.992107433750733
 30
0.0
 10
1.718147581290405
 20
1.980782013955859
 30
0.0
 10
1.694181094131672
 20
1.971599607726962
 30
0.0
 10
1.664640059026
 20
1.971599607726962
 30
0.0
 10
1.635085460543329
 20
1.971599607726962
 30
0.0
 10
1.611132536761595
 20
1.980782013955859
 30
0.0
 10
1.611132536761595
 20
1.992107433750733
 30
0.0
  0
SPLINE
  5
638
330
23
100
AcDbEntity
  8
0
100
AcDbSpline
210
0.0
220
0.0
230
1.0
 70
     8
 71
     3
 72
    11
 73
     7
 74
     0
 42
0.0000000001
 43
0.0000000001
 40
0.0
 40
0.0
 40
0.0
 40
0.0
 40
1.0
 40
1.0
 40
1.0
 40
2.0
 40
2.0
 40
2.0
 40
2.0
 10
1.718147581290405
 20
1.978354169472886
 30
0.0
 10
1.718147581290405
 20
1.967042313055012
 30
0.0
 10
1.694181094131672
 20
1.957846343449115
 30
0.0
 10
1.664640059026
 20
1.957846343449115
 30
0.0
 10
1.635085460543329
 20
1.957846343449115
 30
0.0
 10
1.611132536761595
 20
1.967042313055012
 30
0.0
 10
1.611132536761595
 20
1.978354169472886
 30
0.0
  0
SPLINE
  5
639
330
23
100
AcDbEntity
  8
0
100
AcDbSpline
210
0.0
220
0.0
230
1.0
 70
     8
 71
     3
 72
    11
 73
     7
 74
     0
 42
0.0000000001
 43
0.0000000001
 40
0.0
 40
0.0
 40
0.0
 40
0.0
 40
1.0
 40
1.0
 40
1.0
 40
2.0
 40
2.0
 40
2.0
 40
2.0
 10
1.718147581290405
 20
1.964600905195039
 30
0.0
 10
1.718147581290405
 20
1.953261922023165
 30
0.0
 10
1.694181094131672
 20
1.944093079171267
 30
0.0
 10
1.664640059026
 20
1.944093079171267
 30
0.0
 10
1.635085460543329
 20
1.944093079171267
 30
0.0
 10
1.611132536761595
 20
1.953261922023165
 30
0.0
 10
1.611132536761595
 20
1.964600905195039
 30
0.0
  0
SPLINE
  5
63A
330
23
100
AcDbEntity
  8
0
100
AcDbSpline
210
0.0
220
0.0
230
1.0
 70
     8
 71
     3
 72
    11
 73
     7
 74
     0
 42
0.0000000001
 43
0.0000000001
 40
0.0
 40
0.0
 40
0.0
 40
0.0
 40
1.0
 40
1.0
 40
1.0
 40
2.0
 40
2.0
 40
2.0
 40
2.0
 10
1.718147581290405
 20
1.950820514163192
 30
0.0
 10
1.718147581290405
 20
1.939495094368319
 30
0.0
 10
1.694181094131672
 20
1.93031268813942
 30
0.0
 10
1.664640059026
 20
1.93031268813942
 30
0.0
 10
1.635085460543329
 20
1.93031268813942
 30
0.0
 10
1.611132536761595
 20
1.939495094368319
 30
0.0
 10
1.611132536761595
 20
1.950820514163192
 30
0.0
  0
SPLINE
  5
65C
330
23
100
AcDbEntity
  8
0
100
AcDbSpline
210
0.0
220
0.0
230
1.0
 70
     8
 71
     3
 72
     8
 73
     4
 74
     0
 42
0.0000000001
 43
0.0000000001
 40
1.0
 40
1.0
 40
1.0
 40
1.0
 40
2.0
 40
2.0
 40
2.0
 40
2.0
 10
1.489090910800216
 20
3.226211109758043
 30
0.0
 10
1.484533616128267
 20
3.23009023558
 30
0.0
 10
1.479203208967325
 20
3.232924981372968
 30
0.0
 10
1.473126816071393
 20
3.233955798024956
 30
0.0
  0
SPLINE
  5
65D
330
23
100
AcDbEntity
  8
0
100
AcDbSpline
210
0.0
220
0.0
230
1.0
 70
     8
 71
     3
 72
     8
 73
     4
 74
     0
 42
0.0000000001
 43
0.0000000001
 40
2.0
 40
2.0
 40
2.0
 40
2.0
 40
3.0
 40
3.0
 40
3.0
 40
3.0
 10
1.473126816071393
 20
3.233955798024956
 30
0.0
 10
1.45270037030962
 20
3.237414459159918
 30
0.0
 10
1.43291140326684
 20
3.220989209613101
 30
0.0
 10
1.428883080297885
 20
3.197273644928864
 30
0.0
  0
SPLINE
  5
65E
330
23
100
AcDbEntity
  8
0
100
AcDbSpline
210
0.0
220
0.0
230
1.0
 70
     8
 71
     3
 72
     8
 73
     4
 74
     0
 42
0.0000000001
 43
0.0000000001
 40
3.0
 40
3.0
 40
3.0
 40
3.0
 40
4.0
 40
4.0
 40
4.0
 40
4.0
 10
1.428883080297885
 20
3.197273644928864
 30
0.0
 10
1.425505799424923
 20
3.177308353985087
 30
0.0
 10
1.434457628244823
 20
3.158685837364294
 30
0.0
 10
1.449512976714655
 20
3.151171726506377
 30
0.0
  0
SPLINE
  5
65F
330
23
100
AcDbEntity
  8
0
100
AcDbSpline
210
0.0
220
0.0
230
1.0
 70
     8
 71
     3
 72
     8
 73
     4
 74
     0
 42
0.0000000001
 43
0.0000000001
 40
5.0
 40
5.0
 40
5.0
 40
5.0
 40
6.0
 40
6.0
 40
6.0
 40
6.0
 10
1.465490634820478
 20
3.143420256550964
 30
0.0
 10
1.474333956624379
 20
3.14192150339248
 30
0.0
 10
1.482973827773283
 20
3.144322221121453
 30
0.0
 10
1.490365868238201
 20
3.149266072037898
 30
0.0
  0
SPLINE
  5
660
330
23
100
AcDbEntity
  8
0
100
AcDbSpline
210
0.0
220
0.0
230
1.0
 70
     8
 71
     3
 72
     8
 73
     4
 74
     0
 42
0.0000000001
 43
0.0000000001
 40
0.0
 40
0.0
 40
0.0
 40
0.0
 40
1.0
 40
1.0
 40
1.0
 40
1.0
 10
1.507740554175008
 20
3.204475798115785
 30
0.0
 10
1.50315613274906
 20
3.217381351331141
 30
0.0
 10
1.493051416884171
 20
3.227119856017032
 30
0.0
 10
1.480057701718316
 20
3.229323904779508
 30
0.0
  0
SPLINE
  5
661
330
23
100
AcDbEntity
  8
0
100
AcDbSpline
210
0.0
220
0.0
230
1.0
 70
     8
 71
     3
 72
     8
 73
     4
 74
     0
 42
0.0000000001
 43
0.0000000001
 40
1.0
 40
1.0
 40
1.0
 40
1.0
 40
2.0
 40
2.0
 40
2.0
 40
2.0
 10
1.480057701718316
 20
3.229323904779508
 30
0.0
 10
1.459631255956543
 20
3.232782565914469
 30
0.0
 10
1.439842288913763
 20
3.216357316367652
 30
0.0
 10
1.435813965944808
 20
3.192641751683416
 30
0.0
  0
SPLINE
  5
662
330
23
100
AcDbEntity
  8
0
100
AcDbSpline
210
0.0
220
0.0
230
1.0
 70
     8
 71
     3
 72
     8
 73
     4
 74
     0
 42
0.0000000001
 43
0.0000000001
 40
2.0
 40
2.0
 40
2.0
 40
2.0
 40
3.0
 40
3.0
 40
3.0
 40
3.0
 10
1.435813965944808
 20
3.192641751683416
 30
0.0
 10
1.431799206352852
 20
3.16891940531068
 30
0.0
 10
1.445077752435705
 20
3.146878917685925
 30
0.0
 10
1.465490634820478
 20
3.143420256550964
 30
0.0
  0
SPLINE
  5
663
330
23
100
AcDbEntity
  8
0
100
AcDbSpline
210
0.0
220
0.0
230
1.0
 70
     8
 71
     3
 72
     8
 73
     4
 74
     0
 42
0.0000000001
 43
0.0000000001
 40
0.0
 40
0.0
 40
0.0
 40
0.0
 40
1.0
 40
1.0
 40
1.0
 40
1.0
 10
1.507740554175008
 20
3.204475798115785
 30
0.0
 10
1.499424563790837
 20
3.209312012471197
 30
0.0
 10
1.486335904985983
 20
3.214940813926135
 30
0.0
 10
1.48122251185704
 20
3.215808870054125
 30
0.0
  0
SPLINE
  5
664
330
23
100
AcDbEntity
  8
0
100
AcDbSpline
210
0.0
220
0.0
230
1.0
 70
     8
 71
     3
 72
     8
 73
     4
 74
     0
 42
0.0000000001
 43
0.0000000001
 40
1.0
 40
1.0
 40
1.0
 40
1.0
 40
2.0
 40
2.0
 40
2.0
 40
2.0
 10
1.48122251185704
 20
3.215808870054125
 30
0.0
 10
1.466926712499199
 20
3.218229932848598
 30
0.0
 10
1.453078504582352
 20
3.206728189152726
 30
0.0
 10
1.450270885543384
 20
3.19012661570491
 30
0.0
  0
SPLINE
  5
665
330
23
100
AcDbEntity
  8
0
100
AcDbSpline
210
0.0
220
0.0
230
1.0
 70
     8
 71
     3
 72
     8
 73
     4
 74
     0
 42
0.0000000001
 43
0.0000000001
 40
2.0
 40
2.0
 40
2.0
 40
2.0
 40
3.0
 40
3.0
 40
3.0
 40
3.0
 10
1.450270885543384
 20
3.19012661570491
 30
0.0
 10
1.447449703127416
 20
3.173525042257095
 30
0.0
 10
1.456754179749312
 20
3.158096700919767
 30
0.0
 10
1.471036415730153
 20
3.155675638125294
 30
0.0
  0
SPLINE
  5
666
330
23
100
AcDbEntity
  8
0
100
AcDbSpline
210
0.0
220
0.0
230
1.0
 70
     8
 71
     3
 72
     8
 73
     4
 74
     0
 42
0.0000000001
 43
0.0000000001
 40
3.0
 40
3.0
 40
3.0
 40
3.0
 40
4.0
 40
4.0
 40
4.0
 40
4.0
 10
1.471036415730153
 20
3.155675638125294
 30
0.0
 10
1.473667710868123
 20
3.155228046684298
 30
0.0
 10
1.486756369672978
 20
3.149599245229362
 30
0.0
 10
1.491869762801922
 20
3.148731189101371
 30
0.0
  0
SPLINE
  5
667
330
23
100
AcDbEntity
  8
0
100
AcDbSpline
210
0.0
220
0.0
230
1.0
 70
     8
 71
     3
 72
     8
 73
     4
 74
     0
 42
0.0000000001
 43
0.0000000001
 40
1.0
 40
1.0
 40
1.0
 40
1.0
 40
2.0
 40
2.0
 40
2.0
 40
2.0
 10
1.489090910800216
 20
3.226211109758043
 30
0.0
 10
1.484533616128267
 20
3.23009023558
 30
0.0
 10
1.479203208967325
 20
3.232924981372968
 30
0.0
 10
1.473126816071393
 20
3.233955798024956
 30
0.0
  0
SPLINE
  5
668
330
23
100
AcDbEntity
  8
0
100
AcDbSpline
210
0.0
220
0.0
230
1.0
 70
     8
 71
     3
 72
     8
 73
     4
 74
     0
 42
0.0000000001
 43
0.0000000001
 40
2.0
 40
2.0
 40
2.0
 40
2.0
 40
3.0
 40
3.0
 40
3.0
 40
3.0
 10
1.473126816071393
 20
3.233955798024956
 30
0.0
 10
1.45270037030962
 20
3.237414459159918
 30
0.0
 10
1.43291140326684
 20
3.220989209613101
 30
0.0
 10
1.428883080297885
 20
3.197273644928864
 30
0.0
  0
SPLINE
  5
669
330
23
100
AcDbEntity
  8
0
100
AcDbSpline
210
0.0
220
0.0
230
1.0
 70
     8
 71
     3
 72
     8
 73
     4
 74
     0
 42
0.0000000001
 43
0.0000000001
 40
3.0
 40
3.0
 40
3.0
 40
3.0
 40
4.0
 40
4.0
 40
4.0
 40
4.0
 10
1.428883080297885
 20
3.197273644928864
 30
0.0
 10
1.425505799424923
 20
3.177308353985087
 30
0.0
 10
1.434457628244823
 20
3.158685837364294
 30
0.0
 10
1.449512976714655
 20
3.151171726506377
 30
0.0
  0
SPLINE
  5
66A
330
23
100
AcDbEntity
  8
0
100
AcDbSpline
210
0.0
220
0.0
230
1.0
 70
     8
 71
     3
 72
    14
 73
    10
 74
     0
 42
0.0000000001
 43
0.0000000001
 40
0.0
 40
0.0
 40
0.0
 40
0.0
 40
1.0
 40
1.0
 40
1.0
 40
2.0
 40
2.0
 40
2.0
 40
3.0
 40
3.0
 40
3.0
 40
3.0
 10
1.471061888092705
 20
3.182293552654862
 30
0.0
 10
1.468376339446736
 20
3.166519345204038
 30
0.0
 10
1.477219661250637
 20
3.151864116355701
 30
0.0
 10
1.490783038250486
 20
3.149565123954226
 30
0.0
 10
1.504346415250335
 20
3.147266131552752
 30
0.0
 10
1.517530017694189
 20
3.15818465003763
 30
0.0
 10
1.520202002963159
 20
3.173958857488455
 30
0.0
 10
1.522873988232129
 20
3.18973306493928
 30
0.0
 10
1.514044229805228
 20
3.204388293787617
 30
0.0
 10
1.500467289428379
 20
3.206694067877591
 30
0.0
  0
SPLINE
  5
66B
330
23
100
AcDbEntity
  8
0
100
AcDbSpline
210
0.0
220
0.0
230
1.0
 70
     8
 71
     3
 72
     8
 73
     4
 74
     0
 42
0.0000000001
 43
0.0000000001
 40
3.0
 40
3.0
 40
3.0
 40
3.0
 40
4.0
 40
4.0
 40
4.0
 40
4.0
 10
1.500467289428379
 20
3.206694067877591
 30
0.0
 10
1.48687678567453
 20
3.208993060279066
 30
0.0
 10
1.473720309984675
 20
3.198067760105687
 30
0.0
 10
1.471061888092705
 20
3.182293552654862
 30
0.0
  0
LINE
  5
66C
330
23
100
AcDbEntity
  8
0
100
AcDbLine
 10
1.45958892554228
 20
3.208131998672211
 30
0.0
 11
1.481914244084032
 21
3.200828120157792
 31
0.0
  0
LINE
  5
66D
330
23
100
AcDbEntity
  8
0
100
AcDbLine
 10
1.450664223476379
 20
3.180537308166017
 30
0.0
 11
1.471361936778149
 21
3.172012725721612
 31
0.0
  0
SPLINE
  5
66E
330
23
100
AcDbEntity
  8
0
100
AcDbSpline
210
0.0
220
0.0
230
1.0
 70
     8
 71
     3
 72
     8
 73
     4
 74
     0
 42
0.0000000001
 43
0.0000000001
 40
0.5989974618458984
 40
0.5989974618458984
 40
0.5989974618458984
 40
0.5989974618458984
 40
1.0
 40
1.0
 40
1.0
 40
1.0
 10
1.486737983679122
 20
3.214216521410512
 30
0.0
 10
1.48345139779563
 20
3.216020142007803
 30
0.0
 10
1.479793290683604
 20
3.217085288960974
 30
0.0
 10
1.475914488522285
 20
3.217223404617699
 30
0.0
  0
SPLINE
  5
66F
330
23
100
AcDbEntity
  8
0
100
AcDbSpline
210
0.0
220
0.0
230
1.0
 70
     8
 71
     3
 72
     8
 73
     4
 74
     0
 42
0.0000000001
 43
0.0000000001
 40
1.0
 40
1.0
 40
1.0
 40
1.0
 40
2.0
 40
2.0
 40
2.0
 40
2.0
 10
1.475914488522285
 20
3.217223404617699
 30
0.0
 10
1.460709261382796
 20
3.217760367376871
 30
0.0
 10
1.447896323907298
 20
3.203884271456193
 30
0.0
 10
1.447263624195942
 20
3.186229424085464
 30
0.0
  0
SPLINE
  5
670
330
23
100
AcDbEntity
  8
0
100
AcDbSpline
210
0.0
220
0.0
230
1.0
 70
     8
 71
     3
 72
     8
 73
     4
 74
     0
 42
0.0000000001
 43
0.0000000001
 40
2.0
 40
2.0
 40
2.0
 40
2.0
 40
3.0
 40
3.0
 40
3.0
 40
3.0
 10
1.447263624195942
 20
3.186229424085464
 30
0.0
 10
1.446641455855636
 20
3.168570955149853
 30
0.0
 10
1.45844518730977
 20
3.153813830898794
 30
0.0
 10
1.474070861540757
 20
3.1545569994521
 30
0.0
  0
SPLINE
  5
671
330
23
100
AcDbEntity
  8
0
100
AcDbSpline
210
0.0
220
0.0
230
1.0
 70
     8
 71
     3
 72
     8
 73
     4
 74
     0
 42
0.0000000001
 43
0.0000000001
 40
1.0
 40
1.0
 40
1.0
 40
1.0
 40
2.0
 40
2.0
 40
2.0
 40
2.0
 10
1.417341727066742
 20
3.012196288091107
 30
0.0
 10
1.412784432394793
 20
3.016075413913064
 30
0.0
 10
1.407454025233852
 20
3.018910159706032
 30
0.0
 10
1.40137763233792
 20
3.01994097635802
 30
0.0
  0
SPLINE
  5
672
330
23
100
AcDbEntity
  8
0
100
AcDbSpline
210
0.0
220
0.0
230
1.0
 70
     8
 71
     3
 72
     8
 73
     4
 74
     0
 42
0.0000000001
 43
0.0000000001
 40
2.0
 40
2.0
 40
2.0
 40
2.0
 40
3.0
 40
3.0
 40
3.0
 40
3.0
 10
1.40137763233792
 20
3.01994097635802
 30
0.0
 10
1.380951186576147
 20
3.023399637492982
 30
0.0
 10
1.361162219533367
 20
3.006974387946165
 30
0.0
 10
1.357133896564411
 20
2.983258823261928
 30
0.0
  0
SPLINE
  5
673
330
23
100
AcDbEntity
  8
0
100
AcDbSpline
210
0.0
220
0.0
230
1.0
 70
     8
 71
     3
 72
     8
 73
     4
 74
     0
 42
0.0000000001
 43
0.0000000001
 40
3.0
 40
3.0
 40
3.0
 40
3.0
 40
4.0
 40
4.0
 40
4.0
 40
4.0
 10
1.357133896564411
 20
2.983258823261928
 30
0.0
 10
1.35375661569145
 20
2.963293532318151
 30
0.0
 10
1.362708444511349
 20
2.944671015697358
 30
0.0
 10
1.377763792981182
 20
2.937156904839441
 30
0.0
  0
SPLINE
  5
674
330
23
100
AcDbEntity
  8
0
100
AcDbSpline
210
0.0
220
0.0
230
1.0
 70
     8
 71
     3
 72
     8
 73
     4
 74
     0
 42
0.0000000001
 43
0.0000000001
 40
5.0
 40
5.0
 40
5.0
 40
5.0
 40
6.0
 40
6.0
 40
6.0
 40
6.0
 10
1.393741451087005
 20
2.929405434884028
 30
0.0
 10
1.402584772890906
 20
2.927906681725544
 30
0.0
 10
1.41122464403981
 20
2.930307399454518
 30
0.0
 10
1.418616684504728
 20
2.935251250370962
 30
0.0
  0
SPLINE
  5
675
330
23
100
AcDbEntity
  8
0
100
AcDbSpline
210
0.0
220
0.0
230
1.0
 70
     8
 71
     3
 72
     8
 73
     4
 74
     0
 42
0.0000000001
 43
0.0000000001
 40
0.0
 40
0.0
 40
0.0
 40
0.0
 40
1.0
 40
1.0
 40
1.0
 40
1.0
 10
1.435991370441535
 20
2.990460976448849
 30
0.0
 10
1.431406949015586
 20
3.003366529664205
 30
0.0
 10
1.421302233150698
 20
3.013105034350097
 30
0.0
 10
1.408308517984843
 20
3.015309083112572
 30
0.0
  0
SPLINE
  5
676
330
23
100
AcDbEntity
  8
0
100
AcDbSpline
210
0.0
220
0.0
230
1.0
 70
     8
 71
     3
 72
     8
 73
     4
 74
     0
 42
0.0000000001
 43
0.0000000001
 40
1.0
 40
1.0
 40
1.0
 40
1.0
 40
2.0
 40
2.0
 40
2.0
 40
2.0
 10
1.408308517984843
 20
3.015309083112572
 30
0.0
 10
1.38788207222307
 20
3.018767744247533
 30
0.0
 10
1.368093105180289
 20
3.002342494700717
 30
0.0
 10
1.364064782211335
 20
2.97862693001648
 30
0.0
  0
SPLINE
  5
677
330
23
100
AcDbEntity
  8
0
100
AcDbSpline
210
0.0
220
0.0
230
1.0
 70
     8
 71
     3
 72
     8
 73
     4
 74
     0
 42
0.0000000001
 43
0.0000000001
 40
2.0
 40
2.0
 40
2.0
 40
2.0
 40
3.0
 40
3.0
 40
3.0
 40
3.0
 10
1.364064782211335
 20
2.97862693001648
 30
0.0
 10
1.360050022619379
 20
2.954904583643744
 30
0.0
 10
1.373328568702232
 20
2.932864096018989
 30
0.0
 10
1.393741451087005
 20
2.929405434884028
 30
0.0
  0
SPLINE
  5
678
330
23
100
AcDbEntity
  8
0
100
AcDbSpline
210
0.0
220
0.0
230
1.0
 70
     8
 71
     3
 72
     8
 73
     4
 74
     0
 42
0.0000000001
 43
0.0000000001
 40
0.0
 40
0.0
 40
0.0
 40
0.0
 40
1.0
 40
1.0
 40
1.0
 40
1.0
 10
1.435991370441535
 20
2.990460976448849
 30
0.0
 10
1.427675380057364
 20
2.995297190804261
 30
0.0
 10
1.414586721252509
 20
3.000925992259199
 30
0.0
 10
1.409473328123567
 20
3.001794048387189
 30
0.0
  0
SPLINE
  5
679
330
23
100
AcDbEntity
  8
0
100
AcDbSpline
210
0.0
220
0.0
230
1.0
 70
     8
 71
     3
 72
     8
 73
     4
 74
     0
 42
0.0000000001
 43
0.0000000001
 40
1.0
 40
1.0
 40
1.0
 40
1.0
 40
2.0
 40
2.0
 40
2.0
 40
2.0
 10
1.409473328123567
 20
3.001794048387189
 30
0.0
 10
1.395177528765726
 20
3.004215111181662
 30
0.0
 10
1.381329320848879
 20
2.99271336748579
 30
0.0
 10
1.378521701809911
 20
2.976111794037974
 30
0.0
  0
SPLINE
  5
67A
330
23
100
AcDbEntity
  8
0
100
AcDbSpline
210
0.0
220
0.0
230
1.0
 70
     8
 71
     3
 72
     8
 73
     4
 74
     0
 42
0.0000000001
 43
0.0000000001
 40
2.0
 40
2.0
 40
2.0
 40
2.0
 40
3.0
 40
3.0
 40
3.0
 40
3.0
 10
1.378521701809911
 20
2.976111794037974
 30
0.0
 10
1.375700519393942
 20
2.959510220590159
 30
0.0
 10
1.385004996015838
 20
2.944081879252831
 30
0.0
 10
1.39928723199668
 20
2.941660816458358
 30
0.0
  0
SPLINE
  5
67B
330
23
100
AcDbEntity
  8
0
100
AcDbSpline
210
0.0
220
0.0
230
1.0
 70
     8
 71
     3
 72
     8
 73
     4
 74
     0
 42
0.0000000001
 43
0.0000000001
 40
3.0
 40
3.0
 40
3.0
 40
3.0
 40
4.0
 40
4.0
 40
4.0
 40
4.0
 10
1.39928723199668
 20
2.941660816458358
 30
0.0
 10
1.40191852713465
 20
2.941213225017362
 30
0.0
 10
1.415007185939505
 20
2.935584423562426
 30
0.0
 10
1.420120579068448
 20
2.934716367434435
 30
0.0
  0
SPLINE
  5
67C
330
23
100
AcDbEntity
  8
0
100
AcDbSpline
210
0.0
220
0.0
230
1.0
 70
     8
 71
     3
 72
     8
 73
     4
 74
     0
 42
0.0000000001
 43
0.0000000001
 40
1.0
 40
1.0
 40
1.0
 40
1.0
 40
2.0
 40
2.0
 40
2.0
 40
2.0
 10
1.417341727066742
 20
3.012196288091107
 30
0.0
 10
1.412784432394793
 20
3.016075413913064
 30
0.0
 10
1.407454025233852
 20
3.018910159706032
 30
0.0
 10
1.40137763233792
 20
3.01994097635802
 30
0.0
  0
SPLINE
  5
67D
330
23
100
AcDbEntity
  8
0
100
AcDbSpline
210
0.0
220
0.0
230
1.0
 70
     8
 71
     3
 72
     8
 73
     4
 74
     0
 42
0.0000000001
 43
0.0000000001
 40
2.0
 40
2.0
 40
2.0
 40
2.0
 40
3.0
 40
3.0
 40
3.0
 40
3.0
 10
1.40137763233792
 20
3.01994097635802
 30
0.0
 10
1.380951186576147
 20
3.023399637492982
 30
0.0
 10
1.361162219533367
 20
3.006974387946165
 30
0.0
 10
1.357133896564411
 20
2.983258823261928
 30
0.0
  0
SPLINE
  5
67E
330
23
100
AcDbEntity
  8
0
100
AcDbSpline
210
0.0
220
0.0
230
1.0
 70
     8
 71
     3
 72
     8
 73
     4
 74
     0
 42
0.0000000001
 43
0.0000000001
 40
3.0
 40
3.0
 40
3.0
 40
3.0
 40
4.0
 40
4.0
 40
4.0
 40
4.0
 10
1.357133896564411
 20
2.983258823261928
 30
0.0
 10
1.35375661569145
 20
2.963293532318151
 30
0.0
 10
1.362708444511349
 20
2.944671015697358
 30
0.0
 10
1.377763792981182
 20
2.937156904839441
 30
0.0
  0
SPLINE
  5
67F
330
23
100
AcDbEntity
  8
0
100
AcDbSpline
210
0.0
220
0.0
230
1.0
 70
     8
 71
     3
 72
    14
 73
    10
 74
     0
 42
0.0000000001
 43
0.0000000001
 40
0.0
 40
0.0
 40
0.0
 40
0.0
 40
1.0
 40
1.0
 40
1.0
 40
2.0
 40
2.0
 40
2.0
 40
3.0
 40
3.0
 40
3.0
 40
3.0
 10
1.399312704359232
 20
2.968278730987926
 30
0.0
 10
1.396627155713262
 20
2.952504523537102
 30
0.0
 10
1.405470477517164
 20
2.937849294688765
 30
0.0
 10
1.419033854517013
 20
2.93555030228729
 30
0.0
 10
1.432597231516862
 20
2.933251309885816
 30
0.0
 10
1.445780833960716
 20
2.944169828370694
 30
0.0
 10
1.448452819229686
 20
2.959944035821519
 30
0.0
 10
1.451124804498655
 20
2.975718243272344
 30
0.0
 10
1.442295046071754
 20
2.990373472120681
 30
0.0
 10
1.428718105694905
 20
2.992679246210655
 30
0.0
  0
SPLINE
  5
680
330
23
100
AcDbEntity
  8
0
100
AcDbSpline
210
0.0
220
0.0
230
1.0
 70
     8
 71
     3
 72
     8
 73
     4
 74
     0
 42
0.0000000001
 43
0.0000000001
 40
3.0
 40
3.0
 40
3.0
 40
3.0
 40
4.0
 40
4.0
 40
4.0
 40
4.0
 10
1.428718105694905
 20
2.992679246210655
 30
0.0
 10
1.415127601941056
 20
2.99497823861213
 30
0.0
 10
1.401971126251202
 20
2.984052938438751
 30
0.0
 10
1.399312704359232
 20
2.968278730987926
 30
0.0
  0
LINE
  5
681
330
23
100
AcDbEntity
  8
0
100
AcDbLine
 10
1.387839741808807
 20
2.994117177005275
 30
0.0
 11
1.410165060350558
 21
2.986813298490856
 31
0.0
  0
LINE
  5
682
330
23
100
AcDbEntity
  8
0
100
AcDbLine
 10
1.378915039742906
 20
2.966522486499081
 30
0.0
 11
1.399612753044676
 21
2.957997904054676
 31
0.0
  0
SPLINE
  5
683
330
23
100
AcDbEntity
  8
0
100
AcDbSpline
210
0.0
220
0.0
230
1.0
 70
     8
 71
     3
 72
     8
 73
     4
 74
     0
 42
0.0000000001
 43
0.0000000001
 40
0.5989974618458984
 40
0.5989974618458984
 40
0.5989974618458984
 40
0.5989974618458984
 40
1.0
 40
1.0
 40
1.0
 40
1.0
 10
1.414988799945649
 20
3.000201699743576
 30
0.0
 10
1.411702214062157
 20
3.002005320340867
 30
0.0
 10
1.408044106950131
 20
3.003070467294038
 30
0.0
 10
1.404165304788812
 20
3.003208582950763
 30
0.0
  0
SPLINE
  5
684
330
23
100
AcDbEntity
  8
0
100
AcDbSpline
210
0.0
220
0.0
230
1.0
 70
     8
 71
     3
 72
     8
 73
     4
 74
     0
 42
0.0000000001
 43
0.0000000001
 40
1.0
 40
1.0
 40
1.0
 40
1.0
 40
2.0
 40
2.0
 40
2.0
 40
2.0
 10
1.404165304788812
 20
3.003208582950763
 30
0.0
 10
1.388960077649323
 20
3.003745545709935
 30
0.0
 10
1.376147140173825
 20
2.989869449789257
 30
0.0
 10
1.375514440462468
 20
2.972214602418528
 30
0.0
  0
SPLINE
  5
685
330
23
100
AcDbEntity
  8
0
100
AcDbSpline
210
0.0
220
0.0
230
1.0
 70
     8
 71
     3
 72
     8
 73
     4
 74
     0
 42
0.0000000001
 43
0.0000000001
 40
2.0
 40
2.0
 40
2.0
 40
2.0
 40
3.0
 40
3.0
 40
3.0
 40
3.0
 10
1.375514440462468
 20
2.972214602418528
 30
0.0
 10
1.374892272122163
 20
2.954556133482917
 30
0.0
 10
1.386696003576296
 20
2.939799009231858
 30
0.0
 10
1.402321677807284
 20
2.940542177785164
 30
0.0
  0
SPLINE
  5
686
330
23
100
AcDbEntity
  8
0
100
AcDbSpline
210
0.0
220
0.0
230
1.0
 70
     8
 71
     3
 72
     8
 73
     4
 74
     0
 42
0.0000000001
 43
0.0000000001
 40
1.0
 40
1.0
 40
1.0
 40
1.0
 40
2.0
 40
2.0
 40
2.0
 40
2.0
 10
1.680422136762545
 20
3.258417249729969
 30
0.0
 10
1.675864842090596
 20
3.262296375551926
 30
0.0
 10
1.670534434929655
 20
3.265131121344894
 30
0.0
 10
1.664458042033723
 20
3.266161937996882
 30
0.0
  0
SPLINE
  5
687
330
23
100
AcDbEntity
  8
0
100
AcDbSpline
210
0.0
220
0.0
230
1.0
 70
     8
 71
     3
 72
     8
 73
     4
 74
     0
 42
0.0000000001
 43
0.0000000001
 40
2.0
 40
2.0
 40
2.0
 40
2.0
 40
3.0
 40
3.0
 40
3.0
 40
3.0
 10
1.664458042033723
 20
3.266161937996882
 30
0.0
 10
1.64403159627195
 20
3.269620599131844
 30
0.0
 10
1.62424262922917
 20
3.253195349585027
 30
0.0
 10
1.620214306260214
 20
3.22947978490079
 30
0.0
  0
SPLINE
  5
688
330
23
100
AcDbEntity
  8
0
100
AcDbSpline
210
0.0
220
0.0
230
1.0
 70
     8
 71
     3
 72
     8
 73
     4
 74
     0
 42
0.0000000001
 43
0.0000000001
 40
3.0
 40
3.0
 40
3.0
 40
3.0
 40
4.0
 40
4.0
 40
4.0
 40
4.0
 10
1.620214306260214
 20
3.22947978490079
 30
0.0
 10
1.616837025387253
 20
3.209514493957013
 30
0.0
 10
1.625788854207152
 20
3.19089197733622
 30
0.0
 10
1.640844202676985
 20
3.183377866478303
 30
0.0
  0
SPLINE
  5
689
330
23
100
AcDbEntity
  8
0
100
AcDbSpline
210
0.0
220
0.0
230
1.0
 70
     8
 71
     3
 72
     8
 73
     4
 74
     0
 42
0.0000000001
 43
0.0000000001
 40
5.0
 40
5.0
 40
5.0
 40
5.0
 40
6.0
 40
6.0
 40
6.0
 40
6.0
 10
1.656821860782808
 20
3.17562639652289
 30
0.0
 10
1.665665182586709
 20
3.174127643364406
 30
0.0
 10
1.674305053735613
 20
3.176528361093379
 30
0.0
 10
1.681697094200531
 20
3.181472212009824
 30
0.0
  0
SPLINE
  5
68A
330
23
100
AcDbEntity
  8
0
100
AcDbSpline
210
0.0
220
0.0
230
1.0
 70
     8
 71
     3
 72
     8
 73
     4
 74
     0
 42
0.0000000001
 43
0.0000000001
 40
0.0
 40
0.0
 40
0.0
 40
0.0
 40
1.0
 40
1.0
 40
1.0
 40
1.0
 10
1.699071780137338
 20
3.236681938087711
 30
0.0
 10
1.694487358711389
 20
3.249587491303067
 30
0.0
 10
1.684382642846501
 20
3.259325995988958
 30
0.0
 10
1.671388927680646
 20
3.261530044751434
 30
0.0
  0
SPLINE
  5
68B
330
23
100
AcDbEntity
  8
0
100
AcDbSpline
210
0.0
220
0.0
230
1.0
 70
     8
 71
     3
 72
     8
 73
     4
 74
     0
 42
0.0000000001
 43
0.0000000001
 40
1.0
 40
1.0
 40
1.0
 40
1.0
 40
2.0
 40
2.0
 40
2.0
 40
2.0
 10
1.671388927680646
 20
3.261530044751434
 30
0.0
 10
1.650962481918873
 20
3.264988705886395
 30
0.0
 10
1.631173514876092
 20
3.248563456339578
 30
0.0
 10
1.627145191907138
 20
3.224847891655342
 30
0.0
  0
SPLINE
  5
68C
330
23
100
AcDbEntity
  8
0
100
AcDbSpline
210
0.0
220
0.0
230
1.0
 70
     8
 71
     3
 72
     8
 73
     4
 74
     0
 42
0.0000000001
 43
0.0000000001
 40
2.0
 40
2.0
 40
2.0
 40
2.0
 40
3.0
 40
3.0
 40
3.0
 40
3.0
 10
1.627145191907138
 20
3.224847891655342
 30
0.0
 10
1.623130432315182
 20
3.201125545282606
 30
0.0
 10
1.636408978398035
 20
3.179085057657851
 30
0.0
 10
1.656821860782808
 20
3.17562639652289
 30
0.0
  0
SPLINE
  5
68D
330
23
100
AcDbEntity
  8
0
100
AcDbSpline
210
0.0
220
0.0
230
1.0
 70
     8
 71
     3
 72
     8
 73
     4
 74
     0
 42
0.0000000001
 43
0.0000000001
 40
0.0
 40
0.0
 40
0.0
 40
0.0
 40
1.0
 40
1.0
 40
1.0
 40
1.0
 10
1.699071780137338
 20
3.236681938087711
 30
0.0
 10
1.690755789753167
 20
3.241518152443123
 30
0.0
 10
1.677667130948312
 20
3.247146953898061
 30
0.0
 10
1.67255373781937
 20
3.248015010026051
 30
0.0
  0
SPLINE
  5
68E
330
23
100
AcDbEntity
  8
0
100
AcDbSpline
210
0.0
220
0.0
230
1.0
 70
     8
 71
     3
 72
     8
 73
     4
 74
     0
 42
0.0000000001
 43
0.0000000001
 40
1.0
 40
1.0
 40
1.0
 40
1.0
 40
2.0
 40
2.0
 40
2.0
 40
2.0
 10
1.67255373781937
 20
3.248015010026051
 30
0.0
 10
1.658257938461529
 20
3.250436072820524
 30
0.0
 10
1.644409730544682
 20
3.238934329124652
 30
0.0
 10
1.641602111505714
 20
3.222332755676836
 30
0.0
  0
SPLINE
  5
68F
330
23
100
AcDbEntity
  8
0
100
AcDbSpline
210
0.0
220
0.0
230
1.0
 70
     8
 71
     3
 72
     8
 73
     4
 74
     0
 42
0.0000000001
 43
0.0000000001
 40
2.0
 40
2.0
 40
2.0
 40
2.0
 40
3.0
 40
3.0
 40
3.0
 40
3.0
 10
1.641602111505714
 20
3.222332755676836
 30
0.0
 10
1.638780929089745
 20
3.205731182229021
 30
0.0
 10
1.648085405711641
 20
3.190302840891693
 30
0.0
 10
1.662367641692483
 20
3.18788177809722
 30
0.0
  0
SPLINE
  5
690
330
23
100
AcDbEntity
  8
0
100
AcDbSpline
210
0.0
220
0.0
230
1.0
 70
     8
 71
     3
 72
     8
 73
     4
 74
     0
 42
0.0000000001
 43
0.0000000001
 40
3.0
 40
3.0
 40
3.0
 40
3.0
 40
4.0
 40
4.0
 40
4.0
 40
4.0
 10
1.662367641692483
 20
3.18788177809722
 30
0.0
 10
1.664998936830453
 20
3.187434186656224
 30
0.0
 10
1.678087595635308
 20
3.181805385201288
 30
0.0
 10
1.683200988764251
 20
3.180937329073297
 30
0.0
  0
SPLINE
  5
691
330
23
100
AcDbEntity
  8
0
100
AcDbSpline
210
0.0
220
0.0
230
1.0
 70
     8
 71
     3
 72
     8
 73
     4
 74
     0
 42
0.0000000001
 43
0.0000000001
 40
1.0
 40
1.0
 40
1.0
 40
1.0
 40
2.0
 40
2.0
 40
2.0
 40
2.0
 10
1.680422136762545
 20
3.258417249729969
 30
0.0
 10
1.675864842090596
 20
3.262296375551926
 30
0.0
 10
1.670534434929655
 20
3.265131121344894
 30
0.0
 10
1.664458042033723
 20
3.266161937996882
 30
0.0
  0
SPLINE
  5
692
330
23
100
AcDbEntity
  8
0
100
AcDbSpline
210
0.0
220
0.0
230
1.0
 70
     8
 71
     3
 72
     8
 73
     4
 74
     0
 42
0.0000000001
 43
0.0000000001
 40
2.0
 40
2.0
 40
2.0
 40
2.0
 40
3.0
 40
3.0
 40
3.0
 40
3.0
 10
1.664458042033723
 20
3.266161937996882
 30
0.0
 10
1.64403159627195
 20
3.269620599131844
 30
0.0
 10
1.62424262922917
 20
3.253195349585027
 30
0.0
 10
1.620214306260214
 20
3.22947978490079
 30
0.0
  0
SPLINE
  5
693
330
23
100
AcDbEntity
  8
0
100
AcDbSpline
210
0.0
220
0.0
230
1.0
 70
     8
 71
     3
 72
     8
 73
     4
 74
     0
 42
0.0000000001
 43
0.0000000001
 40
3.0
 40
3.0
 40
3.0
 40
3.0
 40
4.0
 40
4.0
 40
4.0
 40
4.0
 10
1.620214306260214
 20
3.22947978490079
 30
0.0
 10
1.616837025387253
 20
3.209514493957013
 30
0.0
 10
1.625788854207152
 20
3.19089197733622
 30
0.0
 10
1.640844202676985
 20
3.183377866478303
 30
0.0
  0
SPLINE
  5
694
330
23
100
AcDbEntity
  8
0
100
AcDbSpline
210
0.0
220
0.0
230
1.0
 70
     8
 71
     3
 72
    14
 73
    10
 74
     0
 42
0.0000000001
 43
0.0000000001
 40
0.0
 40
0.0
 40
0.0
 40
0.0
 40
1.0
 40
1.0
 40
1.0
 40
2.0
 40
2.0
 40
2.0
 40
3.0
 40
3.0
 40
3.0
 40
3.0
 10
1.662393114055035
 20
3.214499692626788
 30
0.0
 10
1.659707565409065
 20
3.198725485175964
 30
0.0
 10
1.668550887212967
 20
3.184070256327627
 30
0.0
 10
1.682114264212816
 20
3.181771263926152
 30
0.0
 10
1.695677641212665
 20
3.179472271524678
 30
0.0
 10
1.708861243656518
 20
3.190390790009556
 30
0.0
 10
1.711533228925489
 20
3.206164997460381
 30
0.0
 10
1.714205214194459
 20
3.221939204911206
 30
0.0
 10
1.705375455767557
 20
3.236594433759543
 30
0.0
 10
1.691798515390708
 20
3.238900207849517
 30
0.0
  0
SPLINE
  5
695
330
23
100
AcDbEntity
  8
0
100
AcDbSpline
210
0.0
220
0.0
230
1.0
 70
     8
 71
     3
 72
     8
 73
     4
 74
     0
 42
0.0000000001
 43
0.0000000001
 40
3.0
 40
3.0
 40
3.0
 40
3.0
 40
4.0
 40
4.0
 40
4.0
 40
4.0
 10
1.691798515390708
 20
3.238900207849517
 30
0.0
 10
1.678208011636859
 20
3.241199200250992
 30
0.0
 10
1.665051535947005
 20
3.230273900077613
 30
0.0
 10
1.662393114055035
 20
3.214499692626788
 30
0.0
  0
LINE
  5
696
330
23
100
AcDbEntity
  8
0
100
AcDbLine
 10
1.65092015150461
 20
3.240338138644137
 30
0.0
 11
1.673245470046362
 21
3.233034260129718
 31
0.0
  0
LINE
  5
697
330
23
100
AcDbEntity
  8
0
100
AcDbLine
 10
1.641995449438709
 20
3.212743448137943
 30
0.0
 11
1.662693162740479
 21
3.204218865693538
 31
0.0
  0
SPLINE
  5
698
330
23
100
AcDbEntity
  8
0
100
AcDbSpline
210
0.0
220
0.0
230
1.0
 70
     8
 71
     3
 72
     8
 73
     4
 74
     0
 42
0.0000000001
 43
0.0000000001
 40
0.5989974618458984
 40
0.5989974618458984
 40
0.5989974618458984
 40
0.5989974618458984
 40
1.0
 40
1.0
 40
1.0
 40
1.0
 10
1.678069209641452
 20
3.246422661382438
 30
0.0
 10
1.67478262375796
 20
3.248226281979729
 30
0.0
 10
1.671124516645934
 20
3.2492914289329
 30
0.0
 10
1.667245714484615
 20
3.249429544589625
 30
0.0
  0
SPLINE
  5
699
330
23
100
AcDbEntity
  8
0
100
AcDbSpline
210
0.0
220
0.0
230
1.0
 70
     8
 71
     3
 72
     8
 73
     4
 74
     0
 42
0.0000000001
 43
0.0000000001
 40
1.0
 40
1.0
 40
1.0
 40
1.0
 40
2.0
 40
2.0
 40
2.0
 40
2.0
 10
1.667245714484615
 20
3.249429544589625
 30
0.0
 10
1.652040487345126
 20
3.249966507348797
 30
0.0
 10
1.639227549869628
 20
3.236090411428119
 30
0.0
 10
1.638594850158271
 20
3.21843556405739
 30
0.0
  0
SPLINE
  5
69A
330
23
100
AcDbEntity
  8
0
100
AcDbSpline
210
0.0
220
0.0
230
1.0
 70
     8
 71
     3
 72
     8
 73
     4
 74
     0
 42
0.0000000001
 43
0.0000000001
 40
2.0
 40
2.0
 40
2.0
 40
2.0
 40
3.0
 40
3.0
 40
3.0
 40
3.0
 10
1.638594850158271
 20
3.21843556405739
 30
0.0
 10
1.637972681817966
 20
3.200777095121779
 30
0.0
 10
1.649776413272099
 20
3.18601997087072
 30
0.0
 10
1.665402087503087
 20
3.186763139424026
 30
0.0
  0
SPLINE
  5
69B
330
23
100
AcDbEntity
  8
0
100
AcDbSpline
210
0.0
220
0.0
230
1.0
 70
     8
 71
     3
 72
     8
 73
     4
 74
     0
 42
0.0000000001
 43
0.0000000001
 40
1.0
 40
1.0
 40
1.0
 40
1.0
 40
2.0
 40
2.0
 40
2.0
 40
2.0
 10
1.741772921233378
 20
3.067258355746144
 30
0.0
 10
1.737215626561428
 20
3.0711374815681
 30
0.0
 10
1.731885219400487
 20
3.073972227361069
 30
0.0
 10
1.725808826504555
 20
3.075003044013057
 30
0.0
  0
SPLINE
  5
69C
330
23
100
AcDbEntity
  8
0
100
AcDbSpline
210
0.0
220
0.0
230
1.0
 70
     8
 71
     3
 72
     8
 73
     4
 74
     0
 42
0.0000000001
 43
0.0000000001
 40
2.0
 40
2.0
 40
2.0
 40
2.0
 40
3.0
 40
3.0
 40
3.0
 40
3.0
 10
1.725808826504555
 20
3.075003044013057
 30
0.0
 10
1.705382380742782
 20
3.078461705148019
 30
0.0
 10
1.685593413700002
 20
3.062036455601201
 30
0.0
 10
1.681565090731047
 20
3.038320890916965
 30
0.0
  0
SPLINE
  5
69D
330
23
100
AcDbEntity
  8
0
100
AcDbSpline
210
0.0
220
0.0
230
1.0
 70
     8
 71
     3
 72
     8
 73
     4
 74
     0
 42
0.0000000001
 43
0.0000000001
 40
3.0
 40
3.0
 40
3.0
 40
3.0
 40
4.0
 40
4.0
 40
4.0
 40
4.0
 10
1.681565090731047
 20
3.038320890916965
 30
0.0
 10
1.678187809858085
 20
3.018355599973187
 30
0.0
 10
1.687139638677984
 20
2.999733083352394
 30
0.0
 10
1.702194987147817
 20
2.992218972494478
 30
0.0
  0
SPLINE
  5
69E
330
23
100
AcDbEntity
  8
0
100
AcDbSpline
210
0.0
220
0.0
230
1.0
 70
     8
 71
     3
 72
     8
 73
     4
 74
     0
 42
0.0000000001
 43
0.0000000001
 40
5.0
 40
5.0
 40
5.0
 40
5.0
 40
6.0
 40
6.0
 40
6.0
 40
6.0
 10
1.71817264525364
 20
2.984467502539064
 30
0.0
 10
1.727015967057541
 20
2.98296874938058
 30
0.0
 10
1.735655838206445
 20
2.985369467109554
 30
0.0
 10
1.743047878671363
 20
2.990313318025999
 30
0.0
  0
SPLINE
  5
69F
330
23
100
AcDbEntity
  8
0
100
AcDbSpline
210
0.0
220
0.0
230
1.0
 70
     8
 71
     3
 72
     8
 73
     4
 74
     0
 42
0.0000000001
 43
0.0000000001
 40
0.0
 40
0.0
 40
0.0
 40
0.0
 40
1.0
 40
1.0
 40
1.0
 40
1.0
 10
1.76042256460817
 20
3.045523044103885
 30
0.0
 10
1.755838143182221
 20
3.058428597319241
 30
0.0
 10
1.745733427317333
 20
3.068167102005133
 30
0.0
 10
1.732739712151478
 20
3.070371150767609
 30
0.0
  0
SPLINE
  5
6A0
330
23
100
AcDbEntity
  8
0
100
AcDbSpline
210
0.0
220
0.0
230
1.0
 70
     8
 71
     3
 72
     8
 73
     4
 74
     0
 42
0.0000000001
 43
0.0000000001
 40
1.0
 40
1.0
 40
1.0
 40
1.0
 40
2.0
 40
2.0
 40
2.0
 40
2.0
 10
1.732739712151478
 20
3.070371150767609
 30
0.0
 10
1.712313266389705
 20
3.07382981190257
 30
0.0
 10
1.692524299346925
 20
3.057404562355753
 30
0.0
 10
1.68849597637797
 20
3.033688997671517
 30
0.0
  0
SPLINE
  5
6A1
330
23
100
AcDbEntity
  8
0
100
AcDbSpline
210
0.0
220
0.0
230
1.0
 70
     8
 71
     3
 72
     8
 73
     4
 74
     0
 42
0.0000000001
 43
0.0000000001
 40
2.0
 40
2.0
 40
2.0
 40
2.0
 40
3.0
 40
3.0
 40
3.0
 40
3.0
 10
1.68849597637797
 20
3.033688997671517
 30
0.0
 10
1.684481216786014
 20
3.009966651298781
 30
0.0
 10
1.697759762868867
 20
2.987926163674025
 30
0.0
 10
1.71817264525364
 20
2.984467502539064
 30
0.0
  0
SPLINE
  5
6A2
330
23
100
AcDbEntity
  8
0
100
AcDbSpline
210
0.0
220
0.0
230
1.0
 70
     8
 71
     3
 72
     8
 73
     4
 74
     0
 42
0.0000000001
 43
0.0000000001
 40
0.0
 40
0.0
 40
0.0
 40
0.0
 40
1.0
 40
1.0
 40
1.0
 40
1.0
 10
1.76042256460817
 20
3.045523044103885
 30
0.0
 10
1.752106574223999
 20
3.050359258459298
 30
0.0
 10
1.739017915419145
 20
3.055988059914236
 30
0.0
 10
1.733904522290202
 20
3.056856116042225
 30
0.0
  0
SPLINE
  5
6A3
330
23
100
AcDbEntity
  8
0
100
AcDbSpline
210
0.0
220
0.0
230
1.0
 70
     8
 71
     3
 72
     8
 73
     4
 74
     0
 42
0.0000000001
 43
0.0000000001
 40
1.0
 40
1.0
 40
1.0
 40
1.0
 40
2.0
 40
2.0
 40
2.0
 40
2.0
 10
1.733904522290202
 20
3.056856116042225
 30
0.0
 10
1.719608722932361
 20
3.059277178836699
 30
0.0
 10
1.705760515015514
 20
3.047775435140827
 30
0.0
 10
1.702952895976546
 20
3.031173861693011
 30
0.0
  0
SPLINE
  5
6A4
330
23
100
AcDbEntity
  8
0
100
AcDbSpline
210
0.0
220
0.0
230
1.0
 70
     8
 71
     3
 72
     8
 73
     4
 74
     0
 42
0.0000000001
 43
0.0000000001
 40
2.0
 40
2.0
 40
2.0
 40
2.0
 40
3.0
 40
3.0
 40
3.0
 40
3.0
 10
1.702952895976546
 20
3.031173861693011
 30
0.0
 10
1.700131713560578
 20
3.014572288245196
 30
0.0
 10
1.709436190182474
 20
2.999143946907867
 30
0.0
 10
1.723718426163315
 20
2.996722884113394
 30
0.0
  0
SPLINE
  5
6A5
330
23
100
AcDbEntity
  8
0
100
AcDbSpline
210
0.0
220
0.0
230
1.0
 70
     8
 71
     3
 72
     8
 73
     4
 74
     0
 42
0.0000000001
 43
0.0000000001
 40
3.0
 40
3.0
 40
3.0
 40
3.0
 40
4.0
 40
4.0
 40
4.0
 40
4.0
 10
1.723718426163315
 20
2.996722884113394
 30
0.0
 10
1.726349721301286
 20
2.996275292672399
 30
0.0
 10
1.73943838010614
 20
2.990646491217462
 30
0.0
 10
1.744551773235084
 20
2.989778435089471
 30
0.0
  0
SPLINE
  5
6A6
330
23
100
AcDbEntity
  8
0
100
AcDbSpline
210
0.0
220
0.0
230
1.0
 70
     8
 71
     3
 72
     8
 73
     4
 74
     0
 42
0.0000000001
 43
0.0000000001
 40
1.0
 40
1.0
 40
1.0
 40
1.0
 40
2.0
 40
2.0
 40
2.0
 40
2.0
 10
1.741772921233378
 20
3.067258355746144
 30
0.0
 10
1.737215626561428
 20
3.0711374815681
 30
0.0
 10
1.731885219400487
 20
3.073972227361069
 30
0.0
 10
1.725808826504555
 20
3.075003044013057
 30
0.0
  0
SPLINE
  5
6A7
330
23
100
AcDbEntity
  8
0
100
AcDbSpline
210
0.0
220
0.0
230
1.0
 70
     8
 71
     3
 72
     8
 73
     4
 74
     0
 42
0.0000000001
 43
0.0000000001
 40
2.0
 40
2.0
 40
2.0
 40
2.0
 40
3.0
 40
3.0
 40
3.0
 40
3.0
 10
1.725808826504555
 20
3.075003044013057
 30
0.0
 10
1.705382380742782
 20
3.078461705148019
 30
0.0
 10
1.685593413700002
 20
3.062036455601201
 30
0.0
 10
1.681565090731047
 20
3.038320890916965
 30
0.0
  0
SPLINE
  5
6A8
330
23
100
AcDbEntity
  8
0
100
AcDbSpline
210
0.0
220
0.0
230
1.0
 70
     8
 71
     3
 72
     8
 73
     4
 74
     0
 42
0.0000000001
 43
0.0000000001
 40
3.0
 40
3.0
 40
3.0
 40
3.0
 40
4.0
 40
4.0
 40
4.0
 40
4.0
 10
1.681565090731047
 20
3.038320890916965
 30
0.0
 10
1.678187809858085
 20
3.018355599973187
 30
0.0
 10
1.687139638677984
 20
2.999733083352394
 30
0.0
 10
1.702194987147817
 20
2.992218972494478
 30
0.0
  0
SPLINE
  5
6A9
330
23
100
AcDbEntity
  8
0
100
AcDbSpline
210
0.0
220
0.0
230
1.0
 70
     8
 71
     3
 72
    14
 73
    10
 74
     0
 42
0.0000000001
 43
0.0000000001
 40
0.0
 40
0.0
 40
0.0
 40
0.0
 40
1.0
 40
1.0
 40
1.0
 40
2.0
 40
2.0
 40
2.0
 40
3.0
 40
3.0
 40
3.0
 40
3.0
 10
1.723743898525867
 20
3.023340798642963
 30
0.0
 10
1.721058349879897
 20
3.007566591192139
 30
0.0
 10
1.729901671683799
 20
2.992911362343802
 30
0.0
 10
1.743465048683648
 20
2.990612369942327
 30
0.0
 10
1.757028425683497
 20
2.988313377540853
 30
0.0
 10
1.770212028127351
 20
2.999231896025731
 30
0.0
 10
1.772884013396321
 20
3.015006103476556
 30
0.0
 10
1.775555998665291
 20
3.03078031092738
 30
0.0
 10
1.766726240238389
 20
3.045435539775717
 30
0.0
 10
1.753149299861541
 20
3.047741313865692
 30
0.0
  0
SPLINE
  5
6AA
330
23
100
AcDbEntity
  8
0
100
AcDbSpline
210
0.0
220
0.0
230
1.0
 70
     8
 71
     3
 72
     8
 73
     4
 74
     0
 42
0.0000000001
 43
0.0000000001
 40
3.0
 40
3.0
 40
3.0
 40
3.0
 40
4.0
 40
4.0
 40
4.0
 40
4.0
 10
1.753149299861541
 20
3.047741313865692
 30
0.0
 10
1.739558796107692
 20
3.050040306267166
 30
0.0
 10
1.726402320417838
 20
3.039115006093788
 30
0.0
 10
1.723743898525867
 20
3.023340798642963
 30
0.0
  0
LINE
  5
6AB
330
23
100
AcDbEntity
  8
0
100
AcDbLine
 10
1.712270935975442
 20
3.049179244660311
 30
0.0
 11
1.734596254517194
 21
3.041875366145892
 31
0.0
  0
LINE
  5
6AC
330
23
100
AcDbEntity
  8
0
100
AcDbLine
 10
1.703346233909541
 20
3.021584554154118
 30
0.0
 11
1.724043947211311
 21
3.013059971709713
 31
0.0
  0
SPLINE
  5
6AD
330
23
100
AcDbEntity
  8
0
100
AcDbSpline
210
0.0
220
0.0
230
1.0
 70
     8
 71
     3
 72
     8
 73
     4
 74
     0
 42
0.0000000001
 43
0.0000000001
 40
0.5989974618458984
 40
0.5989974618458984
 40
0.5989974618458984
 40
0.5989974618458984
 40
1.0
 40
1.0
 40
1.0
 40
1.0
 10
1.739419994112284
 20
3.055263767398612
 30
0.0
 10
1.736133408228792
 20
3.057067387995904
 30
0.0
 10
1.732475301116766
 20
3.058132534949075
 30
0.0
 10
1.728596498955447
 20
3.0582706506058
 30
0.0
  0
SPLINE
  5
6AE
330
23
100
AcDbEntity
  8
0
100
AcDbSpline
210
0.0
220
0.0
230
1.0
 70
     8
 71
     3
 72
     8
 73
     4
 74
     0
 42
0.0000000001
 43
0.0000000001
 40
1.0
 40
1.0
 40
1.0
 40
1.0
 40
2.0
 40
2.0
 40
2.0
 40
2.0
 10
1.728596498955447
 20
3.0582706506058
 30
0.0
 10
1.713391271815958
 20
3.058807613364972
 30
0.0
 10
1.70057833434046
 20
3.044931517444294
 30
0.0
 10
1.699945634629104
 20
3.027276670073564
 30
0.0
  0
SPLINE
  5
6AF
330
23
100
AcDbEntity
  8
0
100
AcDbSpline
210
0.0
220
0.0
230
1.0
 70
     8
 71
     3
 72
     8
 73
     4
 74
     0
 42
0.0000000001
 43
0.0000000001
 40
2.0
 40
2.0
 40
2.0
 40
2.0
 40
3.0
 40
3.0
 40
3.0
 40
3.0
 10
1.699945634629104
 20
3.027276670073564
 30
0.0
 10
1.699323466288798
 20
3.009618201137954
 30
0.0
 10
1.711127197742931
 20
2.994861076886895
 30
0.0
 10
1.726752871973919
 20
2.995604245440201
 30
0.0
  0
SPLINE
  5
6B0
330
23
100
AcDbEntity
  8
0
100
AcDbSpline
210
0.0
220
0.0
230
1.0
 70
     8
 71
     3
 72
     8
 73
     4
 74
     0
 42
0.0000000001
 43
0.0000000001
 40
1.0
 40
1.0
 40
1.0
 40
1.0
 40
2.0
 40
2.0
 40
2.0
 40
2.0
 10
1.660746492906598
 20
2.776560710725856
 30
0.0
 10
1.656189198234649
 20
2.780439836547813
 30
0.0
 10
1.650858791073707
 20
2.783274582340781
 30
0.0
 10
1.644782398177775
 20
2.784305398992769
 30
0.0
  0
SPLINE
  5
6B1
330
23
100
AcDbEntity
  8
0
100
AcDbSpline
210
0.0
220
0.0
230
1.0
 70
     8
 71
     3
 72
     8
 73
     4
 74
     0
 42
0.0000000001
 43
0.0000000001
 40
2.0
 40
2.0
 40
2.0
 40
2.0
 40
3.0
 40
3.0
 40
3.0
 40
3.0
 10
1.644782398177775
 20
2.784305398992769
 30
0.0
 10
1.624355952416003
 20
2.787764060127731
 30
0.0
 10
1.604566985373222
 20
2.771338810580914
 30
0.0
 10
1.600538662404267
 20
2.747623245896677
 30
0.0
  0
SPLINE
  5
6B2
330
23
100
AcDbEntity
  8
0
100
AcDbSpline
210
0.0
220
0.0
230
1.0
 70
     8
 71
     3
 72
     8
 73
     4
 74
     0
 42
0.0000000001
 43
0.0000000001
 40
3.0
 40
3.0
 40
3.0
 40
3.0
 40
4.0
 40
4.0
 40
4.0
 40
4.0
 10
1.600538662404267
 20
2.747623245896677
 30
0.0
 10
1.597161381531305
 20
2.7276579549529
 30
0.0
 10
1.606113210351205
 20
2.709035438332107
 30
0.0
 10
1.621168558821037
 20
2.70152132747419
 30
0.0
  0
SPLINE
  5
6B3
330
23
100
AcDbEntity
  8
0
100
AcDbSpline
210
0.0
220
0.0
230
1.0
 70
     8
 71
     3
 72
     8
 73
     4
 74
     0
 42
0.0000000001
 43
0.0000000001
 40
5.0
 40
5.0
 40
5.0
 40
5.0
 40
6.0
 40
6.0
 40
6.0
 40
6.0
 10
1.63714621692686
 20
2.693769857518777
 30
0.0
 10
1.645989538730762
 20
2.692271104360293
 30
0.0
 10
1.654629409879665
 20
2.694671822089267
 30
0.0
 10
1.662021450344583
 20
2.699615673005711
 30
0.0
  0
SPLINE
  5
6B4
330
23
100
AcDbEntity
  8
0
100
AcDbSpline
210
0.0
220
0.0
230
1.0
 70
     8
 71
     3
 72
     8
 73
     4
 74
     0
 42
0.0000000001
 43
0.0000000001
 40
0.0
 40
0.0
 40
0.0
 40
0.0
 40
1.0
 40
1.0
 40
1.0
 40
1.0
 10
1.67939613628139
 20
2.754825399083598
 30
0.0
 10
1.674811714855442
 20
2.767730952298954
 30
0.0
 10
1.664706998990553
 20
2.777469456984846
 30
0.0
 10
1.651713283824698
 20
2.779673505747321
 30
0.0
  0
SPLINE
  5
6B5
330
23
100
AcDbEntity
  8
0
100
AcDbSpline
210
0.0
220
0.0
230
1.0
 70
     8
 71
     3
 72
     8
 73
     4
 74
     0
 42
0.0000000001
 43
0.0000000001
 40
1.0
 40
1.0
 40
1.0
 40
1.0
 40
2.0
 40
2.0
 40
2.0
 40
2.0
 10
1.651713283824698
 20
2.779673505747321
 30
0.0
 10
1.631286838062925
 20
2.783132166882282
 30
0.0
 10
1.611497871020145
 20
2.766706917335466
 30
0.0
 10
1.60746954805119
 20
2.742991352651229
 30
0.0
  0
SPLINE
  5
6B6
330
23
100
AcDbEntity
  8
0
100
AcDbSpline
210
0.0
220
0.0
230
1.0
 70
     8
 71
     3
 72
     8
 73
     4
 74
     0
 42
0.0000000001
 43
0.0000000001
 40
2.0
 40
2.0
 40
2.0
 40
2.0
 40
3.0
 40
3.0
 40
3.0
 40
3.0
 10
1.60746954805119
 20
2.742991352651229
 30
0.0
 10
1.603454788459234
 20
2.719269006278493
 30
0.0
 10
1.616733334542087
 20
2.697228518653738
 30
0.0
 10
1.63714621692686
 20
2.693769857518777
 30
0.0
  0
SPLINE
  5
6B7
330
23
100
AcDbEntity
  8
0
100
AcDbSpline
210
0.0
220
0.0
230
1.0
 70
     8
 71
     3
 72
     8
 73
     4
 74
     0
 42
0.0000000001
 43
0.0000000001
 40
0.0
 40
0.0
 40
0.0
 40
0.0
 40
1.0
 40
1.0
 40
1.0
 40
1.0
 10
1.67939613628139
 20
2.754825399083598
 30
0.0
 10
1.67108014589722
 20
2.75966161343901
 30
0.0
 10
1.657991487092365
 20
2.765290414893948
 30
0.0
 10
1.652878093963422
 20
2.766158471021938
 30
0.0
  0
SPLINE
  5
6B8
330
23
100
AcDbEntity
  8
0
100
AcDbSpline
210
0.0
220
0.0
230
1.0
 70
     8
 71
     3
 72
     8
 73
     4
 74
     0
 42
0.0000000001
 43
0.0000000001
 40
1.0
 40
1.0
 40
1.0
 40
1.0
 40
2.0
 40
2.0
 40
2.0
 40
2.0
 10
1.652878093963422
 20
2.766158471021938
 30
0.0
 10
1.638582294605581
 20
2.768579533816411
 30
0.0
 10
1.624734086688735
 20
2.757077790120539
 30
0.0
 10
1.621926467649766
 20
2.740476216672724
 30
0.0
  0
SPLINE
  5
6B9
330
23
100
AcDbEntity
  8
0
100
AcDbSpline
210
0.0
220
0.0
230
1.0
 70
     8
 71
     3
 72
     8
 73
     4
 74
     0
 42
0.0000000001
 43
0.0000000001
 40
2.0
 40
2.0
 40
2.0
 40
2.0
 40
3.0
 40
3.0
 40
3.0
 40
3.0
 10
1.621926467649766
 20
2.740476216672724
 30
0.0
 10
1.619105285233798
 20
2.723874643224908
 30
0.0
 10
1.628409761855694
 20
2.70844630188758
 30
0.0
 10
1.642691997836535
 20
2.706025239093107
 30
0.0
  0
SPLINE
  5
6BA
330
23
100
AcDbEntity
  8
0
100
AcDbSpline
210
0.0
220
0.0
230
1.0
 70
     8
 71
     3
 72
     8
 73
     4
 74
     0
 42
0.0000000001
 43
0.0000000001
 40
3.0
 40
3.0
 40
3.0
 40
3.0
 40
4.0
 40
4.0
 40
4.0
 40
4.0
 10
1.642691997836535
 20
2.706025239093107
 30
0.0
 10
1.645323292974505
 20
2.705577647652111
 30
0.0
 10
1.65841195177936
 20
2.699948846197175
 30
0.0
 10
1.663525344908304
 20
2.699080790069184
 30
0.0
  0
SPLINE
  5
6BB
330
23
100
AcDbEntity
  8
0
100
AcDbSpline
210
0.0
220
0.0
230
1.0
 70
     8
 71
     3
 72
     8
 73
     4
 74
     0
 42
0.0000000001
 43
0.0000000001
 40
1.0
 40
1.0
 40
1.0
 40
1.0
 40
2.0
 40
2.0
 40
2.0
 40
2.0
 10
1.660746492906598
 20
2.776560710725856
 30
0.0
 10
1.656189198234649
 20
2.780439836547813
 30
0.0
 10
1.650858791073707
 20
2.783274582340781
 30
0.0
 10
1.644782398177775
 20
2.784305398992769
 30
0.0
  0
SPLINE
  5
6BC
330
23
100
AcDbEntity
  8
0
100
AcDbSpline
210
0.0
220
0.0
230
1.0
 70
     8
 71
     3
 72
     8
 73
     4
 74
     0
 42
0.0000000001
 43
0.0000000001
 40
2.0
 40
2.0
 40
2.0
 40
2.0
 40
3.0
 40
3.0
 40
3.0
 40
3.0
 10
1.644782398177775
 20
2.784305398992769
 30
0.0
 10
1.624355952416003
 20
2.787764060127731
 30
0.0
 10
1.604566985373222
 20
2.771338810580914
 30
0.0
 10
1.600538662404267
 20
2.747623245896677
 30
0.0
  0
SPLINE
  5
6BD
330
23
100
AcDbEntity
  8
0
100
AcDbSpline
210
0.0
220
0.0
230
1.0
 70
     8
 71
     3
 72
     8
 73
     4
 74
     0
 42
0.0000000001
 43
0.0000000001
 40
3.0
 40
3.0
 40
3.0
 40
3.0
 40
4.0
 40
4.0
 40
4.0
 40
4.0
 10
1.600538662404267
 20
2.747623245896677
 30
0.0
 10
1.597161381531305
 20
2.7276579549529
 30
0.0
 10
1.606113210351205
 20
2.709035438332107
 30
0.0
 10
1.621168558821037
 20
2.70152132747419
 30
0.0
  0
SPLINE
  5
6BE
330
23
100
AcDbEntity
  8
0
100
AcDbSpline
210
0.0
220
0.0
230
1.0
 70
     8
 71
     3
 72
    14
 73
    10
 74
     0
 42
0.0000000001
 43
0.0000000001
 40
0.0
 40
0.0
 40
0.0
 40
0.0
 40
1.0
 40
1.0
 40
1.0
 40
2.0
 40
2.0
 40
2.0
 40
3.0
 40
3.0
 40
3.0
 40
3.0
 10
1.642717470199087
 20
2.732643153622675
 30
0.0
 10
1.640031921553118
 20
2.716868946171851
 30
0.0
 10
1.648875243357019
 20
2.702213717323514
 30
0.0
 10
1.662438620356868
 20
2.699914724922039
 30
0.0
 10
1.676001997356718
 20
2.697615732520565
 30
0.0
 10
1.689185599800571
 20
2.708534251005443
 30
0.0
 10
1.691857585069541
 20
2.724308458456268
 30
0.0
 10
1.694529570338511
 20
2.740082665907093
 30
0.0
 10
1.68569981191161
 20
2.75473789475543
 30
0.0
 10
1.672122871534761
 20
2.757043668845404
 30
0.0
  0
SPLINE
  5
6BF
330
23
100
AcDbEntity
  8
0
100
AcDbSpline
210
0.0
220
0.0
230
1.0
 70
     8
 71
     3
 72
     8
 73
     4
 74
     0
 42
0.0000000001
 43
0.0000000001
 40
3.0
 40
3.0
 40
3.0
 40
3.0
 40
4.0
 40
4.0
 40
4.0
 40
4.0
 10
1.672122871534761
 20
2.757043668845404
 30
0.0
 10
1.658532367780912
 20
2.759342661246879
 30
0.0
 10
1.645375892091058
 20
2.7484173610735
 30
0.0
 10
1.642717470199087
 20
2.732643153622675
 30
0.0
  0
LINE
  5
6C0
330
23
100
AcDbEntity
  8
0
100
AcDbLine
 10
1.631244507648662
 20
2.758481599640024
 30
0.0
 11
1.653569826190414
 21
2.751177721125605
 31
0.0
  0
LINE
  5
6C1
330
23
100
AcDbEntity
  8
0
100
AcDbLine
 10
1.622319805582762
 20
2.73088690913383
 30
0.0
 11
1.643017518884531
 21
2.722362326689425
 31
0.0
  0
SPLINE
  5
6C2
330
23
100
AcDbEntity
  8
0
100
AcDbSpline
210
0.0
220
0.0
230
1.0
 70
     8
 71
     3
 72
     8
 73
     4
 74
     0
 42
0.0000000001
 43
0.0000000001
 40
0.5989974618458984
 40
0.5989974618458984
 40
0.5989974618458984
 40
0.5989974618458984
 40
1.0
 40
1.0
 40
1.0
 40
1.0
 10
1.658393565785504
 20
2.764566122378325
 30
0.0
 10
1.655106979902012
 20
2.766369742975616
 30
0.0
 10
1.651448872789986
 20
2.767434889928787
 30
0.0
 10
1.647570070628667
 20
2.767573005585512
 30
0.0
  0
SPLINE
  5
6C3
330
23
100
AcDbEntity
  8
0
100
AcDbSpline
210
0.0
220
0.0
230
1.0
 70
     8
 71
     3
 72
     8
 73
     4
 74
     0
 42
0.0000000001
 43
0.0000000001
 40
1.0
 40
1.0
 40
1.0
 40
1.0
 40
2.0
 40
2.0
 40
2.0
 40
2.0
 10
1.647570070628667
 20
2.767573005585512
 30
0.0
 10
1.632364843489178
 20
2.768109968344684
 30
0.0
 10
1.619551906013681
 20
2.754233872424006
 30
0.0
 10
1.618919206302324
 20
2.736579025053277
 30
0.0
  0
SPLINE
  5
6C4
330
23
100
AcDbEntity
  8
0
100
AcDbSpline
210
0.0
220
0.0
230
1.0
 70
     8
 71
     3
 72
     8
 73
     4
 74
     0
 42
0.0000000001
 43
0.0000000001
 40
2.0
 40
2.0
 40
2.0
 40
2.0
 40
3.0
 40
3.0
 40
3.0
 40
3.0
 10
1.618919206302324
 20
2.736579025053277
 30
0.0
 10
1.618297037962019
 20
2.718920556117666
 30
0.0
 10
1.630100769416152
 20
2.704163431866607
 30
0.0
 10
1.645726443647139
 20
2.704906600419913
 30
0.0
  0
SPLINE
  5
6C5
330
23
100
AcDbEntity
  8
0
100
AcDbSpline
210
0.0
220
0.0
230
1.0
 70
     8
 71
     3
 72
     8
 73
     4
 74
     0
 42
0.0000000001
 43
0.0000000001
 40
1.0
 40
1.0
 40
1.0
 40
1.0
 40
2.0
 40
2.0
 40
2.0
 40
2.0
 10
1.768890178068959
 20
2.611374507760746
 30
0.0
 10
1.764332883397009
 20
2.615253633582703
 30
0.0
 10
1.759002476236068
 20
2.618088379375671
 30
0.0
 10
1.752926083340136
 20
2.619119196027659
 30
0.0
  0
SPLINE
  5
6C6
330
23
100
AcDbEntity
  8
0
100
AcDbSpline
210
0.0
220
0.0
230
1.0
 70
     8
 71
     3
 72
     8
 73
     4
 74
     0
 42
0.0000000001
 43
0.0000000001
 40
2.0
 40
2.0
 40
2.0
 40
2.0
 40
3.0
 40
3.0
 40
3.0
 40
3.0
 10
1.752926083340136
 20
2.619119196027659
 30
0.0
 10
1.732499637578363
 20
2.622577857162621
 30
0.0
 10
1.712710670535583
 20
2.606152607615804
 30
0.0
 10
1.708682347566628
 20
2.582437042931567
 30
0.0
  0
SPLINE
  5
6C7
330
23
100
AcDbEntity
  8
0
100
AcDbSpline
210
0.0
220
0.0
230
1.0
 70
     8
 71
     3
 72
     8
 73
     4
 74
     0
 42
0.0000000001
 43
0.0000000001
 40
3.0
 40
3.0
 40
3.0
 40
3.0
 40
4.0
 40
4.0
 40
4.0
 40
4.0
 10
1.708682347566628
 20
2.582437042931567
 30
0.0
 10
1.705305066693665
 20
2.56247175198779
 30
0.0
 10
1.714256895513566
 20
2.543849235366997
 30
0.0
 10
1.729312243983398
 20
2.53633512450908
 30
0.0
  0
SPLINE
  5
6C8
330
23
100
AcDbEntity
  8
0
100
AcDbSpline
210
0.0
220
0.0
230
1.0
 70
     8
 71
     3
 72
     8
 73
     4
 74
     0
 42
0.0000000001
 43
0.0000000001
 40
5.0
 40
5.0
 40
5.0
 40
5.0
 40
6.0
 40
6.0
 40
6.0
 40
6.0
 10
1.745289902089221
 20
2.528583654553667
 30
0.0
 10
1.754133223893122
 20
2.527084901395183
 30
0.0
 10
1.762773095042026
 20
2.529485619124157
 30
0.0
 10
1.770165135506944
 20
2.534429470040601
 30
0.0
  0
SPLINE
  5
6C9
330
23
100
AcDbEntity
  8
0
100
AcDbSpline
210
0.0
220
0.0
230
1.0
 70
     8
 71
     3
 72
     8
 73
     4
 74
     0
 42
0.0000000001
 43
0.0000000001
 40
0.0
 40
0.0
 40
0.0
 40
0.0
 40
1.0
 40
1.0
 40
1.0
 40
1.0
 10
1.787539821443751
 20
2.589639196118488
 30
0.0
 10
1.782955400017802
 20
2.602544749333844
 30
0.0
 10
1.772850684152914
 20
2.612283254019736
 30
0.0
 10
1.759856968987059
 20
2.614487302782211
 30
0.0
  0
SPLINE
  5
6CA
330
23
100
AcDbEntity
  8
0
100
AcDbSpline
210
0.0
220
0.0
230
1.0
 70
     8
 71
     3
 72
     8
 73
     4
 74
     0
 42
0.0000000001
 43
0.0000000001
 40
1.0
 40
1.0
 40
1.0
 40
1.0
 40
2.0
 40
2.0
 40
2.0
 40
2.0
 10
1.759856968987059
 20
2.614487302782211
 30
0.0
 10
1.739430523225286
 20
2.617945963917173
 30
0.0
 10
1.719641556182506
 20
2.601520714370356
 30
0.0
 10
1.715613233213551
 20
2.577805149686119
 30
0.0
  0
SPLINE
  5
6CB
330
23
100
AcDbEntity
  8
0
100
AcDbSpline
210
0.0
220
0.0
230
1.0
 70
     8
 71
     3
 72
     8
 73
     4
 74
     0
 42
0.0000000001
 43
0.0000000001
 40
2.0
 40
2.0
 40
2.0
 40
2.0
 40
3.0
 40
3.0
 40
3.0
 40
3.0
 10
1.715613233213551
 20
2.577805149686119
 30
0.0
 10
1.711598473621595
 20
2.554082803313383
 30
0.0
 10
1.724877019704448
 20
2.532042315688628
 30
0.0
 10
1.745289902089221
 20
2.528583654553667
 30
0.0
  0
SPLINE
  5
6CC
330
23
100
AcDbEntity
  8
0
100
AcDbSpline
210
0.0
220
0.0
230
1.0
 70
     8
 71
     3
 72
     8
 73
     4
 74
     0
 42
0.0000000001
 43
0.0000000001
 40
0.0
 40
0.0
 40
0.0
 40
0.0
 40
1.0
 40
1.0
 40
1.0
 40
1.0
 10
1.787539821443751
 20
2.589639196118488
 30
0.0
 10
1.77922383105958
 20
2.5944754104739
 30
0.0
 10
1.766135172254725
 20
2.600104211928838
 30
0.0
 10
1.761021779125783
 20
2.600972268056828
 30
0.0
  0
SPLINE
  5
6CD
330
23
100
AcDbEntity
  8
0
100
AcDbSpline
210
0.0
220
0.0
230
1.0
 70
     8
 71
     3
 72
     8
 73
     4
 74
     0
 42
0.0000000001
 43
0.0000000001
 40
1.0
 40
1.0
 40
1.0
 40
1.0
 40
2.0
 40
2.0
 40
2.0
 40
2.0
 10
1.761021779125783
 20
2.600972268056828
 30
0.0
 10
1.746725979767942
 20
2.603393330851302
 30
0.0
 10
1.732877771851095
 20
2.591891587155429
 30
0.0
 10
1.730070152812127
 20
2.575290013707614
 30
0.0
  0
SPLINE
  5
6CE
330
23
100
AcDbEntity
  8
0
100
AcDbSpline
210
0.0
220
0.0
230
1.0
 70
     8
 71
     3
 72
     8
 73
     4
 74
     0
 42
0.0000000001
 43
0.0000000001
 40
2.0
 40
2.0
 40
2.0
 40
2.0
 40
3.0
 40
3.0
 40
3.0
 40
3.0
 10
1.730070152812127
 20
2.575290013707614
 30
0.0
 10
1.727248970396158
 20
2.558688440259799
 30
0.0
 10
1.736553447018054
 20
2.54326009892247
 30
0.0
 10
1.750835682998896
 20
2.540839036127997
 30
0.0
  0
SPLINE
  5
6CF
330
23
100
AcDbEntity
  8
0
100
AcDbSpline
210
0.0
220
0.0
230
1.0
 70
     8
 71
     3
 72
     8
 73
     4
 74
     0
 42
0.0000000001
 43
0.0000000001
 40
3.0
 40
3.0
 40
3.0
 40
3.0
 40
4.0
 40
4.0
 40
4.0
 40
4.0
 10
1.750835682998896
 20
2.540839036127997
 30
0.0
 10
1.753466978136867
 20
2.540391444687002
 30
0.0
 10
1.766555636941721
 20
2.534762643232065
 30
0.0
 10
1.771669030070664
 20
2.533894587104074
 30
0.0
  0
SPLINE
  5
6D0
330
23
100
AcDbEntity
  8
0
100
AcDbSpline
210
0.0
220
0.0
230
1.0
 70
     8
 71
     3
 72
     8
 73
     4
 74
     0
 42
0.0000000001
 43
0.0000000001
 40
1.0
 40
1.0
 40
1.0
 40
1.0
 40
2.0
 40
2.0
 40
2.0
 40
2.0
 10
1.768890178068959
 20
2.611374507760746
 30
0.0
 10
1.764332883397009
 20
2.615253633582703
 30
0.0
 10
1.759002476236068
 20
2.618088379375671
 30
0.0
 10
1.752926083340136
 20
2.619119196027659
 30
0.0
  0
SPLINE
  5
6D1
330
23
100
AcDbEntity
  8
0
100
AcDbSpline
210
0.0
220
0.0
230
1.0
 70
     8
 71
     3
 72
     8
 73
     4
 74
     0
 42
0.0000000001
 43
0.0000000001
 40
2.0
 40
2.0
 40
2.0
 40
2.0
 40
3.0
 40
3.0
 40
3.0
 40
3.0
 10
1.752926083340136
 20
2.619119196027659
 30
0.0
 10
1.732499637578363
 20
2.622577857162621
 30
0.0
 10
1.712710670535583
 20
2.606152607615804
 30
0.0
 10
1.708682347566628
 20
2.582437042931567
 30
0.0
  0
SPLINE
  5
6D2
330
23
100
AcDbEntity
  8
0
100
AcDbSpline
210
0.0
220
0.0
230
1.0
 70
     8
 71
     3
 72
     8
 73
     4
 74
     0
 42
0.0000000001
 43
0.0000000001
 40
3.0
 40
3.0
 40
3.0
 40
3.0
 40
4.0
 40
4.0
 40
4.0
 40
4.0
 10
1.708682347566628
 20
2.582437042931567
 30
0.0
 10
1.705305066693665
 20
2.56247175198779
 30
0.0
 10
1.714256895513566
 20
2.543849235366997
 30
0.0
 10
1.729312243983398
 20
2.53633512450908
 30
0.0
  0
SPLINE
  5
6D3
330
23
100
AcDbEntity
  8
0
100
AcDbSpline
210
0.0
220
0.0
230
1.0
 70
     8
 71
     3
 72
    14
 73
    10
 74
     0
 42
0.0000000001
 43
0.0000000001
 40
0.0
 40
0.0
 40
0.0
 40
0.0
 40
1.0
 40
1.0
 40
1.0
 40
2.0
 40
2.0
 40
2.0
 40
3.0
 40
3.0
 40
3.0
 40
3.0
 10
1.750861155361448
 20
2.567456950657566
 30
0.0
 10
1.748175606715478
 20
2.551682743206741
 30
0.0
 10
1.75701892851938
 20
2.537027514358404
 30
0.0
 10
1.770582305519229
 20
2.53472852195693
 30
0.0
 10
1.784145682519078
 20
2.532429529555455
 30
0.0
 10
1.797329284962931
 20
2.543348048040333
 30
0.0
 10
1.800001270231902
 20
2.559122255491158
 30
0.0
 10
1.802673255500872
 20
2.574896462941983
 30
0.0
 10
1.79384349707397
 20
2.58955169179032
 30
0.0
 10
1.780266556697121
 20
2.591857465880294
 30
0.0
  0
SPLINE
  5
6D4
330
23
100
AcDbEntity
  8
0
100
AcDbSpline
210
0.0
220
0.0
230
1.0
 70
     8
 71
     3
 72
     8
 73
     4
 74
     0
 42
0.0000000001
 43
0.0000000001
 40
3.0
 40
3.0
 40
3.0
 40
3.0
 40
4.0
 40
4.0
 40
4.0
 40
4.0
 10
1.780266556697121
 20
2.591857465880294
 30
0.0
 10
1.766676052943272
 20
2.594156458281769
 30
0.0
 10
1.753519577253419
 20
2.58323115810839
 30
0.0
 10
1.750861155361448
 20
2.567456950657566
 30
0.0
  0
LINE
  5
6D5
330
23
100
AcDbEntity
  8
0
100
AcDbLine
 10
1.739388192811023
 20
2.593295396674914
 30
0.0
 11
1.761713511352775
 21
2.585991518160495
 31
0.0
  0
LINE
  5
6D6
330
23
100
AcDbEntity
  8
0
100
AcDbLine
 10
1.730463490745122
 20
2.565700706168721
 30
0.0
 11
1.751161204046892
 21
2.557176123724315
 31
0.0
  0
SPLINE
  5
6D7
330
23
100
AcDbEntity
  8
0
100
AcDbSpline
210
0.0
220
0.0
230
1.0
 70
     8
 71
     3
 72
     8
 73
     4
 74
     0
 42
0.0000000001
 43
0.0000000001
 40
0.5989974618458984
 40
0.5989974618458984
 40
0.5989974618458984
 40
0.5989974618458984
 40
1.0
 40
1.0
 40
1.0
 40
1.0
 10
1.766537250947865
 20
2.599379919413215
 30
0.0
 10
1.763250665064373
 20
2.601183540010506
 30
0.0
 10
1.759592557952347
 20
2.602248686963677
 30
0.0
 10
1.755713755791028
 20
2.602386802620402
 30
0.0
  0
SPLINE
  5
6D8
330
23
100
AcDbEntity
  8
0
100
AcDbSpline
210
0.0
220
0.0
230
1.0
 70
     8
 71
     3
 72
     8
 73
     4
 74
     0
 42
0.0000000001
 43
0.0000000001
 40
1.0
 40
1.0
 40
1.0
 40
1.0
 40
2.0
 40
2.0
 40
2.0
 40
2.0
 10
1.755713755791028
 20
2.602386802620402
 30
0.0
 10
1.740508528651539
 20
2.602923765379575
 30
0.0
 10
1.727695591176041
 20
2.589047669458896
 30
0.0
 10
1.727062891464684
 20
2.571392822088167
 30
0.0
  0
SPLINE
  5
6D9
330
23
100
AcDbEntity
  8
0
100
AcDbSpline
210
0.0
220
0.0
230
1.0
 70
     8
 71
     3
 72
     8
 73
     4
 74
     0
 42
0.0000000001
 43
0.0000000001
 40
2.0
 40
2.0
 40
2.0
 40
2.0
 40
3.0
 40
3.0
 40
3.0
 40
3.0
 10
1.727062891464684
 20
2.571392822088167
 30
0.0
 10
1.726440723124379
 20
2.553734353152557
 30
0.0
 10
1.738244454578512
 20
2.538977228901497
 30
0.0
 10
1.7538701288095
 20
2.539720397454803
 30
0.0
  0
SPLINE
  5
6DA
330
23
100
AcDbEntity
  8
0
100
AcDbSpline
210
0.0
220
0.0
230
1.0
 70
     8
 71
     3
 72
     8
 73
     4
 74
     0
 42
0.0000000001
 43
0.0000000001
 40
1.0
 40
1.0
 40
1.0
 40
1.0
 40
2.0
 40
2.0
 40
2.0
 40
2.0
 10
1.50373006078472
 20
2.748510229295401
 30
0.0
 10
1.49917276611277
 20
2.752389355117358
 30
0.0
 10
1.493842358951829
 20
2.755224100910326
 30
0.0
 10
1.487765966055897
 20
2.756254917562314
 30
0.0
  0
SPLINE
  5
6DB
330
23
100
AcDbEntity
  8
0
100
AcDbSpline
210
0.0
220
0.0
230
1.0
 70
     8
 71
     3
 72
     8
 73
     4
 74
     0
 42
0.0000000001
 43
0.0000000001
 40
2.0
 40
2.0
 40
2.0
 40
2.0
 40
3.0
 40
3.0
 40
3.0
 40
3.0
 10
1.487765966055897
 20
2.756254917562314
 30
0.0
 10
1.467339520294124
 20
2.759713578697276
 30
0.0
 10
1.447550553251344
 20
2.743288329150459
 30
0.0
 10
1.443522230282389
 20
2.719572764466222
 30
0.0
  0
SPLINE
  5
6DC
330
23
100
AcDbEntity
  8
0
100
AcDbSpline
210
0.0
220
0.0
230
1.0
 70
     8
 71
     3
 72
     8
 73
     4
 74
     0
 42
0.0000000001
 43
0.0000000001
 40
3.0
 40
3.0
 40
3.0
 40
3.0
 40
4.0
 40
4.0
 40
4.0
 40
4.0
 10
1.443522230282389
 20
2.719572764466222
 30
0.0
 10
1.440144949409427
 20
2.699607473522445
 30
0.0
 10
1.449096778229326
 20
2.680984956901652
 30
0.0
 10
1.464152126699159
 20
2.673470846043735
 30
0.0
  0
SPLINE
  5
6DD
330
23
100
AcDbEntity
  8
0
100
AcDbSpline
210
0.0
220
0.0
230
1.0
 70
     8
 71
     3
 72
     8
 73
     4
 74
     0
 42
0.0000000001
 43
0.0000000001
 40
5.0
 40
5.0
 40
5.0
 40
5.0
 40
6.0
 40
6.0
 40
6.0
 40
6.0
 10
1.480129784804982
 20
2.665719376088322
 30
0.0
 10
1.488973106608883
 20
2.664220622929838
 30
0.0
 10
1.497612977757787
 20
2.666621340658812
 30
0.0
 10
1.505005018222705
 20
2.671565191575256
 30
0.0
  0
SPLINE
  5
6DE
330
23
100
AcDbEntity
  8
0
100
AcDbSpline
210
0.0
220
0.0
230
1.0
 70
     8
 71
     3
 72
     8
 73
     4
 74
     0
 42
0.0000000001
 43
0.0000000001
 40
0.0
 40
0.0
 40
0.0
 40
0.0
 40
1.0
 40
1.0
 40
1.0
 40
1.0
 10
1.522379704159512
 20
2.726774917653143
 30
0.0
 10
1.517795282733563
 20
2.739680470868499
 30
0.0
 10
1.507690566868675
 20
2.749418975554391
 30
0.0
 10
1.49469685170282
 20
2.751623024316866
 30
0.0
  0
SPLINE
  5
6DF
330
23
100
AcDbEntity
  8
0
100
AcDbSpline
210
0.0
220
0.0
230
1.0
 70
     8
 71
     3
 72
     8
 73
     4
 74
     0
 42
0.0000000001
 43
0.0000000001
 40
1.0
 40
1.0
 40
1.0
 40
1.0
 40
2.0
 40
2.0
 40
2.0
 40
2.0
 10
1.49469685170282
 20
2.751623024316866
 30
0.0
 10
1.474270405941047
 20
2.755081685451827
 30
0.0
 10
1.454481438898267
 20
2.738656435905011
 30
0.0
 10
1.450453115929312
 20
2.714940871220774
 30
0.0
  0
SPLINE
  5
6E0
330
23
100
AcDbEntity
  8
0
100
AcDbSpline
210
0.0
220
0.0
230
1.0
 70
     8
 71
     3
 72
     8
 73
     4
 74
     0
 42
0.0000000001
 43
0.0000000001
 40
2.0
 40
2.0
 40
2.0
 40
2.0
 40
3.0
 40
3.0
 40
3.0
 40
3.0
 10
1.450453115929312
 20
2.714940871220774
 30
0.0
 10
1.446438356337356
 20
2.691218524848038
 30
0.0
 10
1.459716902420209
 20
2.669178037223283
 30
0.0
 10
1.480129784804982
 20
2.665719376088322
 30
0.0
  0
SPLINE
  5
6E1
330
23
100
AcDbEntity
  8
0
100
AcDbSpline
210
0.0
220
0.0
230
1.0
 70
     8
 71
     3
 72
     8
 73
     4
 74
     0
 42
0.0000000001
 43
0.0000000001
 40
0.0
 40
0.0
 40
0.0
 40
0.0
 40
1.0
 40
1.0
 40
1.0
 40
1.0
 10
1.522379704159512
 20
2.726774917653143
 30
0.0
 10
1.514063713775341
 20
2.731611132008555
 30
0.0
 10
1.500975054970486
 20
2.737239933463493
 30
0.0
 10
1.495861661841544
 20
2.738107989591483
 30
0.0
  0
SPLINE
  5
6E2
330
23
100
AcDbEntity
  8
0
100
AcDbSpline
210
0.0
220
0.0
230
1.0
 70
     8
 71
     3
 72
     8
 73
     4
 74
     0
 42
0.0000000001
 43
0.0000000001
 40
1.0
 40
1.0
 40
1.0
 40
1.0
 40
2.0
 40
2.0
 40
2.0
 40
2.0
 10
1.495861661841544
 20
2.738107989591483
 30
0.0
 10
1.481565862483703
 20
2.740529052385957
 30
0.0
 10
1.467717654566856
 20
2.729027308690084
 30
0.0
 10
1.464910035527888
 20
2.712425735242269
 30
0.0
  0
SPLINE
  5
6E3
330
23
100
AcDbEntity
  8
0
100
AcDbSpline
210
0.0
220
0.0
230
1.0
 70
     8
 71
     3
 72
     8
 73
     4
 74
     0
 42
0.0000000001
 43
0.0000000001
 40
2.0
 40
2.0
 40
2.0
 40
2.0
 40
3.0
 40
3.0
 40
3.0
 40
3.0
 10
1.464910035527888
 20
2.712425735242269
 30
0.0
 10
1.462088853111919
 20
2.695824161794453
 30
0.0
 10
1.471393329733815
 20
2.680395820457125
 30
0.0
 10
1.485675565714657
 20
2.677974757662652
 30
0.0
  0
SPLINE
  5
6E4
330
23
100
AcDbEntity
  8
0
100
AcDbSpline
210
0.0
220
0.0
230
1.0
 70
     8
 71
     3
 72
     8
 73
     4
 74
     0
 42
0.0000000001
 43
0.0000000001
 40
3.0
 40
3.0
 40
3.0
 40
3.0
 40
4.0
 40
4.0
 40
4.0
 40
4.0
 10
1.485675565714657
 20
2.677974757662652
 30
0.0
 10
1.488306860852627
 20
2.677527166221656
 30
0.0
 10
1.501395519657482
 20
2.67189836476672
 30
0.0
 10
1.506508912786425
 20
2.671030308638729
 30
0.0
  0
SPLINE
  5
6E5
330
23
100
AcDbEntity
  8
0
100
AcDbSpline
210
0.0
220
0.0
230
1.0
 70
     8
 71
     3
 72
     8
 73
     4
 74
     0
 42
0.0000000001
 43
0.0000000001
 40
1.0
 40
1.0
 40
1.0
 40
1.0
 40
2.0
 40
2.0
 40
2.0
 40
2.0
 10
1.50373006078472
 20
2.748510229295401
 30
0.0
 10
1.49917276611277
 20
2.752389355117358
 30
0.0
 10
1.493842358951829
 20
2.755224100910326
 30
0.0
 10
1.487765966055897
 20
2.756254917562314
 30
0.0
  0
SPLINE
  5
6E6
330
23
100
AcDbEntity
  8
0
100
AcDbSpline
210
0.0
220
0.0
230
1.0
 70
     8
 71
     3
 72
     8
 73
     4
 74
     0
 42
0.0000000001
 43
0.0000000001
 40
2.0
 40
2.0
 40
2.0
 40
2.0
 40
3.0
 40
3.0
 40
3.0
 40
3.0
 10
1.487765966055897
 20
2.756254917562314
 30
0.0
 10
1.467339520294124
 20
2.759713578697276
 30
0.0
 10
1.447550553251344
 20
2.743288329150459
 30
0.0
 10
1.443522230282389
 20
2.719572764466222
 30
0.0
  0
SPLINE
  5
6E7
330
23
100
AcDbEntity
  8
0
100
AcDbSpline
210
0.0
220
0.0
230
1.0
 70
     8
 71
     3
 72
     8
 73
     4
 74
     0
 42
0.0000000001
 43
0.0000000001
 40
3.0
 40
3.0
 40
3.0
 40
3.0
 40
4.0
 40
4.0
 40
4.0
 40
4.0
 10
1.443522230282389
 20
2.719572764466222
 30
0.0
 10
1.440144949409427
 20
2.699607473522445
 30
0.0
 10
1.449096778229326
 20
2.680984956901652
 30
0.0
 10
1.464152126699159
 20
2.673470846043735
 30
0.0
  0
SPLINE
  5
6E8
330
23
100
AcDbEntity
  8
0
100
AcDbSpline
210
0.0
220
0.0
230
1.0
 70
     8
 71
     3
 72
    14
 73
    10
 74
     0
 42
0.0000000001
 43
0.0000000001
 40
0.0
 40
0.0
 40
0.0
 40
0.0
 40
1.0
 40
1.0
 40
1.0
 40
2.0
 40
2.0
 40
2.0
 40
3.0
 40
3.0
 40
3.0
 40
3.0
 10
1.485701038077209
 20
2.70459267219222
 30
0.0
 10
1.48301548943124
 20
2.688818464741396
 30
0.0
 10
1.491858811235141
 20
2.674163235893059
 30
0.0
 10
1.50542218823499
 20
2.671864243491585
 30
0.0
 10
1.518985565234839
 20
2.66956525109011
 30
0.0
 10
1.532169167678693
 20
2.680483769574988
 30
0.0
 10
1.534841152947663
 20
2.696257977025813
 30
0.0
 10
1.537513138216633
 20
2.712032184476638
 30
0.0
 10
1.528683379789731
 20
2.726687413324975
 30
0.0
 10
1.515106439412882
 20
2.728993187414949
 30
0.0
  0
SPLINE
  5
6E9
330
23
100
AcDbEntity
  8
0
100
AcDbSpline
210
0.0
220
0.0
230
1.0
 70
     8
 71
     3
 72
     8
 73
     4
 74
     0
 42
0.0000000001
 43
0.0000000001
 40
3.0
 40
3.0
 40
3.0
 40
3.0
 40
4.0
 40
4.0
 40
4.0
 40
4.0
 10
1.515106439412882
 20
2.728993187414949
 30
0.0
 10
1.501515935659033
 20
2.731292179816424
 30
0.0
 10
1.488359459969179
 20
2.720366879643045
 30
0.0
 10
1.485701038077209
 20
2.70459267219222
 30
0.0
  0
LINE
  5
6EA
330
23
100
AcDbEntity
  8
0
100
AcDbLine
 10
1.474228075526784
 20
2.730431118209569
 30
0.0
 11
1.496553394068536
 21
2.72312723969515
 31
0.0
  0
LINE
  5
6EB
330
23
100
AcDbEntity
  8
0
100
AcDbLine
 10
1.465303373460883
 20
2.702836427703375
 30
0.0
 11
1.486001086762653
 21
2.69431184525897
 31
0.0
  0
SPLINE
  5
6EC
330
23
100
AcDbEntity
  8
0
100
AcDbSpline
210
0.0
220
0.0
230
1.0
 70
     8
 71
     3
 72
     8
 73
     4
 74
     0
 42
0.0000000001
 43
0.0000000001
 40
0.5989974618458984
 40
0.5989974618458984
 40
0.5989974618458984
 40
0.5989974618458984
 40
1.0
 40
1.0
 40
1.0
 40
1.0
 10
1.501377133663626
 20
2.73651564094787
 30
0.0
 10
1.498090547780134
 20
2.738319261545161
 30
0.0
 10
1.494432440668108
 20
2.739384408498332
 30
0.0
 10
1.490553638506789
 20
2.739522524155057
 30
0.0
  0
SPLINE
  5
6ED
330
23
100
AcDbEntity
  8
0
100
AcDbSpline
210
0.0
220
0.0
230
1.0
 70
     8
 71
     3
 72
     8
 73
     4
 74
     0
 42
0.0000000001
 43
0.0000000001
 40
1.0
 40
1.0
 40
1.0
 40
1.0
 40
2.0
 40
2.0
 40
2.0
 40
2.0
 10
1.490553638506789
 20
2.739522524155057
 30
0.0
 10
1.4753484113673
 20
2.740059486914229
 30
0.0
 10
1.462535473891802
 20
2.726183390993551
 30
0.0
 10
1.461902774180445
 20
2.708528543622822
 30
0.0
  0
SPLINE
  5
6EE
330
23
100
AcDbEntity
  8
0
100
AcDbSpline
210
0.0
220
0.0
230
1.0
 70
     8
 71
     3
 72
     8
 73
     4
 74
     0
 42
0.0000000001
 43
0.0000000001
 40
2.0
 40
2.0
 40
2.0
 40
2.0
 40
3.0
 40
3.0
 40
3.0
 40
3.0
 10
1.461902774180445
 20
2.708528543622822
 30
0.0
 10
1.46128060584014
 20
2.690870074687211
 30
0.0
 10
1.473084337294274
 20
2.676112950436152
 30
0.0
 10
1.488710011525261
 20
2.676856118989458
 30
0.0
  0
SPLINE
  5
6EF
330
23
100
AcDbEntity
  8
0
100
AcDbSpline
210
0.0
220
0.0
230
1.0
 70
     8
 71
     3
 72
     8
 73
     4
 74
     0
 42
0.0000000001
 43
0.0000000001
 40
1.0
 40
1.0
 40
1.0
 40
1.0
 40
2.0
 40
2.0
 40
2.0
 40
2.0
 10
1.382038494868227
 20
2.523585861626503
 30
0.0
 10
1.377481200196278
 20
2.52746498744846
 30
0.0
 10
1.372150793035337
 20
2.530299733241428
 30
0.0
 10
1.366074400139405
 20
2.531330549893417
 30
0.0
  0
SPLINE
  5
6F0
330
23
100
AcDbEntity
  8
0
100
AcDbSpline
210
0.0
220
0.0
230
1.0
 70
     8
 71
     3
 72
     8
 73
     4
 74
     0
 42
0.0000000001
 43
0.0000000001
 40
2.0
 40
2.0
 40
2.0
 40
2.0
 40
3.0
 40
3.0
 40
3.0
 40
3.0
 10
1.366074400139405
 20
2.531330549893417
 30
0.0
 10
1.345647954377632
 20
2.534789211028378
 30
0.0
 10
1.325858987334851
 20
2.518363961481561
 30
0.0
 10
1.321830664365896
 20
2.494648396797325
 30
0.0
  0
SPLINE
  5
6F1
330
23
100
AcDbEntity
  8
0
100
AcDbSpline
210
0.0
220
0.0
230
1.0
 70
     8
 71
     3
 72
     8
 73
     4
 74
     0
 42
0.0000000001
 43
0.0000000001
 40
3.0
 40
3.0
 40
3.0
 40
3.0
 40
4.0
 40
4.0
 40
4.0
 40
4.0
 10
1.321830664365896
 20
2.494648396797325
 30
0.0
 10
1.318453383492934
 20
2.474683105853547
 30
0.0
 10
1.327405212312834
 20
2.456060589232754
 30
0.0
 10
1.342460560782667
 20
2.448546478374837
 30
0.0
  0
SPLINE
  5
6F2
330
23
100
AcDbEntity
  8
0
100
AcDbSpline
210
0.0
220
0.0
230
1.0
 70
     8
 71
     3
 72
     8
 73
     4
 74
     0
 42
0.0000000001
 43
0.0000000001
 40
5.0
 40
5.0
 40
5.0
 40
5.0
 40
6.0
 40
6.0
 40
6.0
 40
6.0
 10
1.358438218888489
 20
2.440795008419424
 30
0.0
 10
1.367281540692391
 20
2.43929625526094
 30
0.0
 10
1.375921411841294
 20
2.441696972989914
 30
0.0
 10
1.383313452306212
 20
2.446640823906359
 30
0.0
  0
SPLINE
  5
6F3
330
23
100
AcDbEntity
  8
0
100
AcDbSpline
210
0.0
220
0.0
230
1.0
 70
     8
 71
     3
 72
     8
 73
     4
 74
     0
 42
0.0000000001
 43
0.0000000001
 40
0.0
 40
0.0
 40
0.0
 40
0.0
 40
1.0
 40
1.0
 40
1.0
 40
1.0
 10
1.400688138243019
 20
2.501850549984245
 30
0.0
 10
1.396103716817071
 20
2.514756103199601
 30
0.0
 10
1.385999000952182
 20
2.524494607885493
 30
0.0
 10
1.373005285786327
 20
2.526698656647969
 30
0.0
  0
SPLINE
  5
6F4
330
23
100
AcDbEntity
  8
0
100
AcDbSpline
210
0.0
220
0.0
230
1.0
 70
     8
 71
     3
 72
     8
 73
     4
 74
     0
 42
0.0000000001
 43
0.0000000001
 40
1.0
 40
1.0
 40
1.0
 40
1.0
 40
2.0
 40
2.0
 40
2.0
 40
2.0
 10
1.373005285786327
 20
2.526698656647969
 30
0.0
 10
1.352578840024554
 20
2.53015731778293
 30
0.0
 10
1.332789872981774
 20
2.513732068236113
 30
0.0
 10
1.328761550012819
 20
2.490016503551876
 30
0.0
  0
SPLINE
  5
6F5
330
23
100
AcDbEntity
  8
0
100
AcDbSpline
210
0.0
220
0.0
230
1.0
 70
     8
 71
     3
 72
     8
 73
     4
 74
     0
 42
0.0000000001
 43
0.0000000001
 40
2.0
 40
2.0
 40
2.0
 40
2.0
 40
3.0
 40
3.0
 40
3.0
 40
3.0
 10
1.328761550012819
 20
2.490016503551876
 30
0.0
 10
1.324746790420863
 20
2.46629415717914
 30
0.0
 10
1.338025336503717
 20
2.444253669554385
 30
0.0
 10
1.358438218888489
 20
2.440795008419424
 30
0.0
  0
SPLINE
  5
6F6
330
23
100
AcDbEntity
  8
0
100
AcDbSpline
210
0.0
220
0.0
230
1.0
 70
     8
 71
     3
 72
     8
 73
     4
 74
     0
 42
0.0000000001
 43
0.0000000001
 40
0.0
 40
0.0
 40
0.0
 40
0.0
 40
1.0
 40
1.0
 40
1.0
 40
1.0
 10
1.400688138243019
 20
2.501850549984245
 30
0.0
 10
1.392372147858849
 20
2.506686764339658
 30
0.0
 10
1.379283489053994
 20
2.512315565794595
 30
0.0
 10
1.374170095925051
 20
2.513183621922585
 30
0.0
  0
SPLINE
  5
6F7
330
23
100
AcDbEntity
  8
0
100
AcDbSpline
210
0.0
220
0.0
230
1.0
 70
     8
 71
     3
 72
     8
 73
     4
 74
     0
 42
0.0000000001
 43
0.0000000001
 40
1.0
 40
1.0
 40
1.0
 40
1.0
 40
2.0
 40
2.0
 40
2.0
 40
2.0
 10
1.374170095925051
 20
2.513183621922585
 30
0.0
 10
1.35987429656721
 20
2.515604684717059
 30
0.0
 10
1.346026088650364
 20
2.504102941021186
 30
0.0
 10
1.343218469611395
 20
2.487501367573371
 30
0.0
  0
SPLINE
  5
6F8
330
23
100
AcDbEntity
  8
0
100
AcDbSpline
210
0.0
220
0.0
230
1.0
 70
     8
 71
     3
 72
     8
 73
     4
 74
     0
 42
0.0000000001
 43
0.0000000001
 40
2.0
 40
2.0
 40
2.0
 40
2.0
 40
3.0
 40
3.0
 40
3.0
 40
3.0
 10
1.343218469611395
 20
2.487501367573371
 30
0.0
 10
1.340397287195427
 20
2.470899794125556
 30
0.0
 10
1.349701763817323
 20
2.455471452788227
 30
0.0
 10
1.363983999798164
 20
2.453050389993754
 30
0.0
  0
SPLINE
  5
6F9
330
23
100
AcDbEntity
  8
0
100
AcDbSpline
210
0.0
220
0.0
230
1.0
 70
     8
 71
     3
 72
     8
 73
     4
 74
     0
 42
0.0000000001
 43
0.0000000001
 40
3.0
 40
3.0
 40
3.0
 40
3.0
 40
4.0
 40
4.0
 40
4.0
 40
4.0
 10
1.363983999798164
 20
2.453050389993754
 30
0.0
 10
1.366615294936135
 20
2.452602798552759
 30
0.0
 10
1.379703953740989
 20
2.446973997097822
 30
0.0
 10
1.384817346869933
 20
2.446105940969831
 30
0.0
  0
SPLINE
  5
6FA
330
23
100
AcDbEntity
  8
0
100
AcDbSpline
210
0.0
220
0.0
230
1.0
 70
     8
 71
     3
 72
     8
 73
     4
 74
     0
 42
0.0000000001
 43
0.0000000001
 40
1.0
 40
1.0
 40
1.0
 40
1.0
 40
2.0
 40
2.0
 40
2.0
 40
2.0
 10
1.382038494868227
 20
2.523585861626503
 30
0.0
 10
1.377481200196278
 20
2.52746498744846
 30
0.0
 10
1.372150793035337
 20
2.530299733241428
 30
0.0
 10
1.366074400139405
 20
2.531330549893417
 30
0.0
  0
SPLINE
  5
6FB
330
23
100
AcDbEntity
  8
0
100
AcDbSpline
210
0.0
220
0.0
230
1.0
 70
     8
 71
     3
 72
     8
 73
     4
 74
     0
 42
0.0000000001
 43
0.0000000001
 40
2.0
 40
2.0
 40
2.0
 40
2.0
 40
3.0
 40
3.0
 40
3.0
 40
3.0
 10
1.366074400139405
 20
2.531330549893417
 30
0.0
 10
1.345647954377632
 20
2.534789211028378
 30
0.0
 10
1.325858987334851
 20
2.518363961481561
 30
0.0
 10
1.321830664365896
 20
2.494648396797325
 30
0.0
  0
SPLINE
  5
6FC
330
23
100
AcDbEntity
  8
0
100
AcDbSpline
210
0.0
220
0.0
230
1.0
 70
     8
 71
     3
 72
     8
 73
     4
 74
     0
 42
0.0000000001
 43
0.0000000001
 40
3.0
 40
3.0
 40
3.0
 40
3.0
 40
4.0
 40
4.0
 40
4.0
 40
4.0
 10
1.321830664365896
 20
2.494648396797325
 30
0.0
 10
1.318453383492934
 20
2.474683105853547
 30
0.0
 10
1.327405212312834
 20
2.456060589232754
 30
0.0
 10
1.342460560782667
 20
2.448546478374837
 30
0.0
  0
SPLINE
  5
6FD
330
23
100
AcDbEntity
  8
0
100
AcDbSpline
210
0.0
220
0.0
230
1.0
 70
     8
 71
     3
 72
    14
 73
    10
 74
     0
 42
0.0000000001
 43
0.0000000001
 40
0.0
 40
0.0
 40
0.0
 40
0.0
 40
1.0
 40
1.0
 40
1.0
 40
2.0
 40
2.0
 40
2.0
 40
3.0
 40
3.0
 40
3.0
 40
3.0
 10
1.364009472160716
 20
2.479668304523323
 30
0.0
 10
1.361323923514747
 20
2.463894097072498
 30
0.0
 10
1.370167245318648
 20
2.449238868224161
 30
0.0
 10
1.383730622318497
 20
2.446939875822687
 30
0.0
 10
1.397293999318347
 20
2.444640883421212
 30
0.0
 10
1.4104776017622
 20
2.455559401906091
 30
0.0
 10
1.41314958703117
 20
2.471333609356916
 30
0.0
 10
1.41582157230014
 20
2.48710781680774
 30
0.0
 10
1.406991813873239
 20
2.501763045656077
 30
0.0
 10
1.39341487349639
 20
2.504068819746052
 30
0.0
  0
SPLINE
  5
6FE
330
23
100
AcDbEntity
  8
0
100
AcDbSpline
210
0.0
220
0.0
230
1.0
 70
     8
 71
     3
 72
     8
 73
     4
 74
     0
 42
0.0000000001
 43
0.0000000001
 40
3.0
 40
3.0
 40
3.0
 40
3.0
 40
4.0
 40
4.0
 40
4.0
 40
4.0
 10
1.39341487349639
 20
2.504068819746052
 30
0.0
 10
1.379824369742541
 20
2.506367812147526
 30
0.0
 10
1.366667894052687
 20
2.495442511974147
 30
0.0
 10
1.364009472160716
 20
2.479668304523323
 30
0.0
  0
LINE
  5
6FF
330
23
100
AcDbEntity
  8
0
100
AcDbLine
 10
1.352536509610292
 20
2.505506750540671
 30
0.0
 11
1.374861828152043
 21
2.498202872026252
 31
0.0
  0
LINE
  5
700
330
23
100
AcDbEntity
  8
0
100
AcDbLine
 10
1.343611807544391
 20
2.477912060034478
 30
0.0
 11
1.36430952084616
 21
2.469387477590073
 31
0.0
  0
SPLINE
  5
701
330
23
100
AcDbEntity
  8
0
100
AcDbSpline
210
0.0
220
0.0
230
1.0
 70
     8
 71
     3
 72
     8
 73
     4
 74
     0
 42
0.0000000001
 43
0.0000000001
 40
0.5989974618458984
 40
0.5989974618458984
 40
0.5989974618458984
 40
0.5989974618458984
 40
1.0
 40
1.0
 40
1.0
 40
1.0
 10
1.379685567747133
 20
2.511591273278972
 30
0.0
 10
1.376398981863641
 20
2.513394893876264
 30
0.0
 10
1.372740874751615
 20
2.514460040829435
 30
0.0
 10
1.368862072590297
 20
2.51459815648616
 30
0.0
  0
SPLINE
  5
702
330
23
100
AcDbEntity
  8
0
100
AcDbSpline
210
0.0
220
0.0
230
1.0
 70
     8
 71
     3
 72
     8
 73
     4
 74
     0
 42
0.0000000001
 43
0.0000000001
 40
1.0
 40
1.0
 40
1.0
 40
1.0
 40
2.0
 40
2.0
 40
2.0
 40
2.0
 10
1.368862072590297
 20
2.51459815648616
 30
0.0
 10
1.353656845450807
 20
2.515135119245332
 30
0.0
 10
1.34084390797531
 20
2.501259023324653
 30
0.0
 10
1.340211208263953
 20
2.483604175953924
 30
0.0
  0
SPLINE
  5
703
330
23
100
AcDbEntity
  8
0
100
AcDbSpline
210
0.0
220
0.0
230
1.0
 70
     8
 71
     3
 72
     8
 73
     4
 74
     0
 42
0.0000000001
 43
0.0000000001
 40
2.0
 40
2.0
 40
2.0
 40
2.0
 40
3.0
 40
3.0
 40
3.0
 40
3.0
 10
1.340211208263953
 20
2.483604175953924
 30
0.0
 10
1.339589039923648
 20
2.465945707018314
 30
0.0
 10
1.351392771377781
 20
2.451188582767255
 30
0.0
 10
1.367018445608768
 20
2.451931751320561
 30
0.0
  0
LINE
  5
711
330
23
100
AcDbEntity
  8
0
100
AcDbLine
 10
1.893399975505456
 20
1.902751906075727
 30
0.0
 11
1.907234620045302
 21
1.907105750092679
 31
0.0
  0
LINE
  5
714
330
23
100
AcDbEntity
  8
0
100
AcDbLine
 10
1.581171036968928
 20
1.809734266610761
 30
0.0
 11
1.592998301712797
 21
1.814088110627713
 31
0.0
  0
LINE
  5
715
330
23
100
AcDbEntity
  8
0
100
AcDbLine
 10
1.637594685288301
 20
1.751031970955414
 30
0.0
 11
1.637594685288301
 21
1.738987692179548
 31
0.0
  0
LINE
  5
716
330
23
100
AcDbEntity
  8
0
100
AcDbLine
 10
1.574470728731003
 20
3.237239005713887
 30
0.0
 11
1.592455766632803
 21
3.230308120066963
 31
0.0
  0
LINE
  5
717
330
23
100
AcDbEntity
  8
0
100
AcDbLine
 10
1.350505466020993
 20
3.230294556689964
 30
0.0
 11
1.364387582380339
 21
3.224191037040032
 31
0.0
  0
LINE
  5
718
330
23
100
AcDbEntity
  8
0
100
AcDbLine
 10
1.264337331940951
 20
3.118864632947703
 30
0.0
 11
1.278219448300297
 21
3.112761113297771
 31
0.0
  0
LINE
  5
719
330
23
100
AcDbEntity
  8
0
100
AcDbLine
 10
1.618293999817515
 20
1.892131781884845
 30
0.0
 11
1.618293999817515
 21
1.817465391500675
 31
0.0
  0
LINE
  5
71A
330
23
100
AcDbEntity
  8
0
100
AcDbLine
 10
1.716330088772425
 20
1.893908584271825
 30
0.0
 11
1.716330088772425
 21
1.826173079534579
 31
0.0
  0
SPLINE
  5
71B
330
23
100
AcDbEntity
  8
0
100
AcDbSpline
210
0.0
220
0.0
230
1.0
 70
     8
 71
     3
 72
     8
 73
     4
 74
     0
 42
0.0000000001
 43
0.0000000001
 40
0.0
 40
0.0
 40
0.0
 40
0.0
 40
1.0
 40
1.0
 40
1.0
 40
1.0
 10
1.745057321258106
 20
1.939725671777316
 30
0.0
 10
1.745057321258106
 20
1.939725671777316
 30
0.0
 10
1.719910820300385
 20
1.906386891111687
 30
0.0
 10
1.716330088772425
 20
1.893908584271825
 30
0.0
  0
SPLINE
  5
71C
330
23
100
AcDbEntity
  8
0
100
AcDbSpline
210
0.0
220
0.0
230
1.0
 70
     8
 71
     3
 72
     8
 73
     4
 74
     0
 42
0.0000000001
 43
0.0000000001
 40
1.0
 40
1.0
 40
1.0
 40
1.0
 40
2.0
 40
2.0
 40
2.0
 40
2.0
 10
1.716330088772425
 20
1.893908584271825
 30
0.0
 10
1.716330088772425
 20
1.893908584271825
 30
0.0
 10
1.65929608848806
 20
1.899279681563765
 30
0.0
 10
1.618293999817515
 20
1.892131781884845
 30
0.0
  0
SPLINE
  5
71D
330
23
100
AcDbEntity
  8
0
100
AcDbSpline
210
0.0
220
0.0
230
1.0
 70
     8
 71
     3
 72
     8
 73
     4
 74
     0
 42
0.0000000001
 43
0.0000000001
 40
2.0
 40
2.0
 40
2.0
 40
2.0
 40
3.0
 40
3.0
 40
3.0
 40
3.0
 10
1.618293999817515
 20
1.892131781884845
 30
0.0
 10
1.618293999817515
 20
1.892131781884845
 30
0.0
 10
1.602872440168687
 20
1.922554436495507
 30
0.0
 10
1.576369601510982
 20
1.93484285605737
 30
0.0
  0
SPLINE
  5
71E
330
23
100
AcDbEntity
  8
0
100
AcDbSpline
210
0.0
220
0.0
230
1.0
 70
     8
 71
     3
 72
    11
 73
     7
 74
     0
 42
0.0000000001
 43
0.0000000001
 40
0.0
 40
0.0
 40
0.0
 40
0.0
 40
1.0
 40
1.0
 40
1.0
 40
2.0
 40
2.0
 40
2.0
 40
2.0
 10
1.718147581290405
 20
1.934042616814379
 30
0.0
 10
1.718147581290405
 20
1.922717197019505
 30
0.0
 10
1.694181094131672
 20
1.913521227413607
 30
0.0
 10
1.664640059026
 20
1.913521227413607
 30
0.0
 10
1.635085460543329
 20
1.913521227413607
 30
0.0
 10
1.611132536761595
 20
1.922717197019505
 30
0.0
 10
1.611132536761595
 20
1.934042616814379
 30
0.0
  0
SPLINE
  5
71F
330
23
100
AcDbEntity
  8
0
100
AcDbSpline
210
0.0
220
0.0
230
1.0
 70
    24
 71
     3
 72
     8
 73
     4
 74
     0
 42
0.0000000001
 43
0.0000000001
 40
2.0
 40
2.0
 40
2.0
 40
2.0
 40
3.0
 40
3.0
 40
3.0
 40
3.0
 10
1.611132536761595
 20
1.934042616814379
 30
0.0
 10
1.611132536761595
 20
1.934042616814379
 30
0.0
 10
1.611132536761595
 20
2.019627525683427
 30
0.0
 10
1.611132536761595
 20
2.019627525683427
 30
0.0
  0
SPLINE
  5
720
330
23
100
AcDbEntity
  8
0
100
AcDbSpline
210
0.0
220
0.0
230
1.0
 70
     8
 71
     3
 72
    11
 73
     7
 74
     0
 42
0.0000000001
 43
0.0000000001
 40
3.0
 40
3.0
 40
3.0
 40
3.0
 40
4.0
 40
4.0
 40
4.0
 40
5.0
 40
5.0
 40
5.0
 40
5.0
 10
1.611132536761595
 20
2.019627525683427
 30
0.0
 10
1.611132536761595
 20
2.030966508855301
 30
0.0
 10
1.635085460543329
 20
2.040148915084199
 30
0.0
 10
1.664640059026
 20
2.040148915084199
 30
0.0
 10
1.694181094131672
 20
2.040148915084199
 30
0.0
 10
1.718147581290405
 20
2.030966508855301
 30
0.0
 10
1.718147581290405
 20
2.019627525683427
 30
0.0
  0
SPLINE
  5
721
330
23
100
AcDbEntity
  8
0
100
AcDbSpline
210
0.0
220
0.0
230
1.0
 70
    24
 71
     3
 72
     8
 73
     4
 74
     0
 42
0.0000000001
 43
0.0000000001
 40
5.0
 40
5.0
 40
5.0
 40
5.0
 40
6.0
 40
6.0
 40
6.0
 40
6.0
 10
1.718147581290405
 20
2.019627525683427
 30
0.0
 10
1.718147581290405
 20
2.019627525683427
 30
0.0
 10
1.718147581290405
 20
1.934042616814379
 30
0.0
 10
1.718147581290405
 20
1.934042616814379
 30
0.0
  0
SPLINE
  5
722
330
23
100
AcDbEntity
  8
0
100
AcDbSpline
210
0.0
220
0.0
230
1.0
 70
    24
 71
     3
 72
     8
 73
     4
 74
     0
 42
0.0000000001
 43
0.0000000001
 40
0.0
 40
0.0
 40
0.0
 40
0.0
 40
1.0
 40
1.0
 40
1.0
 40
1.0
 10
1.577522488555969
 20
1.937135066770344
 30
0.0
 10
1.577522488555969
 20
1.937135066770344
 30
0.0
 10
1.576098333970985
 20
1.864245478773155
 30
0.0
 10
1.576098333970985
 20
1.864245478773155
 30
0.0
  0
SPLINE
  5
723
330
23
100
AcDbEntity
  8
0
100
AcDbSpline
210
0.0
220
0.0
230
1.0
 70
    24
 71
     3
 72
     8
 73
     4
 74
     0
 42
0.0000000001
 43
0.0000000001
 40
1.0
 40
1.0
 40
1.0
 40
1.0
 40
2.0
 40
2.0
 40
2.0
 40
2.0
 10
1.576098333970985
 20
1.864245478773155
 30
0.0
 10
1.576098333970985
 20
1.864245478773155
 30
0.0
 10
1.58639293711387
 20
1.835179161862478
 30
0.0
 10
1.58639293711387
 20
1.835179161862478
 30
0.0
  0
SPLINE
  5
724
330
23
100
AcDbEntity
  8
0
100
AcDbSpline
210
0.0
220
0.0
230
1.0
 70
    24
 71
     3
 72
     8
 73
     4
 74
     0
 42
0.0000000001
 43
0.0000000001
 40
2.0
 40
2.0
 40
2.0
 40
2.0
 40
3.0
 40
3.0
 40
3.0
 40
3.0
 10
1.58639293711387
 20
1.835179161862478
 30
0.0
 10
1.58639293711387
 20
1.835179161862478
 30
0.0
 10
1.617710774606522
 20
1.817695968909673
 30
0.0
 10
1.617710774606522
 20
1.817695968909673
 30
0.0
  0
SPLINE
  5
725
330
23
100
AcDbEntity
  8
0
100
AcDbSpline
210
0.0
220
0.0
230
1.0
 70
     8
 71
     3
 72
     8
 73
     4
 74
     0
 42
0.0000000001
 43
0.0000000001
 40
3.0
 40
3.0
 40
3.0
 40
3.0
 40
4.0
 40
4.0
 40
4.0
 40
4.0
 10
1.617710774606522
 20
1.817695968909673
 30
0.0
 10
1.673022226011907
 20
1.806994464456792
 30
0.0
 10
1.719924383677385
 20
1.822592348006618
 30
0.0
 10
1.719924383677385
 20
1.822592348006618
 30
0.0
  0
SPLINE
  5
726
330
23
100
AcDbEntity
  8
0
100
AcDbSpline
210
0.0
220
0.0
230
1.0
 70
     8
 71
     3
 72
     8
 73
     4
 74
     0
 42
0.0000000001
 43
0.0000000001
 40
4.0
 40
4.0
 40
4.0
 40
4.0
 40
5.0
 40
5.0
 40
5.0
 40
5.0
 10
1.719924383677385
 20
1.822592348006618
 30
0.0
 10
1.730625888130266
 20
1.826145952780579
 30
0.0
 10
1.748475292262068
 20
1.865954464275136
 30
0.0
 10
1.748475292262068
 20
1.865954464275136
 30
0.0
  0
SPLINE
  5
727
330
23
100
AcDbEntity
  8
0
100
AcDbSpline
210
0.0
220
0.0
230
1.0
 70
    24
 71
     3
 72
     8
 73
     4
 74
     0
 42
0.0000000001
 43
0.0000000001
 40
5.0
 40
5.0
 40
5.0
 40
5.0
 40
6.0
 40
6.0
 40
6.0
 40
6.0
 10
1.748475292262068
 20
1.865954464275136
 30
0.0
 10
1.748475292262068
 20
1.865954464275136
 30
0.0
 10
1.748475292262068
 20
1.941990755736291
 30
0.0
 10
1.748475292262068
 20
1.941990755736291
 30
0.0
  0
SPLINE
  5
728
330
23
100
AcDbEntity
  8
0
100
AcDbSpline
210
0.0
220
0.0
230
1.0
 70
     8
 71
     3
 72
     8
 73
     4
 74
     0
 42
0.0000000001
 43
0.0000000001
 40
6.0
 40
6.0
 40
6.0
 40
6.0
 40
7.0
 40
7.0
 40
7.0
 40
7.0
 10
1.748475292262068
 20
1.941990755736291
 30
0.0
 10
1.748475292262068
 20
1.947321162897231
 30
0.0
 10
1.718147581290405
 20
1.972386283592952
 30
0.0
 10
1.718147581290405
 20
1.972386283592952
 30
0.0
  0
SPLINE
  5
729
330
23
100
AcDbEntity
  8
0
100
AcDbSpline
210
0.0
220
0.0
230
1.0
 70
    24
 71
     3
 72
     8
 73
     4
 74
     0
 42
0.0000000001
 43
0.0000000001
 40
7.0
 40
7.0
 40
7.0
 40
7.0
 40
8.0
 40
8.0
 40
8.0
 40
8.0
 10
1.718147581290405
 20
1.972386283592952
 30
0.0
 10
1.718147581290405
 20
1.972386283592952
 30
0.0
 10
1.718147581290405
 20
2.019627525683427
 30
0.0
 10
1.718147581290405
 20
2.019627525683427
 30
0.0
  0
SPLINE
  5
72A
330
23
100
AcDbEntity
  8
0
100
AcDbSpline
210
0.0
220
0.0
230
1.0
 70
     8
 71
     3
 72
    11
 73
     7
 74
     0
 42
0.0000000001
 43
0.0000000001
 40
8.0
 40
8.0
 40
8.0
 40
8.0
 40
9.0
 40
9.0
 40
9.0
 40
10.0
 40
10.0
 40
10.0
 40
10.0
 10
1.718147581290405
 20
2.019627525683427
 30
0.0
 10
1.718147581290405
 20
2.030966508855301
 30
0.0
 10
1.694181094131672
 20
2.040148915084199
 30
0.0
 10
1.664640059026
 20
2.040148915084199
 30
0.0
 10
1.66100507399004
 20
2.040148915084199
 30
0.0
 10
1.65743790583908
 20
2.040013281314201
 30
0.0
 10
1.654033498212118
 20
2.039755577151203
 30
0.0
  0
SPLINE
  5
72B
330
23
100
AcDbEntity
  8
0
100
AcDbSpline
210
0.0
220
0.0
230
1.0
 70
     8
 71
     3
 72
     8
 73
     4
 74
     0
 42
0.0000000001
 43
0.0000000001
 40
10.0
 40
10.0
 40
10.0
 40
10.0
 40
11.0
 40
11.0
 40
11.0
 40
11.0
 10
1.654033498212118
 20
2.039755577151203
 30
0.0
 10
1.654033498212118
 20
2.039755577151203
 30
0.0
 10
1.616544324184535
 20
2.037205662275232
 30
0.0
 10
1.611132536761595
 20
2.019627525683427
 30
0.0
  0
SPLINE
  5
72C
330
23
100
AcDbEntity
  8
0
100
AcDbSpline
210
0.0
220
0.0
230
1.0
 70
    24
 71
     3
 72
     8
 73
     4
 74
     0
 42
0.0000000001
 43
0.0000000001
 40
11.0
 40
11.0
 40
11.0
 40
11.0
 40
12.0
 40
12.0
 40
12.0
 40
12.0
 10
1.611132536761595
 20
2.019627525683427
 30
0.0
 10
1.611132536761595
 20
2.019627525683427
 30
0.0
 10
1.611132536761595
 20
1.97439366338893
 30
0.0
 10
1.611132536761595
 20
1.97439366338893
 30
0.0
  0
SPLINE
  5
72D
330
23
100
AcDbEntity
  8
0
100
AcDbSpline
210
0.0
220
0.0
230
1.0
 70
    24
 71
     3
 72
     8
 73
     4
 74
     0
 42
0.0000000001
 43
0.0000000001
 40
12.0
 40
12.0
 40
12.0
 40
12.0
 40
13.0
 40
13.0
 40
13.0
 40
13.0
 10
1.611132536761595
 20
1.97439366338893
 30
0.0
 10
1.611132536761595
 20
1.97439366338893
 30
0.0
 10
1.577522488555969
 20
1.937135066770344
 30
0.0
 10
1.577522488555969
 20
1.937135066770344
 30
0.0
  0
SPLINE
  5
72E
330
23
100
AcDbEntity
  8
0
100
AcDbSpline
210
0.0
220
0.0
230
1.0
 70
    24
 71
     3
 72
     8
 73
     4
 74
     0
 42
0.0000000001
 43
0.0000000001
 40
0.0
 40
0.0
 40
0.0
 40
0.0
 40
1.0
 40
1.0
 40
1.0
 40
1.0
 10
1.502435633484804
 20
3.283381614267373
 30
0.0
 10
1.502435633484804
 20
3.283381614267373
 30
0.0
 10
1.365384490589828
 20
3.223194128830543
 30
0.0
 10
1.365384490589828
 20
3.223194128830543
 30
0.0
  0
SPLINE
  5
72F
330
23
100
AcDbEntity
  8
0
100
AcDbSpline
210
0.0
220
0.0
230
1.0
 70
    24
 71
     3
 72
     8
 73
     4
 74
     0
 42
0.0000000001
 43
0.0000000001
 40
1.0
 40
1.0
 40
1.0
 40
1.0
 40
2.0
 40
2.0
 40
2.0
 40
2.0
 10
1.365384490589828
 20
3.223194128830543
 30
0.0
 10
1.365384490589828
 20
3.223194128830543
 30
0.0
 10
1.280213264719275
 20
3.112761113297771
 30
0.0
 10
1.280213264719275
 20
3.112761113297771
 30
0.0
  0
SPLINE
  5
730
330
23
100
AcDbEntity
  8
0
100
AcDbSpline
210
0.0
220
0.0
230
1.0
 70
    24
 71
     3
 72
     8
 73
     4
 74
     0
 42
0.0000000001
 43
0.0000000001
 40
2.0
 40
2.0
 40
2.0
 40
2.0
 40
3.0
 40
3.0
 40
3.0
 40
3.0
 10
1.280213264719275
 20
3.112761113297771
 30
0.0
 10
1.280213264719275
 20
3.112761113297771
 30
0.0
 10
1.280213264719275
 20
2.593405844596547
 30
0.0
 10
1.280213264719275
 20
2.565628048500856
 30
0.0
  0
SPLINE
  5
731
330
23
100
AcDbEntity
  8
0
100
AcDbSpline
210
0.0
220
0.0
230
1.0
 70
     8
 71
     3
 72
    14
 73
    10
 74
     0
 42
0.0000000001
 43
0.0000000001
 40
3.0
 40
3.0
 40
3.0
 40
3.0
 40
4.0
 40
4.0
 40
4.0
 40
5.0
 40
5.0
 40
5.0
 40
6.0
 40
6.0
 40
6.0
 40
6.0
 10
1.280213264719275
 20
2.565628048500856
 30
0.0
 10
1.280213264719275
 20
2.565628048500856
 30
0.0
 10
1.279345208591285
 20
2.549426594674535
 30
0.0
 10
1.278477152463294
 20
2.540746033394632
 30
0.0
 10
1.277609096335304
 20
2.532065472114728
 30
0.0
 10
1.272400759567362
 20
2.517308517938893
 30
0.0
 10
1.285421601487217
 20
2.501683507635066
 30
0.0
 10
1.298442443407073
 20
2.48605849733124
 30
0.0
 10
1.30946946890795
 20
2.456463208717569
 30
0.0
 10
1.30946946890795
 20
2.456463208717569
 30
0.0
  0
SPLINE
  5
732
330
23
100
AcDbEntity
  8
0
100
AcDbSpline
210
0.0
220
0.0
230
1.0
 70
    24
 71
     3
 72
     8
 73
     4
 74
     0
 42
0.0000000001
 43
0.0000000001
 40
6.0
 40
6.0
 40
6.0
 40
6.0
 40
7.0
 40
7.0
 40
7.0
 40
7.0
 10
1.30946946890795
 20
2.456463208717569
 30
0.0
 10
1.30946946890795
 20
2.456463208717569
 30
0.0
 10
1.456564292471314
 20
2.123156782323276
 30
0.0
 10
1.456564292471314
 20
2.123156782323276
 30
0.0
  0
SPLINE
  5
733
330
23
100
AcDbEntity
  8
0
100
AcDbSpline
210
0.0
220
0.0
230
1.0
 70
     8
 71
     3
 72
     8
 73
     4
 74
     0
 42
0.0000000001
 43
0.0000000001
 40
0.0
 40
0.0
 40
0.0
 40
0.0
 40
1.0
 40
1.0
 40
1.0
 40
1.0
 10
1.355700239411935
 20
2.22800168653211
 30
0.0
 10
1.356310591376929
 20
2.221599772588181
 30
0.0
 10
1.356012197082932
 20
2.218507322632215
 30
0.0
 10
1.358779125990901
 20
2.210532056956304
 30
0.0
  0
SPLINE
  5
734
330
23
100
AcDbEntity
  8
0
100
AcDbSpline
210
0.0
220
0.0
230
1.0
 70
     8
 71
     3
 72
     8
 73
     4
 74
     0
 42
0.0000000001
 43
0.0000000001
 40
1.0
 40
1.0
 40
1.0
 40
1.0
 40
2.0
 40
2.0
 40
2.0
 40
2.0
 10
1.358779125990901
 20
2.210532056956304
 30
0.0
 10
1.359518330037393
 20
2.208307663128329
 30
0.0
 10
1.365547251113826
 20
2.193184497773497
 30
0.0
 10
1.374065051869732
 20
2.172066319784732
 30
0.0
  0
SPLINE
  5
735
330
23
100
AcDbEntity
  8
0
100
AcDbSpline
210
0.0
220
0.0
230
1.0
 70
     8
 71
     3
 72
     8
 73
     4
 74
     0
 42
0.0000000001
 43
0.0000000001
 40
0.0
 40
0.0
 40
0.0
 40
0.0
 40
1.0
 40
1.0
 40
1.0
 40
1.0
 10
1.458395348366294
 20
1.980008901466868
 30
0.0
 10
1.465950149355209
 20
1.961535581993073
 30
0.0
 10
1.473471041901626
 20
1.944432163596264
 30
0.0
 10
1.476604181988591
 20
1.931587645577406
 30
0.0
  0
SPLINE
  5
736
330
23
100
AcDbEntity
  8
0
100
AcDbSpline
210
0.0
220
0.0
230
1.0
 70
     8
 71
     3
 72
     8
 73
     4
 74
     0
 42
0.0000000001
 43
0.0000000001
 40
1.0
 40
1.0
 40
1.0
 40
1.0
 40
2.0
 40
2.0
 40
2.0
 40
2.0
 10
1.476604181988591
 20
1.931587645577406
 30
0.0
 10
1.478957427898065
 20
1.921822014137515
 30
0.0
 10
1.477919829557576
 20
1.920560620076529
 30
0.0
 10
1.481914244084032
 20
1.899944287036758
 30
0.0
  0
SPLINE
  5
737
330
23
100
AcDbEntity
  8
0
100
AcDbSpline
210
0.0
220
0.0
230
1.0
 70
     8
 71
     3
 72
     8
 73
     4
 74
     0
 42
0.0000000001
 43
0.0000000001
 40
2.0
 40
2.0
 40
2.0
 40
2.0
 40
3.0
 40
3.0
 40
3.0
 40
3.0
 10
1.481914244084032
 20
1.899944287036758
 30
0.0
 10
1.481914244084032
 20
1.899944287036758
 30
0.0
 10
1.48392162388001
 20
1.887859318129892
 30
0.0
 10
1.488255122831462
 20
1.884848248435926
 30
0.0
  0
SPLINE
  5
738
330
23
100
AcDbEntity
  8
0
100
AcDbSpline
210
0.0
220
0.0
230
1.0
 70
     8
 71
     3
 72
     8
 73
     4
 74
     0
 42
0.0000000001
 43
0.0000000001
 40
0.0
 40
0.0
 40
0.0
 40
0.0
 40
1.0
 40
1.0
 40
1.0
 40
1.0
 10
1.358582457024403
 20
2.236817881582012
 30
0.0
 10
1.358582457024403
 20
2.236817881582012
 30
0.0
 10
1.369324651608284
 20
2.238933768393988
 30
0.0
 10
1.379429367473172
 20
2.21001664863031
 30
0.0
  0
SPLINE
  5
739
330
23
100
AcDbEntity
  8
0
100
AcDbSpline
210
0.0
220
0.0
230
1.0
 70
     8
 71
     3
 72
     8
 73
     4
 74
     0
 42
0.0000000001
 43
0.0000000001
 40
1.0
 40
1.0
 40
1.0
 40
1.0
 40
2.0
 40
2.0
 40
2.0
 40
2.0
 10
1.379429367473172
 20
2.21001664863031
 30
0.0
 10
1.387106238855086
 20
2.188193175037553
 30
0.0
 10
1.484342088567005
 20
1.970623044582972
 30
0.0
 10
1.491761255785923
 20
1.950793387409193
 30
0.0
  0
SPLINE
  5
73A
330
23
100
AcDbEntity
  8
0
100
AcDbSpline
210
0.0
220
0.0
230
1.0
 70
     8
 71
     3
 72
     8
 73
     4
 74
     0
 42
0.0000000001
 43
0.0000000001
 40
2.0
 40
2.0
 40
2.0
 40
2.0
 40
3.0
 40
3.0
 40
3.0
 40
3.0
 10
1.491761255785923
 20
1.950793387409193
 30
0.0
 10
1.49920754975884
 20
1.930909476727414
 30
0.0
 10
1.50004169744433
 20
1.91778012779156
 30
0.0
 10
1.50004169744433
 20
1.91778012779156
 30
0.0
  0
SPLINE
  5
73B
330
23
100
AcDbEntity
  8
0
100
AcDbSpline
210
0.0
220
0.0
230
1.0
 70
     8
 71
     3
 72
     8
 73
     4
 74
     0
 42
0.0000000001
 43
0.0000000001
 40
3.0
 40
3.0
 40
3.0
 40
3.0
 40
4.0
 40
4.0
 40
4.0
 40
4.0
 10
1.50004169744433
 20
1.91778012779156
 30
0.0
 10
1.50004169744433
 20
1.91778012779156
 30
0.0
 10
1.503330816366794
 20
1.899469568841763
 30
0.0
 10
1.503635992349291
 20
1.892348795916843
 30
0.0
  0
SPLINE
  5
73C
330
23
100
AcDbEntity
  8
0
100
AcDbSpline
210
0.0
220
0.0
230
1.0
 70
     8
 71
     3
 72
     8
 73
     4
 74
     0
 42
0.0000000001
 43
0.0000000001
 40
4.0
 40
4.0
 40
4.0
 40
4.0
 40
5.0
 40
5.0
 40
5.0
 40
5.0
 10
1.503635992349291
 20
1.892348795916843
 30
0.0
 10
1.504395541461282
 20
1.874512955162041
 30
0.0
 10
1.49645418422787
 20
1.879178756849989
 30
0.0
 10
1.49645418422787
 20
1.879178756849989
 30
0.0
  0
SPLINE
  5
73D
330
23
100
AcDbEntity
  8
0
100
AcDbSpline
210
0.0
220
0.0
230
1.0
 70
     8
 71
     3
 72
     8
 73
     4
 74
     0
 42
0.0000000001
 43
0.0000000001
 40
0.0
 40
0.0
 40
0.0
 40
0.0
 40
1.0
 40
1.0
 40
1.0
 40
1.0
 10
1.803461222619456
 20
2.348892065731766
 30
0.0
 10
1.799080251848505
 20
2.345582601743803
 30
0.0
 10
1.799595660174499
 20
2.336400195514905
 30
0.0
 10
1.799853364337496
 20
2.330690013797968
 30
0.0
  0
SPLINE
  5
73E
330
23
100
AcDbEntity
  8
0
100
AcDbSpline
210
0.0
220
0.0
230
1.0
 70
     8
 71
     3
 72
     8
 73
     4
 74
     0
 42
0.0000000001
 43
0.0000000001
 40
1.0
 40
1.0
 40
1.0
 40
1.0
 40
2.0
 40
2.0
 40
2.0
 40
2.0
 10
1.799853364337496
 20
2.330690013797968
 30
0.0
 10
1.799934744599495
 20
2.329035281803987
 30
0.0
 10
1.802037068034472
 20
2.302925781079277
 30
0.0
 10
1.804261461862447
 20
2.276450069175571
 30
0.0
  0
SPLINE
  5
73F
330
23
100
AcDbEntity
  8
0
100
AcDbSpline
210
0.0
220
0.0
230
1.0
 70
     8
 71
     3
 72
     8
 73
     4
 74
     0
 42
0.0000000001
 43
0.0000000001
 40
0.0
 40
0.0
 40
0.0
 40
0.0
 40
1.0
 40
1.0
 40
1.0
 40
1.0
 10
1.805360095399435
 20
2.260960692641743
 30
0.0
 10
1.810880389838374
 20
2.194798539636479
 30
0.0
 10
1.818204613418292
 20
2.087430847305673
 30
0.0
 10
1.818706458367287
 20
2.079184314089765
 30
0.0
  0
SPLINE
  5
740
330
23
100
AcDbEntity
  8
0
100
AcDbSpline
210
0.0
220
0.0
230
1.0
 70
     8
 71
     3
 72
     8
 73
     4
 74
     0
 42
0.0000000001
 43
0.0000000001
 40
1.0
 40
1.0
 40
1.0
 40
1.0
 40
2.0
 40
2.0
 40
2.0
 40
2.0
 10
1.818706458367287
 20
2.079184314089765
 30
0.0
 10
1.819547387741277
 20
2.066271979185908
 30
0.0
 10
1.818665768236287
 20
2.055394150832029
 30
0.0
 10
1.814054220056338
 20
2.042671703206171
 30
0.0
  0
SPLINE
  5
741
330
23
100
AcDbEntity
  8
0
100
AcDbSpline
210
0.0
220
0.0
230
1.0
 70
     8
 71
     3
 72
     8
 73
     4
 74
     0
 42
0.0000000001
 43
0.0000000001
 40
0.0
 40
0.0
 40
0.0
 40
0.0
 40
1.0
 40
1.0
 40
1.0
 40
1.0
 10
1.810419235020379
 20
2.031441227050296
 30
0.0
 10
1.806282405035425
 20
2.019586835552428
 30
0.0
 10
1.805577109431433
 20
2.016535075727462
 30
0.0
 10
1.803325588849458
 20
2.010526499716529
 30
0.0
  0
SPLINE
  5
742
330
23
100
AcDbEntity
  8
0
100
AcDbSpline
210
0.0
220
0.0
230
1.0
 70
     8
 71
     3
 72
     8
 73
     4
 74
     0
 42
0.0000000001
 43
0.0000000001
 40
1.0
 40
1.0
 40
1.0
 40
1.0
 40
2.0
 40
2.0
 40
2.0
 40
2.0
 10
1.803325588849458
 20
2.010526499716529
 30
0.0
 10
1.80137246256148
 20
2.005331726325586
 30
0.0
 10
1.796733787627531
 20
1.998387277301664
 30
0.0
 10
1.800572223318488
 20
1.989123490810766
 30
0.0
  0
SPLINE
  5
743
330
23
100
AcDbEntity
  8
0
100
AcDbSpline
210
0.0
220
0.0
230
1.0
 70
     8
 71
     3
 72
     8
 73
     4
 74
     0
 42
0.0000000001
 43
0.0000000001
 40
0.0
 40
0.0
 40
0.0
 40
0.0
 40
1.0
 40
1.0
 40
1.0
 40
1.0
 10
1.81389145953234
 20
2.352852571815721
 30
0.0
 10
1.81389145953234
 20
2.352852571815721
 30
0.0
 10
1.826573217027199
 20
2.350207713300751
 30
0.0
 10
1.827671850564187
 20
2.32959138026098
 30
0.0
  0
SPLINE
  5
744
330
23
100
AcDbEntity
  8
0
100
AcDbSpline
210
0.0
220
0.0
230
1.0
 70
     8
 71
     3
 72
     8
 73
     4
 74
     0
 42
0.0000000001
 43
0.0000000001
 40
1.0
 40
1.0
 40
1.0
 40
1.0
 40
2.0
 40
2.0
 40
2.0
 40
2.0
 10
1.827671850564187
 20
2.32959138026098
 30
0.0
 10
1.828417836299179
 20
2.315810989229134
 30
0.0
 10
1.842252480839025
 20
2.084745298659703
 30
0.0
 10
1.844286987389002
 20
2.070001907860867
 30
0.0
  0
SPLINE
  5
745
330
23
100
AcDbEntity
  8
0
100
AcDbSpline
210
0.0
220
0.0
230
1.0
 70
     8
 71
     3
 72
     8
 73
     4
 74
     0
 42
0.0000000001
 43
0.0000000001
 40
2.0
 40
2.0
 40
2.0
 40
2.0
 40
3.0
 40
3.0
 40
3.0
 40
3.0
 10
1.844286987389002
 20
2.070001907860867
 30
0.0
 10
1.846362184069979
 20
2.055217826931032
 30
0.0
 10
1.844693888698997
 20
2.045140237820144
 30
0.0
 10
1.839797509602052
 20
2.032512733833284
 30
0.0
  0
SPLINE
  5
746
330
23
100
AcDbEntity
  8
0
100
AcDbSpline
210
0.0
220
0.0
230
1.0
 70
     8
 71
     3
 72
     8
 73
     4
 74
     0
 42
0.0000000001
 43
0.0000000001
 40
3.0
 40
3.0
 40
3.0
 40
3.0
 40
4.0
 40
4.0
 40
4.0
 40
4.0
 10
1.839797509602052
 20
2.032512733833284
 30
0.0
 10
1.834874003751107
 20
2.019830976338425
 30
0.0
 10
1.831361089108146
 20
2.003459980299607
 30
0.0
 10
1.826424019880201
 20
1.990805349558748
 30
0.0
  0
SPLINE
  5
747
330
23
100
AcDbEntity
  8
0
100
AcDbSpline
210
0.0
220
0.0
230
1.0
 70
     8
 71
     3
 72
     8
 73
     4
 74
     0
 42
0.0000000001
 43
0.0000000001
 40
4.0
 40
4.0
 40
4.0
 40
4.0
 40
5.0
 40
5.0
 40
5.0
 40
5.0
 10
1.826424019880201
 20
1.990805349558748
 30
0.0
 10
1.821500514029256
 20
1.978082901932889
 30
0.0
 10
1.809795319678386
 20
1.983128478176833
 30
0.0
 10
1.809795319678386
 20
1.983128478176833
 30
0.0
  0
SPLINE
  5
748
330
23
100
AcDbEntity
  8
0
100
AcDbSpline
210
0.0
220
0.0
230
1.0
 70
     8
 71
     3
 72
     8
 73
     4
 74
     0
 42
0.0000000001
 43
0.0000000001
 40
0.0
 40
0.0
 40
0.0
 40
0.0
 40
1.0
 40
1.0
 40
1.0
 40
1.0
 10
1.596511216355758
 20
1.800456916742864
 30
0.0
 10
1.60257404587469
 20
1.800022888678869
 30
0.0
 10
1.615866155334542
 20
1.793403960702943
 30
0.0
 10
1.612827958886576
 20
1.788344821081999
 30
0.0
  0
SPLINE
  5
749
330
23
100
AcDbEntity
  8
0
100
AcDbSpline
210
0.0
220
0.0
230
1.0
 70
     8
 71
     3
 72
     8
 73
     4
 74
     0
 42
0.0000000001
 43
0.0000000001
 40
1.0
 40
1.0
 40
1.0
 40
1.0
 40
2.0
 40
2.0
 40
2.0
 40
2.0
 10
1.612827958886576
 20
1.788344821081999
 30
0.0
 10
1.60973550893061
 20
1.783367061723054
 30
0.0
 10
1.607755255888633
 20
1.780898527109082
 30
0.0
 10
1.610562874927601
 20
1.776449739453132
 30
0.0
  0
SPLINE
  5
74A
330
23
100
AcDbEntity
  8
0
100
AcDbSpline
210
0.0
220
0.0
230
1.0
 70
    24
 71
     3
 72
     8
 73
     4
 74
     0
 42
0.0000000001
 43
0.0000000001
 40
2.0
 40
2.0
 40
2.0
 40
2.0
 40
3.0
 40
3.0
 40
3.0
 40
3.0
 10
1.610562874927601
 20
1.776449739453132
 30
0.0
 10
1.610562874927601
 20
1.776449739453132
 30
0.0
 10
1.619243436207505
 20
1.770481853573198
 30
0.0
 10
1.619243436207505
 20
1.770481853573198
 30
0.0
  0
SPLINE
  5
74B
330
23
100
AcDbEntity
  8
0
100
AcDbSpline
210
0.0
220
0.0
230
1.0
 70
     8
 71
     3
 72
     8
 73
     4
 74
     0
 42
0.0000000001
 43
0.0000000001
 40
0.0
 40
0.0
 40
0.0
 40
0.0
 40
1.0
 40
1.0
 40
1.0
 40
1.0
 10
1.860020504708827
 20
1.90338938479472
 30
0.0
 10
1.860020504708827
 20
1.90338938479472
 30
0.0
 10
1.857741857372853
 20
1.897692766454783
 30
0.0
 10
1.847813465408963
 20
1.887384599934898
 30
0.0
  0
SPLINE
  5
74C
330
23
100
AcDbEntity
  8
0
100
AcDbSpline
210
0.0
220
0.0
230
1.0
 70
     8
 71
     3
 72
     8
 73
     4
 74
     0
 42
0.0000000001
 43
0.0000000001
 40
1.0
 40
1.0
 40
1.0
 40
1.0
 40
2.0
 40
2.0
 40
2.0
 40
2.0
 10
1.847813465408963
 20
1.887384599934898
 30
0.0
 10
1.837871510068074
 20
1.877035743284013
 30
0.0
 10
1.831998567827139
 20
1.874065363721046
 30
0.0
 10
1.831998567827139
 20
1.874065363721046
 30
0.0
  0
SPLINE
  5
74D
330
23
100
AcDbEntity
  8
0
100
AcDbSpline
210
0.0
220
0.0
230
1.0
 70
     8
 71
     3
 72
     8
 73
     4
 74
     0
 42
0.0000000001
 43
0.0000000001
 40
0.0
 40
0.0
 40
0.0
 40
0.0
 40
1.0
 40
1.0
 40
1.0
 40
1.0
 10
1.869189347560726
 20
1.881253953530966
 30
0.0
 10
1.86966406575572
 20
1.893054091520835
 30
0.0
 10
1.869406361592723
 20
1.90155832889974
 30
0.0
 10
1.869243601068725
 20
1.907512651402674
 30
0.0
  0
SPLINE
  5
74E
330
23
100
AcDbEntity
  8
0
100
AcDbSpline
210
0.0
220
0.0
230
1.0
 70
     8
 71
     3
 72
     8
 73
     4
 74
     0
 42
0.0000000001
 43
0.0000000001
 40
1.0
 40
1.0
 40
1.0
 40
1.0
 40
2.0
 40
2.0
 40
2.0
 40
2.0
 10
1.869243601068725
 20
1.907512651402674
 30
0.0
 10
1.869040150413727
 20
1.913466973905608
 30
0.0
 10
1.86422515157878
 20
1.919082211983545
 30
0.0
 10
1.853605027387899
 20
1.912503974138618
 30
0.0
  0
SPLINE
  5
74F
330
23
100
AcDbEntity
  8
0
100
AcDbSpline
210
0.0
220
0.0
230
1.0
 70
     8
 71
     3
 72
     8
 73
     4
 74
     0
 42
0.0000000001
 43
0.0000000001
 40
2.0
 40
2.0
 40
2.0
 40
2.0
 40
3.0
 40
3.0
 40
3.0
 40
3.0
 10
1.853605027387899
 20
1.912503974138618
 30
0.0
 10
1.842306734347024
 20
1.905491708229696
 30
0.0
 10
1.841384424711035
 20
1.905559525114696
 30
0.0
 10
1.831591666517143
 20
1.895549752888807
 30
0.0
  0
SPLINE
  5
750
330
23
100
AcDbEntity
  8
0
100
AcDbSpline
210
0.0
220
0.0
230
1.0
 70
     8
 71
     3
 72
     8
 73
     4
 74
     0
 42
0.0000000001
 43
0.0000000001
 40
3.0
 40
3.0
 40
3.0
 40
3.0
 40
4.0
 40
4.0
 40
4.0
 40
4.0
 10
1.831591666517143
 20
1.895549752888807
 30
0.0
 10
1.831591666517143
 20
1.895549752888807
 30
0.0
 10
1.824403076707223
 20
1.878948179440992
 30
0.0
 10
1.822531330681244
 20
1.873658462411051
 30
0.0
  0
SPLINE
  5
751
330
23
100
AcDbEntity
  8
0
100
AcDbSpline
210
0.0
220
0.0
230
1.0
 70
     8
 71
     3
 72
     8
 73
     4
 74
     0
 42
0.0000000001
 43
0.0000000001
 40
4.0
 40
4.0
 40
4.0
 40
4.0
 40
5.0
 40
5.0
 40
5.0
 40
5.0
 10
1.822531330681244
 20
1.873658462411051
 30
0.0
 10
1.820686711409265
 20
1.86830092849611
 30
0.0
 10
1.829313019181169
 20
1.864421802674153
 30
0.0
 10
1.836962763809084
 20
1.864815140607149
 30
0.0
  0
SPLINE
  5
752
330
23
100
AcDbEntity
  8
0
100
AcDbSpline
210
0.0
220
0.0
230
1.0
 70
     8
 71
     3
 72
     8
 73
     4
 74
     0
 42
0.0000000001
 43
0.0000000001
 40
5.0
 40
5.0
 40
5.0
 40
5.0
 40
6.0
 40
6.0
 40
6.0
 40
6.0
 10
1.836962763809084
 20
1.864815140607149
 30
0.0
 10
1.844409057782001
 20
1.865235605294144
 30
0.0
 10
1.851136492773926
 20
1.865262732048144
 30
0.0
 10
1.857863927765851
 20
1.86646987260113
 30
0.0
  0
SPLINE
  5
753
330
23
100
AcDbEntity
  8
0
100
AcDbSpline
210
0.0
220
0.0
230
1.0
 70
     8
 71
     3
 72
     8
 73
     4
 74
     0
 42
0.0000000001
 43
0.0000000001
 40
6.0
 40
6.0
 40
6.0
 40
6.0
 40
7.0
 40
7.0
 40
7.0
 40
7.0
 10
1.857863927765851
 20
1.86646987260113
 30
0.0
 10
1.864509982495777
 20
1.867771956793116
 30
0.0
 10
1.868850263135729
 20
1.87279040628306
 30
0.0
 10
1.869189347560726
 20
1.881253953530966
 30
0.0
  0
LINE
  5
754
330
23
100
AcDbEntity
  8
0
100
AcDbLine
 10
1.766501020294867
 20
1.94298088225728
 30
0.0
 11
1.821364880259257
 21
1.902155117487734
 31
0.0
  0
LINE
  5
755
330
23
100
AcDbEntity
  8
0
100
AcDbLine
 10
1.872173290500692
 20
1.863418112776164
 30
0.0
 11
1.878371753789623
 21
1.858074142238224
 31
0.0
  0
SPLINE
  5
756
330
23
100
AcDbEntity
  8
0
100
AcDbSpline
210
0.0
220
0.0
230
1.0
 70
     8
 71
     3
 72
     8
 73
     4
 74
     0
 42
0.0000000001
 43
0.0000000001
 40
0.0
 40
0.0
 40
0.0
 40
0.0
 40
1.0
 40
1.0
 40
1.0
 40
1.0
 10
1.681105998703817
 20
1.811619576013741
 30
0.0
 10
1.716275835264426
 20
1.815715715867695
 30
0.0
 10
1.74111037855115
 20
1.829930134963537
 30
0.0
 10
1.748488855639068
 20
1.849217257057322
 30
0.0
  0
SPLINE
  5
757
330
23
100
AcDbEntity
  8
0
100
AcDbSpline
210
0.0
220
0.0
230
1.0
 70
     8
 71
     3
 72
     8
 73
     4
 74
     0
 42
0.0000000001
 43
0.0000000001
 40
1.0
 40
1.0
 40
1.0
 40
1.0
 40
2.0
 40
2.0
 40
2.0
 40
2.0
 10
1.748488855639068
 20
1.849217257057322
 30
0.0
 10
1.749519672291056
 20
1.851970622588292
 30
0.0
 10
1.750224967895048
 20
1.85481893175826
 30
0.0
 10
1.750469108681045
 20
1.857802874698227
 30
0.0
  0
SPLINE
  5
758
330
23
100
AcDbEntity
  8
0
100
AcDbSpline
210
0.0
220
0.0
230
1.0
 70
     8
 71
     3
 72
     8
 73
     4
 74
     0
 42
0.0000000001
 43
0.0000000001
 40
0.0
 40
0.0
 40
0.0
 40
0.0
 40
1.0
 40
1.0
 40
1.0
 40
1.0
 10
1.771017624835817
 20
1.822375333974621
 30
0.0
 10
1.785950902912651
 20
1.836115034875468
 30
0.0
 10
1.793858351703563
 20
1.852472467537286
 30
0.0
 10
1.79227143659458
 20
1.869291055017099
 30
0.0
  0
SPLINE
  5
759
330
23
100
AcDbEntity
  8
0
100
AcDbSpline
210
0.0
220
0.0
230
1.0
 70
     8
 71
     3
 72
     8
 73
     4
 74
     0
 42
0.0000000001
 43
0.0000000001
 40
1.0
 40
1.0
 40
1.0
 40
1.0
 40
2.0
 40
2.0
 40
2.0
 40
2.0
 10
1.79227143659458
 20
1.869291055017099
 30
0.0
 10
1.790413253945602
 20
1.889785317663871
 30
0.0
 10
1.775832623670763
 20
1.908000932974669
 30
0.0
 10
1.751933953397029
 20
1.920859014370526
 30
0.0
  0
SPLINE
  5
75A
330
23
100
AcDbEntity
  8
0
100
AcDbSpline
210
0.0
220
0.0
230
1.0
 70
     8
 71
     3
 72
    11
 73
     7
 74
     0
 42
0.0000000001
 43
0.0000000001
 40
0.0
 40
0.0
 40
0.0
 40
0.0
 40
1.0
 40
1.0
 40
1.0
 40
2.0
 40
2.0
 40
2.0
 40
2.0
 10
1.849983605728939
 20
2.643163093120493
 30
0.0
 10
1.8534558302409
 20
2.629274195072648
 30
0.0
 10
1.841031776909039
 20
2.599346603722481
 30
0.0
 10
1.842184663954026
 20
2.591242485965071
 30
0.0
 10
1.843337550999013
 20
2.583138368207661
 30
0.0
 10
1.891948694166472
 20
1.903931919874714
 30
0.0
 10
1.891948694166472
 20
1.903931919874714
 30
0.0
  0
SPLINE
  5
75B
330
23
100
AcDbEntity
  8
0
100
AcDbSpline
210
0.0
220
0.0
230
1.0
 70
    24
 71
     3
 72
     8
 73
     4
 74
     0
 42
0.0000000001
 43
0.0000000001
 40
2.0
 40
2.0
 40
2.0
 40
2.0
 40
3.0
 40
3.0
 40
3.0
 40
3.0
 10
1.891948694166472
 20
1.903931919874714
 30
0.0
 10
1.891948694166472
 20
1.903931919874714
 30
0.0
 10
1.886170695564537
 20
1.888890134781881
 30
0.0
 10
1.886170695564537
 20
1.888890134781881
 30
0.0
  0
SPLINE
  5
75C
330
23
100
AcDbEntity
  8
0
100
AcDbSpline
210
0.0
220
0.0
230
1.0
 70
     8
 71
     3
 72
     8
 73
     4
 74
     0
 42
0.0000000001
 43
0.0000000001
 40
3.0
 40
3.0
 40
3.0
 40
3.0
 40
4.0
 40
4.0
 40
4.0
 40
4.0
 10
1.886170695564537
 20
1.888890134781881
 30
0.0
 10
1.886170695564537
 20
1.888890134781881
 30
0.0
 10
1.885004245142549
 20
1.881484530939964
 30
0.0
 10
1.887323582609524
 20
1.868748519937105
 30
0.0
  0
SPLINE
  5
75D
330
23
100
AcDbEntity
  8
0
100
AcDbSpline
210
0.0
220
0.0
230
1.0
 70
     8
 71
     3
 72
    11
 73
     7
 74
     0
 42
0.0000000001
 43
0.0000000001
 40
4.0
 40
4.0
 40
4.0
 40
4.0
 40
5.0
 40
5.0
 40
5.0
 40
6.0
 40
6.0
 40
6.0
 40
6.0
 10
1.887323582609524
 20
1.868748519937105
 30
0.0
 10
1.888178075360514
 20
1.864055591495157
 30
0.0
 10
1.888639230178509
 20
1.862794197434171
 30
0.0
 10
1.886319892711535
 20
1.853543974320274
 30
0.0
 10
1.884000555244561
 20
1.844293751206377
 30
0.0
 10
1.881233626336591
 20
1.844442948353375
 30
0.0
 10
1.883539400426566
 20
1.830703247452528
 30
0.0
  0
SPLINE
  5
75E
330
23
100
AcDbEntity
  8
0
100
AcDbSpline
210
0.0
220
0.0
230
1.0
 70
     8
 71
     3
 72
     8
 73
     4
 74
     0
 42
0.0000000001
 43
0.0000000001
 40
0.0
 40
0.0
 40
0.0
 40
0.0
 40
1.0
 40
1.0
 40
1.0
 40
1.0
 10
1.270278091066886
 20
2.49775012830511
 30
0.0
 10
1.270278091066886
 20
2.49775012830511
 30
0.0
 10
1.285774249289213
 20
2.476048725105351
 30
0.0
 10
1.291850642185145
 20
2.461251080798516
 30
0.0
  0
SPLINE
  5
75F
330
23
100
AcDbEntity
  8
0
100
AcDbSpline
210
0.0
220
0.0
230
1.0
 70
     8
 71
     3
 72
     8
 73
     4
 74
     0
 42
0.0000000001
 43
0.0000000001
 40
1.0
 40
1.0
 40
1.0
 40
1.0
 40
2.0
 40
2.0
 40
2.0
 40
2.0
 10
1.291850642185145
 20
2.461251080798516
 30
0.0
 10
1.298496696915072
 20
2.445015718529697
 30
0.0
 10
1.298510260292072
 20
2.445110662168696
 30
0.0
 10
1.580167347070939
 20
1.809734266610761
 30
0.0
  0
SPLINE
  5
760
330
23
100
AcDbEntity
  8
0
100
AcDbSpline
210
0.0
220
0.0
230
1.0
 70
    24
 71
     3
 72
     8
 73
     4
 74
     0
 42
0.0000000001
 43
0.0000000001
 40
2.0
 40
2.0
 40
2.0
 40
2.0
 40
3.0
 40
3.0
 40
3.0
 40
3.0
 10
1.580167347070939
 20
1.809734266610761
 30
0.0
 10
1.580167347070939
 20
1.809734266610761
 30
0.0
 10
1.578566868584957
 20
1.796713424690906
 30
0.0
 10
1.578566868584957
 20
1.796713424690906
 30
0.0
  0
SPLINE
  5
761
330
23
100
AcDbEntity
  8
0
100
AcDbSpline
210
0.0
220
0.0
230
1.0
 70
     8
 71
     3
 72
     8
 73
     4
 74
     0
 42
0.0000000001
 43
0.0000000001
 40
3.0
 40
3.0
 40
3.0
 40
3.0
 40
4.0
 40
4.0
 40
4.0
 40
4.0
 10
1.578566868584957
 20
1.796713424690906
 30
0.0
 10
1.578566868584957
 20
1.796713424690906
 30
0.0
 10
1.592455766632803
 20
1.759387011187321
 30
0.0
 10
1.599400215656726
 20
1.753310618291389
 30
0.0
  0
LINE
  5
762
330
23
100
AcDbEntity
  8
0
100
AcDbLine
 10
1.641609444880256
 20
3.303896221979645
 30
0.0
 11
1.590990921916819
 21
3.228246486762987
 31
0.0
  0
LINE
  5
763
330
23
100
AcDbEntity
  8
0
100
AcDbLine
 10
1.590990921916819
 20
3.228246486762987
 30
0.0
 11
1.590990921916819
 21
2.698732248688875
 31
0.0
  0
LINE
  5
764
330
23
100
AcDbEntity
  8
0
100
AcDbLine
 10
1.590990921916819
 20
2.698732248688875
 30
0.0
 11
1.5927270341728
 21
2.678929718269095
 31
0.0
  0
LINE
  5
765
330
23
100
AcDbEntity
  8
0
100
AcDbLine
 10
1.5927270341728
 20
2.678929718269095
 30
0.0
 11
1.696744572384643
 21
2.038033028272222
 31
0.0
  0
SPLINE
  5
766
330
23
100
AcDbEntity
  8
0
100
AcDbSpline
210
0.0
220
0.0
230
1.0
 70
    24
 71
     3
 72
     8
 73
     4
 74
     0
 42
0.0000000001
 43
0.0000000001
 40
0.0
 40
0.0
 40
0.0
 40
0.0
 40
1.0
 40
1.0
 40
1.0
 40
1.0
 10
1.539368709055393
 20
1.936470461297352
 30
0.0
 10
1.539368709055393
 20
1.936470461297352
 30
0.0
 10
1.594191878888783
 20
1.812338434994732
 30
0.0
 10
1.594191878888783
 20
1.812338434994732
 30
0.0
  0
SPLINE
  5
767
330
23
100
AcDbEntity
  8
0
100
AcDbSpline
210
0.0
220
0.0
230
1.0
 70
    24
 71
     3
 72
     8
 73
     4
 74
     0
 42
0.0000000001
 43
0.0000000001
 40
1.0
 40
1.0
 40
1.0
 40
1.0
 40
2.0
 40
2.0
 40
2.0
 40
2.0
 10
1.594191878888783
 20
1.812338434994732
 30
0.0
 10
1.594191878888783
 20
1.812338434994732
 30
0.0
 10
1.5927270341728
 20
1.798313903176888
 30
0.0
 10
1.5927270341728
 20
1.798313903176888
 30
0.0
  0
SPLINE
  5
768
330
23
100
AcDbEntity
  8
0
100
AcDbSpline
210
0.0
220
0.0
230
1.0
 70
     8
 71
     3
 72
    14
 73
    10
 74
     0
 42
0.0000000001
 43
0.0000000001
 40
2.0
 40
2.0
 40
2.0
 40
2.0
 40
3.0
 40
3.0
 40
3.0
 40
4.0
 40
4.0
 40
4.0
 40
5.0
 40
5.0
 40
5.0
 40
5.0
 10
1.5927270341728
 20
1.798313903176888
 30
0.0
 10
1.5927270341728
 20
1.798313903176888
 30
0.0
 10
1.602140017810695
 20
1.77748055610512
 30
0.0
 10
1.607348354578638
 20
1.769668050953207
 30
0.0
 10
1.612556691346579
 20
1.761855545801294
 30
0.0
 10
1.617629394344523
 20
1.760255067315312
 30
0.0
 10
1.623705787240455
 20
1.760255067315312
 30
0.0
 10
1.629782180136387
 20
1.760255067315312
 30
0.0
 10
1.637594685288301
 20
1.753039350751392
 30
0.0
 10
1.637594685288301
 20
1.753039350751392
 30
0.0
  0
SPLINE
  5
769
330
23
100
AcDbEntity
  8
0
100
AcDbSpline
210
0.0
220
0.0
230
1.0
 70
    24
 71
     3
 72
     8
 73
     4
 74
     0
 42
0.0000000001
 43
0.0000000001
 40
5.0
 40
5.0
 40
5.0
 40
5.0
 40
6.0
 40
6.0
 40
6.0
 40
6.0
 10
1.637594685288301
 20
1.753039350751392
 30
0.0
 10
1.637594685288301
 20
1.753039350751392
 30
0.0
 10
1.884122625637559
 20
1.829970825094536
 30
0.0
 10
1.884122625637559
 20
1.829970825094536
 30
0.0
  0
LINE
  5
76A
330
23
100
AcDbEntity
  8
0
100
AcDbLine
 10
0.2193740777415725
 20
2.692744017743442
 30
0.0
 11
2.021085606582036
 21
1.255154907840929
 31
0.0
  0
LINE
  5
76B
330
23
100
AcDbEntity
  8
0
100
AcDbLine
 10
0.2193740777415725
 20
2.438600241208768
 30
0.0
 11
2.024896915518994
 21
0.917562454314683
 31
0.0
  0
LINE
  5
76C
330
23
100
AcDbEntity
  8
0
100
AcDbLine
 10
1.585185796560883
 20
0.7288009366077821
 30
0.0
 11
1.762201429785915
 21
0.6580001086685696
 31
0.0
  0
LINE
  5
76D
330
23
100
AcDbEntity
  8
0
100
AcDbLine
 10
1.715597666414433
 20
0.4034833392663995
 30
0.0
 11
1.792284999971581
 21
0.4035240293973992
 31
0.0
  0
LINE
  5
76E
330
23
100
AcDbEntity
  8
0
100
AcDbLine
 10
1.537293512374416
 20
0.4034833392663995
 30
0.0
 11
1.627178011752417
 21
0.4035240293973992
 31
0.0
  0
LINE
  5
76F
330
23
100
AcDbEntity
  8
0
100
AcDbLine
 10
1.627178011752417
 20
0.4035240293973992
 30
0.0
 11
1.651429329828146
 21
0.4585370865087874
 31
0.0
  0
LINE
  5
770
330
23
100
AcDbEntity
  8
0
100
AcDbLine
 10
1.651429329828146
 20
0.4585370865087874
 30
0.0
 11
1.674053042663895
 21
0.3488500567110071
 31
0.0
  0
LINE
  5
771
330
23
100
AcDbEntity
  8
0
100
AcDbLine
 10
1.674053042663895
 20
0.3488500567110071
 30
0.0
 11
1.702291993577581
 21
0.4034833392663995
 31
0.0
  0
LINE
  5
772
330
23
100
AcDbEntity
  8
0
100
AcDbLine
 10
1.06397912689918
 20
3.845041055831127
 30
0.0
 11
1.203566621293128
 21
3.884822440571686
 31
0.0
  0
LINE
  5
773
330
23
100
AcDbEntity
  8
0
100
AcDbLine
 10
1.649747471080166
 20
3.843155746428149
 30
0.0
 11
1.790372563814602
 21
3.891766889595608
 31
0.0
  0
LINE
  5
774
330
23
100
AcDbEntity
  8
0
100
AcDbLine
 10
1.615025225960552
 20
3.87093354252384
 30
0.0
 11
1.733080859367239
 21
3.905655787643454
 31
0.0
  0
LINE
  5
775
330
23
100
AcDbEntity
  8
0
100
AcDbLine
 10
1.594191878888783
 20
3.89697522636355
 30
0.0
 11
1.68620582845576
 21
3.923016910203261
 31
0.0
  0
LINE
  5
776
330
23
100
AcDbEntity
  8
0
100
AcDbLine
 10
1.577319037900971
 20
3.921558847175777
 30
0.0
 11
1.63585857303232
 21
3.936905808251106
 31
0.0
  0
LINE
  5
777
330
23
100
AcDbEntity
  8
0
100
AcDbLine
 10
1.501452288652315
 20
3.789885583261241
 30
0.0
 11
1.535598090249435
 21
3.927662366825709
 31
0.0
  0
LINE
  5
778
330
23
100
AcDbEntity
  8
0
100
AcDbLine
 10
1.452135849880864
 20
3.828656496415309
 30
0.0
 11
1.482490687606526
 21
3.940940912908561
 31
0.0
  0
LINE
  5
779
330
23
100
AcDbEntity
  8
0
100
AcDbLine
 10
1.406617156669369
 20
3.84220631003816
 30
0.0
 11
1.441414000362483
 21
3.954266930810913
 31
0.0
  0
LINE
  5
77A
330
23
100
AcDbEntity
  8
0
100
AcDbLine
 10
1.354601605874948
 20
3.858441672306979
 30
0.0
 11
1.396275081706984
 21
3.968155828858759
 31
0.0
  0
LINE
  5
77B
330
23
100
AcDbEntity
  8
0
100
AcDbLine
 10
1.33377504049168
 20
3.798016827772651
 30
0.0
 11
1.436958431018032
 21
3.829314320199803
 31
0.0
  0
LINE
  5
77C
330
23
100
AcDbEntity
  8
0
100
AcDbLine
 10
1.228340129383352
 20
3.791506406812723
 30
0.0
 11
1.38766911900058
 21
3.842701373298654
 31
0.0
  0
LINE
  5
77D
330
23
100
AcDbEntity
  8
0
100
AcDbLine
 10
1.171441762868985
 20
3.808433501308535
 30
0.0
 11
1.338983377259622
 21
3.857044644475995
 31
0.0
  0
LINE
  5
77E
330
23
100
AcDbEntity
  8
0
100
AcDbLine
 10
1.106961468611702
 20
3.828866728758808
 30
0.0
 11
1.283129700884982
 21
3.87302551332393
 31
0.0
  0
LINE
  5
77F
330
23
100
AcDbEntity
  8
0
100
AcDbLine
 10
1.243503984869183
 20
3.784453450772801
 30
0.0
 11
1.243503984869183
 21
1.884821121681926
 31
0.0
  0
LINE
  5
780
330
23
100
AcDbEntity
  8
0
100
AcDbLine
 10
1.008342154445798
 20
3.859479270647467
 30
0.0
 11
1.243503984869183
 21
3.784453450772801
 31
0.0
  0
LINE
  5
781
330
23
100
AcDbEntity
  8
0
100
AcDbLine
 10
1.243503984869183
 20
3.784453450772801
 30
0.0
 11
1.475139337272608
 21
3.817032682326439
 31
0.0
  0
LINE
  5
782
330
23
100
AcDbEntity
  8
0
100
AcDbLine
 10
1.475139337272608
 20
3.817032682326439
 30
0.0
 11
1.535598090249435
 21
3.753169521722649
 31
0.0
  0
LINE
  5
783
330
23
100
AcDbEntity
  8
0
100
AcDbLine
 10
1.535598090249435
 20
3.753169521722649
 30
0.0
 11
1.581089656706929
 21
3.914126116579859
 31
0.0
  0
LINE
  5
784
330
23
100
AcDbEntity
  8
0
100
AcDbLine
 10
1.581089656706929
 20
3.914126116579859
 30
0.0
 11
1.634285221300337
 21
3.839439381130189
 31
0.0
  0
LINE
  5
785
330
23
100
AcDbEntity
  8
0
100
AcDbLine
 10
1.634285221300337
 20
3.839439381130189
 30
0.0
 11
1.85799956153585
 21
3.87092676083534
 31
0.0
  0
LINE
  5
786
330
23
100
AcDbEntity
  8
0
100
AcDbLine
 10
1.228177368859353
 20
3.888355700280146
 30
0.0
 11
1.472901380067632
 21
3.820084442151405
 31
0.0
  0
LINE
  5
787
330
23
100
AcDbEntity
  8
0
100
AcDbLine
 10
2.48386802981689
 20
1.126194319326363
 30
0.0
 11
2.665929239285865
 21
1.156535593675026
 31
0.0
  0
LINE
  5
788
330
23
100
AcDbEntity
  8
0
100
AcDbLine
 10
2.48386802981689
 20
1.186863304646688
 30
0.0
 11
2.662131493725908
 21
1.228584252298224
 31
0.0
  0
LINE
  5
789
330
23
100
AcDbEntity
  8
0
100
AcDbLine
 10
2.48386802981689
 20
1.258939090023886
 30
0.0
 11
2.662131493725908
 21
1.285482618812591
 31
0.0
  0
LINE
  5
78A
330
23
100
AcDbEntity
  8
0
100
AcDbLine
 10
2.487679338753847
 20
1.312039710978296
 30
0.0
 11
2.665929239285865
 21
1.334799057584043
 31
0.0
  0
LINE
  5
78B
330
23
100
AcDbEntity
  8
0
100
AcDbLine
 10
2.457310937651185
 20
1.368938077492663
 30
0.0
 11
2.662131493725908
 21
1.395481606281368
 31
0.0
  0
LINE
  5
78C
330
23
100
AcDbEntity
  8
0
100
AcDbLine
 10
2.559741560754046
 20
1.422052261824073
 30
0.0
 11
2.662131493725908
 21
1.433404808372946
 31
0.0
  0
LINE
  5
78D
330
23
100
AcDbEntity
  8
0
100
AcDbLine
 10
2.260085872696378
 20
1.06168689831508
 30
0.0
 11
2.487679338753847
 21
1.023763696223502
 31
0.0
  0
LINE
  5
78E
330
23
100
AcDbEntity
  8
0
100
AcDbLine
 10
2.256274563759421
 20
1.179281376903772
 30
0.0
 11
2.48386802981689
 21
1.141358174812194
 31
0.0
  0
LINE
  5
78F
330
23
100
AcDbEntity
  8
0
100
AcDbLine
 10
2.256274563759421
 20
1.118585264829447
 30
0.0
 11
2.48386802981689
 21
1.080662062737869
 31
0.0
  0
LINE
  5
790
330
23
100
AcDbEntity
  8
0
100
AcDbLine
 10
2.48386802981689
 20
1.080662062737869
 30
0.0
 11
2.620437672828371
 21
1.107232718280574
 31
0.0
  0
LINE
  5
791
330
23
100
AcDbEntity
  8
0
100
AcDbLine
 10
2.256274563759421
 20
1.236179743418139
 30
0.0
 11
2.48386802981689
 21
1.198256541326562
 31
0.0
  0
LINE
  5
792
330
23
100
AcDbEntity
  8
0
100
AcDbLine
 10
2.256274563759421
 20
1.281698436629633
 30
0.0
 11
2.48386802981689
 21
1.243748107784056
 31
0.0
  0
LINE
  5
793
330
23
100
AcDbEntity
  8
0
100
AcDbLine
 10
2.244908453833547
 20
1.338596803144001
 30
0.0
 11
2.487679338753847
 21
1.300646474298423
 31
0.0
  0
LINE
  5
794
330
23
100
AcDbEntity
  8
0
100
AcDbLine
 10
2.021085606582036
 20
0.9289421276175562
 30
0.0
 11
2.176630414016306
 21
0.9934088584978396
 31
0.0
  0
LINE
  5
795
330
23
100
AcDbEntity
  8
0
100
AcDbLine
 10
2.176630414016306
 20
0.9934088584978396
 30
0.0
 11
2.260085872696378
 21
1.00859984073767
 31
0.0
  0
LINE
  5
796
330
23
100
AcDbEntity
  8
0
100
AcDbLine
 10
2.021085606582036
 20
0.9820427485719656
 30
0.0
 11
2.161439431776476
 21
1.038941115086333
 31
0.0
  0
LINE
  5
797
330
23
100
AcDbEntity
  8
0
100
AcDbLine
 10
2.161439431776476
 20
1.038941115086333
 30
0.0
 11
2.260085872696378
 21
1.038941115086333
 31
0.0
  0
LINE
  5
798
330
23
100
AcDbEntity
  8
0
100
AcDbLine
 10
2.024896915518994
 20
1.035156932903375
 30
0.0
 11
2.150073321850602
 21
1.088257553857785
 31
0.0
  0
LINE
  5
799
330
23
100
AcDbEntity
  8
0
100
AcDbLine
 10
2.150073321850602
 20
1.088257553857785
 30
0.0
 11
2.260085872696378
 21
1.092041736040743
 31
0.0
  0
LINE
  5
79A
330
23
100
AcDbEntity
  8
0
100
AcDbLine
 10
2.021085606582036
 20
1.084473371674827
 30
0.0
 11
2.13490946636477
 21
1.137560429252237
 31
0.0
  0
LINE
  5
79B
330
23
100
AcDbEntity
  8
0
100
AcDbLine
 10
2.13490946636477
 20
1.137560429252237
 30
0.0
 11
2.260085872696378
 21
1.14894010255511
 31
0.0
  0
LINE
  5
79C
330
23
100
AcDbEntity
  8
0
100
AcDbLine
 10
2.024896915518994
 20
1.133749120315279
 30
0.0
 11
2.119718484124939
 21
1.18307912246373
 31
0.0
  0
LINE
  5
79D
330
23
100
AcDbEntity
  8
0
100
AcDbLine
 10
2.119718484124939
 20
1.18307912246373
 30
0.0
 11
2.260085872696378
 21
1.194445232389604
 31
0.0
  0
LINE
  5
79E
330
23
100
AcDbEntity
  8
0
100
AcDbLine
 10
2.021085606582036
 20
1.179281376903772
 30
0.0
 11
2.115934301941981
 21
1.239991052355097
 31
0.0
  0
LINE
  5
79F
330
23
100
AcDbEntity
  8
0
100
AcDbLine
 10
2.115934301941981
 20
1.239991052355097
 30
0.0
 11
2.256274563759421
 21
1.251343598903971
 31
0.0
  0
LINE
  5
7A0
330
23
100
AcDbEntity
  8
0
100
AcDbLine
 10
2.118497780194953
 20
1.284126281112607
 30
0.0
 11
2.260085872696378
 21
1.296875855492465
 31
0.0
  0
LINE
  5
7A1
330
23
100
AcDbEntity
  8
0
100
AcDbLine
 10
2.25632881726742
 20
1.327095059448129
 30
0.0
 11
2.229717471593716
 21
1.35757196756679
 31
0.0
  0
LINE
  5
7A2
330
23
100
AcDbEntity
  8
0
100
AcDbLine
 10
2.487679338753847
 20
1.327217129841127
 30
0.0
 11
2.450203728103264
 21
1.386407707068469
 31
0.0
  0
LINE
  5
7A3
330
23
100
AcDbEntity
  8
0
100
AcDbLine
 10
2.021085606582036
 20
1.255154907840929
 30
0.0
 11
2.021085606582036
 21
0.917562454314683
 31
0.0
  0
LINE
  5
7A4
330
23
100
AcDbEntity
  8
0
100
AcDbLine
 10
2.487679338753847
 20
1.016168205103586
 30
0.0
 11
2.489957986089822
 21
1.327217129841127
 31
0.0
  0
LINE
  5
7A5
330
23
100
AcDbEntity
  8
0
100
AcDbLine
 10
2.260207943089377
 20
0.9927578164018467
 30
0.0
 11
2.260085872696378
 21
1.327217129841127
 31
0.0
  0
LINE
  5
7A6
330
23
100
AcDbEntity
  8
0
100
AcDbLine
 10
0.8288037330987947
 20
4.208329327083588
 30
0.0
 11
0.9346506148197351
 21
4.243878589282626
 31
0.0
  0
LINE
  5
7A7
330
23
100
AcDbEntity
  8
0
100
AcDbLine
 10
1.424052877802676
 20
4.207739320184095
 30
0.0
 11
1.55946963376917
 21
4.251142126583612
 31
0.0
  0
LINE
  5
7A8
330
23
100
AcDbEntity
  8
0
100
AcDbLine
 10
1.380650071403158
 20
4.232044891767824
 30
0.0
 11
1.503914041577787
 21
4.265031024631457
 31
0.0
  0
LINE
  5
7A9
330
23
100
AcDbEntity
  8
0
100
AcDbLine
 10
1.35981672433139
 20
4.261558800119496
 30
0.0
 11
1.448358449386405
 21
4.278919922679303
 31
0.0
  0
LINE
  5
7AA
330
23
100
AcDbEntity
  8
0
100
AcDbLine
 10
1.342136862412087
 20
4.284860681805236
 30
0.0
 11
1.387594520427081
 21
4.29628104523911
 31
0.0
  0
LINE
  5
7AB
330
23
100
AcDbEntity
  8
0
100
AcDbLine
 10
1.25912221348451
 20
4.164336513784577
 30
0.0
 11
1.30041591476055
 21
4.290964201455169
 31
0.0
  0
LINE
  5
7AC
330
23
100
AcDbEntity
  8
0
100
AcDbLine
 10
1.20877495806107
 20
4.192114309880268
 30
0.0
 11
1.247315293806141
 21
4.304242747538021
 31
0.0
  0
LINE
  5
7AD
330
23
100
AcDbEntity
  8
0
100
AcDbLine
 10
1.15842770263763
 20
4.207739320184095
 30
0.0
 11
1.203566621293128
 21
4.318850504566859
 31
0.0
  0
LINE
  5
7AE
330
23
100
AcDbEntity
  8
0
100
AcDbLine
 10
1.11074565079466
 20
4.223479619192419
 30
0.0
 11
1.156691590381649
 21
4.331003290358724
 31
0.0
  0
LINE
  5
7AF
330
23
100
AcDbEntity
  8
0
100
AcDbLine
 10
1.090719324654383
 20
4.160864289272616
 30
0.0
 11
1.201783037217648
 21
4.192616154829262
 31
0.0
  0
LINE
  5
7B0
330
23
100
AcDbEntity
  8
0
100
AcDbLine
 10
0.9931511722059669
 20
4.154794678065183
 30
0.0
 11
1.152480161823196
 21
4.206016771305113
 31
0.0
  0
LINE
  5
7B1
330
23
100
AcDbEntity
  8
0
100
AcDbLine
 10
0.9362663690686004
 20
4.171701427495495
 30
0.0
 11
1.094191549166344
 21
4.22162821823194
 31
0.0
  0
LINE
  5
7B2
330
23
100
AcDbEntity
  8
0
100
AcDbLine
 10
0.8717860748113173
 20
4.192168563388267
 30
0.0
 11
1.041821463071305
 21
4.238131577216907
 31
0.0
  0
LINE
  5
7B3
330
23
100
AcDbEntity
  8
0
100
AcDbLine
 10
0.773166760645414
 20
4.222781105276927
 30
0.0
 11
1.008342154445798
 21
4.147755285402261
 31
0.0
  0
LINE
  5
7B4
330
23
100
AcDbEntity
  8
0
100
AcDbLine
 10
1.008342154445798
 20
4.147755285402261
 30
0.0
 11
1.239963943472223
 21
4.180334516955899
 31
0.0
  0
LINE
  5
7B5
330
23
100
AcDbEntity
  8
0
100
AcDbLine
 10
1.239963943472223
 20
4.180334516955899
 30
0.0
 11
1.30041591476055
 21
4.116484919729109
 31
0.0
  0
LINE
  5
7B6
330
23
100
AcDbEntity
  8
0
100
AcDbLine
 10
1.30041591476055
 20
4.116484919729109
 30
0.0
 11
1.345921044595044
 21
4.277427951209319
 31
0.0
  0
LINE
  5
7B7
330
23
100
AcDbEntity
  8
0
100
AcDbLine
 10
1.345921044595044
 20
4.277427951209319
 30
0.0
 11
1.399116609188453
 21
4.20274121575965
 31
0.0
  0
LINE
  5
7B8
330
23
100
AcDbEntity
  8
0
100
AcDbLine
 10
1.399116609188453
 20
4.20274121575965
 30
0.0
 11
1.622824167735465
 21
4.2342150320878
 31
0.0
  0
LINE
  5
7B9
330
23
100
AcDbEntity
  8
0
100
AcDbLine
 10
0.9930019750589691
 20
4.251657534909605
 30
0.0
 11
1.239719802686225
 21
4.183386276780865
 31
0.0
  0
LINE
  5
7BA
330
23
100
AcDbEntity
  8
0
100
AcDbLine
 10
0.2193740777415725
 20
2.692744017743442
 30
0.0
 11
2.021085606582036
 21
1.255154907840929
 31
0.0
  0
LINE
  5
7BB
330
23
100
AcDbEntity
  8
0
100
AcDbLine
 10
2.021085606582036
 20
1.255154907840929
 30
0.0
 11
2.25632881726742
 21
1.327095059448129
 31
0.0
  0
LINE
  5
7BC
330
23
100
AcDbEntity
  8
0
100
AcDbLine
 10
2.25632881726742
 20
1.327095059448129
 30
0.0
 11
2.229717471593716
 21
1.35757196756679
 31
0.0
  0
LINE
  5
7BD
330
23
100
AcDbEntity
  8
0
100
AcDbLine
 10
2.229717471593716
 20
1.35757196756679
 30
0.0
 11
2.487679338753847
 21
1.327217129841127
 31
0.0
  0
LINE
  5
7BE
330
23
100
AcDbEntity
  8
0
100
AcDbLine
 10
2.487679338753847
 20
1.327217129841127
 30
0.0
 11
2.450203728103264
 21
1.386407707068469
 31
0.0
  0
LINE
  5
7BF
330
23
100
AcDbEntity
  8
0
100
AcDbLine
 10
2.450203728103264
 20
1.386407707068469
 30
0.0
 11
2.665929239285865
 21
1.452379972795735
 31
0.0
  0
LINE
  5
7C0
330
23
100
AcDbEntity
  8
0
100
AcDbLine
 10
0.773166760645414
 20
2.814122678515092
 30
0.0
 11
0.6274554015360341
 21
2.780404123293467
 31
0.0
  0
LINE
  5
7C1
330
23
100
AcDbEntity
  8
0
100
AcDbLine
 10
0.6274554015360341
 20
2.780404123293467
 30
0.0
 11
0.6290287532680168
 21
2.749642384257809
 31
0.0
  0
LINE
  5
7C2
330
23
100
AcDbEntity
  8
0
100
AcDbLine
 10
0.6290287532680168
 20
2.749642384257809
 30
0.0
 11
0.4014488505875473
 21
2.785680276946408
 31
0.0
  0
LINE
  5
7C3
330
23
100
AcDbEntity
  8
0
100
AcDbLine
 10
0.4014488505875473
 20
2.785680276946408
 30
0.0
 11
0.3978274289285873
 21
2.731847233634007
 31
0.0
  0
LINE
  5
7C4
330
23
100
AcDbEntity
  8
0
100
AcDbLine
 10
0.3978274289285873
 20
2.731847233634007
 30
0.0
 11
0.2193740777415725
 21
2.692744017743442
 31
0.0
  0
LINE
  5
7C5
330
23
100
AcDbEntity
  8
0
100
AcDbLine
 10
0.2193740777415725
 20
2.692744017743442
 30
0.0
 11
0.2193740777415725
 21
2.438600241208768
 31
0.0
  0
LINE
  5
7C6
330
23
100
AcDbEntity
  8
0
100
AcDbLine
 10
0.2193740777415725
 20
2.438600241208768
 30
0.0
 11
2.024896915518994
 21
0.917562454314683
 31
0.0
  0
LINE
  5
7C7
330
23
100
AcDbEntity
  8
0
100
AcDbLine
 10
2.024896915518994
 20
0.917562454314683
 30
0.0
 11
2.260207943089377
 21
0.9927578164018467
 31
0.0
  0
LINE
  5
7C8
330
23
100
AcDbEntity
  8
0
100
AcDbLine
 10
2.260207943089377
 20
0.9927578164018467
 30
0.0
 11
2.260085872696378
 21
1.046536606206248
 31
0.0
  0
LINE
  5
7C9
330
23
100
AcDbEntity
  8
0
100
AcDbLine
 10
2.260085872696378
 20
1.046536606206248
 30
0.0
 11
2.487679338753847
 21
1.016168205103586
 31
0.0
  0
LINE
  5
7CA
330
23
100
AcDbEntity
  8
0
100
AcDbLine
 10
2.487679338753847
 20
1.016168205103586
 30
0.0
 11
2.489957986089822
 21
1.066149249348031
 31
0.0
  0
LINE
  5
7CB
330
23
100
AcDbEntity
  8
0
100
AcDbLine
 10
2.489957986089822
 20
1.066149249348031
 30
0.0
 11
2.665929239285865
 21
1.122396573766405
 31
0.0
  0
LINE
  5
7CC
330
23
100
AcDbEntity
  8
0
100
AcDbLine
 10
2.665929239285865
 20
1.122396573766405
 30
0.0
 11
2.665929239285865
 21
1.452379972795735
 31
0.0
  0
LINE
  5
7CD
330
23
100
AcDbEntity
  8
0
100
AcDbLine
 10
2.665929239285865
 20
1.452379972795735
 30
0.0
 11
1.901607868253521
 21
2.00226885931694
 31
0.0
  0
SPLINE
  5
7CE
330
23
100
AcDbEntity
  8
0
100
AcDbSpline
210
0.0
220
0.0
230
1.0
 70
     8
 71
     3
 72
     8
 73
     4
 74
     0
 42
0.0000000001
 43
0.0000000001
 40
0.0
 40
0.0
 40
0.0
 40
0.0
 40
1.0
 40
1.0
 40
1.0
 40
1.0
 10
2.404196753319776
 20
0.1627198341420773
 30
0.0
 10
2.404196753319776
 20
0.1627198341420773
 30
0.0
 10
2.392844206770902
 20
0.1210124498675409
 30
0.0
 10
2.419387735559607
 20
0.1247695052964994
 30
0.0
  0
SPLINE
  5
7CF
330
23
100
AcDbEntity
  8
0
100
AcDbSpline
210
0.0
220
0.0
230
1.0
 70
     8
 71
     3
 72
     8
 73
     4
 74
     0
 42
0.0000000001
 43
0.0000000001
 40
1.0
 40
1.0
 40
1.0
 40
1.0
 40
2.0
 40
2.0
 40
2.0
 40
2.0
 10
2.419387735559607
 20
0.1247695052964994
 30
0.0
 10
2.445944827725311
 20
0.1285943776104563
 30
0.0
 10
2.468704174331059
 20
0.1285943776104563
 30
0.0
 10
2.461108683211143
 20
0.1437582330962881
 30
0.0
  0
SPLINE
  5
7D0
330
23
100
AcDbEntity
  8
0
100
AcDbSpline
210
0.0
220
0.0
230
1.0
 70
     8
 71
     3
 72
     8
 73
     4
 74
     0
 42
0.0000000001
 43
0.0000000001
 40
2.0
 40
2.0
 40
2.0
 40
2.0
 40
3.0
 40
3.0
 40
3.0
 40
3.0
 10
2.461108683211143
 20
0.1437582330962881
 30
0.0
 10
2.453513192091227
 20
0.1589356519591192
 30
0.0
 10
2.43078097223948
 20
0.1703153252619929
 30
0.0
 10
2.404196753319776
 20
0.1627198341420773
 30
0.0
  0
SPLINE
  5
7D1
330
23
100
AcDbEntity
  8
0
100
AcDbSpline
210
0.0
220
0.0
230
1.0
 70
     8
 71
     3
 72
     8
 73
     4
 74
     0
 42
0.0000000001
 43
0.0000000001
 40
0.0
 40
0.0
 40
0.0
 40
0.0
 40
1.0
 40
1.0
 40
1.0
 40
1.0
 10
2.411792244439691
 20
0.2423639838851912
 30
0.0
 10
2.411792244439691
 20
0.2423639838851912
 30
0.0
 10
2.392844206770902
 20
0.2310114373363179
 30
0.0
 10
2.419387735559607
 20
0.219618200656444
 30
0.0
  0
SPLINE
  5
7D2
330
23
100
AcDbEntity
  8
0
100
AcDbSpline
210
0.0
220
0.0
230
1.0
 70
     8
 71
     3
 72
    11
 73
     7
 74
     0
 42
0.0000000001
 43
0.0000000001
 40
1.0
 40
1.0
 40
1.0
 40
1.0
 40
2.0
 40
2.0
 40
2.0
 40
3.0
 40
3.0
 40
3.0
 40
3.0
 10
2.419387735559607
 20
0.219618200656444
 30
0.0
 10
2.445944827725311
 20
0.2082520907305705
 30
0.0
 10
2.457310937651185
 20
0.219618200656444
 30
0.0
 10
2.453513192091227
 20
0.2310114373363179
 30
0.0
 10
2.449729009908269
 20
0.2423639838851912
 30
0.0
 10
2.426983226679522
 20
0.2461752928221488
 30
0.0
 10
2.411792244439691
 20
0.2423639838851912
 30
0.0
  0
SPLINE
  5
7D3
330
23
100
AcDbEntity
  8
0
100
AcDbSpline
210
0.0
220
0.0
230
1.0
 70
     8
 71
     3
 72
     8
 73
     4
 74
     0
 42
0.0000000001
 43
0.0000000001
 40
0.0
 40
0.0
 40
0.0
 40
0.0
 40
1.0
 40
1.0
 40
1.0
 40
1.0
 10
2.658360874919949
 20
0.6254886939999311
 30
0.0
 10
2.658360874919949
 20
0.6254886939999311
 30
0.0
 10
2.650765383800033
 20
0.5951474196512683
 30
0.0
 10
2.665929239285865
 20
0.5913632374683102
 30
0.0
  0
SPLINE
  5
7D4
330
23
100
AcDbEntity
  8
0
100
AcDbSpline
210
0.0
220
0.0
230
1.0
 70
     8
 71
     3
 72
     8
 73
     4
 74
     0
 42
0.0000000001
 43
0.0000000001
 40
1.0
 40
1.0
 40
1.0
 40
1.0
 40
2.0
 40
2.0
 40
2.0
 40
2.0
 10
2.665929239285865
 20
0.5913632374683102
 30
0.0
 10
2.681106658148696
 20
0.5875519285313526
 30
0.0
 10
2.692499894828569
 20
0.5951474196512683
 30
0.0
 10
2.688702149268612
 20
0.606527092954142
 30
0.0
  0
SPLINE
  5
7D5
330
23
100
AcDbEntity
  8
0
100
AcDbSpline
210
0.0
220
0.0
230
1.0
 70
     8
 71
     3
 72
     8
 73
     4
 74
     0
 42
0.0000000001
 43
0.0000000001
 40
2.0
 40
2.0
 40
2.0
 40
2.0
 40
3.0
 40
3.0
 40
3.0
 40
3.0
 10
2.688702149268612
 20
0.606527092954142
 30
0.0
 10
2.684904403708655
 20
0.6178796395030153
 30
0.0
 10
2.673524730405781
 20
0.6330841851198468
 30
0.0
 10
2.658360874919949
 20
0.6254886939999311
 30
0.0
  0
SPLINE
  5
7D6
330
23
100
AcDbEntity
  8
0
100
AcDbSpline
210
0.0
220
0.0
230
1.0
 70
     8
 71
     3
 72
    11
 73
     7
 74
     0
 42
0.0000000001
 43
0.0000000001
 40
0.0
 40
0.0
 40
0.0
 40
0.0
 40
1.0
 40
1.0
 40
1.0
 40
2.0
 40
2.0
 40
2.0
 40
2.0
 10
2.578703161799835
 20
0.5761722552284789
 30
0.0
 10
2.578703161799835
 20
0.5761722552284789
 30
0.0
 10
2.555930251817088
 20
0.5306671253939852
 30
0.0
 10
2.582487343982793
 20
0.5306671253939852
 30
0.0
 10
2.609044436148498
 20
0.5306671253939852
 30
0.0
 10
2.624208291634329
 20
0.545830980879817
 30
0.0
 10
2.620437672828371
 20
0.55722421755969
 30
0.0
  0
SPLINE
  5
7D7
330
23
100
AcDbEntity
  8
0
100
AcDbSpline
210
0.0
220
0.0
230
1.0
 70
     8
 71
     3
 72
     8
 73
     4
 74
     0
 42
0.0000000001
 43
0.0000000001
 40
2.0
 40
2.0
 40
2.0
 40
2.0
 40
3.0
 40
3.0
 40
3.0
 40
3.0
 10
2.620437672828371
 20
0.55722421755969
 30
0.0
 10
2.616626363891413
 20
0.5685767641085642
 30
0.0
 10
2.578703161799835
 20
0.5761722552284789
 30
0.0
 10
2.578703161799835
 20
0.5761722552284789
 30
0.0
  0
SPLINE
  5
7D8
330
23
100
AcDbEntity
  8
0
100
AcDbSpline
210
0.0
220
0.0
230
1.0
 70
     8
 71
     3
 72
     8
 73
     4
 74
     0
 42
0.0000000001
 43
0.0000000001
 40
0.0
 40
0.0
 40
0.0
 40
0.0
 40
1.0
 40
1.0
 40
1.0
 40
1.0
 10
2.525602540845426
 20
0.5230580708970702
 30
0.0
 10
2.525602540845426
 20
0.5230580708970702
 30
0.0
 10
2.411792244439691
 20
0.4737687588796185
 30
0.0
 10
2.461108683211143
 20
0.4320478112280819
 30
0.0
  0
SPLINE
  5
7D9
330
23
100
AcDbEntity
  8
0
100
AcDbSpline
210
0.0
220
0.0
230
1.0
 70
     8
 71
     3
 72
     8
 73
     4
 74
     0
 42
0.0000000001
 43
0.0000000001
 40
1.0
 40
1.0
 40
1.0
 40
1.0
 40
2.0
 40
2.0
 40
2.0
 40
2.0
 10
2.461108683211143
 20
0.4320478112280819
 30
0.0
 10
2.510425121982594
 20
0.3902997368225467
 30
0.0
 10
2.533170905211342
 20
0.4130726468052934
 30
0.0
 10
2.548348324074173
 20
0.4244523201081663
 30
0.0
  0
SPLINE
  5
7DA
330
23
100
AcDbEntity
  8
0
100
AcDbSpline
210
0.0
220
0.0
230
1.0
 70
     8
 71
     3
 72
     8
 73
     4
 74
     0
 42
0.0000000001
 43
0.0000000001
 40
2.0
 40
2.0
 40
2.0
 40
2.0
 40
3.0
 40
3.0
 40
3.0
 40
3.0
 10
2.548348324074173
 20
0.4244523201081663
 30
0.0
 10
2.563539306314004
 20
0.4358184300340398
 30
0.0
 10
2.582487343982793
 20
0.4699710133196602
 30
0.0
 10
2.571107670679919
 20
0.485134868805492
 30
0.0
  0
SPLINE
  5
7DB
330
23
100
AcDbEntity
  8
0
100
AcDbSpline
210
0.0
220
0.0
230
1.0
 70
     8
 71
     3
 72
     8
 73
     4
 74
     0
 42
0.0000000001
 43
0.0000000001
 40
3.0
 40
3.0
 40
3.0
 40
3.0
 40
4.0
 40
4.0
 40
4.0
 40
4.0
 10
2.571107670679919
 20
0.485134868805492
 30
0.0
 10
2.559741560754046
 20
0.5003258510453224
 30
0.0
 10
2.548348324074173
 20
0.5344513075769433
 30
0.0
 10
2.525602540845426
 20
0.5230580708970702
 30
0.0
  0
SPLINE
  5
7DC
330
23
100
AcDbEntity
  8
0
100
AcDbSpline
210
0.0
220
0.0
230
1.0
 70
     8
 71
     3
 72
     8
 73
     4
 74
     0
 42
0.0000000001
 43
0.0000000001
 40
0.0
 40
0.0
 40
0.0
 40
0.0
 40
1.0
 40
1.0
 40
1.0
 40
1.0
 10
2.34351420462245
 20
0.4016929735024197
 30
0.0
 10
2.34351420462245
 20
0.4016929735024197
 30
0.0
 10
2.328363912513619
 20
0.3940974823825041
 30
0.0
 10
2.34351420462245
 20
0.3827313724566306
 30
0.0
  0
SPLINE
  5
7DD
330
23
100
AcDbEntity
  8
0
100
AcDbSpline
210
0.0
220
0.0
230
1.0
 70
     8
 71
     3
 72
     8
 73
     4
 74
     0
 42
0.0000000001
 43
0.0000000001
 40
1.0
 40
1.0
 40
1.0
 40
1.0
 40
2.0
 40
2.0
 40
2.0
 40
2.0
 10
2.34351420462245
 20
0.3827313724566306
 30
0.0
 10
2.358691623485282
 20
0.3713516991537569
 30
0.0
 10
2.373855478971113
 20
0.3675403902167993
 30
0.0
 10
2.377666787908071
 20
0.3827313724566306
 30
0.0
  0
SPLINE
  5
7DE
330
23
100
AcDbEntity
  8
0
100
AcDbSpline
210
0.0
220
0.0
230
1.0
 70
     8
 71
     3
 72
     8
 73
     4
 74
     0
 42
0.0000000001
 43
0.0000000001
 40
2.0
 40
2.0
 40
2.0
 40
2.0
 40
3.0
 40
3.0
 40
3.0
 40
3.0
 10
2.377666787908071
 20
0.3827313724566306
 30
0.0
 10
2.381437406714029
 20
0.3978952279424615
 30
0.0
 10
2.385248715650986
 20
0.4054907190623771
 30
0.0
 10
2.34351420462245
 20
0.4016929735024197
 30
0.0
  0
SPLINE
  5
7DF
330
23
100
AcDbEntity
  8
0
100
AcDbSpline
210
0.0
220
0.0
230
1.0
 70
     8
 71
     3
 72
     8
 73
     4
 74
     0
 42
0.0000000001
 43
0.0000000001
 40
0.0
 40
0.0
 40
0.0
 40
0.0
 40
1.0
 40
1.0
 40
1.0
 40
1.0
 10
2.241110708273589
 20
0.549615163062775
 30
0.0
 10
2.241110708273589
 20
0.549615163062775
 30
0.0
 10
2.214553616107884
 20
0.5306671253939852
 30
0.0
 10
2.244908453833547
 20
0.5154897065311541
 30
0.0
  0
SPLINE
  5
7E0
330
23
100
AcDbEntity
  8
0
100
AcDbSpline
210
0.0
220
0.0
230
1.0
 70
     8
 71
     3
 72
    11
 73
     7
 74
     0
 42
0.0000000001
 43
0.0000000001
 40
1.0
 40
1.0
 40
1.0
 40
1.0
 40
2.0
 40
2.0
 40
2.0
 40
3.0
 40
3.0
 40
3.0
 40
3.0
 10
2.244908453833547
 20
0.5154897065311541
 30
0.0
 10
2.275249728182209
 20
0.5003258510453224
 30
0.0
 10
2.286629401485083
 20
0.5078806520342392
 30
0.0
 10
2.286629401485083
 20
0.5306671253939852
 30
0.0
 10
2.286629401485083
 20
0.5534129086227324
 30
0.0
 10
2.275249728182209
 20
0.5609948363656478
 30
0.0
 10
2.241110708273589
 20
0.549615163062775
 30
0.0
  0
SPLINE
  5
7E1
330
23
100
AcDbEntity
  8
0
100
AcDbSpline
210
0.0
220
0.0
230
1.0
 70
     8
 71
     3
 72
     8
 73
     4
 74
     0
 42
0.0000000001
 43
0.0000000001
 40
0.0
 40
0.0
 40
0.0
 40
0.0
 40
1.0
 40
1.0
 40
1.0
 40
1.0
 10
2.043872079941782
 20
0.280314312730769
 30
0.0
 10
2.043872079941782
 20
0.280314312730769
 30
0.0
 10
2.002124005536247
 20
0.2310114373363179
 30
0.0
 10
2.043872079941782
 20
0.2158204550964866
 30
0.0
  0
SPLINE
  5
7E2
330
23
100
AcDbEntity
  8
0
100
AcDbSpline
210
0.0
220
0.0
230
1.0
 70
     8
 71
     3
 72
    11
 73
     7
 74
     0
 42
0.0000000001
 43
0.0000000001
 40
1.0
 40
1.0
 40
1.0
 40
1.0
 40
2.0
 40
2.0
 40
2.0
 40
3.0
 40
3.0
 40
3.0
 40
3.0
 10
2.043872079941782
 20
0.2158204550964866
 30
0.0
 10
2.085606590970318
 20
0.2006430362336555
 30
0.0
 10
2.119718484124939
 20
0.2120362729135286
 30
0.0
 10
2.119718484124939
 20
0.2348091828962753
 30
0.0
 10
2.119718484124939
 20
0.2575414027480223
 30
0.0
 10
2.10077044645615
 20
0.2992894771535584
 30
0.0
 10
2.043872079941782
 20
0.280314312730769
 30
0.0
  0
SPLINE
  5
7E3
330
23
100
AcDbEntity
  8
0
100
AcDbSpline
210
0.0
220
0.0
230
1.0
 70
     8
 71
     3
 72
    11
 73
     7
 74
     0
 42
0.0000000001
 43
0.0000000001
 40
0.0
 40
0.0
 40
0.0
 40
0.0
 40
1.0
 40
1.0
 40
1.0
 40
2.0
 40
2.0
 40
2.0
 40
2.0
 10
1.842835706050019
 20
0.5192738887141122
 30
0.0
 10
1.842835706050019
 20
0.5192738887141122
 30
0.0
 10
1.823860541627229
 20
0.4737687588796185
 30
0.0
 10
1.850417633792934
 20
0.4737687588796185
 30
0.0
 10
1.876974725958639
 20
0.4737687588796185
 30
0.0
 10
1.895922763627428
 20
0.485134868805492
 30
0.0
 10
1.89215214482147
 20
0.496528105485365
 30
0.0
  0
SPLINE
  5
7E4
330
23
100
AcDbEntity
  8
0
100
AcDbSpline
210
0.0
220
0.0
230
1.0
 70
     8
 71
     3
 72
     8
 73
     4
 74
     0
 42
0.0000000001
 43
0.0000000001
 40
2.0
 40
2.0
 40
2.0
 40
2.0
 40
3.0
 40
3.0
 40
3.0
 40
3.0
 10
1.89215214482147
 20
0.496528105485365
 30
0.0
 10
1.888327272507512
 20
0.5078806520342392
 30
0.0
 10
1.865581489278766
 20
0.545830980879817
 30
0.0
 10
1.842835706050019
 20
0.5192738887141122
 30
0.0
  0
SPLINE
  5
7E5
330
23
100
AcDbEntity
  8
0
100
AcDbSpline
210
0.0
220
0.0
230
1.0
 70
     8
 71
     3
 72
     8
 73
     4
 74
     0
 42
0.0000000001
 43
0.0000000001
 40
0.0
 40
0.0
 40
0.0
 40
0.0
 40
1.0
 40
1.0
 40
1.0
 40
1.0
 10
1.541674483145368
 20
0.2213814396664251
 30
0.0
 10
1.541674483145368
 20
0.2213814396664251
 30
0.0
 10
1.515137736045163
 20
0.1872424197578049
 30
0.0
 10
1.553067719825241
 20
0.1758356197009316
 30
0.0
  0
SPLINE
  5
7E6
330
23
100
AcDbEntity
  8
0
100
AcDbSpline
210
0.0
220
0.0
230
1.0
 70
     8
 71
     3
 72
     8
 73
     4
 74
     0
 42
0.0000000001
 43
0.0000000001
 40
1.0
 40
1.0
 40
1.0
 40
1.0
 40
2.0
 40
2.0
 40
2.0
 40
2.0
 10
1.553067719825241
 20
0.1758356197009316
 30
0.0
 10
1.591004485293818
 20
0.1644695097750573
 30
0.0
 10
1.625143505202439
 20
0.1606717642150999
 30
0.0
 10
1.628914124008397
 20
0.1834311108208464
 30
0.0
  0
SPLINE
  5
7E7
330
23
100
AcDbEntity
  8
0
100
AcDbSpline
210
0.0
220
0.0
230
1.0
 70
     8
 71
     3
 72
     8
 73
     4
 74
     0
 42
0.0000000001
 43
0.0000000001
 40
2.0
 40
2.0
 40
2.0
 40
2.0
 40
3.0
 40
3.0
 40
3.0
 40
3.0
 10
1.628914124008397
 20
0.1834311108208464
 30
0.0
 10
1.632725432945355
 20
0.206204020803594
 30
0.0
 10
1.651673470614145
 20
0.2137859485465095
 30
0.0
 10
1.617534450705524
 20
0.2289633674093405
 30
0.0
  0
SPLINE
  5
7E8
330
23
100
AcDbEntity
  8
0
100
AcDbSpline
210
0.0
220
0.0
230
1.0
 70
     8
 71
     3
 72
     8
 73
     4
 74
     0
 42
0.0000000001
 43
0.0000000001
 40
3.0
 40
3.0
 40
3.0
 40
3.0
 40
4.0
 40
4.0
 40
4.0
 40
4.0
 10
1.617534450705524
 20
0.2289633674093405
 30
0.0
 10
1.583395430796903
 20
0.2441272228951714
 30
0.0
 10
1.57202932087103
 20
0.2441272228951714
 30
0.0
 10
1.541674483145368
 20
0.2213814396664251
 30
0.0
  0
SPLINE
  5
7E9
330
23
100
AcDbEntity
  8
0
100
AcDbSpline
210
0.0
220
0.0
230
1.0
 70
     8
 71
     3
 72
     8
 73
     4
 74
     0
 42
0.0000000001
 43
0.0000000001
 40
0.0
 40
0.0
 40
0.0
 40
0.0
 40
1.0
 40
1.0
 40
1.0
 40
1.0
 10
1.167657580686027
 20
0.6103112751371
 30
0.0
 10
1.167657580686027
 20
0.6103112751371
 30
0.0
 10
1.141100488520322
 20
0.5724016364225211
 30
0.0
 10
1.1790372539889
 20
0.5685767641085642
 30
0.0
  0
SPLINE
  5
7EA
330
23
100
AcDbEntity
  8
0
100
AcDbSpline
210
0.0
220
0.0
230
1.0
 70
     8
 71
     3
 72
     8
 73
     4
 74
     0
 42
0.0000000001
 43
0.0000000001
 40
1.0
 40
1.0
 40
1.0
 40
1.0
 40
2.0
 40
2.0
 40
2.0
 40
2.0
 10
1.1790372539889
 20
0.5685767641085642
 30
0.0
 10
1.216974019457479
 20
0.5648061453026054
 30
0.0
 10
1.220744638263437
 20
0.5648061453026054
 30
0.0
 10
1.224542383823394
 20
0.5837677463483946
 30
0.0
  0
SPLINE
  5
7EB
330
23
100
AcDbEntity
  8
0
100
AcDbSpline
210
0.0
220
0.0
230
1.0
 70
     8
 71
     3
 72
     8
 73
     4
 74
     0
 42
0.0000000001
 43
0.0000000001
 40
2.0
 40
2.0
 40
2.0
 40
2.0
 40
3.0
 40
3.0
 40
3.0
 40
3.0
 10
1.224542383823394
 20
0.5837677463483946
 30
0.0
 10
1.228340129383352
 20
0.6027157840171844
 30
0.0
 10
1.224542383823394
 20
0.6292864395598885
 30
0.0
 10
1.205580782777605
 20
0.6254886939999311
 30
0.0
  0
SPLINE
  5
7EC
330
23
100
AcDbEntity
  8
0
100
AcDbSpline
210
0.0
220
0.0
230
1.0
 70
     8
 71
     3
 72
     8
 73
     4
 74
     0
 42
0.0000000001
 43
0.0000000001
 40
3.0
 40
3.0
 40
3.0
 40
3.0
 40
4.0
 40
4.0
 40
4.0
 40
4.0
 10
1.205580782777605
 20
0.6254886939999311
 30
0.0
 10
1.186619181731816
 20
0.6217045118169731
 30
0.0
 10
1.1790372539889
 20
0.6178796395030153
 30
0.0
 10
1.167657580686027
 20
0.6103112751371
 30
0.0
  0
SPLINE
  5
7ED
330
23
100
AcDbEntity
  8
0
100
AcDbSpline
210
0.0
220
0.0
230
1.0
 70
     8
 71
     3
 72
     8
 73
     4
 74
     0
 42
0.0000000001
 43
0.0000000001
 40
0.0
 40
0.0
 40
0.0
 40
0.0
 40
1.0
 40
1.0
 40
1.0
 40
1.0
 10
0.9893805534000091
 20
0.4623890855767447
 30
0.0
 10
0.9893805534000091
 20
0.4623890855767447
 30
0.0
 10
0.9514437879314315
 20
0.4282365022911243
 30
0.0
 10
0.9931511722059669
 20
0.4130726468052934
 30
0.0
  0
SPLINE
  5
7EE
330
23
100
AcDbEntity
  8
0
100
AcDbSpline
210
0.0
220
0.0
230
1.0
 70
     8
 71
     3
 72
    11
 73
     7
 74
     0
 42
0.0000000001
 43
0.0000000001
 40
1.0
 40
1.0
 40
1.0
 40
1.0
 40
2.0
 40
2.0
 40
2.0
 40
3.0
 40
3.0
 40
3.0
 40
3.0
 10
0.9931511722059669
 20
0.4130726468052934
 30
0.0
 10
1.034899246611503
 20
0.3978952279424615
 30
0.0
 10
1.038683428794461
 20
0.4016929735024197
 30
0.0
 10
1.038683428794461
 20
0.4206681379252082
 30
0.0
 10
1.038683428794461
 20
0.4396433023479975
 30
0.0
 10
1.00455797226284
 20
0.4661732677597028
 30
0.0
 10
0.9893805534000091
 20
0.4623890855767447
 30
0.0
  0
SPLINE
  5
7EF
330
23
100
AcDbEntity
  8
0
100
AcDbSpline
210
0.0
220
0.0
230
1.0
 70
     8
 71
     3
 72
     8
 73
     4
 74
     0
 42
0.0000000001
 43
0.0000000001
 40
0.0
 40
0.0
 40
0.0
 40
0.0
 40
1.0
 40
1.0
 40
1.0
 40
1.0
 10
1.076620194263039
 20
0.7203102626058766
 30
0.0
 10
1.076620194263039
 20
0.7203102626058766
 30
0.0
 10
1.061442775400208
 20
0.6861712426972559
 30
0.0
 10
1.080417939822997
 20
0.6824006238912981
 30
0.0
  0
SPLINE
  5
7F0
330
23
100
AcDbEntity
  8
0
100
AcDbSpline
210
0.0
220
0.0
230
1.0
 70
     8
 71
     3
 72
    11
 73
     7
 74
     0
 42
0.0000000001
 43
0.0000000001
 40
1.0
 40
1.0
 40
1.0
 40
1.0
 40
2.0
 40
2.0
 40
2.0
 40
3.0
 40
3.0
 40
3.0
 40
3.0
 10
1.080417939822997
 20
0.6824006238912981
 30
0.0
 10
1.099379540868786
 20
0.6785893149543405
 30
0.0
 10
1.114556959731617
 20
0.6861712426972559
 30
0.0
 10
1.114556959731617
 20
0.7013622249370872
 30
0.0
 10
1.114556959731617
 20
0.7165260804229185
 30
0.0
 10
1.11074565079466
 20
0.7317034992857496
 30
0.0
 10
1.076620194263039
 20
0.7203102626058766
 30
0.0
  0
SPLINE
  5
7F1
330
23
100
AcDbEntity
  8
0
100
AcDbSpline
210
0.0
220
0.0
230
1.0
 70
     8
 71
     3
 72
     8
 73
     4
 74
     0
 42
0.0000000001
 43
0.0000000001
 40
0.0
 40
0.0
 40
0.0
 40
0.0
 40
1.0
 40
1.0
 40
1.0
 40
1.0
 10
0.9286844413256841
 20
0.7923996113600746
 30
0.0
 10
0.9286844413256841
 20
0.7923996113600746
 30
0.0
 10
0.9059250947199375
 20
0.784804120240159
 30
0.0
 10
0.9210889502057684
 20
0.7696267013773279
 30
0.0
  0
SPLINE
  5
7F2
330
23
100
AcDbEntity
  8
0
100
AcDbSpline
210
0.0
220
0.0
230
1.0
 70
     8
 71
     3
 72
     8
 73
     4
 74
     0
 42
0.0000000001
 43
0.0000000001
 40
1.0
 40
1.0
 40
1.0
 40
1.0
 40
2.0
 40
2.0
 40
2.0
 40
2.0
 10
0.9210889502057684
 20
0.7696267013773279
 30
0.0
 10
0.9362663690686004
 20
0.7544628458914966
 30
0.0
 10
0.9400641146285578
 20
0.7582470280744547
 30
0.0
 10
0.9476596057484734
 20
0.7696267013773279
 30
0.0
  0
SPLINE
  5
7F3
330
23
100
AcDbEntity
  8
0
100
AcDbSpline
210
0.0
220
0.0
230
1.0
 70
     8
 71
     3
 72
     8
 73
     4
 74
     0
 42
0.0000000001
 43
0.0000000001
 40
2.0
 40
2.0
 40
2.0
 40
2.0
 40
3.0
 40
3.0
 40
3.0
 40
3.0
 10
0.9476596057484734
 20
0.7696267013773279
 30
0.0
 10
0.9552415334913889
 20
0.7810063746802016
 30
0.0
 10
0.9438618601885151
 20
0.7961837935430327
 30
0.0
 10
0.9286844413256841
 20
0.7923996113600746
 30
0.0
  0
SPLINE
  5
7F4
330
23
100
AcDbEntity
  8
0
100
AcDbSpline
210
0.0
220
0.0
230
1.0
 70
     8
 71
     3
 72
     8
 73
     4
 74
     0
 42
0.0000000001
 43
0.0000000001
 40
0.0
 40
0.0
 40
0.0
 40
0.0
 40
1.0
 40
1.0
 40
1.0
 40
1.0
 10
0.5645484590107337
 20
0.9706630752690924
 30
0.0
 10
0.5645484590107337
 20
0.9706630752690924
 30
0.0
 10
0.5304094391021135
 20
0.917562454314683
 30
0.0
 10
0.5759145689366072
 20
0.9213466364976406
 30
0.0
  0
SPLINE
  5
7F5
330
23
100
AcDbEntity
  8
0
100
AcDbSpline
210
0.0
220
0.0
230
1.0
 70
     8
 71
     3
 72
     8
 73
     4
 74
     0
 42
0.0000000001
 43
0.0000000001
 40
1.0
 40
1.0
 40
1.0
 40
1.0
 40
2.0
 40
2.0
 40
2.0
 40
2.0
 10
0.5759145689366072
 20
0.9213466364976406
 30
0.0
 10
0.6214468255251004
 20
0.9251579454345982
 30
0.0
 10
0.6138513344051857
 20
0.9251579454345982
 30
0.0
 10
0.6100807155992269
 20
0.9441059831033876
 30
0.0
  0
SPLINE
  5
7F6
330
23
100
AcDbEntity
  8
0
100
AcDbSpline
210
0.0
220
0.0
230
1.0
 70
     8
 71
     3
 72
     8
 73
     4
 74
     0
 42
0.0000000001
 43
0.0000000001
 40
2.0
 40
2.0
 40
2.0
 40
2.0
 40
3.0
 40
3.0
 40
3.0
 40
3.0
 10
0.6100807155992269
 20
0.9441059831033876
 30
0.0
 10
0.6062694066622694
 20
0.9630675841491767
 30
0.0
 10
0.6062694066622694
 20
0.9858269307549237
 30
0.0
 10
0.5645484590107337
 20
0.9706630752690924
 30
0.0
  0
LINE
  5
7F7
330
23
100
AcDbEntity
  8
0
100
AcDbLine
 10
0.0860460818330546
 20
1.627673057141786
 30
0.0
 11
0.1245389457586272
 21
1.601563556417077
 31
0.0
  0
LINE
  5
7F8
330
23
100
AcDbEntity
  8
0
100
AcDbLine
 10
0.1245389457586272
 20
1.601563556417077
 30
0.0
 11
0.1397163646214583
 21
1.571235845445413
 31
0.0
  0
LINE
  5
7F9
330
23
100
AcDbEntity
  8
0
100
AcDbLine
 10
0.1397163646214583
 20
1.571235845445413
 30
0.0
 11
0.1397163646214583
 21
1.550999286961639
 31
0.0
  0
LINE
  5
7FA
330
23
100
AcDbEntity
  8
0
100
AcDbLine
 10
0.1397163646214583
 20
1.550999286961639
 30
0.0
 11
0.1902941974538956
 21
1.510539733371088
 31
0.0
  0
LINE
  5
7FB
330
23
100
AcDbEntity
  8
0
100
AcDbLine
 10
0.1902941974538956
 20
1.510539733371088
 30
0.0
 11
0.2964818759857151
 21
1.495375877885257
 31
0.0
  0
LINE
  5
7FC
330
23
100
AcDbEntity
  8
0
100
AcDbLine
 10
0.2964818759857151
 20
1.495375877885257
 30
0.0
 11
0.3167184344694896
 21
1.465034603536595
 31
0.0
  0
LINE
  5
7FD
330
23
100
AcDbEntity
  8
0
100
AcDbLine
 10
0.3167184344694896
 20
1.465034603536595
 30
0.0
 11
0.352132411816096
 21
1.44479804505282
 31
0.0
  0
LINE
  5
7FE
330
23
100
AcDbEntity
  8
0
100
AcDbLine
 10
0.352132411816096
 20
1.44479804505282
 30
0.0
 11
0.3672962673019269
 21
1.409397631083214
 31
0.0
  0
LINE
  5
7FF
330
23
100
AcDbEntity
  8
0
100
AcDbLine
 10
0.3672962673019269
 20
1.409397631083214
 30
0.0
 11
0.4279788159992526
 21
1.363892501248719
 31
0.0
  0
LINE
  5
800
330
23
100
AcDbEntity
  8
0
100
AcDbLine
 10
0.4279788159992526
 20
1.363892501248719
 30
0.0
 11
0.4583200903479154
 21
1.32341938428117
 31
0.0
  0
LINE
  5
801
330
23
100
AcDbEntity
  8
0
100
AcDbLine
 10
0.4583200903479154
 20
1.32341938428117
 30
0.0
 11
0.493734067694521
 21
1.252604992964957
 31
0.0
  0
LINE
  5
802
330
23
100
AcDbEntity
  8
0
100
AcDbLine
 10
0.493734067694521
 20
1.252604992964957
 30
0.0
 11
0.5190162024222405
 21
1.207099863130463
 31
0.0
  0
LINE
  5
803
330
23
100
AcDbEntity
  8
0
100
AcDbLine
 10
0.5190162024222405
 20
1.207099863130463
 30
0.0
 11
0.5898305937384523
 21
1.171699449160857
 31
0.0
  0
LINE
  5
804
330
23
100
AcDbEntity
  8
0
100
AcDbLine
 10
0.5898305937384523
 20
1.171699449160857
 30
0.0
 11
0.5948897333593965
 21
1.156535593675026
 31
0.0
  0
LINE
  5
805
330
23
100
AcDbEntity
  8
0
100
AcDbLine
 10
0.5948897333593965
 20
1.156535593675026
 30
0.0
 11
0.6909862594033278
 21
1.116035349953476
 31
0.0
  0
LINE
  5
806
330
23
100
AcDbEntity
  8
0
100
AcDbLine
 10
0.6909862594033278
 20
1.116035349953476
 30
0.0
 11
0.8073057805540342
 21
1.100885057844644
 31
0.0
  0
LINE
  5
807
330
23
100
AcDbEntity
  8
0
100
AcDbLine
 10
0.8073057805540342
 20
1.100885057844644
 30
0.0
 11
0.8477517707675846
 21
1.075602923116926
 31
0.0
  0
LINE
  5
808
330
23
100
AcDbEntity
  8
0
100
AcDbLine
 10
0.8477517707675846
 20
1.075602923116926
 30
0.0
 11
0.9539801394304028
 21
1.060425504254094
 31
0.0
  0
LINE
  5
809
330
23
100
AcDbEntity
  8
0
100
AcDbLine
 10
0.9539801394304028
 20
1.060425504254094
 30
0.0
 11
0.9792487107811221
 21
1.019965950663544
 31
0.0
  0
LINE
  5
80A
330
23
100
AcDbEntity
  8
0
100
AcDbLine
 10
0.9792487107811221
 20
1.019965950663544
 30
0.0
 11
0.9994852692648975
 21
1.0149203744196
 31
0.0
  0
LINE
  5
80B
330
23
100
AcDbEntity
  8
0
100
AcDbLine
 10
0.9994852692648975
 20
1.0149203744196
 30
0.0
 11
1.034899246611503
 21
0.9441059831033876
 31
0.0
  0
LINE
  5
80C
330
23
100
AcDbEntity
  8
0
100
AcDbLine
 10
1.034899246611503
 20
0.9441059831033876
 30
0.0
 11
1.100640934929772
 21
0.8783642947851189
 31
0.0
  0
LINE
  5
80D
330
23
100
AcDbEntity
  8
0
100
AcDbLine
 10
1.100640934929772
 20
0.8783642947851189
 30
0.0
 11
1.176487339112929
 21
0.8834098710290625
 31
0.0
  0
LINE
  5
80E
330
23
100
AcDbEntity
  8
0
100
AcDbLine
 10
1.176487339112929
 20
0.8834098710290625
 30
0.0
 11
1.216960456080479
 21
0.8884690106500064
 31
0.0
  0
LINE
  5
80F
330
23
100
AcDbEntity
  8
0
100
AcDbLine
 10
1.216960456080479
 20
0.8884690106500064
 30
0.0
 11
1.307997842503466
 21
0.8379047411945688
 31
0.0
  0
LINE
  5
810
330
23
100
AcDbEntity
  8
0
100
AcDbLine
 10
1.307997842503466
 20
0.8379047411945688
 30
0.0
 11
1.35350297233796
 21
0.8328591649506247
 31
0.0
  0
LINE
  5
811
330
23
100
AcDbEntity
  8
0
100
AcDbLine
 10
1.35350297233796
 20
0.8328591649506247
 30
0.0
 11
1.429376503275116
 21
0.8632004392992876
 31
0.0
  0
LINE
  5
812
330
23
100
AcDbEntity
  8
0
100
AcDbLine
 10
1.429376503275116
 20
0.8632004392992876
 30
0.0
 11
1.485013475728498
 21
0.858127736301344
 31
0.0
  0
LINE
  5
813
330
23
100
AcDbEntity
  8
0
100
AcDbLine
 10
1.485013475728498
 20
0.858127736301344
 30
0.0
 11
1.545689242737323
 21
0.7974451876040187
 31
0.0
  0
LINE
  5
814
330
23
100
AcDbEntity
  8
0
100
AcDbLine
 10
1.545689242737323
 20
0.7974451876040187
 30
0.0
 11
1.576044080462985
 21
0.7317034992857496
 31
0.0
  0
LINE
  5
815
330
23
100
AcDbEntity
  8
0
100
AcDbLine
 10
1.576044080462985
 20
0.7317034992857496
 30
0.0
 11
1.616503634053536
 21
0.7165260804229185
 31
0.0
  0
LINE
  5
816
330
23
100
AcDbEntity
  8
0
100
AcDbLine
 10
1.616503634053536
 20
0.7165260804229185
 30
0.0
 11
1.793519267278567
 21
0.6457252524837056
 31
0.0
  0
LINE
  5
817
330
23
100
AcDbEntity
  8
0
100
AcDbLine
 10
1.793519267278567
 20
0.6457252524837056
 30
0.0
 11
1.874424811082667
 21
0.6760529634553687
 31
0.0
  0
LINE
  5
818
330
23
100
AcDbEntity
  8
0
100
AcDbLine
 10
1.874424811082667
 20
0.6760529634553687
 30
0.0
 11
1.950298342019823
 21
0.6861712426972559
 31
0.0
  0
LINE
  5
819
330
23
100
AcDbEntity
  8
0
100
AcDbLine
 10
1.950298342019823
 20
0.6861712426972559
 30
0.0
 11
2.026171872956979
 21
0.640652549485762
 31
0.0
  0
LINE
  5
81A
330
23
100
AcDbEntity
  8
0
100
AcDbLine
 10
2.026171872956979
 20
0.640652549485762
 30
0.0
 11
2.112122993005023
 21
0.6204295543789868
 31
0.0
  0
LINE
  5
81B
330
23
100
AcDbEntity
  8
0
100
AcDbLine
 10
2.112122993005023
 20
0.6204295543789868
 30
0.0
 11
2.177878244700293
 21
0.6305478336208745
 31
0.0
  0
LINE
  5
81C
330
23
100
AcDbEntity
  8
0
100
AcDbLine
 10
2.177878244700293
 20
0.6305478336208745
 30
0.0
 11
2.273974770744224
 21
0.6355934098648186
 31
0.0
  0
LINE
  5
81D
330
23
100
AcDbEntity
  8
0
100
AcDbLine
 10
2.273974770744224
 20
0.6355934098648186
 30
0.0
 11
2.304316045092887
 21
0.6608755445925372
 31
0.0
  0
LINE
  5
81E
330
23
100
AcDbEntity
  8
0
100
AcDbLine
 10
2.304316045092887
 20
0.6608755445925372
 30
0.0
 11
2.365012157167212
 21
0.6710073872114251
 31
0.0
  0
LINE
  5
81F
330
23
100
AcDbEntity
  8
0
100
AcDbLine
 10
2.365012157167212
 20
0.6710073872114251
 30
0.0
 11
2.400426134513817
 21
0.6963030853161434
 31
0.0
  0
LINE
  5
820
330
23
100
AcDbEntity
  8
0
100
AcDbLine
 10
2.400426134513817
 20
0.6963030853161434
 30
0.0
 11
2.445944827725311
 21
0.6912168189412
 31
0.0
  0
LINE
  5
821
330
23
100
AcDbEntity
  8
0
100
AcDbLine
 10
2.445944827725311
 20
0.6912168189412
 30
0.0
 11
2.481331678317918
 21
0.6558299683485931
 31
0.0
  0
LINE
  5
822
330
23
100
AcDbEntity
  8
0
100
AcDbLine
 10
2.481331678317918
 20
0.6558299683485931
 30
0.0
 11
2.567309925119962
 21
0.6811392298303121
 31
0.0
  0
LINE
  5
823
330
23
100
AcDbEntity
  8
0
100
AcDbLine
 10
2.567309925119962
 20
0.6811392298303121
 30
0.0
 11
2.673524730405781
 21
0.6912168189412
 31
0.0
  0
LINE
  5
824
330
23
100
AcDbEntity
  8
0
100
AcDbLine
 10
2.673524730405781
 20
0.6912168189412
 30
0.0
 11
2.698806865133499
 21
0.7114669408019747
 31
0.0
  0
LINE
  5
825
330
23
100
AcDbEntity
  8
0
100
AcDbLine
 10
2.698806865133499
 20
0.7114669408019747
 30
0.0
 11
2.693761288889555
 21
0.7367490755296937
 31
0.0
  0
LINE
  5
826
330
23
100
AcDbEntity
  8
0
100
AcDbLine
 10
2.693761288889555
 20
0.7367490755296937
 30
0.0
 11
2.719043423617275
 21
0.7772086291202438
 31
0.0
  0
LINE
  5
827
330
23
100
AcDbEntity
  8
0
100
AcDbLine
 10
2.719043423617275
 20
0.7772086291202438
 30
0.0
 11
2.804994543665319
 21
0.7923996113600746
 31
0.0
  0
LINE
  5
828
330
23
100
AcDbEntity
  8
0
100
AcDbLine
 10
2.804994543665319
 20
0.7923996113600746
 30
0.0
 11
2.855585939874756
 21
0.7772086291202438
 31
0.0
  0
LINE
  5
829
330
23
100
AcDbEntity
  8
0
100
AcDbLine
 10
2.855585939874756
 20
0.7772086291202438
 30
0.0
 11
2.916282051949081
 21
0.858127736301344
 31
0.0
  0
LINE
  5
82A
330
23
100
AcDbEntity
  8
0
100
AcDbLine
 10
2.916282051949081
 20
0.858127736301344
 30
0.0
 11
2.961366717096579
 21
0.8963222059329192
 31
0.0
  0
LINE
  5
82B
330
23
100
AcDbEntity
  8
0
100
AcDbLine
 10
0.0573595394783739
 20
1.871474758714075
 30
0.0
 11
0.1093615268957953
 21
1.854452720579264
 31
0.0
  0
LINE
  5
82C
330
23
100
AcDbEntity
  8
0
100
AcDbLine
 10
0.1093615268957953
 20
1.854452720579264
 30
0.0
 11
0.1447619408654015
 21
1.819065869986658
 31
0.0
  0
LINE
  5
82D
330
23
100
AcDbEntity
  8
0
100
AcDbLine
 10
0.1447619408654015
 20
1.819065869986658
 30
0.0
 11
0.1548802201072892
 21
1.773547176775164
 31
0.0
  0
LINE
  5
82E
330
23
100
AcDbEntity
  8
0
100
AcDbLine
 10
0.1548802201072892
 20
1.773547176775164
 30
0.0
 11
0.1447619408654015
 21
1.738133199428558
 31
0.0
  0
LINE
  5
82F
330
23
100
AcDbEntity
  8
0
100
AcDbLine
 10
0.1447619408654015
 20
1.738133199428558
 30
0.0
 11
0.1447619408654015
 21
1.707791925079895
 31
0.0
  0
LINE
  5
830
330
23
100
AcDbEntity
  8
0
100
AcDbLine
 10
0.1447619408654015
 20
1.707791925079895
 30
0.0
 11
0.1147054974337358
 21
1.685059705228148
 31
0.0
  0
LINE
  5
831
330
23
100
AcDbEntity
  8
0
100
AcDbLine
 10
0.0071614812019325
 20
2.387737577459334
 30
0.0
 11
0.0739746763031892
 21
2.380440480633415
 31
0.0
  0
LINE
  5
832
330
23
100
AcDbEntity
  8
0
100
AcDbLine
 10
0.0739746763031892
 20
2.380440480633415
 30
0.0
 11
0.0992568110309078
 21
2.355158345905696
 31
0.0
  0
LINE
  5
833
330
23
100
AcDbEntity
  8
0
100
AcDbLine
 10
0.0992568110309078
 20
2.355158345905696
 30
0.0
 11
0.0891249684120208
 21
2.299521373452315
 31
0.0
  0
LINE
  5
834
330
23
100
AcDbEntity
  8
0
100
AcDbLine
 10
0.0891249684120208
 20
2.299521373452315
 30
0.0
 11
0.0334879959586392
 21
2.233752558380046
 31
0.0
  0
LINE
  5
835
330
23
100
AcDbEntity
  8
0
100
AcDbLine
 10
0.0334879959586392
 20
2.233752558380046
 30
0.0
 11
0.0537245544424145
 21
2.213543126650271
 31
0.0
  0
LINE
  5
836
330
23
100
AcDbEntity
  8
0
100
AcDbLine
 10
0.0537245544424145
 20
2.213543126650271
 30
0.0
 11
0.0840793921680767
 21
2.193306568166496
 31
0.0
  0
LINE
  5
837
330
23
100
AcDbEntity
  8
0
100
AcDbLine
 10
0.0840793921680767
 20
2.193306568166496
 30
0.0
 11
0.0840793921680767
 21
2.142742298711058
 31
0.0
  0
LINE
  5
838
330
23
100
AcDbEntity
  8
0
100
AcDbLine
 10
0.0840793921680767
 20
2.142742298711058
 30
0.0
 11
0.0645210025342946
 21
2.115262896909364
 31
0.0
  0
LINE
  5
839
330
23
100
AcDbEntity
  8
0
100
AcDbLine
 10
0.2193740777415725
 20
2.580180964429311
 30
0.0
 11
0.1864286350089381
 21
2.56701151295484
 31
0.0
  0
LINE
  5
83A
330
23
100
AcDbEntity
  8
0
100
AcDbLine
 10
0.1864286350089381
 20
2.56701151295484
 30
0.0
 11
0.1433920397884174
 21
2.509624864868478
 31
0.0
  0
LINE
  5
83B
330
23
100
AcDbEntity
  8
0
100
AcDbLine
 10
0.1433920397884174
 20
2.509624864868478
 30
0.0
 11
0.0931939815119751
 21
2.516799891301398
 31
0.0
  0
LINE
  5
83C
330
23
100
AcDbEntity
  8
0
100
AcDbLine
 10
0.0931939815119751
 20
2.516799891301398
 30
0.0
 11
0.0000000181460118
 21
2.437922072358775
 31
0.0
  0
LINE
  5
83D
330
23
100
AcDbEntity
  8
0
100
AcDbLine
 10
0.0000000181460118
 20
2.437922072358775
 30
0.0
 11
0.0071614812019325
 21
2.387737577459334
 31
0.0
  0
LINE
  5
83E
330
23
100
AcDbEntity
  8
0
100
AcDbLine
 10
0.0071614812019325
 20
2.387737577459334
 30
0.0
 11
0.0286865605006925
 21
2.330378056126972
 31
0.0
  0
LINE
  5
83F
330
23
100
AcDbEntity
  8
0
100
AcDbLine
 10
0.0286865605006925
 20
2.330378056126972
 30
0.0
 11
0.0286865605006925
 21
2.244331992439928
 31
0.0
  0
LINE
  5
840
330
23
100
AcDbEntity
  8
0
100
AcDbLine
 10
0.0286865605006925
 20
2.244331992439928
 30
0.0
 11
0.0501845130454539
 21
2.165474518562805
 31
0.0
  0
LINE
  5
841
330
23
100
AcDbEntity
  8
0
100
AcDbLine
 10
0.0501845130454539
 20
2.165474518562805
 30
0.0
 11
0.0645210025342946
 21
2.115262896909364
 31
0.0
  0
LINE
  5
842
330
23
100
AcDbEntity
  8
0
100
AcDbLine
 10
0.0645210025342946
 20
2.115262896909364
 30
0.0
 11
0.035834460179613
 21
2.065064838632922
 31
0.0
  0
LINE
  5
843
330
23
100
AcDbEntity
  8
0
100
AcDbLine
 10
0.035834460179613
 20
2.065064838632922
 30
0.0
 11
0.0143229442578523
 21
2.00770531730056
 31
0.0
  0
LINE
  5
844
330
23
100
AcDbEntity
  8
0
100
AcDbLine
 10
0.0143229442578523
 20
2.00770531730056
 30
0.0
 11
0.0143229442578523
 21
1.979032338322879
 31
0.0
  0
LINE
  5
845
330
23
100
AcDbEntity
  8
0
100
AcDbLine
 10
0.0143229442578523
 20
1.979032338322879
 30
0.0
 11
0.0501845130454539
 21
1.928820716669437
 31
0.0
  0
LINE
  5
846
330
23
100
AcDbEntity
  8
0
100
AcDbLine
 10
0.0501845130454539
 20
1.928820716669437
 30
0.0
 11
0.0645210025342946
 21
1.907336327501676
 31
0.0
  0
LINE
  5
847
330
23
100
AcDbEntity
  8
0
100
AcDbLine
 10
0.0645210025342946
 20
1.907336327501676
 30
0.0
 11
0.0573595394783739
 21
1.871474758714075
 31
0.0
  0
LINE
  5
848
330
23
100
AcDbEntity
  8
0
100
AcDbLine
 10
0.0573595394783739
 20
1.871474758714075
 30
0.0
 11
0.0860460818330546
 21
1.821290263814633
 31
0.0
  0
LINE
  5
849
330
23
100
AcDbEntity
  8
0
100
AcDbLine
 10
0.0860460818330546
 20
1.821290263814633
 30
0.0
 11
0.0931939815119751
 21
1.74958068961643
 31
0.0
  0
LINE
  5
84A
330
23
100
AcDbEntity
  8
0
100
AcDbLine
 10
0.0931939815119751
 20
1.74958068961643
 30
0.0
 11
0.1147054974337358
 21
1.685059705228148
 31
0.0
  0
LINE
  5
84B
330
23
100
AcDbEntity
  8
0
100
AcDbLine
 10
0.1147054974337358
 20
1.685059705228148
 30
0.0
 11
0.0860460818330546
 21
1.627673057141786
 31
0.0
  0
LINE
  5
84C
330
23
100
AcDbEntity
  8
0
100
AcDbLine
 10
0.0860460818330546
 20
1.627673057141786
 30
0.0
 11
0.0931939815119751
 21
1.584663588675265
 31
0.0
  0
LINE
  5
84D
330
23
100
AcDbEntity
  8
0
100
AcDbLine
 10
0.0931939815119751
 20
1.584663588675265
 30
0.0
 11
0.1003825713218953
 21
1.512967577854062
 31
0.0
  0
LINE
  5
84E
330
23
100
AcDbEntity
  8
0
100
AcDbLine
 10
0.1003825713218953
 20
1.512967577854062
 30
0.0
 11
0.1290555502995767
 21
1.434082977222939
 31
0.0
  0
LINE
  5
84F
330
23
100
AcDbEntity
  8
0
100
AcDbLine
 10
0.1290555502995767
 20
1.434082977222939
 30
0.0
 11
0.1433920397884174
 21
1.369561992834656
 31
0.0
  0
LINE
  5
850
330
23
100
AcDbEntity
  8
0
100
AcDbLine
 10
0.1433920397884174
 20
1.369561992834656
 30
0.0
 11
0.1720785821430981
 21
1.326552524368135
 31
0.0
  0
LINE
  5
851
330
23
100
AcDbEntity
  8
0
100
AcDbLine
 10
0.1720785821430981
 20
1.326552524368135
 30
0.0
 11
0.1792536085760181
 21
1.290690955580534
 31
0.0
  0
LINE
  5
852
330
23
100
AcDbEntity
  8
0
100
AcDbLine
 10
0.1792536085760181
 20
1.290690955580534
 30
0.0
 11
0.1577420926542574
 21
1.233290744117172
 31
0.0
  0
LINE
  5
853
330
23
100
AcDbEntity
  8
0
100
AcDbLine
 10
0.1577420926542574
 20
1.233290744117172
 30
0.0
 11
0.2294381034754602
 21
1.147285370561128
 31
0.0
  0
LINE
  5
854
330
23
100
AcDbEntity
  8
0
100
AcDbLine
 10
0.2294381034754602
 20
1.147285370561128
 30
0.0
 11
0.2939862146177426
 21
1.104248775340607
 31
0.0
  0
LINE
  5
855
330
23
100
AcDbEntity
  8
0
100
AcDbLine
 10
0.2939862146177426
 20
1.104248775340607
 30
0.0
 11
0.3369956830842638
 21
0.9967047591088027
 31
0.0
  0
LINE
  5
856
330
23
100
AcDbEntity
  8
0
100
AcDbLine
 10
0.3369956830842638
 20
0.9967047591088027
 30
0.0
 11
0.3369956830842638
 21
0.9608296269442018
 31
0.0
  0
LINE
  5
857
330
23
100
AcDbEntity
  8
0
100
AcDbLine
 10
0.3369956830842638
 20
0.9608296269442018
 30
0.0
 11
0.3871937413607061
 21
0.8676221002012383
 31
0.0
  0
LINE
  5
858
330
23
100
AcDbEntity
  8
0
100
AcDbLine
 10
0.3871937413607061
 20
0.8676221002012383
 30
0.0
 11
0.4588897521819089
 21
0.7600780839694341
 31
0.0
  0
LINE
  5
859
330
23
100
AcDbEntity
  8
0
100
AcDbLine
 10
0.4588897521819089
 20
0.7600780839694341
 30
0.0
 11
0.4660512152378287
 21
0.695543536204152
 31
0.0
  0
LINE
  5
85A
330
23
100
AcDbEntity
  8
0
100
AcDbLine
 10
0.4660512152378287
 20
0.695543536204152
 30
0.0
 11
0.4588897521819089
 21
0.6453454779277097
 31
0.0
  0
LINE
  5
85B
330
23
100
AcDbEntity
  8
0
100
AcDbLine
 10
0.4588897521819089
 20
0.6453454779277097
 30
0.0
 11
0.4804148314806698
 21
0.5736494671065078
 31
0.0
  0
LINE
  5
85C
330
23
100
AcDbEntity
  8
0
100
AcDbLine
 10
0.4804148314806698
 20
0.5736494671065078
 30
0.0
 11
0.530599326380111
 21
0.5377878983189062
 31
0.0
  0
LINE
  5
85D
330
23
100
AcDbEntity
  8
0
100
AcDbLine
 10
0.530599326380111
 20
0.5377878983189062
 30
0.0
 11
0.5592858687347926
 21
0.4876169667964643
 31
0.0
  0
LINE
  5
85E
330
23
100
AcDbEntity
  8
0
100
AcDbLine
 10
0.5592858687347926
 20
0.4876169667964643
 30
0.0
 11
0.6883414008883575
 21
0.4087323661653413
 31
0.0
  0
LINE
  5
85F
330
23
100
AcDbEntity
  8
0
100
AcDbLine
 10
0.6883414008883575
 20
0.4087323661653413
 30
0.0
 11
0.7385394591647989
 21
0.3800322604336603
 31
0.0
  0
LINE
  5
860
330
23
100
AcDbEntity
  8
0
100
AcDbLine
 10
0.7385394591647989
 20
0.3800322604336603
 30
0.0
 11
0.7887375174412403
 21
0.3872072868665804
 31
0.0
  0
LINE
  5
861
330
23
100
AcDbEntity
  8
0
100
AcDbLine
 10
0.7887375174412403
 20
0.3872072868665804
 30
0.0
 11
0.8389220123406824
 21
0.3800322604336603
 31
0.0
  0
LINE
  5
862
330
23
100
AcDbEntity
  8
0
100
AcDbLine
 10
0.8389220123406824
 20
0.3800322604336603
 30
0.0
 11
0.881958607561204
 21
0.3441978184000591
 31
0.0
  0
LINE
  5
863
330
23
100
AcDbEntity
  8
0
100
AcDbLine
 10
0.881958607561204
 20
0.3441978184000591
 30
0.0
 11
0.9679911078712467
 21
0.2939861967466175
 31
0.0
  0
LINE
  5
864
330
23
100
AcDbEntity
  8
0
100
AcDbLine
 10
0.9679911078712467
 20
0.2939861967466175
 30
0.0
 11
1.011014139714769
 21
0.2509767282800954
 31
0.0
  0
LINE
  5
865
330
23
100
AcDbEntity
  8
0
100
AcDbLine
 10
1.011014139714769
 20
0.2509767282800954
 30
0.0
 11
1.06121219799121
 21
0.2294652123583347
 31
0.0
  0
LINE
  5
866
330
23
100
AcDbEntity
  8
0
100
AcDbLine
 10
1.06121219799121
 20
0.2294652123583347
 30
0.0
 11
1.104235229834732
 21
0.1577556381601326
 31
0.0
  0
LINE
  5
867
330
23
100
AcDbEntity
  8
0
100
AcDbLine
 10
1.104235229834732
 20
0.1577556381601326
 30
0.0
 11
1.183106267088856
 21
0.1219076327495312
 31
0.0
  0
LINE
  5
868
330
23
100
AcDbEntity
  8
0
100
AcDbLine
 10
1.183106267088856
 20
0.1219076327495312
 30
0.0
 11
1.211779246066536
 21
0.1003961168277705
 31
0.0
  0
LINE
  5
869
330
23
100
AcDbEntity
  8
0
100
AcDbLine
 10
1.211779246066536
 20
0.1003961168277705
 30
0.0
 11
1.269152330775898
 21
0.1075711432606905
 31
0.0
  0
LINE
  5
86A
330
23
100
AcDbEntity
  8
0
100
AcDbLine
 10
1.269152330775898
 20
0.1075711432606905
 30
0.0
 11
1.355198394462941
 21
0.1003961168277705
 31
0.0
  0
LINE
  5
86B
330
23
100
AcDbEntity
  8
0
100
AcDbLine
 10
1.355198394462941
 20
0.1003961168277705
 30
0.0
 11
1.405382889362383
 21
0.1362441222383719
 31
0.0
  0
LINE
  5
86C
330
23
100
AcDbEntity
  8
0
100
AcDbLine
 10
1.405382889362383
 20
0.1362441222383719
 30
0.0
 11
1.58462969810389
 21
0.0430501588724077
 31
0.0
  0
LINE
  5
86D
330
23
100
AcDbEntity
  8
0
100
AcDbLine
 10
1.58462969810389
 20
0.0430501588724077
 30
0.0
 11
1.620504830268491
 21
0.0000000002748868
 31
0.0
  0
LINE
  5
86E
330
23
100
AcDbEntity
  8
0
100
AcDbLine
 10
1.620504830268491
 20
0.0000000002748868
 30
0.0
 11
1.663500735358013
 21
0.0000000002748868
 31
0.0
  0
LINE
  5
86F
330
23
100
AcDbEntity
  8
0
100
AcDbLine
 10
1.663500735358013
 20
0.0000000002748868
 30
0.0
 11
1.749560362422056
 21
0.0287001060065677
 31
0.0
  0
LINE
  5
870
330
23
100
AcDbEntity
  8
0
100
AcDbLine
 10
1.749560362422056
 20
0.0287001060065677
 30
0.0
 11
1.799744857321498
 21
0.0717095744730889
 31
0.0
  0
LINE
  5
871
330
23
100
AcDbEntity
  8
0
100
AcDbLine
 10
1.799744857321498
 20
0.0717095744730889
 30
0.0
 11
1.943177569094902
 21
0.0645345480401689
 31
0.0
  0
LINE
  5
872
330
23
100
AcDbEntity
  8
0
100
AcDbLine
 10
1.943177569094902
 20
0.0645345480401689
 30
0.0
 11
2.036371532460866
 21
0.0071750267078068
 31
0.0
  0
LINE
  5
873
330
23
100
AcDbEntity
  8
0
100
AcDbLine
 10
2.036371532460866
 20
0.0071750267078068
 30
0.0
 11
2.093717490416228
 21
0.0071750267078068
 31
0.0
  0
LINE
  5
874
330
23
100
AcDbEntity
  8
0
100
AcDbLine
 10
2.093717490416228
 20
0.0071750267078068
 30
0.0
 11
2.172588527670351
 21
0.0430501588724077
 31
0.0
  0
LINE
  5
875
330
23
100
AcDbEntity
  8
0
100
AcDbLine
 10
2.172588527670351
 20
0.0430501588724077
 30
0.0
 11
2.201288633402032
 21
0.0430501588724077
 31
0.0
  0
LINE
  5
876
330
23
100
AcDbEntity
  8
0
100
AcDbLine
 10
2.201288633402032
 20
0.0430501588724077
 30
0.0
 11
2.258661718111394
 21
0.0215250795736477
 31
0.0
  0
LINE
  5
877
330
23
100
AcDbEntity
  8
0
100
AcDbLine
 10
2.258661718111394
 20
0.0215250795736477
 30
0.0
 11
2.316007676066756
 21
0.0215250795736477
 31
0.0
  0
LINE
  5
878
330
23
100
AcDbEntity
  8
0
100
AcDbLine
 10
2.316007676066756
 20
0.0215250795736477
 30
0.0
 11
2.351869244854358
 21
0.0358615690624875
 31
0.0
  0
LINE
  5
879
330
23
100
AcDbEntity
  8
0
100
AcDbLine
 10
2.351869244854358
 20
0.0358615690624875
 30
0.0
 11
2.423565255675561
 21
0.0430501588724077
 31
0.0
  0
LINE
  5
87A
330
23
100
AcDbEntity
  8
0
100
AcDbLine
 10
2.423565255675561
 20
0.0430501588724077
 30
0.0
 11
2.488099803440843
 21
0.0287001060065677
 31
0.0
  0
LINE
  5
87B
330
23
100
AcDbEntity
  8
0
100
AcDbLine
 10
2.488099803440843
 20
0.0287001060065677
 30
0.0
 11
2.538284298340285
 21
0.0717095744730889
 31
0.0
  0
LINE
  5
87C
330
23
100
AcDbEntity
  8
0
100
AcDbLine
 10
2.538284298340285
 20
0.0717095744730889
 30
0.0
 11
2.581320893560806
 21
0.0788710375290096
 31
0.0
  0
LINE
  5
87D
330
23
100
AcDbEntity
  8
0
100
AcDbLine
 10
2.581320893560806
 20
0.0788710375290096
 30
0.0
 11
2.653030467759009
 21
0.0932346537718498
 31
0.0
  0
LINE
  5
87E
330
23
100
AcDbEntity
  8
0
100
AcDbLine
 10
2.653030467759009
 20
0.0932346537718498
 30
0.0
 11
2.681717010113689
 21
0.1434055852942917
 31
0.0
  0
LINE
  5
87F
330
23
100
AcDbEntity
  8
0
100
AcDbLine
 10
2.681717010113689
 20
0.1434055852942917
 30
0.0
 11
2.760588047367812
 21
0.193603643570734
 31
0.0
  0
LINE
  5
880
330
23
100
AcDbEntity
  8
0
100
AcDbLine
 10
2.760588047367812
 20
0.193603643570734
 30
0.0
 11
2.782099563289573
 21
0.2796361438807766
 31
0.0
  0
LINE
  5
881
330
23
100
AcDbEntity
  8
0
100
AcDbLine
 10
2.782099563289573
 20
0.2796361438807766
 30
0.0
 11
2.817961132077175
 21
0.3155112760453784
 31
0.0
  0
LINE
  5
882
330
23
100
AcDbEntity
  8
0
100
AcDbLine
 10
2.817961132077175
 20
0.3155112760453784
 30
0.0
 11
2.817961132077175
 21
0.394368749922501
 31
0.0
  0
LINE
  5
883
330
23
100
AcDbEntity
  8
0
100
AcDbLine
 10
2.817961132077175
 20
0.394368749922501
 30
0.0
 11
2.846647674431855
 21
0.4015573397324213
 31
0.0
  0
LINE
  5
884
330
23
100
AcDbEntity
  8
0
100
AcDbLine
 10
2.846647674431855
 20
0.4015573397324213
 30
0.0
 11
2.846647674431855
 21
0.5090877925872253
 31
0.0
  0
LINE
  5
885
330
23
100
AcDbEntity
  8
0
100
AcDbLine
 10
2.846647674431855
 20
0.5090877925872253
 30
0.0
 11
2.846647674431855
 21
0.5951474196512683
 31
0.0
  0
LINE
  5
886
330
23
100
AcDbEntity
  8
0
100
AcDbLine
 10
2.846647674431855
 20
0.5951474196512683
 30
0.0
 11
2.918330121876058
 21
0.6596684040395511
 31
0.0
  0
LINE
  5
887
330
23
100
AcDbEntity
  8
0
100
AcDbLine
 10
2.918330121876058
 20
0.6596684040395511
 30
0.0
 11
2.947030227607739
 21
0.7672395470253544
 31
0.0
  0
LINE
  5
888
330
23
100
AcDbEntity
  8
0
100
AcDbLine
 10
2.947030227607739
 20
0.7672395470253544
 30
0.0
 11
2.947030227607739
 21
0.8102490154918765
 31
0.0
  0
LINE
  5
889
330
23
100
AcDbEntity
  8
0
100
AcDbLine
 10
2.947030227607739
 20
0.8102490154918765
 30
0.0
 11
2.961366717096579
 21
0.8963222059329192
 31
0.0
  0
LINE
  5
88A
330
23
100
AcDbEntity
  8
0
100
AcDbLine
 10
2.961366717096579
 20
0.8963222059329192
 30
0.0
 11
2.617196025725407
 21
1.154446833617048
 31
0.0
  0
MTEXT
  5
8A5
330
23
100
AcDbEntity
  8
0
100
AcDbMText
 10
2.3237432461671
 20
2.235418804834032
 30
0.0
 40
0.15
 41
3.566035759837234
 71
     1
 72
     5
  1
{\fArial|b0|i0|c0|p34;DTT2Z}
 73
     1
 44
1.0
  0
INSERT
  5
8DD
330
23
100
AcDbEntity
  8
0
100
AcDbBlockReference
 66
     1
  2
sstmodel
 10
3.000584003724114
 20
1.768768317188329
 30
0.0
  0
ATTRIB
  5
8DE
330
8DD
100
AcDbEntity
  8
NOTE
 62
     7
100
AcDbText
 10
2.983425263376333
 20
1.721073906462247
 30
0.0
 40
0.09
  1

  7
HELVETICA
 72
     1
 11
2.983425263376333
 21
1.721073906462247
 31
0.0
100
AcDbAttribute
  2
MODEL
 70
     0
  0
ATTRIB
  5
8DF
330
8DD
100
AcDbEntity
  8
NOTE
100
AcDbText
 10
3.000125263376333
 20
1.567983852461507
 30
0.0
 40
0.09
  1

  7
HELVETICA
 72
     1
 11
3.000125263376333
 21
1.567983852461507
 31
0.0
100
AcDbAttribute
  2
APPROVAL
 70
     4
  0
SEQEND
  5
8E0
330
8DD
100
AcDbEntity
  8
0
  0
ENDSEC
  0
SECTION
  2
OBJECTS
  0
DICTIONARY
  5
C
330
0
100
AcDbDictionary
281
     1
  3
ACAD_COLOR
350
1C
  3
ACAD_GROUP
350
D
  3
ACAD_LAYOUT
350
1A
  3
ACAD_MATERIAL
350
1B
  3
ACAD_MLINESTYLE
350
17
  3
ACAD_PLOTSETTINGS
350
19
  3
ACAD_PLOTSTYLENAME
350
E
  3
ACAD_TABLESTYLE
350
1D
  3
ACDBHEADERROUNDTRIPXREC
350
906
  3
AcDbVariableDictionary
350
8AF
  0
DICTIONARY
  5
712
330
23
100
AcDbDictionary
280
     1
281
     1
  3
ACAD_SORTENTS
360
713
  0
DICTIONARY
  5
8EE
330
8D3
100
AcDbDictionary
280
     1
281
     1
  3
ACAD_SORTENTS
360
8EF
  0
DICTIONARY
  5
1C
102
{ACAD_REACTORS
330
C
102
}
330
C
100
AcDbDictionary
281
     1
  0
DICTIONARY
  5
D
102
{ACAD_REACTORS
330
C
102
}
330
C
100
AcDbDictionary
281
     1
  0
DICTIONARY
  5
1A
102
{ACAD_REACTORS
330
C
102
}
330
C
100
AcDbDictionary
281
     1
  3
Layout1
350
22
  3
Layout2
350
2A
  3
Model
350
26
  0
DICTIONARY
  5
1B
102
{ACAD_REACTORS
330
C
102
}
330
C
100
AcDbDictionary
281
     1
  0
DICTIONARY
  5
17
102
{ACAD_REACTORS
330
C
102
}
330
C
100
AcDbDictionary
281
     1
  3
Standard
350
18
  0
DICTIONARY
  5
19
102
{ACAD_REACTORS
330
C
102
}
330
C
100
AcDbDictionary
281
     1
  0
ACDBDICTIONARYWDFLT
  5
E
102
{ACAD_REACTORS
330
C
102
}
330
C
100
AcDbDictionary
281
     1
  3
Normal
350
F
100
AcDbDictionaryWithDefault
340
F
  0
DICTIONARY
  5
1D
102
{ACAD_REACTORS
330
C
102
}
330
C
100
AcDbDictionary
281
     1
  3
Standard
350
1E
  0
DICTIONARY
  5
906
102
{ACAD_REACTORS
330
C
102
}
330
C
100
AcDbDictionary
281
     1
  3
COLORDICT
350
907
  3
MATERIALDICT
350
908
  0
DICTIONARY
  5
8AF
102
{ACAD_REACTORS
330
C
102
}
330
C
100
AcDbDictionary
281
     1
  3
CTABLESTYLE
350
8B0
  3
DIMASSOC
350
8B2
  3
HIDETEXT
350
8B1
  0
SORTENTSTABLE
  5
713
102
{ACAD_REACTORS
330
712
102
}
330
712
100
AcDbSortentsTable
330
23
331
4A9
  5
6C3
331
4AA
  5
6C4
331
4AB
  5
6C5
331
4AC
  5
6C6
331
4AD
  5
6C7
331
4AE
  5
6C8
331
52A
  5
6FF
331
52B
  5
700
331
52C
  5
701
331
577
  5
728
331
578
  5
729
331
579
  5
72A
331
57A
  5
72B
331
57B
  5
72C
331
57C
  5
72D
331
57D
  5
72E
331
57E
  5
72F
331
57F
  5
730
331
580
  5
731
331
581
  5
732
331
5C7
  5
748
331
5C8
  5
749
331
492
  5
6AF
331
493
  5
6B0
331
494
  5
6B1
331
495
  5
6B2
331
496
  5
6B3
331
4A8
  5
6C2
331
45E
  5
67B
331
45F
  5
67C
331
460
  5
67D
331
461
  5
67E
331
462
  5
67F
331
463
  5
680
331
481
  5
69E
331
482
  5
69F
331
483
  5
6A0
331
484
  5
6A1
331
485
  5
6A2
331
69C
  5
823
331
69D
  5
824
331
69E
  5
825
331
69F
  5
826
331
6A0
  5
827
331
6A1
  5
828
331
6A2
  5
829
331
6A3
  5
82A
331
6A4
  5
82B
331
6A5
  5
82C
331
6A6
  5
82D
331
6A7
  5
82E
331
6A8
  5
82F
331
6A9
  5
830
331
6AA
  5
831
331
6AB
  5
832
331
6AC
  5
833
331
6AD
  5
834
331
6AE
  5
835
331
6AF
  5
836
331
6B0
  5
837
331
6B1
  5
838
331
6B2
  5
839
331
6B3
  5
83A
331
6B4
  5
83B
331
6B5
  5
83C
331
6B6
  5
83D
331
6B7
  5
83E
331
6B8
  5
83F
331
6B9
  5
840
331
6BA
  5
841
331
6BB
  5
842
331
6BC
  5
843
331
6BD
  5
844
331
6BE
  5
845
331
6BF
  5
846
331
67C
  5
803
331
67D
  5
804
331
67E
  5
805
331
67F
  5
806
331
680
  5
807
331
681
  5
808
331
682
  5
809
331
683
  5
80A
331
684
  5
80B
331
685
  5
80C
331
686
  5
80D
331
687
  5
80E
331
688
  5
80F
331
689
  5
810
331
68A
  5
811
331
68B
  5
812
331
68C
  5
813
331
68D
  5
814
331
68E
  5
815
331
68F
  5
816
331
690
  5
817
331
691
  5
818
331
692
  5
819
331
693
  5
81A
331
694
  5
81B
331
695
  5
81C
331
696
  5
81D
331
697
  5
81E
331
698
  5
81F
331
699
  5
820
331
69A
  5
821
331
69B
  5
822
331
486
  5
6A3
331
487
  5
6A4
331
488
  5
6A5
331
489
  5
6A6
331
48A
  5
6A7
331
48B
  5
6A8
331
479
  5
696
331
47A
  5
697
331
47B
  5
698
331
47C
  5
699
331
47D
  5
69A
331
47E
  5
69B
331
47F
  5
69C
331
480
  5
69D
331
65E
  5
7E5
331
65F
  5
7E6
331
660
  5
7E7
331
661
  5
7E8
331
662
  5
7E9
331
663
  5
7EA
331
664
  5
7EB
331
665
  5
7EC
331
666
  5
7ED
331
667
  5
7EE
331
668
  5
7EF
331
669
  5
7F0
331
66A
  5
7F1
331
66B
  5
7F2
331
4AF
  5
6C9
331
4B0
  5
6CA
331
4B1
  5
6CB
331
4B2
  5
6CC
331
4B3
  5
6CD
331
4B4
  5
6CE
331
4BE
  5
6D5
331
43F
  5
60C
331
440
  5
60D
331
441
  5
60E
331
442
  5
60F
331
443
  5
610
331
62B
  5
7AF
331
62E
  5
7B8
331
630
  5
7BB
331
631
  5
7BC
331
635
  5
7D2
331
636
  5
7D3
331
637
  5
7D4
331
638
  5
7D5
331
639
  5
7D6
331
63A
  5
7D7
331
65C
  5
7E3
331
65D
  5
7E4
331
4C6
  5
6DD
331
4C7
  5
6DE
331
4C8
  5
6DF
331
4D6
  5
6E7
331
528
  5
6FD
331
529
  5
6FE
331
60F
  5
787
331
610
  5
788
331
611
  5
789
331
613
  5
78C
331
614
  5
78D
331
615
  5
78E
331
616
  5
78F
331
617
  5
790
331
618
  5
791
331
622
  5
796
331
623
  5
797
331
5FB
  5
76D
331
5FC
  5
76E
331
5FD
  5
76F
331
5FE
  5
770
331
5FF
  5
771
331
600
  5
772
331
601
  5
773
331
60C
  5
784
331
60D
  5
785
331
60E
  5
786
331
803
  5
57B
331
804
  5
57C
331
805
  5
57D
331
806
  5
57E
331
807
  5
57F
331
808
  5
580
331
809
  5
581
331
80A
  5
5C7
331
80B
  5
5C8
331
80C
  5
5C9
331
80D
  5
5CA
331
80E
  5
5CB
331
80F
  5
5CC
331
810
  5
5CD
331
811
  5
5E5
331
812
  5
5E6
331
813
  5
5E7
331
814
  5
5E8
331
815
  5
5E9
331
816
  5
5EA
331
817
  5
5EB
331
818
  5
5EC
331
819
  5
5ED
331
81A
  5
5EE
331
81B
  5
5EF
331
81C
  5
5F0
331
81D
  5
5F1
331
81E
  5
5F2
331
81F
  5
5F3
331
820
  5
5F4
331
821
  5
5F5
331
822
  5
5F6
331
823
  5
5F7
331
824
  5
5F8
331
825
  5
5F9
331
826
  5
5FA
331
827
  5
5FB
331
828
  5
5FC
331
829
  5
5FD
331
82A
  5
5FE
331
82B
  5
4C1
331
82C
  5
4C2
331
82D
  5
4C3
331
82E
  5
4C4
331
82F
  5
4C5
331
830
  5
4C6
331
831
  5
4B0
331
832
  5
4B1
331
833
  5
4B2
331
834
  5
4B3
331
835
  5
4B4
331
836
  5
4BE
331
837
  5
4BF
331
838
  5
4C0
331
839
  5
43F
331
83A
  5
440
331
83B
  5
441
331
83C
  5
442
331
83D
  5
443
331
83E
  5
444
331
83F
  5
445
331
840
  5
446
331
841
  5
447
331
842
  5
448
331
843
  5
44F
331
844
  5
451
331
845
  5
459
331
846
  5
45A
331
847
  5
45B
331
848
  5
45C
331
849
  5
45D
331
84A
  5
45E
331
84B
  5
45F
331
84C
  5
460
331
84D
  5
461
331
84E
  5
462
331
84F
  5
463
331
850
  5
464
331
851
  5
465
331
852
  5
466
331
853
  5
467
331
854
  5
468
331
855
  5
469
331
856
  5
46A
331
857
  5
46B
331
858
  5
46C
331
859
  5
46D
331
85A
  5
46E
331
85B
  5
46F
331
85C
  5
470
331
85D
  5
471
331
85E
  5
472
331
85F
  5
473
331
860
  5
474
331
861
  5
475
331
862
  5
476
331
863
  5
477
331
864
  5
478
331
865
  5
479
331
866
  5
47A
331
867
  5
47B
331
868
  5
47C
331
869
  5
47D
331
86A
  5
47E
331
86B
  5
47F
331
86C
  5
480
331
86D
  5
481
331
86E
  5
482
331
86F
  5
483
331
870
  5
484
331
871
  5
485
331
872
  5
486
331
873
  5
487
331
874
  5
488
331
875
  5
489
331
876
  5
48A
331
877
  5
48B
331
878
  5
48C
331
879
  5
48D
331
87A
  5
48E
331
87B
  5
48F
331
87C
  5
490
331
87D
  5
491
331
87E
  5
492
331
87F
  5
493
331
880
  5
494
331
881
  5
495
331
882
  5
496
331
883
  5
4A8
331
884
  5
4A9
331
885
  5
4AA
331
886
  5
4AB
331
887
  5
4AC
331
888
  5
4AD
331
889
  5
4AE
331
88A
  5
4AF
331
66C
  5
7F3
331
66D
  5
7F4
331
66E
  5
7F5
331
66F
  5
7F6
331
670
  5
7F7
331
671
  5
7F8
331
672
  5
7F9
331
673
  5
7FA
331
674
  5
7FB
331
675
  5
7FC
331
676
  5
7FD
331
677
  5
7FE
331
678
  5
7FF
331
679
  5
800
331
67A
  5
801
331
67B
  5
802
331
7BF
  5
6D4
331
7C0
  5
6B4
331
7C1
  5
6B5
331
7C2
  5
6B6
331
7C3
  5
6B7
331
7C4
  5
6B8
331
7C5
  5
6B9
331
7C6
  5
6BA
331
7C7
  5
6BB
331
7C8
  5
6BC
331
7C9
  5
6BD
331
7CA
  5
6BE
331
7CB
  5
6BF
331
7CC
  5
6C0
331
7CD
  5
6C1
331
7CE
  5
673
331
7CF
  5
674
331
7D0
  5
675
331
7D1
  5
671
331
7D2
  5
672
331
7D3
  5
66E
331
7D4
  5
66F
331
7D5
  5
670
331
7D6
  5
66C
331
7D7
  5
66D
331
7D8
  5
668
331
7D9
  5
669
331
7DA
  5
66A
331
7DB
  5
66B
331
7DC
  5
665
331
7DD
  5
666
331
7DE
  5
667
331
7DF
  5
663
331
7E0
  5
664
331
7E1
  5
660
331
7E2
  5
661
331
7E3
  5
65D
331
7E4
  5
65E
331
7E5
  5
638
331
7E6
  5
639
331
7E7
  5
63A
331
7E8
  5
65C
331
7E9
  5
631
331
7EA
  5
635
331
7EB
  5
636
331
7EC
  5
637
331
7ED
  5
62E
331
7EE
  5
630
331
7EF
  5
623
331
7F0
  5
62B
331
7F1
  5
617
331
7F2
  5
618
331
7F3
  5
622
331
7F4
  5
5FF
331
7F5
  5
600
331
7F6
  5
601
331
7F7
  5
4C7
331
7F8
  5
4C8
331
7F9
  5
4D6
331
7FA
  5
528
331
7FB
  5
529
331
7FC
  5
52A
331
7FD
  5
52B
331
7FE
  5
52C
331
7FF
  5
577
331
800
  5
578
331
801
  5
579
331
802
  5
57A
331
472
  5
68F
331
473
  5
690
331
474
  5
691
331
475
  5
692
331
476
  5
693
331
477
  5
694
331
478
  5
695
331
6D4
  5
85B
331
6D5
  5
85C
331
6D6
  5
85D
331
6D7
  5
85E
331
6D8
  5
85F
331
6D9
  5
860
331
6DA
  5
861
331
6DB
  5
862
331
6DC
  5
863
331
6DD
  5
864
331
6DE
  5
865
331
6DF
  5
866
331
6E0
  5
867
331
6E1
  5
868
331
6E2
  5
869
331
6E3
  5
86A
331
6E4
  5
86B
331
6E5
  5
86C
331
6E6
  5
86D
331
6E7
  5
86E
331
6E8
  5
86F
331
6E9
  5
870
331
6EA
  5
871
331
6EB
  5
872
331
6EC
  5
873
331
6ED
  5
874
331
6EE
  5
875
331
6EF
  5
876
331
6F0
  5
877
331
6F1
  5
878
331
6F2
  5
879
331
6F3
  5
87A
331
6F4
  5
87B
331
6F5
  5
87C
331
6F6
  5
87D
331
6F7
  5
87E
331
6F8
  5
87F
331
5F1
  5
763
331
5F2
  5
764
331
5F3
  5
765
331
5F4
  5
766
331
5F5
  5
767
331
5F6
  5
768
331
5F7
  5
769
331
5F8
  5
76A
331
5F9
  5
76B
331
5FA
  5
76C
331
464
  5
681
331
465
  5
682
331
466
  5
683
331
467
  5
684
331
468
  5
685
331
469
  5
686
331
46A
  5
687
331
5E8
  5
75A
331
5E9
  5
75B
331
5EA
  5
75C
331
5EB
  5
75D
331
5EC
  5
75E
331
5ED
  5
75F
331
5EE
  5
760
331
5EF
  5
761
331
5F0
  5
762
331
451
  5
662
331
459
  5
676
331
45A
  5
677
331
45B
  5
678
331
45C
  5
679
331
45D
  5
67A
331
48C
  5
6A9
331
48D
  5
6AA
331
48E
  5
6AB
331
48F
  5
6AC
331
490
  5
6AD
331
491
  5
6AE
331
46B
  5
688
331
46C
  5
689
331
46D
  5
68A
331
46E
  5
68B
331
46F
  5
68C
331
470
  5
68D
331
471
  5
68E
331
444
  5
611
331
445
  5
613
331
446
  5
614
331
447
  5
615
331
448
  5
616
331
44F
  5
65F
331
77C
  5
73D
331
77D
  5
73C
331
77E
  5
73B
331
77F
  5
73A
331
780
  5
734
331
781
  5
735
331
782
  5
736
331
783
  5
737
331
784
  5
738
331
785
  5
739
331
786
  5
733
331
787
  5
727
331
788
  5
726
331
789
  5
725
331
78A
  5
724
331
78B
  5
723
331
78C
  5
722
331
78D
  5
721
331
78E
  5
720
331
78F
  5
71E
331
790
  5
71F
331
791
  5
71D
331
792
  5
71C
331
793
  5
71B
331
794
  5
719
331
795
  5
71A
331
796
  5
717
331
797
  5
718
331
798
  5
715
331
799
  5
716
331
79A
  5
711
331
79B
  5
714
331
79C
  5
702
331
79D
  5
703
331
79E
  5
6FB
331
79F
  5
6FC
331
7A0
  5
6FA
331
7A1
  5
6F9
331
7A2
  5
6F8
331
7A3
  5
6F7
331
7A4
  5
6F6
331
7A5
  5
6F5
331
7A6
  5
6F4
331
7A7
  5
6F3
331
7A8
  5
6F2
331
7A9
  5
6F1
331
7AA
  5
6F0
331
7AB
  5
6EF
331
7AC
  5
6EE
331
7AD
  5
6ED
331
7AE
  5
6EC
331
7AF
  5
6EB
331
7B0
  5
6EA
331
7B1
  5
6E9
331
7B2
  5
6E8
331
7B3
  5
6E1
331
7B4
  5
6E2
331
7B5
  5
6E3
331
7B6
  5
6E4
331
7B7
  5
6E5
331
7B8
  5
6E6
331
7B9
  5
6E0
331
7BA
  5
6CF
331
7BB
  5
6D0
331
7BC
  5
6D1
331
7BD
  5
6D2
331
7BE
  5
6D3
331
5C9
  5
74A
331
5CA
  5
74B
331
5CB
  5
74C
331
5CC
  5
74D
331
5CD
  5
74E
331
5E5
  5
757
331
5E6
  5
758
331
5E7
  5
759
331
4BF
  5
6D6
331
4C0
  5
6D7
331
4C1
  5
6D8
331
4C2
  5
6D9
331
4C3
  5
6DA
331
4C4
  5
6DB
331
4C5
  5
6DC
331
6C0
  5
847
331
6C1
  5
848
331
6C2
  5
849
331
6C3
  5
84A
331
6C4
  5
84B
331
6C5
  5
84C
331
6C6
  5
84D
331
6C7
  5
84E
331
6C8
  5
84F
331
6C9
  5
850
331
6CA
  5
851
331
6CB
  5
852
331
6CC
  5
853
331
6CD
  5
854
331
6CE
  5
855
331
6CF
  5
856
331
6D0
  5
857
331
6D1
  5
858
331
6D2
  5
859
331
6D3
  5
85A
331
6F9
  5
880
331
6FA
  5
881
331
6FB
  5
882
331
6FC
  5
883
331
6FD
  5
884
331
6FE
  5
885
331
6FF
  5
886
331
700
  5
887
331
701
  5
888
331
702
  5
889
331
703
  5
88A
331
711
  5
7E2
331
714
  5
7E1
331
715
  5
7E0
331
716
  5
7DF
331
717
  5
7DE
331
718
  5
7DD
331
719
  5
7DC
331
71A
  5
7DB
331
71B
  5
7D8
331
71C
  5
7D9
331
71D
  5
7DA
331
71E
  5
7CE
331
71F
  5
7CF
331
720
  5
7D0
331
721
  5
7D1
331
722
  5
7C2
331
723
  5
7C3
331
724
  5
7C4
331
725
  5
7C5
331
726
  5
7C6
331
727
  5
7C7
331
728
  5
7C8
331
729
  5
7C9
331
72A
  5
7CA
331
72B
  5
7CB
331
72C
  5
7CC
331
72D
  5
7CD
331
72E
  5
7BD
331
72F
  5
7BE
331
730
  5
7BF
331
731
  5
7C0
331
732
  5
7C1
331
733
  5
7B9
331
734
  5
7BA
331
735
  5
7B5
331
736
  5
7B6
331
737
  5
7B7
331
738
  5
7B0
331
739
  5
7B1
331
73A
  5
7B2
331
73B
  5
7B3
331
73C
  5
7B4
331
73D
  5
7AD
331
73E
  5
7AE
331
73F
  5
7AB
331
740
  5
7AC
331
741
  5
7A9
331
742
  5
7AA
331
743
  5
7A4
331
744
  5
7A5
331
745
  5
7A6
331
746
  5
7A7
331
747
  5
7A8
331
748
  5
7A1
331
749
  5
7A2
331
74A
  5
7A3
331
74B
  5
79F
331
74C
  5
7A0
331
74D
  5
798
331
74E
  5
799
331
74F
  5
79A
331
750
  5
79B
331
751
  5
79C
331
752
  5
79D
331
753
  5
79E
331
754
  5
795
331
755
  5
794
331
756
  5
792
331
757
  5
793
331
758
  5
78A
331
759
  5
78B
331
75A
  5
780
331
75B
  5
781
331
75C
  5
782
331
75D
  5
783
331
75E
  5
77C
331
75F
  5
77D
331
760
  5
77E
331
761
  5
77F
331
762
  5
778
331
763
  5
779
331
764
  5
77A
331
765
  5
77B
331
766
  5
774
331
767
  5
775
331
768
  5
776
331
769
  5
777
331
76A
  5
756
331
76B
  5
755
331
76C
  5
754
331
76D
  5
753
331
76E
  5
74F
331
76F
  5
750
331
770
  5
751
331
771
  5
752
331
772
  5
747
331
773
  5
746
331
774
  5
745
331
775
  5
744
331
776
  5
743
331
777
  5
742
331
778
  5
741
331
779
  5
740
331
77A
  5
73F
331
77B
  5
73E
  0
SORTENTSTABLE
  5
8EF
102
{ACAD_REACTORS
330
8EE
102
}
330
8EE
100
AcDbSortentsTable
330
8D3
  0
LAYOUT
  5
22
102
{ACAD_REACTORS
330
1A
102
}
102
{ACAD_XDICTIONARY
360
909
102
}
330
1A
100
AcDbPlotSettings
  1

  2
HP LaserJet 2100 Series PS
  4

  6

 40
0.0
 41
0.0
 42
0.0
 43
0.0
 44
0.0
 45
0.0
 46
0.0
 47
0.0
 48
0.0
 49
0.0
140
0.0
141
0.0
142
1.0
143
1.0
 70
   688
 72
     0
 73
     0
 74
     5
  7
monochrome.ctb
 75
    16
147
1.0
148
0.0
149
0.0
100
AcDbLayout
  1
Layout1
 70
     1
 71
     1
 10
0.0
 20
0.0
 11
12.0
 21
9.0
 12
0.0
 22
0.0
 32
0.0
 14
1.000000000000000E+20
 24
1.000000000000000E+20
 34
1.000000000000000E+20
 15
-1.000000000000000E+20
 25
-1.000000000000000E+20
 35
-1.000000000000000E+20
146
0.0
 13
0.0
 23
0.0
 33
0.0
 16
1.0
 26
0.0
 36
0.0
 17
0.0
 27
1.0
 37
0.0
 76
     0
330
1F
  0
LAYOUT
  5
2A
102
{ACAD_REACTORS
330
1A
102
}
102
{ACAD_XDICTIONARY
360
90B
102
}
330
1A
100
AcDbPlotSettings
  1

  2
HP LaserJet 2100 Series PS
  4

  6

 40
0.0
 41
0.0
 42
0.0
 43
0.0
 44
0.0
 45
0.0
 46
0.0
 47
0.0
 48
0.0
 49
0.0
140
0.0
141
0.0
142
1.0
143
1.0
 70
   688
 72
     0
 73
     0
 74
     5
  7
monochrome.ctb
 75
    16
147
1.0
148
0.0
149
0.0
100
AcDbLayout
  1
Layout2
 70
     1
 71
     2
 10
0.0
 20
0.0
 11
12.0
 21
9.0
 12
0.0
 22
0.0
 32
0.0
 14
0.0
 24
0.0
 34
0.0
 15
0.0
 25
0.0
 35
0.0
146
0.0
 13
0.0
 23
0.0
 33
0.0
 16
1.0
 26
0.0
 36
0.0
 17
0.0
 27
1.0
 37
0.0
 76
     0
330
27
  0
LAYOUT
  5
26
102
{ACAD_REACTORS
330
1A
102
}
102
{ACAD_XDICTIONARY
360
90D
102
}
330
1A
100
AcDbPlotSettings
  1

  2
HP LaserJet 2100 Series PS
  4

  6

 40
0.0
 41
0.0
 42
0.0
 43
0.0
 44
0.0
 45
0.0
 46
0.0
 47
0.0
 48
0.0
 49
0.0
140
0.0
141
0.0
142
1.0
143
1.0
 70
  1712
 72
     0
 73
     0
 74
     0
  7
monochrome.ctb
 75
     0
147
1.0
148
0.0
149
0.0
100
AcDbLayout
  1
Model
 70
     1
 71
     0
 10
0.0
 20
0.0
 11
12.0
 21
9.0
 12
0.0
 22
0.0
 32
0.0
 14
0.0
 24
0.0
 34
0.0
 15
0.0
 25
0.0
 35
0.0
146
0.0
 13
0.0
 23
0.0
 33
0.0
 16
1.0
 26
0.0
 36
0.0
 17
0.0
 27
1.0
 37
0.0
 76
     0
330
23
  0
MLINESTYLE
  5
18
102
{ACAD_REACTORS
330
17
102
}
330
17
100
AcDbMlineStyle
  2
STANDARD
 70
     0
  3

 62
   256
 51
90.0
 52
90.0
 71
     2
 49
0.5
 62
   256
  6
BYLAYER
 49
-0.5
 62
   256
  6
BYLAYER
  0
ACDBPLACEHOLDER
  5
F
102
{ACAD_REACTORS
330
E
102
}
330
E
  0
ACAD_PROXY_OBJECT
  5
1E
102
{ACAD_REACTORS
330
1D
102
}
330
1D
100
AcDbProxyObject
 90
      499
 91
      501
 95
   983063
 70
     0
 93
     1841
310
4214DD185B99185C9928B81E85EB51B8AE3F2E07A17AD46E2B8FC02B5E8DC0F42B1CFD028000000C1008070000C3001FDFF8000000C1003FBFF000000182007F7FE00000030400FEFFC00000060801FDFF8000000C1003FBFF00000018200000000000000681FA0B0000001820100E000186003FBFF000000182007F7FE000
310
00030400FEFFC00000060801FDFF8000000C1003FBFF000000182007F7FE000000304000AD7A3703D0AC73F4160000003040201C00030C007F7FE00000030400FEFFC00000060801FDFF8000000C1003FBFF000000182007F7FE00000030400FEFFC000000608000
340
11
340
11
340
11
 94
        0
  0
XRECORD
  5
907
102
{ACAD_REACTORS
330
906
102
}
330
906
100
AcDbXrecord
340
1C
  0
XRECORD
  5
908
102
{ACAD_REACTORS
330
906
102
}
330
906
100
AcDbXrecord
340
1B
  0
DICTIONARYVAR
  5
8B0
102
{ACAD_REACTORS
330
8AF
102
}
330
8AF
100
DictionaryVariables
280
     0
  1
STANDARD
  0
DICTIONARYVAR
  5
8B2
102
{ACAD_REACTORS
330
8AF
102
}
330
8AF
100
DictionaryVariables
280
     0
  1
2
  0
DICTIONARYVAR
  5
8B1
102
{ACAD_REACTORS
330
8AF
102
}
330
8AF
100
DictionaryVariables
280
     0
  1
1
  0
DICTIONARY
  5
909
330
22
100
AcDbDictionary
280
     1
281
     1
  3
ACAD_XREC_ROUNDTRIP
360
90A
  0
DICTIONARY
  5
90B
330
2A
100
AcDbDictionary
280
     1
281
     1
  3
ACAD_XREC_ROUNDTRIP
360
90C
  0
DICTIONARY
  5
90D
330
26
100
AcDbDictionary
280
     1
281
     1
  3
ACAD_XREC_ROUNDTRIP
360
90E
  0
XRECORD
  5
90A
102
{ACAD_REACTORS
330
909
102
}
330
909
100
AcDbXrecord
102
SHADEPLOT
 70
     0
102
SHADEPLOTRESLEVEL
 70
     2
102
SHADEPLOTCUSTOMDPI
 70
   300
  0
XRECORD
  5
90C
102
{ACAD_REACTORS
330
90B
102
}
330
90B
100
AcDbXrecord
102
SHADEPLOT
 70
     0
102
SHADEPLOTRESLEVEL
 70
     2
102
SHADEPLOTCUSTOMDPI
 70
   300
  0
XRECORD
  5
90E
102
{ACAD_REACTORS
330
90D
102
}
330
90D
100
AcDbXrecord
102
SHADEPLOT
 70
     0
102
SHADEPLOTRESLEVEL
 70
     2
102
SHADEPLOTCUSTOMDPI
 70
   300
  0
ENDSEC
  0
EOF
