  0
SECTION
  2
HEADER
  9
$ACADVER
  1
AC1015
  9
$ACADMAINTVER
 70
     6
  9
$DWGCODEPAGE
  3
ISO8859-1
  9
$INSBASE
 10
0.0
 20
0.0
 30
0.0
  9
$EXTMIN
 10
13.637876
 20
4.305057999999997
 30
0.0
  9
$EXTMAX
 10
19.092773
 20
11.249206
 30
0.0
  9
$LIMMIN
 10
0.0
 20
0.0
  9
$LIMMAX
 10
12.0
 20
9.0
  9
$ORTHOMODE
 70
     0
  9
$REGENMODE
 70
     0
  9
$FILLMODE
 70
     1
  9
$QTEXTMODE
 70
     0
  9
$MIRRTEXT
 70
     1
  9
$LTSCALE
 40
0.25
  9
$ATTMODE
 70
     1
  9
$TEXTSIZE
 40
0.2
  9
$TRACEWID
 40
0.05
  9
$TEXTSTYLE
  7
STANDARD
  9
$CLAYER
  8
0
  9
$CELTYPE
  6
ByLayer
  9
$CECOLOR
 62
   256
  9
$CELTSCALE
 40
1.0
  9
$DISPSILH
 70
     0
  9
$DIMSCALE
 40
1.0
  9
$DIMASZ
 40
0.125
  9
$DIMEXO
 40
0.0625
  9
$DIMDLI
 40
0.38
  9
$DIMRND
 40
0.0
  9
$DIMDLE
 40
0.0
  9
$DIMEXE
 40
0.18
  9
$DIMTP
 40
0.0
  9
$DIMTM
 40
0.0
  9
$DIMTXT
 40
0.125
  9
$DIMCEN
 40
0.09
  9
$DIMTSZ
 40
0.0
  9
$DIMTOL
 70
     0
  9
$DIMLIM
 70
     0
  9
$DIMTIH
 70
     1
  9
$DIMTOH
 70
     1
  9
$DIMSE1
 70
     0
  9
$DIMSE2
 70
     0
  9
$DIMTAD
 70
     0
  9
$DIMZIN
 70
     0
  9
$DIMBLK
  1

  9
$DIMASO
 70
     0
  9
$DIMSHO
 70
     1
  9
$DIMPOST
  1

  9
$DIMAPOST
  1

  9
$DIMALT
 70
     0
  9
$DIMALTD
 70
     2
  9
$DIMALTF
 40
25.4
  9
$DIMLFAC
 40
1.0
  9
$DIMTOFL
 70
     0
  9
$DIMTVP
 40
0.0
  9
$DIMTIX
 70
     0
  9
$DIMSOXD
 70
     0
  9
$DIMSAH
 70
     0
  9
$DIMBLK1
  1

  9
$DIMBLK2
  1

  9
$DIMSTYLE
  2
Standard
  9
$DIMCLRD
 70
     0
  9
$DIMCLRE
 70
     0
  9
$DIMCLRT
 70
     0
  9
$DIMTFAC
 40
1.0
  9
$DIMGAP
 40
0.09
  9
$DIMJUST
 70
     0
  9
$DIMSD1
 70
     0
  9
$DIMSD2
 70
     0
  9
$DIMTOLJ
 70
     1
  9
$DIMTZIN
 70
     0
  9
$DIMALTZ
 70
     0
  9
$DIMALTTZ
 70
     0
  9
$DIMUPT
 70
     0
  9
$DIMDEC
 70
     4
  9
$DIMTDEC
 70
     4
  9
$DIMALTU
 70
     2
  9
$DIMALTTD
 70
     2
  9
$DIMTXSTY
  7
STANDARD
  9
$DIMAUNIT
 70
     0
  9
$DIMADEC
 70
     0
  9
$DIMALTRND
 40
0.0
  9
$DIMAZIN
 70
     0
  9
$DIMDSEP
 70
    46
  9
$DIMATFIT
 70
     3
  9
$DIMFRAC
 70
     0
  9
$DIMLDRBLK
  1

  9
$DIMLUNIT
 70
     2
  9
$DIMLWD
 70
    -2
  9
$DIMLWE
 70
    -2
  9
$DIMTMOVE
 70
     0
  9
$LUNITS
 70
     2
  9
$LUPREC
 70
     4
  9
$SKETCHINC
 40
0.1
  9
$FILLETRAD
 40
0.0402
  9
$AUNITS
 70
     0
  9
$AUPREC
 70
     0
  9
$MENU
  1
acad
  9
$ELEVATION
 40
0.0
  9
$PELEVATION
 40
0.0
  9
$THICKNESS
 40
0.0
  9
$LIMCHECK
 70
     0
  9
$CHAMFERA
 40
0.0
  9
$CHAMFERB
 40
0.0
  9
$CHAMFERC
 40
1.0
  9
$CHAMFERD
 40
0.0
  9
$SKPOLY
 70
     0
  9
$TDCREATE
 40
2453955.561967546
  9
$TDUCREATE
 40
2453955.89530088
  9
$TDUPDATE
 40
2453955.603634225
  9
$TDUUPDATE
 40
2453955.895300891
  9
$TDINDWG
 40
0.0000000116
  9
$TDUSRTIMER
 40
0.0000000116
  9
$USRTIMER
 70
     1
  9
$ANGBASE
 50
0.0
  9
$ANGDIR
 70
     0
  9
$PDMODE
 70
     0
  9
$PDSIZE
 40
0.0
  9
$PLINEWID
 40
0.0
  9
$SPLFRAME
 70
     0
  9
$SPLINETYPE
 70
     6
  9
$SPLINESEGS
 70
     8
  9
$HANDSEED
  5
349
  9
$SURFTAB1
 70
     6
  9
$SURFTAB2
 70
     6
  9
$SURFTYPE
 70
     6
  9
$SURFU
 70
     6
  9
$SURFV
 70
     6
  9
$UCSBASE
  2

  9
$UCSNAME
  2

  9
$UCSORG
 10
0.0
 20
0.0
 30
0.0
  9
$UCSXDIR
 10
1.0
 20
0.0
 30
0.0
  9
$UCSYDIR
 10
0.0
 20
1.0
 30
0.0
  9
$UCSORTHOREF
  2

  9
$UCSORTHOVIEW
 70
     0
  9
$UCSORGTOP
 10
0.0
 20
0.0
 30
0.0
  9
$UCSORGBOTTOM
 10
0.0
 20
0.0
 30
0.0
  9
$UCSORGLEFT
 10
0.0
 20
0.0
 30
0.0
  9
$UCSORGRIGHT
 10
0.0
 20
0.0
 30
0.0
  9
$UCSORGFRONT
 10
0.0
 20
0.0
 30
0.0
  9
$UCSORGBACK
 10
0.0
 20
0.0
 30
0.0
  9
$PUCSBASE
  2

  9
$PUCSNAME
  2

  9
$PUCSORG
 10
0.0
 20
0.0
 30
0.0
  9
$PUCSXDIR
 10
1.0
 20
0.0
 30
0.0
  9
$PUCSYDIR
 10
0.0
 20
1.0
 30
0.0
  9
$PUCSORTHOREF
  2

  9
$PUCSORTHOVIEW
 70
     0
  9
$PUCSORGTOP
 10
0.0
 20
0.0
 30
0.0
  9
$PUCSORGBOTTOM
 10
0.0
 20
0.0
 30
0.0
  9
$PUCSORGLEFT
 10
0.0
 20
0.0
 30
0.0
  9
$PUCSORGRIGHT
 10
0.0
 20
0.0
 30
0.0
  9
$PUCSORGFRONT
 10
0.0
 20
0.0
 30
0.0
  9
$PUCSORGBACK
 10
0.0
 20
0.0
 30
0.0
  9
$USERI1
 70
     0
  9
$USERI2
 70
     0
  9
$USERI3
 70
     0
  9
$USERI4
 70
     0
  9
$USERI5
 70
     0
  9
$USERR1
 40
0.0
  9
$USERR2
 40
0.0
  9
$USERR3
 40
0.0
  9
$USERR4
 40
0.0
  9
$USERR5
 40
0.0
  9
$WORLDVIEW
 70
     1
  9
$SHADEDGE
 70
     3
  9
$SHADEDIF
 70
    70
  9
$TILEMODE
 70
     1
  9
$MAXACTVP
 70
    16
  9
$PINSBASE
 10
0.0
 20
0.0
 30
0.0
  9
$PLIMCHECK
 70
     0
  9
$PEXTMIN
 10
1.000000000000000E+20
 20
1.000000000000000E+20
 30
1.000000000000000E+20
  9
$PEXTMAX
 10
-1.000000000000000E+20
 20
-1.000000000000000E+20
 30
-1.000000000000000E+20
  9
$PLIMMIN
 10
0.0
 20
0.0
  9
$PLIMMAX
 10
12.0
 20
9.0
  9
$UNITMODE
 70
     0
  9
$VISRETAIN
 70
     0
  9
$PLINEGEN
 70
     0
  9
$PSLTSCALE
 70
     1
  9
$TREEDEPTH
 70
  3020
  9
$CMLSTYLE
  2
Standard
  9
$CMLJUST
 70
     0
  9
$CMLSCALE
 40
1.0
  9
$PROXYGRAPHICS
 70
     1
  9
$MEASUREMENT
 70
     0
  9
$CELWEIGHT
370
    -1
  9
$ENDCAPS
280
     0
  9
$JOINSTYLE
280
     0
  9
$LWDISPLAY
290
     0
  9
$INSUNITS
 70
     1
  9
$HYPERLINKBASE
  1

  9
$STYLESHEET
  1

  9
$XEDIT
290
     1
  9
$CEPSNTYPE
380
     0
  9
$PSTYLEMODE
290
     0
  9
$FINGERPRINTGUID
  2
{FAEB1C30-E019-11D5-929B-00C0DF256EC4}
  9
$VERSIONGUID
  2
{FAEB1C32-E019-11D5-929B-00C0DF256EC4}
  9
$EXTNAMES
290
     1
  9
$PSVPSCALE
 40
0.0
  9
$OLESTARTUP
290
     0
  0
ENDSEC
  0
SECTION
  2
CLASSES
  0
CLASS
  1
ACDBDICTIONARYWDFLT
  2
AcDbDictionaryWithDefault
  3
AutoCAD 2000
 90
        0
280
     0
281
     0
  0
CLASS
  1
ACDBPLACEHOLDER
  2
AcDbPlaceHolder
  3
ObjectDBX Classes
 90
        0
280
     0
281
     0
  0
CLASS
  1
LAYOUT
  2
AcDbLayout
  3
ObjectDBX Classes
 90
        0
280
     0
281
     0
  0
ENDSEC
  0
SECTION
  2
TABLES
  0
TABLE
  2
VPORT
  5
8
330
0
100
AcDbSymbolTable
 70
     2
  0
VPORT
  5
20
330
8
100
AcDbSymbolTableRecord
100
AcDbViewportTableRecord
  2
*ACTIVE
 70
     0
 10
0.0
 20
0.0
 11
1.0
 21
1.0
 12
9.546386500000001
 22
6.880728838568936
 13
0.0
 23
0.0
 14
1.0
 24
1.0
 15
0.0
 25
0.0
 16
0.0
 26
0.0
 36
1.0
 17
0.0
 27
0.0
 37
0.0
 40
13.76145767713787
 41
0.7207678883071553
 42
50.0
 43
0.0
 44
0.0
 50
0.0
 51
0.0
 71
     0
 72
  2000
 73
     1
 74
     0
 75
     0
 76
     0
 77
     0
 78
     0
281
     0
 65
     1
110
0.0
120
0.0
130
0.0
111
1.0
121
0.0
131
0.0
112
0.0
122
1.0
132
0.0
 79
     0
146
0.0
  0
ENDTAB
  0
TABLE
  2
LTYPE
  5
5
330
0
100
AcDbSymbolTable
 70
     3
  0
LTYPE
  5
10
330
5
100
AcDbSymbolTableRecord
100
AcDbLinetypeTableRecord
  2
ByBlock
 70
     0
  3

 72
    65
 73
     0
 40
0.0
  0
LTYPE
  5
11
330
5
100
AcDbSymbolTableRecord
100
AcDbLinetypeTableRecord
  2
ByLayer
 70
     0
  3

 72
    65
 73
     0
 40
0.0
  0
LTYPE
  5
1B
330
5
100
AcDbSymbolTableRecord
100
AcDbLinetypeTableRecord
  2
CONTINUOUS
 70
     0
  3
Solid line
 72
    65
 73
     0
 40
0.0
  0
LTYPE
  5
1C
330
5
100
AcDbSymbolTableRecord
100
AcDbLinetypeTableRecord
  2
DASHED
 70
     0
  3
__ __ __ __ __ __ __ __ __ __ __ __ __ __ __ __
 72
    65
 73
     2
 40
0.75
 49
0.5
 74
     0
 49
-0.25
 74
     0
  0
LTYPE
  5
1D
330
5
100
AcDbSymbolTableRecord
100
AcDbLinetypeTableRecord
  2
HIDDEN
 70
     0
  3
__ __ __ __ __ __ __ __ __ __ __ __ __ __ __ __
 72
    65
 73
     2
 40
0.375
 49
0.25
 74
     0
 49
-0.125
 74
     0
  0
ENDTAB
  0
TABLE
  2
LAYER
  5
2
330
0
100
AcDbSymbolTable
 70
     1
  0
LAYER
  5
1E
330
2
100
AcDbSymbolTableRecord
100
AcDbLayerTableRecord
  2
0
 70
     0
 62
     7
  6
CONTINUOUS
370
    -3
390
F
  0
ENDTAB
  0
TABLE
  2
STYLE
  5
3
330
0
100
AcDbSymbolTable
 70
     1
  0
STYLE
  5
23
330
3
100
AcDbSymbolTableRecord
100
AcDbTextStyleTableRecord
  2
STANDARD
 70
     0
 40
0.0
 41
1.0
 50
0.0
 71
     0
 42
0.2
  3
ROMANS.SHX
  4

  0
ENDTAB
  0
TABLE
  2
VIEW
  5
6
330
0
100
AcDbSymbolTable
 70
     1
  0
VIEW
  5
22
330
6
100
AcDbSymbolTableRecord
100
AcDbViewTableRecord
  2
1
 70
     0
 40
8.970408000000001
 10
14.84337
 20
8.135239
 41
11.687229
 11
0.0
 21
0.0
 31
1.0
 12
0.0
 22
0.0
 32
0.0
 42
50.0
 43
0.0
 44
0.0
 50
0.0
 71
     0
281
     0
 72
     0
  0
ENDTAB
  0
TABLE
  2
UCS
  5
7
330
0
100
AcDbSymbolTable
 70
     0
  0
ENDTAB
  0
TABLE
  2
APPID
  5
9
330
0
100
AcDbSymbolTable
 70
     1
  0
APPID
  5
21
330
9
100
AcDbSymbolTableRecord
100
AcDbRegAppTableRecord
  2
ACAD
 70
     0
  0
ENDTAB
  0
TABLE
  2
DIMSTYLE
  5
A
330
0
100
AcDbSymbolTable
 70
     1
100
AcDbDimStyleTable
  0
DIMSTYLE
105
24
330
A
100
AcDbSymbolTableRecord
100
AcDbDimStyleTableRecord
  2
Standard
 70
     0
  3

  4

340
23
  0
ENDTAB
  0
TABLE
  2
BLOCK_RECORD
  5
1
330
0
100
AcDbSymbolTable
 70
     0
  0
BLOCK_RECORD
  5
18
330
1
100
AcDbSymbolTableRecord
100
AcDbBlockTableRecord
  2
*Model_Space
340
19
  0
BLOCK_RECORD
  5
16
330
1
100
AcDbSymbolTableRecord
100
AcDbBlockTableRecord
  2
*Paper_Space
340
17
  0
ENDTAB
  0
ENDSEC
  0
SECTION
  2
BLOCKS
  0
BLOCK
  5
33E
330
18
100
AcDbEntity
  8
0
100
AcDbBlockBegin
  2
*Model_Space
 70
     0
 10
0.0
 20
0.0
 30
0.0
  3
*Model_Space
  1

  4

  0
ENDBLK
  5
33F
330
18
100
AcDbEntity
  8
0
100
AcDbBlockEnd
  0
BLOCK
  5
33C
330
16
100
AcDbEntity
 67
     1
  8
0
100
AcDbBlockBegin
  2
*Paper_Space
 70
     0
 10
0.0
 20
0.0
 30
0.0
  3
*Paper_Space
  1

  4

  0
ENDBLK
  5
33D
330
16
100
AcDbEntity
 67
     1
  8
0
100
AcDbBlockEnd
  0
ENDSEC
  0
SECTION
  2
ENTITIES
  0
LWPOLYLINE
  5
25
330
18
100
AcDbEntity
  8
0
100
AcDbPolyline
 90
        2
 70
     0
 43
0.0
 10
15.275821
 20
7.928557000000001
 10
14.861209
 20
5.815963
  0
LINE
  5
2A
330
18
100
AcDbEntity
  8
0
100
AcDbLine
 10
17.418502
 20
7.487925
 30
0.0
 11
15.275821
 21
7.928557000000001
 31
0.0
  0
LINE
  5
2B
330
18
100
AcDbEntity
  8
0
100
AcDbLine
 10
16.699617
 20
8.681546000000001
 30
0.0
 11
15.275821
 21
7.928557000000001
 31
0.0
  0
LINE
  5
2C
330
18
100
AcDbEntity
  8
0
100
AcDbLine
 10
18.595489
 20
8.363562
 30
0.0
 11
17.083089
 21
8.617227999999999
 31
0.0
  0
LINE
  5
2D
330
18
100
AcDbEntity
  8
0
100
AcDbLine
 10
18.595489
 20
8.363562
 30
0.0
 11
17.418502
 21
7.487925
 31
0.0
  0
LINE
  5
2E
330
18
100
AcDbEntity
  8
0
100
AcDbLine
 10
17.418502
 20
7.487925
 30
0.0
 11
17.419718
 21
7.475253
 31
0.0
  0
LINE
  5
2F
330
18
100
AcDbEntity
  8
0
100
AcDbLine
 10
14.861209
 20
5.526244
 30
0.0
 11
17.657066
 21
4.653971
 31
0.0
  0
LINE
  5
30
330
18
100
AcDbEntity
  8
0
100
AcDbLine
 10
17.657066
 20
4.653971
 30
0.0
 11
19.092773
 21
6.305271
 31
0.0
  0
LINE
  5
31
330
18
100
AcDbEntity
  8
0
100
AcDbLine
 10
18.595489
 20
8.363562
 30
0.0
 11
19.092773
 21
6.555835000000001
 31
0.0
  0
LINE
  5
32
330
18
100
AcDbEntity
  8
0
100
AcDbLine
 10
19.092773
 20
6.555835000000001
 30
0.0
 11
19.092773
 21
6.305271
 31
0.0
  0
LINE
  5
33
330
18
100
AcDbEntity
  8
0
100
AcDbLine
 10
14.861209
 20
5.815963
 30
0.0
 11
14.861209
 21
5.526244
 31
0.0
  0
LINE
  5
34
330
18
100
AcDbEntity
  8
0
100
AcDbLine
 10
17.657066
 20
5.001721
 30
0.0
 11
17.988602
 21
5.3606
 31
0.0
  0
LINE
  5
35
330
18
100
AcDbEntity
  8
0
100
AcDbLine
 10
17.657066
 20
4.653971
 30
0.0
 11
17.657066
 21
4.776229
 31
0.0
  0
LINE
  5
36
330
18
100
AcDbEntity
  8
0
100
AcDbLine
 10
17.993891
 20
11.076595
 30
0.0
 11
17.993891
 21
9.132294999999999
 31
0.0
  0
LINE
  5
37
330
18
100
AcDbEntity
  8
0
100
AcDbLine
 10
16.025293
 20
10.957305
 30
0.0
 11
16.025293
 21
8.891235
 31
0.0
  0
LINE
  5
38
330
18
100
AcDbEntity
  8
0
100
AcDbLine
 10
17.23362
 20
10.859373
 30
0.0
 11
17.23362
 21
8.716216000000001
 31
0.0
  0
LINE
  5
39
330
18
100
AcDbEntity
  8
0
100
AcDbLine
 10
17.23362
 20
10.859373
 30
0.0
 11
17.993891
 21
11.076595
 31
0.0
  0
LINE
  5
3A
330
18
100
AcDbEntity
  8
0
100
AcDbLine
 10
17.23362
 20
10.859373
 30
0.0
 11
16.762047
 21
10.897593
 31
0.0
  0
LWPOLYLINE
  5
3B
330
18
100
AcDbEntity
  8
0
100
AcDbPolyline
 90
        4
 70
     0
 43
0.0
 10
16.473016
 20
10.921019
 10
16.535064
 20
11.031985
 10
16.674613
 20
10.769613
 10
16.762047
 20
10.897593
  0
LINE
  5
42
330
18
100
AcDbEntity
  8
0
100
AcDbLine
 10
16.473016
 20
10.921019
 30
0.0
 11
16.025293
 21
10.957305
 31
0.0
  0
LINE
  5
43
330
18
100
AcDbEntity
  8
0
100
AcDbLine
 10
16.535064
 20
11.031985
 30
0.0
 11
17.295335
 21
11.249206
 31
0.0
  0
LINE
  5
44
330
18
100
AcDbEntity
  8
0
100
AcDbLine
 10
16.762047
 20
10.897593
 30
0.0
 11
17.522318
 21
11.114814
 31
0.0
  0
LWPOLYLINE
  5
45
330
18
100
AcDbEntity
  8
0
100
AcDbPolyline
 90
        3
 70
     0
 43
0.0
 10
16.974826
 20
11.157631
 10
16.874594
 20
11.165602
 10
16.025293
 20
10.957305
  0
LWPOLYLINE
  5
4B
330
18
100
AcDbEntity
  8
0
100
AcDbPolyline
 90
        2
 70
     0
 43
0.0
 10
17.993891
 20
11.076595
 10
17.521851
 20
11.114132
  0
LWPOLYLINE
  5
50
330
18
100
AcDbEntity
  8
0
100
AcDbPolyline
 90
        2
 70
     0
 43
0.0
 10
17.295335
 20
11.249206
 10
17.387328
 20
11.076246
  0
LINE
  5
55
330
18
100
AcDbEntity
  8
0
100
AcDbLine
 10
17.993891
 20
9.132294999999999
 30
0.0
 11
17.945754
 21
9.10595
 31
0.0
  0
LINE
  5
56
330
18
100
AcDbEntity
  8
0
100
AcDbLine
 10
17.23362
 20
8.716216000000001
 30
0.0
 11
16.025293
 21
8.891235
 31
0.0
  0
LINE
  5
57
330
18
100
AcDbEntity
  8
0
100
AcDbLine
 10
17.923868
 20
9.033778
 30
0.0
 11
17.31807
 21
8.723744999999999
 31
0.0
  0
LINE
  5
58
330
18
100
AcDbEntity
  8
0
100
AcDbLine
 10
17.945754
 20
9.614986
 30
0.0
 11
17.945754
 21
9.069564
 31
0.0
  0
LINE
  5
59
330
18
100
AcDbEntity
  8
0
100
AcDbLine
 10
17.293776
 20
9.358978000000001
 30
0.0
 11
17.293776
 21
8.767660000000001
 31
0.0
  0
LINE
  5
5A
330
18
100
AcDbEntity
  8
0
100
AcDbLine
 10
17.848578
 20
9.681901
 30
0.0
 11
17.382105
 21
9.426611999999999
 31
0.0
  0
LINE
  5
5B
330
18
100
AcDbEntity
  8
0
100
AcDbLine
 10
17.33771
 20
9.347494000000001
 30
0.0
 11
17.33771
 21
8.752758
 31
0.0
  0
LINE
  5
5C
330
18
100
AcDbEntity
  8
0
100
AcDbLine
 10
17.829999
 20
9.694694999999999
 30
0.0
 11
17.945754
 21
9.614986
 31
0.0
  0
LINE
  5
5D
330
18
100
AcDbEntity
  8
0
100
AcDbLine
 10
17.382105
 20
9.426611999999999
 30
0.0
 11
17.33771
 21
9.347494000000001
 31
0.0
  0
LINE
  5
5E
330
18
100
AcDbEntity
  8
0
100
AcDbLine
 10
17.341109
 20
9.443331000000001
 30
0.0
 11
17.293776
 21
9.358978000000001
 31
0.0
  0
LINE
  5
5F
330
18
100
AcDbEntity
  8
0
100
AcDbLine
 10
17.829999
 20
9.694694999999999
 30
0.0
 11
17.341109
 21
9.443331000000001
 31
0.0
  0
LINE
  5
60
330
18
100
AcDbEntity
  8
0
100
AcDbLine
 10
17.293776
 20
9.358978000000001
 30
0.0
 11
17.33771
 21
9.347494000000001
 31
0.0
  0
LINE
  5
61
330
18
100
AcDbEntity
  8
0
100
AcDbLine
 10
17.341109
 20
9.443331000000001
 30
0.0
 11
17.382105
 21
9.426611999999999
 31
0.0
  0
LINE
  5
62
330
18
100
AcDbEntity
  8
0
  6
HIDDEN
100
AcDbLine
 10
17.293776
 20
9.148489999999999
 30
0.0
 11
16.701138
 21
9.206381
 31
0.0
  0
LINE
  5
63
330
18
100
AcDbEntity
  8
0
100
AcDbLine
 10
17.277529
 20
8.740246000000001
 30
0.0
 11
17.23362
 21
8.716216000000001
 31
0.0
  0
LINE
  5
64
330
18
100
AcDbEntity
  8
0
  6
DASHED
100
AcDbLine
 10
16.827846
 20
8.045078
 30
0.0
 11
16.827846
 21
6.482641
 31
0.0
  0
LINE
  5
65
330
18
100
AcDbEntity
  8
0
  6
DASHED
100
AcDbLine
 10
17.139955
 20
8.042541
 30
0.0
 11
17.139955
 21
6.482641
 31
0.0
  0
LWPOLYLINE
  5
66
330
18
100
AcDbEntity
  8
0
  6
DASHED
100
AcDbPolyline
 90
        9
 70
   128
 43
0.0
 10
16.827846
 20
6.482641
 42
0.1621
 10
16.837796
 20
6.452757
 42
0.106091
 10
16.873553
 20
6.42161
 42
0.070114
 10
16.921094
 20
6.403432
 42
0.056362
 10
16.9839
 20
6.39633
 42
0.056362
 10
17.046707
 20
6.403432
 42
0.070114
 10
17.094248
 20
6.42161
 42
0.106091
 10
17.130005
 20
6.452757
 42
0.1621
 10
17.139955
 20
6.482641
 42
0.1621
  0
LINE
  5
72
330
18
100
AcDbEntity
  8
0
  6
DASHED
100
AcDbLine
 10
16.881696
 20
8.037153999999999
 30
0.0
 11
16.881696
 21
7.039697
 31
0.0
  0
LINE
  5
73
330
18
100
AcDbEntity
  8
0
  6
DASHED
100
AcDbLine
 10
17.086105
 20
8.034863
 30
0.0
 11
17.086105
 21
7.039697
 31
0.0
  0
LWPOLYLINE
  5
74
330
18
100
AcDbEntity
  8
0
  6
DASHED
100
AcDbPolyline
 90
        9
 70
   128
 43
0.0
 10
16.881696
 20
7.039697
 42
0.167286
 10
16.888099
 20
7.021094000000001
 42
0.105416
 10
16.911631
 20
7.001365
 42
0.067957
 10
16.942679
 20
6.989961999999999
 42
0.05412
 10
16.9839
 20
6.985486999999999
 42
0.05412
 10
17.025122
 20
6.989961999999999
 42
0.067957
 10
17.05617
 20
7.001365
 42
0.105416
 10
17.079702
 20
7.021094000000001
 42
0.167286
 10
17.086105
 20
7.039697
 42
0.167286
  0
LINE
  5
80
330
18
100
AcDbEntity
  8
0
100
AcDbLine
 10
17.330568
 20
8.223416
 30
0.0
 11
17.330568
 21
8.173325999999999
 31
0.0
  0
LINE
  5
81
330
18
100
AcDbEntity
  8
0
100
AcDbLine
 10
16.62947
 20
8.223416
 30
0.0
 11
16.62947
 21
8.173325999999999
 31
0.0
  0
LWPOLYLINE
  5
82
330
18
100
AcDbEntity
  8
0
100
AcDbPolyline
 90
        5
 70
     0
 43
0.0
 10
16.980019
 20
8.031546000000001
 42
0.041521
 10
17.122908
 20
8.043433
 42
0.054642
 10
17.227894
 20
8.073072999999999
 42
0.097592
 10
17.311302
 20
8.127589
 42
0.202013
 10
17.330568
 20
8.173325999999999
 42
0.100985
  0
LWPOLYLINE
  5
8A
330
18
100
AcDbEntity
  8
0
100
AcDbPolyline
 90
        5
 70
     0
 43
0.0
 10
16.62947
 20
8.173325999999999
 42
0.202013
 10
16.648735
 20
8.127589
 42
0.097592
 10
16.732143
 20
8.073072999999999
 42
0.054642
 10
16.837129
 20
8.043433
 42
0.041521
 10
16.980019
 20
8.031546000000001
 42
0.041521
  0
LINE
  5
92
330
18
100
AcDbEntity
  8
0
100
AcDbLine
 10
16.888647
 20
8.293948
 30
0.0
 11
16.887744
 21
8.166943
 31
0.0
  0
LINE
  5
93
330
18
100
AcDbEntity
  8
0
100
AcDbLine
 10
17.11219
 20
8.295311
 30
0.0
 11
17.11219
 21
8.166943
 31
0.0
  0
LINE
  5
94
330
18
100
AcDbEntity
  8
0
100
AcDbLine
 10
17.186245
 20
8.386647999999999
 30
0.0
 11
17.186245
 21
8.254192
 31
0.0
  0
LINE
  5
95
330
18
100
AcDbEntity
  8
0
100
AcDbLine
 10
16.770434
 20
8.379832
 30
0.0
 11
16.770434
 21
8.249972999999999
 31
0.0
  0
LWPOLYLINE
  5
96
330
18
100
AcDbEntity
  8
0
100
AcDbPolyline
 90
        8
 70
     0
 43
0.0
 10
16.980019
 20
8.081636999999999
 42
0.041521
 10
17.122908
 20
8.093522999999999
 42
0.054642
 10
17.227894
 20
8.123163
 42
0.097592
 10
17.311302
 20
8.177679
 42
0.202013
 10
17.330568
 20
8.223416
 42
0.202013
 10
17.311302
 20
8.269153999999999
 42
0.097592
 10
17.227894
 20
8.32367
 42
0.022075
 10
17.186245
 20
8.338412
 42
0.041521
  0
LWPOLYLINE
  5
A1
330
18
100
AcDbEntity
  8
0
100
AcDbPolyline
 90
        8
 70
     0
 43
0.0
 10
16.770434
 20
8.337374000000001
 42
0.020318
 10
16.732143
 20
8.32367
 42
0.097592
 10
16.648735
 20
8.269153999999999
 42
0.202013
 10
16.62947
 20
8.223416
 42
0.202013
 10
16.648735
 20
8.177679
 42
0.097592
 10
16.732143
 20
8.123163
 42
0.054642
 10
16.837129
 20
8.093522999999999
 42
0.041521
 10
16.980019
 20
8.081636999999999
 42
0.041521
  0
LINE
  5
AC
330
18
100
AcDbEntity
  8
0
100
AcDbLine
 10
16.884711
 20
8.650501
 30
0.0
 11
16.699617
 21
8.681546000000001
 31
0.0
  0
LWPOLYLINE
  5
AD
330
18
100
AcDbEntity
  8
0
100
AcDbPolyline
 90
        3
 70
     0
 43
0.0
 10
17.083089
 20
8.388350000000001
 42
0.2051
 10
17.077708
 20
8.400917
 42
0.003875
 10
17.076879
 20
8.401695
 42
0.05355
  0
LWPOLYLINE
  5
B3
330
18
100
AcDbEntity
  8
0
100
AcDbPolyline
 90
       10
 70
     0
 43
0.0
 10
16.903668
 20
8.404021999999999
 42
0.444865
 10
16.887905
 20
8.383605000000001
 42
0.2051
 10
16.895446
 20
8.372202
 42
0.096664
 10
16.92144
 20
8.361541000000001
 42
0.05355
 10
16.952103
 20
8.358789999999999
 42
0.040563
 10
16.992498
 20
8.362786
 42
0.040563
 10
17.031719
 20
8.373251
 42
0.05355
 10
17.059456
 20
8.386610000000001
 42
0.096664
 10
17.080041
 20
8.405730999999999
 42
0.2051
 10
17.083089
 20
8.419058
 42
0.2051
  0
LWPOLYLINE
  5
C0
330
18
100
AcDbEntity
  8
0
100
AcDbPolyline
 90
        9
 70
     0
 43
0.0
 10
16.900527
 20
8.405646000000001
 42
0.644744
 10
16.890093
 20
8.375783
 42
0.096664
 10
16.913763
 20
8.360647999999999
 42
0.05355
 10
16.943441
 20
8.352461999999999
 42
0.040563
 10
16.9839
 20
8.349174
 42
0.040563
 10
17.02436
 20
8.352461999999999
 42
0.05355
 10
17.054038
 20
8.360647999999999
 42
0.096664
 10
17.077708
 20
8.375783
 42
0.2051
 10
17.083089
 20
8.388350000000001
 42
0.2051
  0
LWPOLYLINE
  5
CC
330
18
100
AcDbEntity
  8
0
100
AcDbPolyline
 90
        3
 70
     0
 43
0.0
 10
17.083089
 20
8.419058
 42
0.2051
 10
17.075549
 20
8.43046
 42
0.014951
 10
17.071815
 20
8.43276
 42
0.05355
  0
LWPOLYLINE
  5
D2
330
18
100
AcDbEntity
  8
0
100
AcDbPolyline
 90
        3
 70
     0
 43
0.0
 10
17.083089
 20
8.455558
 42
0.2051
 10
17.075549
 20
8.46696
 42
0.014951
 10
17.071815
 20
8.46926
 42
0.05355
  0
LWPOLYLINE
  5
D8
330
18
100
AcDbEntity
  8
0
100
AcDbPolyline
 90
       11
 70
     0
 43
0.0
 10
16.899179
 20
8.442902999999999
 42
0.042838
 10
16.890954
 20
8.433432
 42
0.2051
 10
16.887905
 20
8.420105
 42
0.2051
 10
16.895446
 20
8.408702
 42
0.096664
 10
16.92144
 20
8.398041000000001
 42
0.05355
 10
16.952103
 20
8.395289999999999
 42
0.040563
 10
16.992498
 20
8.399286
 42
0.040563
 10
17.031719
 20
8.409751
 42
0.05355
 10
17.059456
 20
8.423110000000001
 42
0.096664
 10
17.080041
 20
8.442231
 42
0.2051
 10
17.083089
 20
8.455558
 42
0.2051
  0
LWPOLYLINE
  5
E6
330
18
100
AcDbEntity
  8
0
100
AcDbPolyline
 90
        3
 70
     0
 43
0.0
 10
17.083089
 20
8.492058
 42
0.2051
 10
17.075549
 20
8.503460000000001
 42
0.014951
 10
17.071815
 20
8.50576
 42
0.05355
  0
LWPOLYLINE
  5
EC
330
18
100
AcDbEntity
  8
0
100
AcDbPolyline
 90
       11
 70
     0
 43
0.0
 10
16.899179
 20
8.479403
 42
0.042838
 10
16.890954
 20
8.469932
 42
0.2051
 10
16.887905
 20
8.456605
 42
0.2051
 10
16.895446
 20
8.445202
 42
0.096664
 10
16.92144
 20
8.434541000000001
 42
0.05355
 10
16.952103
 20
8.43179
 42
0.040563
 10
16.992498
 20
8.435786
 42
0.040563
 10
17.031719
 20
8.446251
 42
0.05355
 10
17.059456
 20
8.459610000000001
 42
0.096664
 10
17.080041
 20
8.478731
 42
0.2051
 10
17.083089
 20
8.492058
 42
0.2051
  0
LWPOLYLINE
  5
FA
330
18
100
AcDbEntity
  8
0
100
AcDbPolyline
 90
        3
 70
     0
 43
0.0
 10
17.083089
 20
8.528558
 42
0.2051
 10
17.075549
 20
8.539960000000001
 42
0.014951
 10
17.071815
 20
8.542260000000001
 42
0.05355
  0
LWPOLYLINE
  5
100
330
18
100
AcDbEntity
  8
0
100
AcDbPolyline
 90
       11
 70
     0
 43
0.0
 10
16.899179
 20
8.515903
 42
0.042838
 10
16.890954
 20
8.506432
 42
0.2051
 10
16.887905
 20
8.493105
 42
0.2051
 10
16.895446
 20
8.481702
 42
0.096664
 10
16.92144
 20
8.471041
 42
0.05355
 10
16.952103
 20
8.46829
 42
0.040563
 10
16.992498
 20
8.472286
 42
0.040563
 10
17.031719
 20
8.482750999999999
 42
0.05355
 10
17.059456
 20
8.49611
 42
0.096664
 10
17.080041
 20
8.515231
 42
0.2051
 10
17.083089
 20
8.528558
 42
0.2051
  0
LWPOLYLINE
  5
10E
330
18
100
AcDbEntity
  8
0
100
AcDbPolyline
 90
        3
 70
     0
 43
0.0
 10
17.083089
 20
8.565058000000001
 42
0.2051
 10
17.075549
 20
8.576460000000001
 42
0.014951
 10
17.071815
 20
8.578760000000001
 42
0.05355
  0
LWPOLYLINE
  5
114
330
18
100
AcDbEntity
  8
0
100
AcDbPolyline
 90
       11
 70
     0
 43
0.0
 10
16.899179
 20
8.552403
 42
0.042838
 10
16.890954
 20
8.542932
 42
0.2051
 10
16.887905
 20
8.529605
 42
0.2051
 10
16.895446
 20
8.518202000000001
 42
0.096664
 10
16.92144
 20
8.507541
 42
0.05355
 10
16.952103
 20
8.50479
 42
0.040563
 10
16.992498
 20
8.508786000000001
 42
0.040563
 10
17.031719
 20
8.519250999999999
 42
0.05355
 10
17.059456
 20
8.53261
 42
0.096664
 10
17.080041
 20
8.551731
 42
0.2051
 10
17.083089
 20
8.565058000000001
 42
0.2051
  0
LWPOLYLINE
  5
122
330
18
100
AcDbEntity
  8
0
100
AcDbPolyline
 90
        3
 70
     0
 43
0.0
 10
17.083089
 20
8.601558000000001
 42
0.2051
 10
17.075549
 20
8.612960000000001
 42
0.014951
 10
17.071815
 20
8.615260000000001
 42
0.05355
  0
LWPOLYLINE
  5
128
330
18
100
AcDbEntity
  8
0
100
AcDbPolyline
 90
       11
 70
     0
 43
0.0
 10
16.899179
 20
8.588903
 42
0.042838
 10
16.890954
 20
8.579432000000001
 42
0.2051
 10
16.887905
 20
8.566105
 42
0.2051
 10
16.895446
 20
8.554702000000001
 42
0.096664
 10
16.92144
 20
8.544041
 42
0.05355
 10
16.952103
 20
8.54129
 42
0.040563
 10
16.992498
 20
8.545286000000001
 42
0.040563
 10
17.031719
 20
8.555750999999999
 42
0.05355
 10
17.059456
 20
8.56911
 42
0.096664
 10
17.080041
 20
8.588231
 42
0.2051
 10
17.083089
 20
8.601558000000001
 42
0.2051
  0
LWPOLYLINE
  5
136
330
18
100
AcDbEntity
  8
0
100
AcDbPolyline
 90
        3
 70
     0
 43
0.0
 10
17.083089
 20
8.638058000000001
 42
0.2051
 10
17.075549
 20
8.649460000000001
 42
0.014951
 10
17.071815
 20
8.651760000000001
 42
0.05355
  0
LWPOLYLINE
  5
13C
330
18
100
AcDbEntity
  8
0
100
AcDbPolyline
 90
       11
 70
     0
 43
0.0
 10
16.899179
 20
8.625403
 42
0.042838
 10
16.890954
 20
8.615932000000001
 42
0.2051
 10
16.887905
 20
8.602605000000001
 42
0.2051
 10
16.895446
 20
8.591202000000001
 42
0.096664
 10
16.92144
 20
8.580541
 42
0.05355
 10
16.952103
 20
8.57779
 42
0.040563
 10
16.992498
 20
8.581785999999999
 42
0.040563
 10
17.031719
 20
8.592250999999999
 42
0.05355
 10
17.059456
 20
8.60561
 42
0.096664
 10
17.080041
 20
8.624731000000001
 42
0.2051
 10
17.083089
 20
8.638058000000001
 42
0.2051
  0
LWPOLYLINE
  5
14A
330
18
100
AcDbEntity
  8
0
100
AcDbPolyline
 90
        3
 70
     0
 43
0.0
 10
17.083089
 20
8.674557999999999
 42
0.2051
 10
17.075549
 20
8.685960000000002
 42
0.014951
 10
17.071815
 20
8.688260000000001
 42
0.05355
  0
LWPOLYLINE
  5
150
330
18
100
AcDbEntity
  8
0
100
AcDbPolyline
 90
       11
 70
     0
 43
0.0
 10
16.899179
 20
8.661903000000001
 42
0.042838
 10
16.890954
 20
8.652432000000001
 42
0.2051
 10
16.887905
 20
8.639105000000001
 42
0.2051
 10
16.895446
 20
8.627702000000001
 42
0.096664
 10
16.92144
 20
8.617041
 42
0.05355
 10
16.952103
 20
8.614289999999999
 42
0.040563
 10
16.992498
 20
8.618285999999999
 42
0.040563
 10
17.031719
 20
8.628750999999999
 42
0.05355
 10
17.059456
 20
8.642110000000001
 42
0.096664
 10
17.080041
 20
8.661230999999999
 42
0.2051
 10
17.083089
 20
8.674557999999999
 42
0.2051
  0
LWPOLYLINE
  5
15E
330
18
100
AcDbEntity
  8
0
100
AcDbPolyline
 90
        3
 70
     0
 43
0.0
 10
17.083089
 20
8.711058
 42
0.2051
 10
17.075549
 20
8.72246
 42
0.014951
 10
17.071815
 20
8.72476
 42
0.05355
  0
LWPOLYLINE
  5
164
330
18
100
AcDbEntity
  8
0
100
AcDbPolyline
 90
       11
 70
     0
 43
0.0
 10
16.899179
 20
8.698402999999999
 42
0.042838
 10
16.890954
 20
8.688932000000001
 42
0.2051
 10
16.887905
 20
8.675605000000001
 42
0.2051
 10
16.895446
 20
8.664202000000001
 42
0.096664
 10
16.92144
 20
8.653541000000001
 42
0.05355
 10
16.952103
 20
8.650789999999999
 42
0.040563
 10
16.992498
 20
8.654786
 42
0.040563
 10
17.031719
 20
8.665251
 42
0.05355
 10
17.059456
 20
8.678610000000001
 42
0.096664
 10
17.080041
 20
8.697730999999999
 42
0.2051
 10
17.083089
 20
8.711058
 42
0.2051
  0
LWPOLYLINE
  5
172
330
18
100
AcDbEntity
  8
0
100
AcDbPolyline
 90
        9
 70
     0
 43
0.0
 10
16.893687
 20
8.765454
 42
0.0152
 10
16.890954
 20
8.761932
 42
0.2051
 10
16.887905
 20
8.748605
 42
0.2051
 10
16.895446
 20
8.737202
 42
0.096664
 10
16.92144
 20
8.726541000000001
 42
0.05355
 10
16.952103
 20
8.723789999999999
 42
0.040563
 10
16.992498
 20
8.727786
 42
0.040563
 10
17.031719
 20
8.738251
 42
0.024316
 10
17.044676
 20
8.743584
 42
0.096664
  0
LWPOLYLINE
  5
17E
330
18
100
AcDbEntity
  8
0
100
AcDbPolyline
 90
       11
 70
     0
 43
0.0
 10
16.899179
 20
8.734902999999999
 42
0.042838
 10
16.890954
 20
8.725432000000001
 42
0.2051
 10
16.887905
 20
8.712105000000001
 42
0.2051
 10
16.895446
 20
8.700702
 42
0.096664
 10
16.92144
 20
8.690041000000001
 42
0.05355
 10
16.952103
 20
8.687289999999999
 42
0.040563
 10
16.992498
 20
8.691286
 42
0.040563
 10
17.031719
 20
8.701751
 42
0.05355
 10
17.059456
 20
8.715110000000001
 42
0.096664
 10
17.080041
 20
8.734230999999999
 42
0.064593
 10
17.082184
 20
8.738151
 42
0.2051
  0
LINE
  5
18C
330
18
100
AcDbEntity
  8
0
  6
HIDDEN
100
AcDbLine
 10
17.30198
 20
8.721831
 30
0.0
 11
16.083396
 21
8.898335000000001
 31
0.0
  0
LINE
  5
18D
330
18
100
AcDbEntity
  8
0
  6
HIDDEN
100
AcDbLine
 10
16.10056
 20
8.921969000000001
 30
0.0
 11
16.701138
 21
9.206381
 31
0.0
  0
ARC
  5
18E
330
18
100
AcDbEntity
  8
0
100
AcDbCircle
 10
17.30646
 20
8.752758
 30
0.0
 40
0.03125
100
AcDbArc
 50
261.75836
 51
0.0
  0
LINE
  5
18F
330
18
100
AcDbEntity
  8
0
  6
HIDDEN
100
AcDbLine
 10
17.288264
 20
8.749936999999999
 30
0.0
 11
16.10056
 21
8.921969000000001
 31
0.0
  0
ARC
  5
190
330
18
100
AcDbEntity
  8
0
100
AcDbCircle
 10
17.262526
 20
8.767660000000001
 30
0.0
 40
0.03125
100
AcDbArc
 50
298.690834
 51
0.0
  0
LINE
  5
191
330
18
100
AcDbEntity
  8
0
  6
HIDDEN
100
AcDbLine
 10
16.10056
 20
9.508167
 30
0.0
 11
16.10056
 21
8.921969000000001
 31
0.0
  0
LINE
  5
192
330
18
100
AcDbEntity
  8
0
  6
HIDDEN
100
AcDbLine
 10
16.592848
 20
9.855367999999999
 30
0.0
 11
16.103958
 21
9.604004
 31
0.0
  0
LINE
  5
193
330
18
100
AcDbEntity
  8
0
  6
HIDDEN
100
AcDbLine
 10
16.611428
 20
9.842574000000001
 30
0.0
 11
16.144955
 21
9.587284
 31
0.0
  0
LINE
  5
194
330
18
100
AcDbEntity
  8
0
  6
HIDDEN
100
AcDbLine
 10
16.103958
 20
9.604004
 30
0.0
 11
16.056626
 21
9.519651
 31
0.0
  0
LINE
  5
195
330
18
100
AcDbEntity
  8
0
  6
HIDDEN
100
AcDbLine
 10
16.144955
 20
9.587284
 30
0.0
 11
16.10056
 21
9.508167
 31
0.0
  0
LINE
  5
196
330
18
100
AcDbEntity
  8
0
  6
HIDDEN
100
AcDbLine
 10
16.056626
 20
9.519651
 30
0.0
 11
16.10056
 21
9.508167
 31
0.0
  0
LINE
  5
197
330
18
100
AcDbEntity
  8
0
  6
HIDDEN
100
AcDbLine
 10
16.103958
 20
9.604004
 30
0.0
 11
16.144955
 21
9.587284
 31
0.0
  0
LINE
  5
198
330
18
100
AcDbEntity
  8
0
  6
HIDDEN
100
AcDbLine
 10
16.056626
 20
9.519651
 30
0.0
 11
16.056626
 21
8.929263000000001
 31
0.0
  0
LINE
  5
199
330
18
100
AcDbEntity
  8
0
  6
HIDDEN
100
AcDbLine
 10
16.708603
 20
9.775658999999999
 30
0.0
 11
16.708603
 21
9.205651
 31
0.0
  0
LINE
  5
19A
330
18
100
AcDbEntity
  8
0
  6
HIDDEN
100
AcDbLine
 10
16.592848
 20
9.855367999999999
 30
0.0
 11
16.708603
 21
9.775658999999999
 31
0.0
  0
ARC
  5
19B
330
18
100
AcDbEntity
  8
0
100
AcDbCircle
 10
16.087876
 20
8.929263000000001
 30
0.0
 40
0.03125
100
AcDbArc
 50
180.0
 51
261.75836
  0
LWPOLYLINE
  5
19C
330
18
100
AcDbEntity
  8
0
  6
HIDDEN
100
AcDbPolyline
 90
       16
 70
   129
 43
0.0
 10
17.083603
 20
9.04302
 42
0.204167
 10
17.07821
 20
9.055679
 42
0.096948
 10
17.054598
 20
9.070877000000001
 42
0.053879
 10
17.02496
 20
9.07911
 42
0.04085
 10
16.984573
 20
9.082414999999999
 42
0.04085
 10
16.944187
 20
9.07911
 42
0.053879
 10
16.914548
 20
9.070877000000001
 42
0.096948
 10
16.890937
 20
9.055679
 42
0.204167
 10
16.885543
 20
9.04302
 42
0.204167
 10
16.890937
 20
9.030360999999999
 42
0.096948
 10
16.914548
 20
9.015164
 42
0.053879
 10
16.944187
 20
9.006930000000001
 42
0.04085
 10
16.984573
 20
9.003625
 42
0.04085
 10
17.02496
 20
9.006930000000001
 42
0.053879
 10
17.054598
 20
9.015164
 42
0.096948
 10
17.07821
 20
9.030360999999999
 42
0.204167
  0
LINE
  5
1AF
330
18
100
AcDbEntity
  8
0
  6
HIDDEN
100
AcDbLine
 10
17.083603
 20
9.037783000000001
 30
0.0
 11
17.083603
 21
9.012559
 31
0.0
  0
LINE
  5
1B0
330
18
100
AcDbEntity
  8
0
  6
HIDDEN
100
AcDbLine
 10
16.885543
 20
9.037783000000001
 30
0.0
 11
16.885543
 21
9.012639
 31
0.0
  0
LWPOLYLINE
  5
1B1
330
18
100
AcDbEntity
  8
0
100
AcDbPolyline
 90
        2
 70
     0
 43
0.0
 10
17.083603
 20
9.037783000000001
 42
0.119329
 10
17.08166
 20
9.045811000000001
 42
0.096948
  0
LWPOLYLINE
  5
1B6
330
18
100
AcDbEntity
  8
0
  6
HIDDEN
100
AcDbPolyline
 90
        3
 70
   128
 43
0.0
 10
17.104222
 20
9.027497
 42
0.204167
 10
17.097709
 20
9.042783
 42
0.078826
 10
17.075006
 20
9.058579
 42
0.053879
  0
LWPOLYLINE
  5
1BC
330
18
100
AcDbEntity
  8
0
  6
HIDDEN
100
AcDbPolyline
 90
       11
 70
   128
 43
0.0
 10
16.893973
 20
9.058435000000001
 42
0.077889
 10
16.871566
 20
9.042783
 42
0.204167
 10
16.865052
 20
9.027497
 42
0.204167
 10
16.871566
 20
9.012211000000001
 42
0.096948
 10
16.900078
 20
8.993858
 42
0.053879
 10
16.935868
 20
8.983916000000001
 42
0.04085
 10
16.984637
 20
8.979925
 42
0.04085
 10
17.033406
 20
8.983916000000001
 42
0.053879
 10
17.069196
 20
8.993858
 42
0.096948
 10
17.097709
 20
9.012211000000001
 42
0.204167
 10
17.104222
 20
9.027497
 42
0.204167
  0
LWPOLYLINE
  5
1CA
330
18
100
AcDbEntity
  8
0
100
AcDbPolyline
 90
       16
 70
     1
 43
0.0
 10
17.489781
 20
9.363538999999999
 42
0.144299
 10
17.479639
 20
9.361169
 42
0.107177
 10
17.469282
 20
9.351905
 42
0.077833
 10
17.462596
 20
9.338814999999999
 42
0.065035
 10
17.459333
 20
9.321561000000001
 42
0.065035
 10
17.46061
 20
9.304048
 42
0.077833
 10
17.465762
 20
9.290281
 42
0.107177
 10
17.474996
 20
9.279899
 42
0.144299
 10
17.484803
 20
9.276389
 42
0.144299
 10
17.494945
 20
9.278758999999999
 42
0.107177
 10
17.505302
 20
9.288022999999999
 42
0.077833
 10
17.511988
 20
9.301113000000001
 42
0.065035
 10
17.515252
 20
9.318367
 42
0.065035
 10
17.513974
 20
9.33588
 42
0.077833
 10
17.508823
 20
9.349647000000001
 42
0.107177
 10
17.499588
 20
9.360028999999999
 42
0.144299
  0
LINE
  5
1DD
330
18
100
AcDbEntity
  8
0
100
AcDbLine
 10
17.473698
 20
9.276389
 30
0.0
 11
17.484803
 21
9.276389
 31
0.0
  0
LINE
  5
1DE
330
18
100
AcDbEntity
  8
0
100
AcDbLine
 10
17.478676
 20
9.363538999999999
 30
0.0
 11
17.489781
 21
9.363538999999999
 31
0.0
  0
LWPOLYLINE
  5
1DF
330
18
100
AcDbEntity
  8
0
100
AcDbPolyline
 90
       10
 70
     0
 43
0.0
 10
17.478676
 20
9.363538999999999
 42
0.144299
 10
17.468534
 20
9.361169
 42
0.107177
 10
17.458177
 20
9.351905
 42
0.077833
 10
17.451491
 20
9.338814999999999
 42
0.065035
 10
17.448228
 20
9.321561000000001
 42
0.065035
 10
17.449505
 20
9.304048
 42
0.077833
 10
17.454657
 20
9.290281
 42
0.107177
 10
17.463891
 20
9.279899
 42
0.144299
 10
17.473698
 20
9.276389
 42
0.028539
 10
17.475799
 20
9.276389
 42
0.107177
  0
LWPOLYLINE
  5
1EC
330
18
100
AcDbEntity
  8
0
100
AcDbPolyline
 90
       16
 70
     1
 43
0.0
 10
17.576781
 20
9.174742
 42
0.144299
 10
17.566638
 20
9.172371999999999
 42
0.107177
 10
17.556281
 20
9.163109
 42
0.077833
 10
17.549596
 20
9.150017999999999
 42
0.065035
 10
17.546332
 20
9.132764
 42
0.065035
 10
17.54761
 20
9.115250999999999
 42
0.077833
 10
17.552761
 20
9.101485
 42
0.107177
 10
17.561996
 20
9.091102000000001
 42
0.144299
 10
17.571802
 20
9.087591999999999
 42
0.144299
 10
17.581945
 20
9.089963000000001
 42
0.107177
 10
17.592302
 20
9.099226
 42
0.077833
 10
17.598987
 20
9.112316
 42
0.065035
 10
17.602251
 20
9.129569999999999
 42
0.065035
 10
17.600973
 20
9.147083
 42
0.077833
 10
17.595822
 20
9.16085
 42
0.107177
 10
17.586587
 20
9.171232
 42
0.144299
  0
LWPOLYLINE
  5
1FF
330
18
100
AcDbEntity
  8
0
100
AcDbPolyline
 90
       10
 70
     0
 43
0.0
 10
17.565676
 20
9.174742
 42
0.144299
 10
17.555533
 20
9.172371999999999
 42
0.107177
 10
17.545176
 20
9.163109
 42
0.077833
 10
17.538491
 20
9.150017999999999
 42
0.065035
 10
17.535227
 20
9.132764
 42
0.065035
 10
17.536505
 20
9.115250999999999
 42
0.077833
 10
17.541656
 20
9.101485
 42
0.107177
 10
17.550891
 20
9.091102000000001
 42
0.144299
 10
17.560697
 20
9.087591999999999
 42
0.028539
 10
17.562799
 20
9.087591999999999
 42
0.107177
  0
LINE
  5
20C
330
18
100
AcDbEntity
  8
0
100
AcDbLine
 10
17.565676
 20
9.174742
 30
0.0
 11
17.576781
 21
9.174742
 31
0.0
  0
LINE
  5
20D
330
18
100
AcDbEntity
  8
0
100
AcDbLine
 10
17.560697
 20
9.087591999999999
 30
0.0
 11
17.571802
 21
9.087591999999999
 31
0.0
  0
LWPOLYLINE
  5
20E
330
18
100
AcDbEntity
  8
0
100
AcDbPolyline
 90
       16
 70
     1
 43
0.0
 10
17.833986
 20
9.550642
 42
0.144299
 10
17.823844
 20
9.548272000000001
 42
0.107177
 10
17.813487
 20
9.539009
 42
0.077833
 10
17.806801
 20
9.525919
 42
0.065035
 10
17.803538
 20
9.508664999999999
 42
0.065035
 10
17.804815
 20
9.491152
 42
0.077833
 10
17.809967
 20
9.477385
 42
0.107177
 10
17.819201
 20
9.467003
 42
0.144299
 10
17.829008
 20
9.463493
 42
0.144299
 10
17.83915
 20
9.465863000000001
 42
0.107177
 10
17.849507
 20
9.475126
 42
0.077833
 10
17.856193
 20
9.488217000000001
 42
0.065035
 10
17.859457
 20
9.505469999999999
 42
0.065035
 10
17.858179
 20
9.522983999999999
 42
0.077833
 10
17.853028
 20
9.53675
 42
0.107177
 10
17.843793
 20
9.547133000000001
 42
0.144299
  0
LWPOLYLINE
  5
221
330
18
100
AcDbEntity
  8
0
100
AcDbPolyline
 90
       10
 70
     0
 43
0.0
 10
17.822881
 20
9.550642
 42
0.144299
 10
17.812739
 20
9.548272000000001
 42
0.107177
 10
17.802382
 20
9.539009
 42
0.077833
 10
17.795696
 20
9.525919
 42
0.065035
 10
17.792433
 20
9.508664999999999
 42
0.065035
 10
17.79371
 20
9.491152
 42
0.077833
 10
17.798862
 20
9.477385
 42
0.107177
 10
17.808096
 20
9.467003
 42
0.144299
 10
17.817903
 20
9.463493
 42
0.028539
 10
17.820004
 20
9.463493
 42
0.107177
  0
LINE
  5
22E
330
18
100
AcDbEntity
  8
0
100
AcDbLine
 10
17.822881
 20
9.550642
 30
0.0
 11
17.833986
 21
9.550642
 31
0.0
  0
LINE
  5
22F
330
18
100
AcDbEntity
  8
0
100
AcDbLine
 10
17.817903
 20
9.463493
 30
0.0
 11
17.829008
 21
9.463493
 31
0.0
  0
LWPOLYLINE
  5
230
330
18
100
AcDbEntity
  8
0
100
AcDbPolyline
 90
       16
 70
     1
 43
0.0
 10
17.657841
 20
9.271952000000001
 42
0.144299
 10
17.647698
 20
9.269582000000002
 42
0.107177
 10
17.637341
 20
9.260318
 42
0.077833
 10
17.630656
 20
9.247228
 42
0.065035
 10
17.627392
 20
9.229974
 42
0.065035
 10
17.62867
 20
9.212460999999999
 42
0.077833
 10
17.633821
 20
9.198694
 42
0.107177
 10
17.643056
 20
9.188312
 42
0.144299
 10
17.652862
 20
9.184802000000001
 42
0.144299
 10
17.663005
 20
9.187172
 42
0.107177
 10
17.673362
 20
9.196436
 42
0.077833
 10
17.680047
 20
9.209526
 42
0.065035
 10
17.683311
 20
9.22678
 42
0.065035
 10
17.682033
 20
9.244292999999999
 42
0.077833
 10
17.676882
 20
9.258058999999999
 42
0.107177
 10
17.667647
 20
9.268442
 42
0.144299
  0
LWPOLYLINE
  5
243
330
18
100
AcDbEntity
  8
0
100
AcDbPolyline
 90
        7
 70
     0
 43
0.0
 10
17.641532
 20
9.189494
 42
0.074617
 10
17.648351
 20
9.196436
 42
0.077833
 10
17.655037
 20
9.209526
 42
0.065035
 10
17.6583
 20
9.22678
 42
0.065035
 10
17.657023
 20
9.244292999999999
 42
0.077833
 10
17.651871
 20
9.258058999999999
 42
0.092321
 10
17.644161
 20
9.26726
 42
0.144299
  0
LWPOLYLINE
  5
24D
330
18
100
AcDbEntity
  8
0
  6
HIDDEN
100
AcDbPolyline
 90
       16
 70
   129
 43
0.0
 10
16.553413
 20
9.710239999999999
 42
0.144299
 10
16.54327
 20
9.70787
 42
0.107177
 10
16.532913
 20
9.698607000000001
 42
0.077833
 10
16.526228
 20
9.685516
 42
0.065035
 10
16.522964
 20
9.668263
 42
0.065035
 10
16.524242
 20
9.650749000000001
 42
0.077833
 10
16.529393
 20
9.636983000000001
 42
0.107177
 10
16.538628
 20
9.6266
 42
0.144299
 10
16.548435
 20
9.623091000000001
 42
0.144299
 10
16.558577
 20
9.625461
 42
0.107177
 10
16.568934
 20
9.634724
 42
0.077833
 10
16.57562
 20
9.647814
 42
0.065035
 10
16.578883
 20
9.665068
 42
0.065035
 10
16.577606
 20
9.682580999999999
 42
0.077833
 10
16.572454
 20
9.696348
 42
0.107177
 10
16.56322
 20
9.70673
 42
0.144299
  0
LWPOLYLINE
  5
260
330
18
100
AcDbEntity
  8
0
  6
HIDDEN
100
AcDbPolyline
 90
       16
 70
   129
 43
0.0
 10
16.619379
 20
9.415106
 42
0.144299
 10
16.609236
 20
9.412736000000001
 42
0.107177
 10
16.598879
 20
9.403473
 42
0.077833
 10
16.592194
 20
9.390382000000001
 42
0.065035
 10
16.58893
 20
9.373128
 42
0.065035
 10
16.590208
 20
9.355615
 42
0.077833
 10
16.595359
 20
9.341849
 42
0.107177
 10
16.604594
 20
9.331466000000001
 42
0.144299
 10
16.6144
 20
9.327957000000001
 42
0.144299
 10
16.624543
 20
9.330327000000001
 42
0.107177
 10
16.6349
 20
9.339589999999999
 42
0.077833
 10
16.641585
 20
9.352679999999999
 42
0.065035
 10
16.644849
 20
9.369933999999999
 42
0.065035
 10
16.643572
 20
9.387447
 42
0.077833
 10
16.63842
 20
9.401214
 42
0.107177
 10
16.629185
 20
9.411596000000001
 42
0.144299
  0
LWPOLYLINE
  5
273
330
18
100
AcDbEntity
  8
0
  6
HIDDEN
100
AcDbPolyline
 90
       16
 70
   129
 43
0.0
 10
16.249164
 20
9.239083000000001
 42
0.144299
 10
16.239021
 20
9.236711999999999
 42
0.107177
 10
16.228664
 20
9.227449
 42
0.077833
 10
16.221979
 20
9.214359
 42
0.065035
 10
16.218715
 20
9.197105000000001
 42
0.065035
 10
16.219993
 20
9.179592
 42
0.077833
 10
16.225144
 20
9.165825
 42
0.107177
 10
16.234379
 20
9.155443
 42
0.144299
 10
16.244185
 20
9.151933
 42
0.144299
 10
16.254328
 20
9.154303000000001
 42
0.107177
 10
16.264685
 20
9.163566000000001
 42
0.077833
 10
16.27137
 20
9.176657000000001
 42
0.065035
 10
16.274634
 20
9.193911
 42
0.065035
 10
16.273357
 20
9.211424000000001
 42
0.077833
 10
16.268205
 20
9.22519
 42
0.107177
 10
16.25897
 20
9.235573000000001
 42
0.144299
  0
LWPOLYLINE
  5
286
330
18
100
AcDbEntity
  8
0
  6
HIDDEN
100
AcDbPolyline
 90
        7
 70
     0
 43
0.0
 10
16.391965
 20
9.309906
 42
0.074617
 10
16.398784
 20
9.316847000000001
 42
0.077833
 10
16.405469
 20
9.329938
 42
0.065035
 10
16.408733
 20
9.347191000000001
 42
0.065035
 10
16.407455
 20
9.364704
 42
0.077833
 10
16.402304
 20
9.378471000000001
 42
0.092321
 10
16.394593
 20
9.387672
 42
0.144299
  0
LWPOLYLINE
  5
290
330
18
100
AcDbEntity
  8
0
  6
HIDDEN
100
AcDbPolyline
 90
       16
 70
   129
 43
0.0
 10
16.408273
 20
9.392363000000001
 42
0.144299
 10
16.398131
 20
9.389992999999999
 42
0.107177
 10
16.387774
 20
9.38073
 42
0.077833
 10
16.381088
 20
9.367639000000001
 42
0.065035
 10
16.377825
 20
9.350386
 42
0.065035
 10
16.379102
 20
9.332872999999999
 42
0.077833
 10
16.384254
 20
9.319106
 42
0.107177
 10
16.393488
 20
9.308722999999999
 42
0.144299
 10
16.403295
 20
9.305213999999999
 42
0.144299
 10
16.413438
 20
9.307584
 42
0.107177
 10
16.423794
 20
9.316847000000001
 42
0.077833
 10
16.43048
 20
9.329938
 42
0.065035
 10
16.433744
 20
9.347191000000001
 42
0.065035
 10
16.432466
 20
9.364704
 42
0.077833
 10
16.427315
 20
9.378471000000001
 42
0.107177
 10
16.41808
 20
9.388853999999999
 42
0.144299
  0
ARC
  5
2A3
330
18
100
AcDbEntity
  8
0
100
AcDbCircle
 10
17.002984
 20
7.873964999999999
 30
0.0
 40
0.435268
100
AcDbArc
 50
75.469587
 51
105.229235
  0
ARC
  5
2A4
330
18
100
AcDbEntity
  8
0
100
AcDbCircle
 10
17.322274
 20
8.200666999999999
 30
0.0
 40
0.230419
100
AcDbArc
 50
126.182315
 51
155.748231
  0
ARC
  5
2A5
330
18
100
AcDbEntity
  8
0
100
AcDbCircle
 10
16.69129
 20
8.146597
 30
0.0
 40
0.246296
100
AcDbArc
 50
36.745668
 51
71.256342
  0
ARC
  5
2A6
330
18
100
AcDbEntity
  8
0
100
AcDbCircle
 10
16.969829
 20
8.180710000000001
 30
0.0
 40
0.281794
100
AcDbArc
 50
106.458358
 51
135.039351
  0
ARC
  5
2A7
330
18
100
AcDbEntity
  8
0
100
AcDbCircle
 10
17.017695
 20
8.208034
 30
0.0
 40
0.245585
100
AcDbArc
 50
46.660453
 51
74.882346
  0
ARC
  5
2A8
330
18
100
AcDbEntity
  8
0
100
AcDbCircle
 10
16.999967
 20
8.999764000000001
 30
0.0
 40
0.840348
100
AcDbArc
 50
262.325591
 51
277.674409
  0
ARC
  5
2A9
330
18
100
AcDbEntity
  8
0
100
AcDbCircle
 10
16.87991
 20
8.439149000000001
 30
0.0
 40
0.357841
100
AcDbArc
 50
310.474962
 51
328.877535
  0
ARC
  5
2AA
330
18
100
AcDbEntity
  8
0
100
AcDbCircle
 10
17.356492
 20
8.953602
 30
0.0
 40
0.9157280000000001
100
AcDbArc
 50
230.208813
 51
239.21051
  0
SOLID
  5
2AB
330
18
100
AcDbEntity
  8
0
100
AcDbTrace
 10
17.793248
 20
8.086134
 30
0.0
 11
17.751581
 21
8.086134
 31
0.0
 12
17.772414
 22
7.961134
 32
0.0
 13
17.772414
 23
7.961134
 33
0.0
  0
LINE
  5
2AC
330
18
100
AcDbEntity
  8
0
100
AcDbLine
 10
17.772414
 20
8.086134
 30
0.0
 11
17.772414
 21
8.163842000000001
 31
0.0
  0
SOLID
  5
2AD
330
18
100
AcDbEntity
  8
0
100
AcDbTrace
 10
17.751581
 20
8.512064000000001
 30
0.0
 11
17.793248
 21
8.512064000000001
 31
0.0
 12
17.772414
 22
8.637064000000001
 32
0.0
 13
17.772414
 23
8.637064000000001
 33
0.0
  0
LINE
  5
2AE
330
18
100
AcDbEntity
  8
0
100
AcDbLine
 10
17.858006
 20
8.622707999999999
 30
0.0
 11
17.407404
 21
8.698285
 31
0.0
  0
TEXT
  5
2AF
330
18
100
AcDbEntity
  8
0
100
AcDbText
 10
17.415439
 20
8.299686999999999
 30
0.0
 40
0.16
  1
2 "MAX.
 50
348.385381
100
AcDbText
  0
TEXT
  5
2B0
330
18
100
AcDbEntity
  8
0
100
AcDbText
 10
17.584393
 20
8.351858
 30
0.0
 40
0.08
  1
1
 50
348.385381
100
AcDbText
  0
TEXT
  5
2B1
330
18
100
AcDbEntity
  8
0
100
AcDbText
 10
17.591495
 20
8.28941
 30
0.0
 40
0.08
  1
/
 50
348.385381
100
AcDbText
  0
TEXT
  5
2B2
330
18
100
AcDbEntity
  8
0
100
AcDbText
 10
17.660863
 20
8.246310000000001
 30
0.0
 40
0.08
  1
2
 50
348.385381
 41
0.8
100
AcDbText
  0
LINE
  5
2B3
330
18
100
AcDbEntity
  8
0
100
AcDbLine
 10
17.772414
 20
8.452852
 30
0.0
 11
17.772414
 21
8.637064000000001
 31
0.0
  0
TEXT
  5
2B4
330
18
100
AcDbEntity
  8
0
100
AcDbText
 10
14.46674038095238
 20
9.57035
 30
0.0
 40
0.16
  1
NUT AND
 72
     2
 11
15.525788
 21
9.57035
 31
0.0
100
AcDbText
  0
TEXT
  5
2B5
330
18
100
AcDbEntity
  8
0
100
AcDbText
 10
13.97912133333333
 20
9.311302
 30
0.0
 40
0.16
  1
WASHER FOR
 72
     2
 11
15.525788
 21
9.311302
 31
0.0
100
AcDbText
  0
TEXT
  5
2B6
330
18
100
AcDbEntity
  8
0
100
AcDbText
 10
13.86483561904762
 20
9.052254
 30
0.0
 40
0.16
  1
ADJUSTABILITY
 72
     2
 11
15.525788
 21
9.052254
 31
0.0
100
AcDbText
  0
TEXT
  5
2B7
330
18
100
AcDbEntity
  8
0
100
AcDbText
 10
14.2610260952381
 20
8.708907
 30
0.0
 40
0.16
  1
NO UPLIFT
 72
     2
 11
15.525788
 21
8.708907
 31
0.0
100
AcDbText
  0
LWPOLYLINE
  5
2B8
330
18
100
AcDbEntity
  8
0
100
AcDbPolyline
 90
        3
 70
     0
 43
0.0
 10
16.672979
 20
8.356264
 10
16.42751
 20
8.403644999999999
 42
-0.251795
 10
15.60063
 20
9.081500999999999
  0
LWPOLYLINE
  5
2BE
330
18
100
AcDbEntity
  8
0
100
AcDbPolyline
 90
        4
 70
     0
 43
0.0
 10
16.199806
 20
11.000106
 10
16.321398
 20
11.001044
 10
16.399433
 20
10.989881
 10
16.497706
 20
10.965174
  0
LINE
  5
2C5
330
18
100
AcDbEntity
  8
0
100
AcDbLine
 10
17.430455
 20
10.915612
 30
0.0
 11
17.298849
 21
10.93626
 31
0.0
  0
LINE
  5
2C6
330
18
100
AcDbEntity
  8
0
100
AcDbLine
 10
17.298849
 20
10.93626
 30
0.0
 11
17.172794
 21
10.961549
 31
0.0
  0
LINE
  5
2C7
330
18
100
AcDbEntity
  8
0
100
AcDbLine
 10
17.172794
 20
10.961549
 30
0.0
 11
17.070623
 21
10.985758
 31
0.0
  0
LWPOLYLINE
  5
2C8
330
18
100
AcDbEntity
  8
0
100
AcDbPolyline
 90
        5
 70
     0
 43
0.0
 10
17.541826
 20
10.947432
 10
17.446928
 20
10.97817
 10
17.327876
 20
10.99542
 10
17.251843
 20
11.009591
 10
17.187951
 20
11.019281
  0
LWPOLYLINE
  5
2D0
330
18
100
AcDbEntity
  8
0
100
AcDbPolyline
 90
        5
 70
     0
 43
0.0
 10
17.659162
 20
10.980957
 10
17.508968
 20
11.024232
 10
17.437937
 20
11.034381
 10
17.383912
 20
11.041492
 10
17.316896
 20
11.056122
  0
LWPOLYLINE
  5
2D8
330
18
100
AcDbEntity
  8
0
100
AcDbPolyline
 90
        5
 70
     0
 43
0.0
 10
17.785598
 20
11.017082
 10
17.655043
 20
11.048082
 10
17.562003
 20
11.068301
 10
17.498975
 20
11.07643
 10
17.427736
 20
11.087791
  0
LWPOLYLINE
  5
2E0
330
18
100
AcDbEntity
  8
0
100
AcDbPolyline
 90
        2
 70
     0
 43
0.0
 10
16.378655
 20
11.04397
 10
16.524738
 20
11.013518
  0
LWPOLYLINE
  5
2E5
330
18
100
AcDbEntity
  8
0
100
AcDbPolyline
 90
        2
 70
     0
 43
0.0
 10
16.517461
 20
11.078013
 10
16.597403
 20
11.049796
  0
LWPOLYLINE
  5
2EA
330
18
100
AcDbEntity
  8
0
100
AcDbPolyline
 90
        2
 70
     0
 43
0.0
 10
16.632015
 20
11.106108
 10
16.704546
 20
11.080408
  0
LWPOLYLINE
  5
2EF
330
18
100
AcDbEntity
  8
0
100
AcDbPolyline
 90
        2
 70
     0
 43
0.0
 10
16.718691
 20
11.127366
 10
16.822267
 20
11.114043
  0
LWPOLYLINE
  5
2F4
330
18
100
AcDbEntity
  8
0
100
AcDbPolyline
 90
        3
 70
     0
 43
0.0
 10
17.31008
 20
10.881219
 10
17.064734
 20
10.922586
 10
16.918549
 20
10.942308
  0
LWPOLYLINE
  5
2FA
330
18
100
AcDbEntity
  8
0
100
AcDbPolyline
 90
        3
 70
     0
 43
0.0
 10
17.891543
 20
11.047352
 10
17.731085
 20
11.077062
 10
17.487855
 20
11.104968
  0
LWPOLYLINE
  5
300
330
18
100
AcDbEntity
  8
0
100
AcDbPolyline
 90
        2
 70
     0
 43
0.0
 10
16.599775
 20
11.050474
 10
16.740081
 20
10.865441
  0
LWPOLYLINE
  5
305
330
18
100
AcDbEntity
  8
0
100
AcDbPolyline
 90
        2
 70
     0
 43
0.0
 10
16.712851
 20
11.082781
 10
16.833467
 20
10.917999
  0
LWPOLYLINE
  5
30A
330
18
100
AcDbEntity
  8
0
100
AcDbPolyline
 90
        2
 70
     0
 43
0.0
 10
16.805996
 20
11.109394
 10
16.932038
 20
10.946163
  0
LWPOLYLINE
  5
30F
330
18
100
AcDbEntity
  8
0
100
AcDbPolyline
 90
        2
 70
     0
 43
0.0
 10
16.901271
 20
11.136616
 10
17.027298
 20
10.97338
  0
LWPOLYLINE
  5
314
330
18
100
AcDbEntity
  8
0
100
AcDbPolyline
 90
        2
 70
     0
 43
0.0
 10
17.00367
 20
11.165872
 10
17.1182
 20
10.999352
  0
LWPOLYLINE
  5
319
330
18
100
AcDbEntity
  8
0
100
AcDbPolyline
 90
        2
 70
     0
 43
0.0
 10
17.108569
 20
11.195844
 10
17.212793
 20
11.026378
  0
LWPOLYLINE
  5
31E
330
18
100
AcDbEntity
  8
0
100
AcDbPolyline
 90
        2
 70
     0
 43
0.0
 10
17.230118
 20
11.230572
 10
17.301187
 20
11.051634
  0
LINE
  5
323
330
18
100
AcDbEntity
  8
0
100
AcDbLine
 10
16.054727
 20
5.468373000000001
 30
0.0
 11
14.861209
 21
5.815963
 31
0.0
  0
LINE
  5
324
330
18
100
AcDbEntity
  8
0
100
AcDbLine
 10
16.208895
 20
5.423474
 30
0.0
 11
16.150304
 21
5.440538
 31
0.0
  0
LINE
  5
325
330
18
100
AcDbEntity
  8
0
100
AcDbLine
 10
16.532649
 20
5.329187
 30
0.0
 11
16.478671
 21
5.344907
 31
0.0
  0
LINE
  5
326
330
18
100
AcDbEntity
  8
0
100
AcDbLine
 10
17.14248
 20
5.151585
 30
0.0
 11
16.595778
 21
5.310802
 31
0.0
  0
LINE
  5
327
330
18
100
AcDbEntity
  8
0
100
AcDbLine
 10
17.302493
 20
5.104984
 30
0.0
 11
17.204263
 21
5.133592
 31
0.0
  0
LINE
  5
328
330
18
100
AcDbEntity
  8
0
100
AcDbLine
 10
17.414639
 20
5.072324
 30
0.0
 11
17.354395
 21
5.089869
 31
0.0
  0
LINE
  5
329
330
18
100
AcDbEntity
  8
0
100
AcDbLine
 10
18.025427
 20
5.400462
 30
0.0
 11
18.062994
 21
5.441127
 31
0.0
  0
LINE
  5
32A
330
18
100
AcDbEntity
  8
0
100
AcDbLine
 10
18.105403
 20
5.487034
 30
0.0
 11
18.141146
 21
5.525725
 31
0.0
  0
LINE
  5
32B
330
18
100
AcDbEntity
  8
0
100
AcDbLine
 10
18.214062
 20
5.604655
 30
0.0
 11
18.386795
 21
5.791633
 31
0.0
  0
LINE
  5
32C
330
18
100
AcDbEntity
  8
0
100
AcDbLine
 10
18.409798
 20
5.816534
 30
0.0
 11
18.452045
 21
5.862265
 31
0.0
  0
LINE
  5
32D
330
18
100
AcDbEntity
  8
0
100
AcDbLine
 10
18.476469
 20
5.888703
 30
0.0
 11
18.79605
 21
6.234641000000001
 31
0.0
  0
LINE
  5
32E
330
18
100
AcDbEntity
  8
0
100
AcDbLine
 10
18.853482
 20
6.29681
 30
0.0
 11
18.875662
 21
6.320819
 31
0.0
  0
LINE
  5
32F
330
18
100
AcDbEntity
  8
0
100
AcDbLine
 10
19.060672
 20
6.521086
 30
0.0
 11
19.092773
 21
6.555835000000001
 31
0.0
  0
LINE
  5
330
330
18
100
AcDbEntity
  8
0
100
AcDbLine
 10
17.426634
 20
7.403178
 30
0.0
 11
17.50508
 21
6.58565
 31
0.0
  0
LINE
  5
331
330
18
100
AcDbEntity
  8
0
100
AcDbLine
 10
17.515985
 20
6.472007
 30
0.0
 11
17.521371
 21
6.415868
 31
0.0
  0
LINE
  5
332
330
18
100
AcDbEntity
  8
0
100
AcDbLine
 10
17.527278
 20
6.354317
 30
0.0
 11
17.568352
 21
5.92626
 31
0.0
  0
LINE
  5
333
330
18
100
AcDbEntity
  8
0
100
AcDbLine
 10
17.580094
 20
5.803889
 30
0.0
 11
17.596995
 21
5.627755000000001
 31
0.0
  0
LINE
  5
334
330
18
100
AcDbEntity
  8
0
100
AcDbLine
 10
17.605247
 20
5.54176
 30
0.0
 11
17.609463
 21
5.497817
 31
0.0
  0
LINE
  5
335
330
18
100
AcDbEntity
  8
0
100
AcDbLine
 10
17.612889
 20
5.462118
 30
0.0
 11
17.622741
 21
5.35944
 31
0.0
  0
LINE
  5
336
330
18
100
AcDbEntity
  8
0
100
AcDbLine
 10
17.627598
 20
5.308826
 30
0.0
 11
17.657066
 21
5.001721
 31
0.0
  0
LINE
  5
337
330
18
100
AcDbEntity
  8
0
100
AcDbLine
 10
17.657066
 20
4.864547
 30
0.0
 11
17.657066
 21
4.946819000000001
 31
0.0
  0
ARC
  5
338
330
18
100
AcDbEntity
  8
0
100
AcDbCircle
 10
17.905554
 20
9.069564
 30
0.0
 40
0.0402
100
AcDbArc
 50
297.102329
 51
0.0
  0
TEXT
  5
339
330
18
100
AcDbEntity
  8
0
100
AcDbText
 10
13.84046
 20
4.596487000000001
 30
0.0
 40
0.18
  1
Simpson Strong-Tie
100
AcDbText
  0
TEXT
  5
33A
330
18
100
AcDbEntity
  8
0
100
AcDbText
 10
13.84046
 20
4.305058
 30
0.0
 40
0.18
  1
EPB44T
100
AcDbText
  0
POINT
  5
33B
330
18
100
AcDbEntity
  8
0
100
AcDbPoint
 10
13.637876
 20
9.053202000000001
 30
0.0
  0
ENDSEC
  0
SECTION
  2
OBJECTS
  0
DICTIONARY
  5
C
330
0
100
AcDbDictionary
281
     1
  3
ACAD_COLOR
350
341
  3
ACAD_GROUP
350
D
  3
ACAD_LAYOUT
350
15
  3
ACAD_MATERIAL
350
343
  3
ACAD_MLINESTYLE
350
12
  3
ACAD_PLOTSETTINGS
350
14
  3
ACAD_PLOTSTYLENAME
350
E
  3
ACDBHEADERROUNDTRIPXREC
350
340
  0
DICTIONARY
  5
341
102
{ACAD_REACTORS
330
C
102
}
330
C
100
AcDbDictionary
281
     1
  0
DICTIONARY
  5
D
102
{ACAD_REACTORS
330
C
102
}
330
C
100
AcDbDictionary
281
     1
  0
DICTIONARY
  5
15
102
{ACAD_REACTORS
330
C
102
}
330
C
100
AcDbDictionary
281
     1
  3
Layout1
350
17
  3
Model
350
19
  0
DICTIONARY
  5
343
102
{ACAD_REACTORS
330
C
102
}
330
C
100
AcDbDictionary
281
     1
  0
DICTIONARY
  5
12
102
{ACAD_REACTORS
330
C
102
}
330
C
100
AcDbDictionary
281
     1
  3
Standard
350
13
  0
DICTIONARY
  5
14
102
{ACAD_REACTORS
330
C
102
}
330
C
100
AcDbDictionary
281
     1
  0
ACDBDICTIONARYWDFLT
  5
E
102
{ACAD_REACTORS
330
C
102
}
330
C
100
AcDbDictionary
281
     1
  3
Normal
350
F
100
AcDbDictionaryWithDefault
340
F
  0
DICTIONARY
  5
340
102
{ACAD_REACTORS
330
C
102
}
330
C
100
AcDbDictionary
281
     1
  3
COLORDICT
350
342
  3
MATERIALDICT
350
344
  0
LAYOUT
  5
17
102
{ACAD_REACTORS
330
15
102
}
102
{ACAD_XDICTIONARY
360
345
102
}
330
15
100
AcDbPlotSettings
  1

  2

  4

  6

 40
0.0
 41
0.0
 42
0.0
 43
0.0
 44
0.0
 45
0.0
 46
0.0
 47
0.0
 48
0.0
 49
0.0
140
0.0
141
0.0
142
1.0
143
1.0
 70
   688
 72
     0
 73
     0
 74
     5
  7

 75
    16
147
1.0
148
0.0
149
0.0
100
AcDbLayout
  1
Layout1
 70
     1
 71
     1
 10
0.0
 20
0.0
 11
12.0
 21
9.0
 12
0.0
 22
0.0
 32
0.0
 14
1.000000000000000E+20
 24
1.000000000000000E+20
 34
1.000000000000000E+20
 15
-1.000000000000000E+20
 25
-1.000000000000000E+20
 35
-1.000000000000000E+20
146
0.0
 13
0.0
 23
0.0
 33
0.0
 16
1.0
 26
0.0
 36
0.0
 17
0.0
 27
1.0
 37
0.0
 76
     0
330
16
  0
LAYOUT
  5
19
102
{ACAD_REACTORS
330
15
102
}
102
{ACAD_XDICTIONARY
360
347
102
}
330
15
100
AcDbPlotSettings
  1

  2

  4

  6

 40
0.0
 41
0.0
 42
0.0
 43
0.0
 44
0.0
 45
0.0
 46
0.0
 47
0.0
 48
0.0
 49
0.0
140
0.0
141
0.0
142
1.0
143
1.0
 70
  1712
 72
     0
 73
     0
 74
     0
  7

 75
     0
147
1.0
148
0.0
149
0.0
100
AcDbLayout
  1
Model
 70
     1
 71
     0
 10
0.0
 20
0.0
 11
0.0
 21
0.0
 12
0.0
 22
0.0
 32
0.0
 14
0.0
 24
0.0
 34
0.0
 15
0.0
 25
0.0
 35
0.0
146
0.0
 13
0.0
 23
0.0
 33
0.0
 16
1.0
 26
0.0
 36
0.0
 17
0.0
 27
1.0
 37
0.0
 76
     0
330
18
  0
MLINESTYLE
  5
13
102
{ACAD_REACTORS
330
12
102
}
330
12
100
AcDbMlineStyle
  2
Standard
 70
     0
  3

 62
   256
 51
90.0
 52
90.0
 71
     2
 49
0.5
 62
   256
  6
BYLAYER
 49
-0.5
 62
   256
  6
BYLAYER
  0
ACDBPLACEHOLDER
  5
F
102
{ACAD_REACTORS
330
E
102
}
330
E
  0
XRECORD
  5
342
102
{ACAD_REACTORS
330
340
102
}
330
340
100
AcDbXrecord
340
341
  0
XRECORD
  5
344
102
{ACAD_REACTORS
330
340
102
}
330
340
100
AcDbXrecord
340
343
  0
DICTIONARY
  5
345
330
17
100
AcDbDictionary
280
     1
281
     1
  3
ACAD_XREC_ROUNDTRIP
360
346
  0
DICTIONARY
  5
347
330
19
100
AcDbDictionary
280
     1
281
     1
  3
ACAD_XREC_ROUNDTRIP
360
348
  0
XRECORD
  5
346
102
{ACAD_REACTORS
330
345
102
}
330
345
100
AcDbXrecord
102
SHADEPLOT
 70
 28552
102
SHADEPLOTRESLEVEL
 70
 -5192
102
SHADEPLOTCUSTOMDPI
 70
-22336
  0
XRECORD
  5
348
102
{ACAD_REACTORS
330
347
102
}
330
347
100
AcDbXrecord
102
SHADEPLOT
 70
-17048
102
SHADEPLOTRESLEVEL
 70
-17008
102
SHADEPLOTCUSTOMDPI
 70
-16968
  0
ENDSEC
  0
EOF
