  0
SECTION
  2
HEADER
  9
$ACADVER
  1
AC1015
  9
$ACADMAINTVER
 70
     6
  9
$DWGCODEPAGE
  3
ANSI_1252
  9
$INSBASE
 10
0.0
 20
0.0
 30
0.0
  9
$EXTMIN
 10
0.186
 20
-0.2000000000000001
 30
0.0
  9
$EXTMAX
 10
3.11
 20
3.95
 30
0.0
  9
$LIMMIN
 10
0.0
 20
0.0
  9
$LIMMAX
 10
17.0
 20
11.0
  9
$ORTHOMODE
 70
     0
  9
$REGENMODE
 70
     0
  9
$FILLMODE
 70
     1
  9
$QTEXTMODE
 70
     0
  9
$MIRRTEXT
 70
     1
  9
$LTSCALE
 40
0.25
  9
$ATTMODE
 70
     1
  9
$TEXTSIZE
 40
0.125
  9
$TRACEWID
 40
0.05
  9
$TEXTSTYLE
  7
STANDARD
  9
$CLAYER
  8
0
  9
$CELTYPE
  6
ByLayer
  9
$CECOLOR
 62
   256
  9
$CELTSCALE
 40
1.0
  9
$DISPSILH
 70
     0
  9
$DIMSCALE
 40
1.0
  9
$DIMASZ
 40
0.125
  9
$DIMEXO
 40
0.063
  9
$DIMDLI
 40
0.38
  9
$DIMRND
 40
0.0
  9
$DIMDLE
 40
0.0
  9
$DIMEXE
 40
0.18
  9
$DIMTP
 40
0.0
  9
$DIMTM
 40
0.0
  9
$DIMTXT
 40
0.125
  9
$DIMCEN
 40
0.09
  9
$DIMTSZ
 40
0.0
  9
$DIMTOL
 70
     0
  9
$DIMLIM
 70
     0
  9
$DIMTIH
 70
     1
  9
$DIMTOH
 70
     1
  9
$DIMSE1
 70
     0
  9
$DIMSE2
 70
     0
  9
$DIMTAD
 70
     0
  9
$DIMZIN
 70
     0
  9
$DIMBLK
  1

  9
$DIMASO
 70
     0
  9
$DIMSHO
 70
     0
  9
$DIMPOST
  1

  9
$DIMAPOST
  1

  9
$DIMALT
 70
     0
  9
$DIMALTD
 70
     2
  9
$DIMALTF
 40
25.4
  9
$DIMLFAC
 40
1.0
  9
$DIMTOFL
 70
     0
  9
$DIMTVP
 40
0.0
  9
$DIMTIX
 70
     0
  9
$DIMSOXD
 70
     0
  9
$DIMSAH
 70
     0
  9
$DIMBLK1
  1

  9
$DIMBLK2
  1

  9
$DIMSTYLE
  2
Standard
  9
$DIMCLRD
 70
     0
  9
$DIMCLRE
 70
     0
  9
$DIMCLRT
 70
     0
  9
$DIMTFAC
 40
1.0
  9
$DIMGAP
 40
0.09
  9
$DIMJUST
 70
     0
  9
$DIMSD1
 70
     0
  9
$DIMSD2
 70
     0
  9
$DIMTOLJ
 70
     1
  9
$DIMTZIN
 70
     0
  9
$DIMALTZ
 70
     0
  9
$DIMALTTZ
 70
     0
  9
$DIMUPT
 70
     0
  9
$DIMDEC
 70
     4
  9
$DIMTDEC
 70
     4
  9
$DIMALTU
 70
     2
  9
$DIMALTTD
 70
     2
  9
$DIMTXSTY
  7
STANDARD
  9
$DIMAUNIT
 70
     0
  9
$DIMADEC
 70
     0
  9
$DIMALTRND
 40
0.0
  9
$DIMAZIN
 70
     0
  9
$DIMDSEP
 70
    46
  9
$DIMATFIT
 70
     3
  9
$DIMFRAC
 70
     0
  9
$DIMLDRBLK
  1

  9
$DIMLUNIT
 70
     2
  9
$DIMLWD
 70
    -2
  9
$DIMLWE
 70
    -2
  9
$DIMTMOVE
 70
     0
  9
$LUNITS
 70
     2
  9
$LUPREC
 70
     4
  9
$SKETCHINC
 40
0.1
  9
$FILLETRAD
 40
0.025
  9
$AUNITS
 70
     0
  9
$AUPREC
 70
     0
  9
$MENU
  1
acad
  9
$ELEVATION
 40
0.0
  9
$PELEVATION
 40
0.0
  9
$THICKNESS
 40
0.0
  9
$LIMCHECK
 70
     0
  9
$CHAMFERA
 40
0.0
  9
$CHAMFERB
 40
0.0
  9
$CHAMFERC
 40
1.0
  9
$CHAMFERD
 40
0.0
  9
$SKPOLY
 70
     0
  9
$TDCREATE
 40
2453955.56196375
  9
$TDUCREATE
 40
2453955.895297084
  9
$TDUPDATE
 40
2453955.603630428
  9
$TDUUPDATE
 40
2453955.895297095
  9
$TDINDWG
 40
0.0000000116
  9
$TDUSRTIMER
 40
0.0000000116
  9
$USRTIMER
 70
     1
  9
$ANGBASE
 50
0.0
  9
$ANGDIR
 70
     0
  9
$PDMODE
 70
     0
  9
$PDSIZE
 40
0.0
  9
$PLINEWID
 40
0.0
  9
$SPLFRAME
 70
     0
  9
$SPLINETYPE
 70
     6
  9
$SPLINESEGS
 70
     8
  9
$HANDSEED
  5
1EA
  9
$SURFTAB1
 70
     6
  9
$SURFTAB2
 70
     6
  9
$SURFTYPE
 70
     6
  9
$SURFU
 70
     6
  9
$SURFV
 70
     6
  9
$UCSBASE
  2

  9
$UCSNAME
  2

  9
$UCSORG
 10
0.0
 20
0.0
 30
0.0
  9
$UCSXDIR
 10
1.0
 20
0.0
 30
0.0
  9
$UCSYDIR
 10
0.0
 20
1.0
 30
0.0
  9
$UCSORTHOREF
  2

  9
$UCSORTHOVIEW
 70
     0
  9
$UCSORGTOP
 10
0.0
 20
0.0
 30
0.0
  9
$UCSORGBOTTOM
 10
0.0
 20
0.0
 30
0.0
  9
$UCSORGLEFT
 10
0.0
 20
0.0
 30
0.0
  9
$UCSORGRIGHT
 10
0.0
 20
0.0
 30
0.0
  9
$UCSORGFRONT
 10
0.0
 20
0.0
 30
0.0
  9
$UCSORGBACK
 10
0.0
 20
0.0
 30
0.0
  9
$PUCSBASE
  2

  9
$PUCSNAME
  2

  9
$PUCSORG
 10
0.0
 20
0.0
 30
0.0
  9
$PUCSXDIR
 10
1.0
 20
0.0
 30
0.0
  9
$PUCSYDIR
 10
0.0
 20
1.0
 30
0.0
  9
$PUCSORTHOREF
  2

  9
$PUCSORTHOVIEW
 70
     0
  9
$PUCSORGTOP
 10
0.0
 20
0.0
 30
0.0
  9
$PUCSORGBOTTOM
 10
0.0
 20
0.0
 30
0.0
  9
$PUCSORGLEFT
 10
0.0
 20
0.0
 30
0.0
  9
$PUCSORGRIGHT
 10
0.0
 20
0.0
 30
0.0
  9
$PUCSORGFRONT
 10
0.0
 20
0.0
 30
0.0
  9
$PUCSORGBACK
 10
0.0
 20
0.0
 30
0.0
  9
$USERI1
 70
     0
  9
$USERI2
 70
     0
  9
$USERI3
 70
     0
  9
$USERI4
 70
     0
  9
$USERI5
 70
     0
  9
$USERR1
 40
0.0
  9
$USERR2
 40
0.0
  9
$USERR3
 40
0.0
  9
$USERR4
 40
0.0
  9
$USERR5
 40
0.0
  9
$WORLDVIEW
 70
     1
  9
$SHADEDGE
 70
     3
  9
$SHADEDIF
 70
    70
  9
$TILEMODE
 70
     1
  9
$MAXACTVP
 70
    16
  9
$PINSBASE
 10
0.0
 20
0.0
 30
0.0
  9
$PLIMCHECK
 70
     0
  9
$PEXTMIN
 10
1.000000000000000E+20
 20
1.000000000000000E+20
 30
1.000000000000000E+20
  9
$PEXTMAX
 10
-1.000000000000000E+20
 20
-1.000000000000000E+20
 30
-1.000000000000000E+20
  9
$PLIMMIN
 10
0.0
 20
0.0
  9
$PLIMMAX
 10
12.0
 20
9.0
  9
$UNITMODE
 70
     0
  9
$VISRETAIN
 70
     0
  9
$PLINEGEN
 70
     0
  9
$PSLTSCALE
 70
     0
  9
$TREEDEPTH
 70
  3020
  9
$CMLSTYLE
  2
Standard
  9
$CMLJUST
 70
     0
  9
$CMLSCALE
 40
1.0
  9
$PROXYGRAPHICS
 70
     1
  9
$MEASUREMENT
 70
     0
  9
$CELWEIGHT
370
    -1
  9
$ENDCAPS
280
     0
  9
$JOINSTYLE
280
     0
  9
$LWDISPLAY
290
     0
  9
$INSUNITS
 70
     1
  9
$HYPERLINKBASE
  1

  9
$STYLESHEET
  1

  9
$XEDIT
290
     1
  9
$CEPSNTYPE
380
     0
  9
$PSTYLEMODE
290
     0
  9
$FINGERPRINTGUID
  2
{FAEB1C30-E019-11D5-929B-00C0DF256EC4}
  9
$VERSIONGUID
  2
{FAEB1C32-E019-11D5-929B-00C0DF256EC4}
  9
$EXTNAMES
290
     1
  9
$PSVPSCALE
 40
0.0
  9
$OLESTARTUP
290
     0
  0
ENDSEC
  0
SECTION
  2
CLASSES
  0
CLASS
  1
ACDBDICTIONARYWDFLT
  2
AcDbDictionaryWithDefault
  3
AutoCAD 2000
 90
        0
280
     0
281
     0
  0
CLASS
  1
ACDBPLACEHOLDER
  2
AcDbPlaceHolder
  3
ObjectDBX Classes
 90
        0
280
     0
281
     0
  0
CLASS
  1
LAYOUT
  2
AcDbLayout
  3
ObjectDBX Classes
 90
        0
280
     0
281
     0
  0
ENDSEC
  0
SECTION
  2
TABLES
  0
TABLE
  2
VPORT
  5
8
330
0
100
AcDbSymbolTable
 70
     2
  0
VPORT
  5
1E
330
8
100
AcDbSymbolTableRecord
100
AcDbViewportTableRecord
  2
*ACTIVE
 70
     0
 10
0.0
 20
0.0
 11
1.0
 21
1.0
 12
8.5
 22
5.92652705061082
 13
0.0
 23
0.0
 14
1.0
 24
1.0
 15
0.0
 25
0.0
 16
0.0
 26
0.0
 36
1.0
 17
0.0
 27
0.0
 37
0.0
 40
12.25305410122164
 41
0.7207678883071553
 42
50.0
 43
0.0
 44
0.0
 50
0.0
 51
0.0
 71
     0
 72
  2000
 73
     1
 74
     0
 75
     0
 76
     0
 77
     0
 78
     1
281
     0
 65
     1
110
0.0
120
0.0
130
0.0
111
1.0
121
0.0
131
0.0
112
0.0
122
1.0
132
0.0
 79
     0
146
0.0
  0
ENDTAB
  0
TABLE
  2
LTYPE
  5
5
330
0
100
AcDbSymbolTable
 70
     1
  0
LTYPE
  5
10
330
5
100
AcDbSymbolTableRecord
100
AcDbLinetypeTableRecord
  2
ByBlock
 70
     0
  3

 72
    65
 73
     0
 40
0.0
  0
LTYPE
  5
11
330
5
100
AcDbSymbolTableRecord
100
AcDbLinetypeTableRecord
  2
ByLayer
 70
     0
  3

 72
    65
 73
     0
 40
0.0
  0
LTYPE
  5
1B
330
5
100
AcDbSymbolTableRecord
100
AcDbLinetypeTableRecord
  2
CONTINUOUS
 70
     0
  3
Solid line
 72
    65
 73
     0
 40
0.0
  0
ENDTAB
  0
TABLE
  2
LAYER
  5
2
330
0
100
AcDbSymbolTable
 70
     1
  0
LAYER
  5
1C
330
2
100
AcDbSymbolTableRecord
100
AcDbLayerTableRecord
  2
0
 70
     0
 62
     7
  6
CONTINUOUS
370
    -3
390
F
  0
ENDTAB
  0
TABLE
  2
STYLE
  5
3
330
0
100
AcDbSymbolTable
 70
     1
  0
STYLE
  5
20
330
3
100
AcDbSymbolTableRecord
100
AcDbTextStyleTableRecord
  2
STANDARD
 70
     0
 40
0.0
 41
1.0
 50
0.0
 71
     0
 42
0.125
  3
ROMANS
  4

  0
ENDTAB
  0
TABLE
  2
VIEW
  5
6
330
0
100
AcDbSymbolTable
 70
     0
  0
ENDTAB
  0
TABLE
  2
UCS
  5
7
330
0
100
AcDbSymbolTable
 70
     0
  0
ENDTAB
  0
TABLE
  2
APPID
  5
9
330
0
100
AcDbSymbolTable
 70
     1
  0
APPID
  5
1F
330
9
100
AcDbSymbolTableRecord
100
AcDbRegAppTableRecord
  2
ACAD
 70
     0
  0
ENDTAB
  0
TABLE
  2
DIMSTYLE
  5
A
330
0
100
AcDbSymbolTable
 70
     1
100
AcDbDimStyleTable
  0
DIMSTYLE
105
21
330
A
100
AcDbSymbolTableRecord
100
AcDbDimStyleTableRecord
  2
Standard
 70
     0
  3

  4

340
20
  0
ENDTAB
  0
TABLE
  2
BLOCK_RECORD
  5
1
330
0
100
AcDbSymbolTable
 70
     0
  0
BLOCK_RECORD
  5
18
330
1
100
AcDbSymbolTableRecord
100
AcDbBlockTableRecord
  2
*Model_Space
340
19
  0
BLOCK_RECORD
  5
16
330
1
100
AcDbSymbolTableRecord
100
AcDbBlockTableRecord
  2
*Paper_Space
340
17
  0
ENDTAB
  0
ENDSEC
  0
SECTION
  2
BLOCKS
  0
BLOCK
  5
1DF
330
18
100
AcDbEntity
  8
0
100
AcDbBlockBegin
  2
*Model_Space
 70
     0
 10
0.0
 20
0.0
 30
0.0
  3
*Model_Space
  1

  4

  0
ENDBLK
  5
1E0
330
18
100
AcDbEntity
  8
0
100
AcDbBlockEnd
  0
BLOCK
  5
1DD
330
16
100
AcDbEntity
 67
     1
  8
0
100
AcDbBlockBegin
  2
*Paper_Space
 70
     0
 10
0.0
 20
0.0
 30
0.0
  3
*Paper_Space
  1

  4

  0
ENDBLK
  5
1DE
330
16
100
AcDbEntity
 67
     1
  8
0
100
AcDbBlockEnd
  0
ENDSEC
  0
SECTION
  2
ENTITIES
  0
ARC
  5
22
330
18
100
AcDbEntity
  8
0
100
AcDbCircle
 10
1.179
 20
2.716
 30
0.0
 40
0.041
100
AcDbArc
 50
75.43300000000001
 51
98.666
  0
ARC
  5
23
330
18
100
AcDbEntity
  8
0
100
AcDbCircle
 10
1.164
 20
2.724
 30
0.0
 40
0.041
100
AcDbArc
 50
68.84399999999999
 51
98.666
  0
ARC
  5
24
330
18
100
AcDbEntity
  8
0
100
AcDbCircle
 10
1.164
 20
2.724
 30
0.0
 40
0.041
100
AcDbArc
 50
39.022
 51
68.84399999999999
  0
ARC
  5
25
330
18
100
AcDbEntity
  8
0
100
AcDbCircle
 10
1.148
 20
2.711
 30
0.0
 40
0.061
100
AcDbArc
 50
14.696
 51
39.022
  0
ARC
  5
26
330
18
100
AcDbEntity
  8
0
100
AcDbCircle
 10
1.129
 20
2.706
 30
0.0
 40
0.081
100
AcDbArc
 50
355.507
 51
14.696
  0
ARC
  5
27
330
18
100
AcDbEntity
  8
0
100
AcDbCircle
 10
1.103
 20
2.708
 30
0.0
 40
0.107
100
AcDbArc
 50
338.844
 51
355.507
  0
ARC
  5
28
330
18
100
AcDbEntity
  8
0
100
AcDbCircle
 10
1.103
 20
2.708
 30
0.0
 40
0.107
100
AcDbArc
 50
322.181
 51
338.844
  0
ARC
  5
29
330
18
100
AcDbEntity
  8
0
100
AcDbCircle
 10
1.124
 20
2.692
 30
0.0
 40
0.081
100
AcDbArc
 50
302.992
 51
322.181
  0
ARC
  5
2A
330
18
100
AcDbEntity
  8
0
100
AcDbCircle
 10
1.134
 20
2.676
 30
0.0
 40
0.061
100
AcDbArc
 50
278.666
 51
302.992
  0
ARC
  5
2B
330
18
100
AcDbEntity
  8
0
100
AcDbCircle
 10
1.137
 20
2.656
 30
0.0
 40
0.041
100
AcDbArc
 50
248.844
 51
278.666
  0
ARC
  5
2C
330
18
100
AcDbEntity
  8
0
100
AcDbCircle
 10
1.137
 20
2.656
 30
0.0
 40
0.041
100
AcDbArc
 50
219.022
 51
248.844
  0
ARC
  5
2D
330
18
100
AcDbEntity
  8
0
100
AcDbCircle
 10
1.153
 20
2.669
 30
0.0
 40
0.061
100
AcDbArc
 50
194.696
 51
219.022
  0
ARC
  5
2E
330
18
100
AcDbEntity
  8
0
100
AcDbCircle
 10
1.172
 20
2.674
 30
0.0
 40
0.081
100
AcDbArc
 50
175.507
 51
194.696
  0
ARC
  5
2F
330
18
100
AcDbEntity
  8
0
100
AcDbCircle
 10
1.198
 20
2.671
 30
0.0
 40
0.107
100
AcDbArc
 50
158.844
 51
175.507
  0
ARC
  5
30
330
18
100
AcDbEntity
  8
0
100
AcDbCircle
 10
1.198
 20
2.671
 30
0.0
 40
0.107
100
AcDbArc
 50
142.181
 51
158.844
  0
ARC
  5
31
330
18
100
AcDbEntity
  8
0
100
AcDbCircle
 10
1.177
 20
2.687
 30
0.0
 40
0.081
100
AcDbArc
 50
122.992
 51
142.181
  0
ARC
  5
32
330
18
100
AcDbEntity
  8
0
100
AcDbCircle
 10
1.167
 20
2.704
 30
0.0
 40
0.061
100
AcDbArc
 50
98.666
 51
122.992
  0
ARC
  5
33
330
18
100
AcDbEntity
  8
0
100
AcDbCircle
 10
1.153
 20
2.648
 30
0.0
 40
0.041
100
AcDbArc
 50
219.022
 51
231.424
  0
ARC
  5
34
330
18
100
AcDbEntity
  8
0
100
AcDbCircle
 10
1.168
 20
2.661
 30
0.0
 40
0.061
100
AcDbArc
 50
194.696
 51
219.022
  0
ARC
  5
35
330
18
100
AcDbEntity
  8
0
100
AcDbCircle
 10
1.187
 20
2.666
 30
0.0
 40
0.081
100
AcDbArc
 50
175.507
 51
194.696
  0
ARC
  5
36
330
18
100
AcDbEntity
  8
0
100
AcDbCircle
 10
1.213
 20
2.664
 30
0.0
 40
0.107
100
AcDbArc
 50
158.844
 51
175.507
  0
ARC
  5
37
330
18
100
AcDbEntity
  8
0
100
AcDbCircle
 10
1.213
 20
2.664
 30
0.0
 40
0.107
100
AcDbArc
 50
142.181
 51
158.844
  0
ARC
  5
38
330
18
100
AcDbEntity
  8
0
100
AcDbCircle
 10
1.193
 20
2.68
 30
0.0
 40
0.081
100
AcDbArc
 50
122.992
 51
142.181
  0
ARC
  5
39
330
18
100
AcDbEntity
  8
0
100
AcDbCircle
 10
1.182
 20
2.696
 30
0.0
 40
0.061
100
AcDbArc
 50
98.666
 51
122.992
  0
LINE
  5
3A
330
18
100
AcDbEntity
  8
0
100
AcDbLine
 10
2.956
 20
2.873
 30
0.0
 11
2.909
 21
3.004
 31
0.0
  0
LINE
  5
3B
330
18
100
AcDbEntity
  8
0
100
AcDbLine
 10
3.105
 20
3.09
 30
0.0
 11
2.909
 21
3.004
 31
0.0
  0
LINE
  5
3C
330
18
100
AcDbEntity
  8
0
100
AcDbLine
 10
2.252
 20
3.95
 30
0.0
 11
0.209
 21
3.1
 31
0.0
  0
LINE
  5
3D
330
18
100
AcDbEntity
  8
0
100
AcDbLine
 10
0.209
 20
3.1
 30
0.0
 11
0.209
 21
2.642
 31
0.0
  0
LINE
  5
3E
330
18
100
AcDbEntity
  8
0
100
AcDbLine
 10
0.191
 20
2.0
 30
0.0
 11
0.209
 21
1.99
 31
0.0
  0
ARC
  5
3F
330
18
100
AcDbEntity
  8
0
100
AcDbCircle
 10
0.196
 20
2.009
 30
0.0
 40
0.01
100
AcDbArc
 50
112.572
 51
239.144
  0
LINE
  5
40
330
18
100
AcDbEntity
  8
0
100
AcDbLine
 10
0.209
 20
2.025
 30
0.0
 11
0.209
 21
0.424
 31
0.0
  0
LINE
  5
41
330
18
100
AcDbEntity
  8
0
100
AcDbLine
 10
0.186
 20
2.627
 30
0.0
 11
0.186
 21
2.008
 31
0.0
  0
ARC
  5
42
330
18
100
AcDbEntity
  8
0
100
AcDbCircle
 10
0.196
 20
2.627
 30
0.0
 40
0.01
100
AcDbArc
 50
112.572
 51
180.0
  0
LINE
  5
43
330
18
100
AcDbEntity
  8
0
100
AcDbLine
 10
2.252
 20
3.95
 30
0.0
 11
2.253
 21
3.57
 31
0.0
  0
LINE
  5
44
330
18
100
AcDbEntity
  8
0
100
AcDbLine
 10
1.057
 20
2.313
 30
0.0
 11
1.057
 21
0.588
 31
0.0
  0
LINE
  5
45
330
18
100
AcDbEntity
  8
0
100
AcDbLine
 10
0.209
 20
0.424
 30
0.0
 11
0.5570000000000001
 21
0.491
 31
0.0
  0
LINE
  5
46
330
18
100
AcDbEntity
  8
0
100
AcDbLine
 10
0.192
 20
2.018
 30
0.0
 11
1.057
 21
2.313
 31
0.0
  0
LINE
  5
47
330
18
100
AcDbEntity
  8
0
100
AcDbLine
 10
0.192
 20
2.636
 30
0.0
 11
1.547
 21
3.138
 31
0.0
  0
LINE
  5
48
330
18
100
AcDbEntity
  8
0
100
AcDbLine
 10
1.547
 20
3.138
 30
0.0
 11
1.565
 21
2.462
 31
0.0
  0
LINE
  5
49
330
18
100
AcDbEntity
  8
0
100
AcDbLine
 10
1.057
 20
2.313
 30
0.0
 11
1.201
 21
2.261
 31
0.0
  0
LINE
  5
4A
330
18
100
AcDbEntity
  8
0
100
AcDbLine
 10
1.565
 20
2.462
 30
0.0
 11
1.114
 21
2.292
 31
0.0
  0
LINE
  5
4B
330
18
100
AcDbEntity
  8
0
100
AcDbLine
 10
1.565
 20
2.462
 30
0.0
 11
1.662
 21
2.429
 31
0.0
  0
LINE
  5
4C
330
18
100
AcDbEntity
  8
0
100
AcDbLine
 10
1.201
 20
2.261
 30
0.0
 11
1.662
 21
2.429
 31
0.0
  0
LINE
  5
4D
330
18
100
AcDbEntity
  8
0
100
AcDbLine
 10
1.201
 20
2.261
 30
0.0
 11
1.19
 21
1.468
 31
0.0
  0
LINE
  5
4E
330
18
100
AcDbEntity
  8
0
100
AcDbLine
 10
1.19
 20
1.468
 30
0.0
 11
1.685
 21
1.314
 31
0.0
  0
LINE
  5
4F
330
18
100
AcDbEntity
  8
0
100
AcDbLine
 10
1.594
 20
3.123
 30
0.0
 11
1.61
 21
2.503
 31
0.0
  0
LINE
  5
50
330
18
100
AcDbEntity
  8
0
100
AcDbLine
 10
1.617
 20
2.493
 30
0.0
 11
1.661
 21
2.479
 31
0.0
  0
LINE
  5
51
330
18
100
AcDbEntity
  8
0
100
AcDbLine
 10
1.661
 20
2.479
 30
0.0
 11
1.662
 21
2.429
 31
0.0
  0
LINE
  5
52
330
18
100
AcDbEntity
  8
0
100
AcDbLine
 10
1.547
 20
3.138
 30
0.0
 11
1.594
 21
3.123
 31
0.0
  0
ARC
  5
53
330
18
100
AcDbEntity
  8
0
100
AcDbCircle
 10
1.62
 20
2.503
 30
0.0
 40
0.01
100
AcDbArc
 50
181.544
 51
251.223
  0
LINE
  5
54
330
18
100
AcDbEntity
  8
0
100
AcDbLine
 10
1.612
 20
2.497
 30
0.0
 11
2.255
 21
2.699
 31
0.0
  0
LINE
  5
55
330
18
100
AcDbEntity
  8
0
100
AcDbLine
 10
2.255
 20
2.699
 30
0.0
 11
2.974
 21
2.432
 31
0.0
  0
LINE
  5
56
330
18
100
AcDbEntity
  8
0
100
AcDbLine
 10
2.252
 20
3.95
 30
0.0
 11
2.971
 21
3.683
 31
0.0
  0
LINE
  5
57
330
18
100
AcDbEntity
  8
0
100
AcDbLine
 10
2.971
 20
3.683
 30
0.0
 11
2.972
 21
3.303
 31
0.0
  0
LINE
  5
58
330
18
100
AcDbEntity
  8
0
100
AcDbLine
 10
2.254
 20
3.133
 30
0.0
 11
2.973
 21
2.866
 31
0.0
  0
LINE
  5
59
330
18
100
AcDbEntity
  8
0
100
AcDbLine
 10
2.253
 20
3.57
 30
0.0
 11
2.972
 21
3.303
 31
0.0
  0
LINE
  5
5A
330
18
100
AcDbEntity
  8
0
100
AcDbLine
 10
2.392
 20
3.355
 30
0.0
 11
3.11
 21
3.088
 31
0.0
  0
LINE
  5
5B
330
18
100
AcDbEntity
  8
0
100
AcDbLine
 10
2.392
 20
3.355
 30
0.0
 11
2.253
 21
3.57
 31
0.0
  0
LINE
  5
5C
330
18
100
AcDbEntity
  8
0
100
AcDbLine
 10
2.196
 20
3.269
 30
0.0
 11
2.914
 21
3.002
 31
0.0
  0
LINE
  5
5D
330
18
100
AcDbEntity
  8
0
100
AcDbLine
 10
2.392
 20
3.355
 30
0.0
 11
2.196
 21
3.269
 31
0.0
  0
LINE
  5
5E
330
18
100
AcDbEntity
  8
0
100
AcDbLine
 10
2.196
 20
3.269
 30
0.0
 11
2.254
 21
3.133
 31
0.0
  0
LINE
  5
5F
330
18
100
AcDbEntity
  8
0
100
AcDbLine
 10
2.254
 20
3.133
 30
0.0
 11
2.255
 21
2.699
 31
0.0
  0
LINE
  5
60
330
18
100
AcDbEntity
  8
0
100
AcDbLine
 10
2.972
 20
3.303
 30
0.0
 11
3.11
 21
3.088
 31
0.0
  0
LINE
  5
61
330
18
100
AcDbEntity
  8
0
100
AcDbLine
 10
3.11
 20
3.088
 30
0.0
 11
2.914
 21
3.002
 31
0.0
  0
LINE
  5
62
330
18
100
AcDbEntity
  8
0
100
AcDbLine
 10
2.914
 20
3.002
 30
0.0
 11
2.973
 21
2.866
 31
0.0
  0
LINE
  5
63
330
18
100
AcDbEntity
  8
0
100
AcDbLine
 10
2.973
 20
2.866
 30
0.0
 11
2.974
 21
2.432
 31
0.0
  0
LINE
  5
64
330
18
100
AcDbEntity
  8
0
100
AcDbLine
 10
1.866
 20
2.013
 30
0.0
 11
2.301
 21
2.171
 31
0.0
  0
LINE
  5
65
330
18
100
AcDbEntity
  8
0
100
AcDbLine
 10
1.259
 20
2.283
 30
0.0
 11
1.248
 21
1.489
 31
0.0
  0
LINE
  5
66
330
18
100
AcDbEntity
  8
0
100
AcDbLine
 10
1.259
 20
2.283
 30
0.0
 11
1.754
 21
2.099
 31
0.0
  0
LINE
  5
67
330
18
100
AcDbEntity
  8
0
100
AcDbLine
 10
1.19
 20
1.468
 30
0.0
 11
1.248
 21
1.489
 31
0.0
  0
LINE
  5
68
330
18
100
AcDbEntity
  8
0
100
AcDbLine
 10
1.248
 20
1.489
 30
0.0
 11
1.743
 21
1.335
 31
0.0
  0
LINE
  5
69
330
18
100
AcDbEntity
  8
0
100
AcDbLine
 10
1.685
 20
1.314
 30
0.0
 11
1.743
 21
1.335
 31
0.0
  0
LINE
  5
6A
330
18
100
AcDbEntity
  8
0
100
AcDbLine
 10
1.754
 20
2.099
 30
0.0
 11
1.743
 21
1.335
 31
0.0
  0
LINE
  5
6B
330
18
100
AcDbEntity
  8
0
100
AcDbLine
 10
1.753
 20
2.056
 30
0.0
 11
1.858
 21
2.013
 31
0.0
  0
LINE
  5
6C
330
18
100
AcDbEntity
  8
0
100
AcDbLine
 10
1.866
 20
2.013
 30
0.0
 11
1.843
 21
0.393
 31
0.0
  0
LINE
  5
6D
330
18
100
AcDbEntity
  8
0
100
AcDbLine
 10
1.753
 20
2.056
 30
0.0
 11
2.184
 21
2.219
 31
0.0
  0
LINE
  5
6E
330
18
100
AcDbEntity
  8
0
100
AcDbLine
 10
1.754
 20
2.099
 30
0.0
 11
2.184
 21
2.262
 31
0.0
  0
LINE
  5
6F
330
18
100
AcDbEntity
  8
0
100
AcDbLine
 10
2.184
 20
2.219
 30
0.0
 11
2.301
 21
2.171
 31
0.0
  0
LINE
  5
70
330
18
100
AcDbEntity
  8
0
100
AcDbLine
 10
2.184
 20
2.262
 30
0.0
 11
2.184
 21
2.219
 31
0.0
  0
LINE
  5
71
330
18
100
AcDbEntity
  8
0
100
AcDbLine
 10
2.184
 20
2.262
 30
0.0
 11
2.325
 21
2.205
 31
0.0
  0
ARC
  5
72
330
18
100
AcDbEntity
  8
0
100
AcDbCircle
 10
1.862
 20
2.022
 30
0.0
 40
0.01
100
AcDbArc
 50
247.879
 51
290.721
  0
LINE
  5
73
330
18
100
AcDbEntity
  8
0
100
AcDbLine
 10
2.333
 20
2.204
 30
0.0
 11
2.974
 21
2.432
 31
0.0
  0
LINE
  5
74
330
18
100
AcDbEntity
  8
0
100
AcDbLine
 10
1.057
 20
0.588
 30
0.0
 11
1.843
 21
0.393
 31
0.0
  0
LINE
  5
75
330
18
100
AcDbEntity
  8
0
100
AcDbLine
 10
0.209
 20
0.424
 30
0.0
 11
0.9940000000000001
 21
0.229
 31
0.0
  0
LINE
  5
76
330
18
100
AcDbEntity
  8
0
100
AcDbLine
 10
0.9940000000000001
 20
0.229
 30
0.0
 11
1.182
 21
0.265
 31
0.0
  0
LINE
  5
77
330
18
100
AcDbEntity
  8
0
100
AcDbLine
 10
0.7559999999999999
 20
0.53
 30
0.0
 11
1.541
 21
0.335
 31
0.0
  0
LINE
  5
78
330
18
100
AcDbEntity
  8
0
100
AcDbLine
 10
0.735
 20
0.376
 30
0.0
 11
1.521
 21
0.181
 31
0.0
  0
LINE
  5
79
330
18
100
AcDbEntity
  8
0
100
AcDbLine
 10
0.5570000000000001
 20
0.491
 30
0.0
 11
0.6820000000000001
 21
0.46
 31
0.0
  0
LINE
  5
7A
330
18
100
AcDbEntity
  8
0
100
AcDbLine
 10
0.7559999999999999
 20
0.53
 30
0.0
 11
0.735
 21
0.376
 31
0.0
  0
LINE
  5
7B
330
18
100
AcDbEntity
  8
0
100
AcDbLine
 10
0.735
 20
0.376
 30
0.0
 11
0.6
 21
0.5920000000000001
 31
0.0
  0
LINE
  5
7C
330
18
100
AcDbEntity
  8
0
100
AcDbLine
 10
0.6
 20
0.5920000000000001
 30
0.0
 11
0.5570000000000001
 21
0.491
 31
0.0
  0
LINE
  5
7D
330
18
100
AcDbEntity
  8
0
100
AcDbLine
 10
0.7559999999999999
 20
0.53
 30
0.0
 11
1.057
 21
0.588
 31
0.0
  0
LINE
  5
7E
330
18
100
AcDbEntity
  8
0
100
AcDbLine
 10
1.541
 20
0.335
 30
0.0
 11
1.521
 21
0.181
 31
0.0
  0
LINE
  5
7F
330
18
100
AcDbEntity
  8
0
100
AcDbLine
 10
1.541
 20
0.335
 30
0.0
 11
1.843
 21
0.393
 31
0.0
  0
ARC
  5
80
330
18
100
AcDbEntity
  8
0
100
AcDbCircle
 10
2.329
 20
2.214
 30
0.0
 40
0.01
100
AcDbArc
 50
247.879
 51
289.569
  0
ARC
  5
81
330
18
100
AcDbEntity
  8
0
100
AcDbCircle
 10
2.29
 20
2.236
 30
0.0
 40
0.065
100
AcDbArc
 50
279.985
 51
337.523
  0
LINE
  5
82
330
18
100
AcDbEntity
  8
0
100
AcDbLine
 10
2.31
 20
3.113
 30
0.0
 11
2.263
 21
3.244
 31
0.0
  0
LINE
  5
83
330
18
100
AcDbEntity
  8
0
100
AcDbLine
 10
2.459
 20
3.33
 30
0.0
 11
2.263
 21
3.244
 31
0.0
  0
LINE
  5
84
330
18
100
AcDbEntity
  8
0
100
AcDbLine
 10
2.459
 20
3.33
 30
0.0
 11
2.32
 21
3.545
 31
0.0
  0
LINE
  5
85
330
18
100
AcDbEntity
  8
0
100
AcDbLine
 10
2.537
 20
3.301
 30
0.0
 11
2.398
 21
3.516
 31
0.0
  0
LINE
  5
86
330
18
100
AcDbEntity
  8
0
100
AcDbLine
 10
2.537
 20
3.301
 30
0.0
 11
2.341
 21
3.215
 31
0.0
  0
LINE
  5
87
330
18
100
AcDbEntity
  8
0
100
AcDbLine
 10
2.388
 20
3.084
 30
0.0
 11
2.341
 21
3.215
 31
0.0
  0
LINE
  5
88
330
18
100
AcDbEntity
  8
0
100
AcDbLine
 10
2.646
 20
3.26
 30
0.0
 11
2.507
 21
3.475
 31
0.0
  0
LINE
  5
89
330
18
100
AcDbEntity
  8
0
100
AcDbLine
 10
2.646
 20
3.26
 30
0.0
 11
2.45
 21
3.175
 31
0.0
  0
LINE
  5
8A
330
18
100
AcDbEntity
  8
0
100
AcDbLine
 10
2.496
 20
3.043
 30
0.0
 11
2.45
 21
3.175
 31
0.0
  0
LINE
  5
8B
330
18
100
AcDbEntity
  8
0
100
AcDbLine
 10
2.741
 20
3.225
 30
0.0
 11
2.602
 21
3.44
 31
0.0
  0
LINE
  5
8C
330
18
100
AcDbEntity
  8
0
100
AcDbLine
 10
2.741
 20
3.225
 30
0.0
 11
2.545
 21
3.139
 31
0.0
  0
LINE
  5
8D
330
18
100
AcDbEntity
  8
0
100
AcDbLine
 10
2.591
 20
3.008
 30
0.0
 11
2.545
 21
3.139
 31
0.0
  0
LINE
  5
8E
330
18
100
AcDbEntity
  8
0
100
AcDbLine
 10
2.805
 20
3.201
 30
0.0
 11
2.666
 21
3.416
 31
0.0
  0
LINE
  5
8F
330
18
100
AcDbEntity
  8
0
100
AcDbLine
 10
2.805
 20
3.201
 30
0.0
 11
2.609
 21
3.115
 31
0.0
  0
LINE
  5
90
330
18
100
AcDbEntity
  8
0
100
AcDbLine
 10
2.656
 20
2.984
 30
0.0
 11
2.609
 21
3.115
 31
0.0
  0
LINE
  5
91
330
18
100
AcDbEntity
  8
0
100
AcDbLine
 10
2.912
 20
3.162
 30
0.0
 11
2.773
 21
3.376
 31
0.0
  0
LINE
  5
92
330
18
100
AcDbEntity
  8
0
100
AcDbLine
 10
2.912
 20
3.162
 30
0.0
 11
2.716
 21
3.076
 31
0.0
  0
LINE
  5
93
330
18
100
AcDbEntity
  8
0
100
AcDbLine
 10
2.762
 20
2.945
 30
0.0
 11
2.716
 21
3.076
 31
0.0
  0
LINE
  5
94
330
18
100
AcDbEntity
  8
0
100
AcDbLine
 10
3.003
 20
3.128
 30
0.0
 11
2.864
 21
3.343
 31
0.0
  0
LINE
  5
95
330
18
100
AcDbEntity
  8
0
100
AcDbLine
 10
3.003
 20
3.128
 30
0.0
 11
2.807
 21
3.042
 31
0.0
  0
LINE
  5
96
330
18
100
AcDbEntity
  8
0
100
AcDbLine
 10
2.853
 20
2.911
 30
0.0
 11
2.807
 21
3.042
 31
0.0
  0
ARC
  5
97
330
18
100
AcDbEntity
  8
0
100
AcDbCircle
 10
1.131
 20
2.682
 30
0.0
 40
0.081
100
AcDbArc
 50
13.986
 51
14.696
  0
ARC
  5
98
330
18
100
AcDbEntity
  8
0
100
AcDbCircle
 10
1.174
 20
2.65
 30
0.0
 40
0.081
100
AcDbArc
 50
175.507
 51
176.95
  0
ARC
  5
99
330
18
100
AcDbEntity
  8
0
100
AcDbCircle
 10
1.394
 20
2.557
 30
0.0
 40
0.022
100
AcDbArc
 50
259.836
 51
290.664
  0
ARC
  5
9A
330
18
100
AcDbEntity
  8
0
100
AcDbCircle
 10
1.389
 20
2.569
 30
0.0
 40
0.034
100
AcDbArc
 50
290.664
 51
315.072
  0
ARC
  5
9B
330
18
100
AcDbEntity
  8
0
100
AcDbCircle
 10
1.38
 20
2.578
 30
0.0
 40
0.046
100
AcDbArc
 50
315.072
 51
333.796
  0
ARC
  5
9C
330
18
100
AcDbEntity
  8
0
100
AcDbCircle
 10
1.366
 20
2.585
 30
0.0
 40
0.063
100
AcDbArc
 50
333.796
 51
349.836
  0
ARC
  5
9D
330
18
100
AcDbEntity
  8
0
100
AcDbCircle
 10
1.366
 20
2.585
 30
0.0
 40
0.063
100
AcDbArc
 50
349.836
 51
5.876000000000001
  0
ARC
  5
9E
330
18
100
AcDbEntity
  8
0
100
AcDbCircle
 10
1.382
 20
2.587
 30
0.0
 40
0.046
100
AcDbArc
 50
5.876000000000001
 51
24.6
  0
ARC
  5
9F
330
18
100
AcDbEntity
  8
0
100
AcDbCircle
 10
1.393
 20
2.592
 30
0.0
 40
0.034
100
AcDbArc
 50
24.6
 51
49.00800000000001
  0
ARC
  5
A0
330
18
100
AcDbEntity
  8
0
100
AcDbCircle
 10
1.402
 20
2.601
 30
0.0
 40
0.022
100
AcDbArc
 50
49.00800000000001
 51
79.836
  0
ARC
  5
A1
330
18
100
AcDbEntity
  8
0
100
AcDbCircle
 10
1.402
 20
2.601
 30
0.0
 40
0.022
100
AcDbArc
 50
79.836
 51
110.664
  0
ARC
  5
A2
330
18
100
AcDbEntity
  8
0
100
AcDbCircle
 10
1.406
 20
2.589
 30
0.0
 40
0.034
100
AcDbArc
 50
110.664
 51
135.072
  0
ARC
  5
A3
330
18
100
AcDbEntity
  8
0
100
AcDbCircle
 10
1.415
 20
2.581
 30
0.0
 40
0.046
100
AcDbArc
 50
135.072
 51
153.796
  0
ARC
  5
A4
330
18
100
AcDbEntity
  8
0
100
AcDbCircle
 10
1.43
 20
2.573
 30
0.0
 40
0.063
100
AcDbArc
 50
153.796
 51
169.836
  0
ARC
  5
A5
330
18
100
AcDbEntity
  8
0
100
AcDbCircle
 10
1.43
 20
2.573
 30
0.0
 40
0.063
100
AcDbArc
 50
169.836
 51
185.876
  0
ARC
  5
A6
330
18
100
AcDbEntity
  8
0
100
AcDbCircle
 10
1.413
 20
2.572
 30
0.0
 40
0.046
100
AcDbArc
 50
185.876
 51
204.6
  0
ARC
  5
A7
330
18
100
AcDbEntity
  8
0
100
AcDbCircle
 10
1.402
 20
2.567
 30
0.0
 40
0.034
100
AcDbArc
 50
204.6
 51
229.008
  0
ARC
  5
A8
330
18
100
AcDbEntity
  8
0
100
AcDbCircle
 10
1.394
 20
2.557
 30
0.0
 40
0.022
100
AcDbArc
 50
229.008
 51
259.836
  0
ARC
  5
A9
330
18
100
AcDbEntity
  8
0
100
AcDbCircle
 10
1.378
 20
2.893
 30
0.0
 40
0.022
100
AcDbArc
 50
259.836
 51
290.664
  0
ARC
  5
AA
330
18
100
AcDbEntity
  8
0
100
AcDbCircle
 10
1.373
 20
2.905
 30
0.0
 40
0.034
100
AcDbArc
 50
290.664
 51
315.072
  0
ARC
  5
AB
330
18
100
AcDbEntity
  8
0
100
AcDbCircle
 10
1.365
 20
2.914
 30
0.0
 40
0.046
100
AcDbArc
 50
315.072
 51
333.796
  0
ARC
  5
AC
330
18
100
AcDbEntity
  8
0
100
AcDbCircle
 10
1.35
 20
2.921
 30
0.0
 40
0.063
100
AcDbArc
 50
333.796
 51
349.836
  0
ARC
  5
AD
330
18
100
AcDbEntity
  8
0
100
AcDbCircle
 10
1.35
 20
2.921
 30
0.0
 40
0.063
100
AcDbArc
 50
349.836
 51
5.876000000000001
  0
ARC
  5
AE
330
18
100
AcDbEntity
  8
0
100
AcDbCircle
 10
1.366
 20
2.923
 30
0.0
 40
0.046
100
AcDbArc
 50
5.876000000000001
 51
24.6
  0
ARC
  5
AF
330
18
100
AcDbEntity
  8
0
100
AcDbCircle
 10
1.377
 20
2.928
 30
0.0
 40
0.034
100
AcDbArc
 50
24.6
 51
49.00800000000001
  0
ARC
  5
B0
330
18
100
AcDbEntity
  8
0
100
AcDbCircle
 10
1.386
 20
2.937
 30
0.0
 40
0.022
100
AcDbArc
 50
49.00800000000001
 51
79.836
  0
ARC
  5
B1
330
18
100
AcDbEntity
  8
0
100
AcDbCircle
 10
1.386
 20
2.937
 30
0.0
 40
0.022
100
AcDbArc
 50
79.836
 51
110.664
  0
ARC
  5
B2
330
18
100
AcDbEntity
  8
0
100
AcDbCircle
 10
1.39
 20
2.926
 30
0.0
 40
0.034
100
AcDbArc
 50
110.664
 51
135.072
  0
ARC
  5
B3
330
18
100
AcDbEntity
  8
0
100
AcDbCircle
 10
1.399
 20
2.917
 30
0.0
 40
0.046
100
AcDbArc
 50
135.072
 51
153.796
  0
ARC
  5
B4
330
18
100
AcDbEntity
  8
0
100
AcDbCircle
 10
1.414
 20
2.91
 30
0.0
 40
0.063
100
AcDbArc
 50
153.796
 51
169.836
  0
ARC
  5
B5
330
18
100
AcDbEntity
  8
0
100
AcDbCircle
 10
1.414
 20
2.91
 30
0.0
 40
0.063
100
AcDbArc
 50
169.836
 51
185.876
  0
ARC
  5
B6
330
18
100
AcDbEntity
  8
0
100
AcDbCircle
 10
1.397
 20
2.908
 30
0.0
 40
0.046
100
AcDbArc
 50
185.876
 51
204.6
  0
ARC
  5
B7
330
18
100
AcDbEntity
  8
0
100
AcDbCircle
 10
1.386
 20
2.903
 30
0.0
 40
0.034
100
AcDbArc
 50
204.6
 51
229.008
  0
ARC
  5
B8
330
18
100
AcDbEntity
  8
0
100
AcDbCircle
 10
1.378
 20
2.893
 30
0.0
 40
0.022
100
AcDbArc
 50
229.008
 51
259.836
  0
ARC
  5
B9
330
18
100
AcDbEntity
  8
0
100
AcDbCircle
 10
0.861
 20
2.547
 30
0.0
 40
0.022
100
AcDbArc
 50
259.836
 51
290.664
  0
ARC
  5
BA
330
18
100
AcDbEntity
  8
0
100
AcDbCircle
 10
0.856
 20
2.559
 30
0.0
 40
0.034
100
AcDbArc
 50
290.664
 51
315.072
  0
ARC
  5
BB
330
18
100
AcDbEntity
  8
0
100
AcDbCircle
 10
0.847
 20
2.567
 30
0.0
 40
0.046
100
AcDbArc
 50
315.072
 51
333.796
  0
ARC
  5
BC
330
18
100
AcDbEntity
  8
0
100
AcDbCircle
 10
0.833
 20
2.575
 30
0.0
 40
0.063
100
AcDbArc
 50
333.796
 51
349.836
  0
ARC
  5
BD
330
18
100
AcDbEntity
  8
0
100
AcDbCircle
 10
0.833
 20
2.575
 30
0.0
 40
0.063
100
AcDbArc
 50
349.836
 51
5.876000000000001
  0
ARC
  5
BE
330
18
100
AcDbEntity
  8
0
100
AcDbCircle
 10
0.8490000000000001
 20
2.576
 30
0.0
 40
0.046
100
AcDbArc
 50
5.876000000000001
 51
24.6
  0
ARC
  5
BF
330
18
100
AcDbEntity
  8
0
100
AcDbCircle
 10
0.86
 20
2.582
 30
0.0
 40
0.034
100
AcDbArc
 50
24.6
 51
49.00800000000001
  0
ARC
  5
C0
330
18
100
AcDbEntity
  8
0
100
AcDbCircle
 10
0.8690000000000001
 20
2.591
 30
0.0
 40
0.022
100
AcDbArc
 50
49.00800000000001
 51
79.836
  0
ARC
  5
C1
330
18
100
AcDbEntity
  8
0
100
AcDbCircle
 10
0.8690000000000001
 20
2.591
 30
0.0
 40
0.022
100
AcDbArc
 50
79.836
 51
110.664
  0
ARC
  5
C2
330
18
100
AcDbEntity
  8
0
100
AcDbCircle
 10
0.873
 20
2.579
 30
0.0
 40
0.034
100
AcDbArc
 50
110.664
 51
135.072
  0
ARC
  5
C3
330
18
100
AcDbEntity
  8
0
100
AcDbCircle
 10
0.882
 20
2.571
 30
0.0
 40
0.046
100
AcDbArc
 50
135.072
 51
153.796
  0
ARC
  5
C4
330
18
100
AcDbEntity
  8
0
100
AcDbCircle
 10
0.897
 20
2.563
 30
0.0
 40
0.063
100
AcDbArc
 50
153.796
 51
169.836
  0
ARC
  5
C5
330
18
100
AcDbEntity
  8
0
100
AcDbCircle
 10
0.897
 20
2.563
 30
0.0
 40
0.063
100
AcDbArc
 50
169.836
 51
185.876
  0
ARC
  5
C6
330
18
100
AcDbEntity
  8
0
100
AcDbCircle
 10
0.88
 20
2.562
 30
0.0
 40
0.046
100
AcDbArc
 50
185.876
 51
204.6
  0
ARC
  5
C7
330
18
100
AcDbEntity
  8
0
100
AcDbCircle
 10
0.8690000000000001
 20
2.556
 30
0.0
 40
0.034
100
AcDbArc
 50
204.6
 51
229.008
  0
ARC
  5
C8
330
18
100
AcDbEntity
  8
0
100
AcDbCircle
 10
0.861
 20
2.547
 30
0.0
 40
0.022
100
AcDbArc
 50
229.008
 51
259.836
  0
ARC
  5
C9
330
18
100
AcDbEntity
  8
0
100
AcDbCircle
 10
0.4
 20
2.38
 30
0.0
 40
0.022
100
AcDbArc
 50
259.836
 51
290.664
  0
ARC
  5
CA
330
18
100
AcDbEntity
  8
0
100
AcDbCircle
 10
0.396
 20
2.392
 30
0.0
 40
0.034
100
AcDbArc
 50
290.664
 51
315.072
  0
ARC
  5
CB
330
18
100
AcDbEntity
  8
0
100
AcDbCircle
 10
0.387
 20
2.401
 30
0.0
 40
0.046
100
AcDbArc
 50
315.072
 51
333.796
  0
ARC
  5
CC
330
18
100
AcDbEntity
  8
0
100
AcDbCircle
 10
0.3720000000000001
 20
2.408
 30
0.0
 40
0.063
100
AcDbArc
 50
333.796
 51
349.836
  0
ARC
  5
CD
330
18
100
AcDbEntity
  8
0
100
AcDbCircle
 10
0.3720000000000001
 20
2.408
 30
0.0
 40
0.063
100
AcDbArc
 50
349.836
 51
5.876000000000001
  0
ARC
  5
CE
330
18
100
AcDbEntity
  8
0
100
AcDbCircle
 10
0.389
 20
2.41
 30
0.0
 40
0.046
100
AcDbArc
 50
5.876000000000001
 51
24.6
  0
ARC
  5
CF
330
18
100
AcDbEntity
  8
0
100
AcDbCircle
 10
0.4
 20
2.415
 30
0.0
 40
0.034
100
AcDbArc
 50
24.6
 51
49.00800000000001
  0
ARC
  5
D0
330
18
100
AcDbEntity
  8
0
100
AcDbCircle
 10
0.408
 20
2.424
 30
0.0
 40
0.022
100
AcDbArc
 50
49.00800000000001
 51
79.836
  0
ARC
  5
D1
330
18
100
AcDbEntity
  8
0
100
AcDbCircle
 10
0.408
 20
2.424
 30
0.0
 40
0.022
100
AcDbArc
 50
79.836
 51
110.664
  0
ARC
  5
D2
330
18
100
AcDbEntity
  8
0
100
AcDbCircle
 10
0.413
 20
2.413
 30
0.0
 40
0.034
100
AcDbArc
 50
110.664
 51
135.072
  0
ARC
  5
D3
330
18
100
AcDbEntity
  8
0
100
AcDbCircle
 10
0.421
 20
2.404
 30
0.0
 40
0.046
100
AcDbArc
 50
135.072
 51
153.796
  0
ARC
  5
D4
330
18
100
AcDbEntity
  8
0
100
AcDbCircle
 10
0.436
 20
2.397
 30
0.0
 40
0.063
100
AcDbArc
 50
153.796
 51
169.836
  0
ARC
  5
D5
330
18
100
AcDbEntity
  8
0
100
AcDbCircle
 10
0.436
 20
2.397
 30
0.0
 40
0.063
100
AcDbArc
 50
169.836
 51
185.876
  0
ARC
  5
D6
330
18
100
AcDbEntity
  8
0
100
AcDbCircle
 10
0.42
 20
2.395
 30
0.0
 40
0.046
100
AcDbArc
 50
185.876
 51
204.6
  0
ARC
  5
D7
330
18
100
AcDbEntity
  8
0
100
AcDbCircle
 10
0.409
 20
2.39
 30
0.0
 40
0.034
100
AcDbArc
 50
204.6
 51
229.008
  0
ARC
  5
D8
330
18
100
AcDbEntity
  8
0
100
AcDbCircle
 10
0.4
 20
2.38
 30
0.0
 40
0.022
100
AcDbArc
 50
229.008
 51
259.836
  0
ARC
  5
D9
330
18
100
AcDbEntity
  8
0
100
AcDbCircle
 10
1.664
 20
1.535
 30
0.0
 40
0.016
100
AcDbArc
 50
85.499
 51
120.555
  0
ARC
  5
DA
330
18
100
AcDbEntity
  8
0
100
AcDbCircle
 10
1.673
 20
1.521
 30
0.0
 40
0.033
100
AcDbArc
 50
120.555
 51
144.945
  0
ARC
  5
DB
330
18
100
AcDbEntity
  8
0
100
AcDbCircle
 10
1.687
 20
1.511
 30
0.0
 40
0.05
100
AcDbArc
 50
144.945
 51
161.759
  0
ARC
  5
DC
330
18
100
AcDbEntity
  8
0
100
AcDbCircle
 10
1.711
 20
1.503
 30
0.0
 40
0.075
100
AcDbArc
 50
161.759
 51
175.499
  0
ARC
  5
DD
330
18
100
AcDbEntity
  8
0
100
AcDbCircle
 10
1.711
 20
1.503
 30
0.0
 40
0.075
100
AcDbArc
 50
175.499
 51
189.239
  0
ARC
  5
DE
330
18
100
AcDbEntity
  8
0
100
AcDbCircle
 10
1.686
 20
1.499
 30
0.0
 40
0.05
100
AcDbArc
 50
189.239
 51
206.053
  0
ARC
  5
DF
330
18
100
AcDbEntity
  8
0
100
AcDbCircle
 10
1.671
 20
1.492
 30
0.0
 40
0.033
100
AcDbArc
 50
206.053
 51
230.442
  0
ARC
  5
E0
330
18
100
AcDbEntity
  8
0
100
AcDbCircle
 10
1.66
 20
1.479
 30
0.0
 40
0.016
100
AcDbArc
 50
230.442
 51
265.499
  0
ARC
  5
E1
330
18
100
AcDbEntity
  8
0
100
AcDbCircle
 10
1.66
 20
1.479
 30
0.0
 40
0.016
100
AcDbArc
 50
265.499
 51
300.555
  0
ARC
  5
E2
330
18
100
AcDbEntity
  8
0
100
AcDbCircle
 10
1.652
 20
1.493
 30
0.0
 40
0.033
100
AcDbArc
 50
300.555
 51
324.945
  0
ARC
  5
E3
330
18
100
AcDbEntity
  8
0
100
AcDbCircle
 10
1.637
 20
1.503
 30
0.0
 40
0.05
100
AcDbArc
 50
324.945
 51
341.759
  0
ARC
  5
E4
330
18
100
AcDbEntity
  8
0
100
AcDbCircle
 10
1.614
 20
1.511
 30
0.0
 40
0.075
100
AcDbArc
 50
341.759
 51
355.499
  0
ARC
  5
E5
330
18
100
AcDbEntity
  8
0
100
AcDbCircle
 10
1.614
 20
1.511
 30
0.0
 40
0.075
100
AcDbArc
 50
355.499
 51
9.238999999999999
  0
ARC
  5
E6
330
18
100
AcDbEntity
  8
0
100
AcDbCircle
 10
1.638
 20
1.515
 30
0.0
 40
0.05
100
AcDbArc
 50
9.238999999999999
 51
26.053
  0
ARC
  5
E7
330
18
100
AcDbEntity
  8
0
100
AcDbCircle
 10
1.654
 20
1.523
 30
0.0
 40
0.033
100
AcDbArc
 50
26.053
 51
50.442
  0
ARC
  5
E8
330
18
100
AcDbEntity
  8
0
100
AcDbCircle
 10
1.664
 20
1.535
 30
0.0
 40
0.016
100
AcDbArc
 50
50.442
 51
85.499
  0
ARC
  5
E9
330
18
100
AcDbEntity
  8
0
100
AcDbCircle
 10
1.667
 20
2.028
 30
0.0
 40
0.016
100
AcDbArc
 50
85.499
 51
120.555
  0
ARC
  5
EA
330
18
100
AcDbEntity
  8
0
100
AcDbCircle
 10
1.676
 20
2.014
 30
0.0
 40
0.033
100
AcDbArc
 50
120.555
 51
144.945
  0
ARC
  5
EB
330
18
100
AcDbEntity
  8
0
100
AcDbCircle
 10
1.69
 20
2.004
 30
0.0
 40
0.05
100
AcDbArc
 50
144.945
 51
161.759
  0
ARC
  5
EC
330
18
100
AcDbEntity
  8
0
100
AcDbCircle
 10
1.714
 20
1.996
 30
0.0
 40
0.075
100
AcDbArc
 50
161.759
 51
175.499
  0
ARC
  5
ED
330
18
100
AcDbEntity
  8
0
100
AcDbCircle
 10
1.714
 20
1.996
 30
0.0
 40
0.075
100
AcDbArc
 50
175.499
 51
189.239
  0
ARC
  5
EE
330
18
100
AcDbEntity
  8
0
100
AcDbCircle
 10
1.689
 20
1.992
 30
0.0
 40
0.05
100
AcDbArc
 50
189.239
 51
206.053
  0
ARC
  5
EF
330
18
100
AcDbEntity
  8
0
100
AcDbCircle
 10
1.673
 20
1.984
 30
0.0
 40
0.033
100
AcDbArc
 50
206.053
 51
230.442
  0
ARC
  5
F0
330
18
100
AcDbEntity
  8
0
100
AcDbCircle
 10
1.663
 20
1.971
 30
0.0
 40
0.016
100
AcDbArc
 50
230.442
 51
265.499
  0
ARC
  5
F1
330
18
100
AcDbEntity
  8
0
100
AcDbCircle
 10
1.663
 20
1.971
 30
0.0
 40
0.016
100
AcDbArc
 50
265.499
 51
300.555
  0
ARC
  5
F2
330
18
100
AcDbEntity
  8
0
100
AcDbCircle
 10
1.654
 20
1.986
 30
0.0
 40
0.033
100
AcDbArc
 50
300.555
 51
324.945
  0
ARC
  5
F3
330
18
100
AcDbEntity
  8
0
100
AcDbCircle
 10
1.64
 20
1.996
 30
0.0
 40
0.05
100
AcDbArc
 50
324.945
 51
341.759
  0
ARC
  5
F4
330
18
100
AcDbEntity
  8
0
100
AcDbCircle
 10
1.616
 20
2.004
 30
0.0
 40
0.075
100
AcDbArc
 50
341.759
 51
355.499
  0
ARC
  5
F5
330
18
100
AcDbEntity
  8
0
100
AcDbCircle
 10
1.616
 20
2.004
 30
0.0
 40
0.075
100
AcDbArc
 50
355.499
 51
9.238999999999999
  0
ARC
  5
F6
330
18
100
AcDbEntity
  8
0
100
AcDbCircle
 10
1.641
 20
2.008
 30
0.0
 40
0.05
100
AcDbArc
 50
9.238999999999999
 51
26.053
  0
ARC
  5
F7
330
18
100
AcDbEntity
  8
0
100
AcDbCircle
 10
1.657
 20
2.015
 30
0.0
 40
0.033
100
AcDbArc
 50
26.053
 51
50.442
  0
ARC
  5
F8
330
18
100
AcDbEntity
  8
0
100
AcDbCircle
 10
1.667
 20
2.028
 30
0.0
 40
0.016
100
AcDbArc
 50
50.442
 51
85.499
  0
ARC
  5
F9
330
18
100
AcDbEntity
  8
0
100
AcDbCircle
 10
1.334
 20
2.128
 30
0.0
 40
0.016
100
AcDbArc
 50
85.499
 51
120.555
  0
ARC
  5
FA
330
18
100
AcDbEntity
  8
0
100
AcDbCircle
 10
1.343
 20
2.114
 30
0.0
 40
0.033
100
AcDbArc
 50
120.555
 51
144.945
  0
ARC
  5
FB
330
18
100
AcDbEntity
  8
0
100
AcDbCircle
 10
1.357
 20
2.103
 30
0.0
 40
0.05
100
AcDbArc
 50
144.945
 51
161.759
  0
ARC
  5
FC
330
18
100
AcDbEntity
  8
0
100
AcDbCircle
 10
1.381
 20
2.096
 30
0.0
 40
0.075
100
AcDbArc
 50
161.759
 51
175.499
  0
ARC
  5
FD
330
18
100
AcDbEntity
  8
0
100
AcDbCircle
 10
1.381
 20
2.096
 30
0.0
 40
0.075
100
AcDbArc
 50
175.499
 51
189.239
  0
ARC
  5
FE
330
18
100
AcDbEntity
  8
0
100
AcDbCircle
 10
1.356
 20
2.092
 30
0.0
 40
0.05
100
AcDbArc
 50
189.239
 51
206.053
  0
ARC
  5
FF
330
18
100
AcDbEntity
  8
0
100
AcDbCircle
 10
1.34
 20
2.084
 30
0.0
 40
0.033
100
AcDbArc
 50
206.053
 51
230.442
  0
ARC
  5
100
330
18
100
AcDbEntity
  8
0
100
AcDbCircle
 10
1.33
 20
2.071
 30
0.0
 40
0.016
100
AcDbArc
 50
230.442
 51
265.499
  0
ARC
  5
101
330
18
100
AcDbEntity
  8
0
100
AcDbCircle
 10
1.33
 20
2.071
 30
0.0
 40
0.016
100
AcDbArc
 50
265.499
 51
300.555
  0
ARC
  5
102
330
18
100
AcDbEntity
  8
0
100
AcDbCircle
 10
1.322
 20
2.085
 30
0.0
 40
0.033
100
AcDbArc
 50
300.555
 51
324.945
  0
ARC
  5
103
330
18
100
AcDbEntity
  8
0
100
AcDbCircle
 10
1.307
 20
2.096
 30
0.0
 40
0.05
100
AcDbArc
 50
324.945
 51
341.759
  0
ARC
  5
104
330
18
100
AcDbEntity
  8
0
100
AcDbCircle
 10
1.284
 20
2.103
 30
0.0
 40
0.075
100
AcDbArc
 50
341.759
 51
355.499
  0
ARC
  5
105
330
18
100
AcDbEntity
  8
0
100
AcDbCircle
 10
1.284
 20
2.103
 30
0.0
 40
0.075
100
AcDbArc
 50
355.499
 51
9.238999999999999
  0
ARC
  5
106
330
18
100
AcDbEntity
  8
0
100
AcDbCircle
 10
1.308
 20
2.107
 30
0.0
 40
0.05
100
AcDbArc
 50
9.238999999999999
 51
26.053
  0
ARC
  5
107
330
18
100
AcDbEntity
  8
0
100
AcDbCircle
 10
1.324
 20
2.115
 30
0.0
 40
0.033
100
AcDbArc
 50
26.053
 51
50.442
  0
ARC
  5
108
330
18
100
AcDbEntity
  8
0
100
AcDbCircle
 10
1.334
 20
2.128
 30
0.0
 40
0.016
100
AcDbArc
 50
50.442
 51
85.499
  0
ARC
  5
109
330
18
100
AcDbEntity
  8
0
100
AcDbCircle
 10
1.338
 20
1.647
 30
0.0
 40
0.016
100
AcDbArc
 50
85.499
 51
120.555
  0
ARC
  5
10A
330
18
100
AcDbEntity
  8
0
100
AcDbCircle
 10
1.346
 20
1.633
 30
0.0
 40
0.033
100
AcDbArc
 50
120.555
 51
144.945
  0
ARC
  5
10B
330
18
100
AcDbEntity
  8
0
100
AcDbCircle
 10
1.361
 20
1.623
 30
0.0
 40
0.05
100
AcDbArc
 50
144.945
 51
161.759
  0
ARC
  5
10C
330
18
100
AcDbEntity
  8
0
100
AcDbCircle
 10
1.384
 20
1.615
 30
0.0
 40
0.075
100
AcDbArc
 50
161.759
 51
175.499
  0
ARC
  5
10D
330
18
100
AcDbEntity
  8
0
100
AcDbCircle
 10
1.384
 20
1.615
 30
0.0
 40
0.075
100
AcDbArc
 50
175.499
 51
189.239
  0
ARC
  5
10E
330
18
100
AcDbEntity
  8
0
100
AcDbCircle
 10
1.36
 20
1.611
 30
0.0
 40
0.05
100
AcDbArc
 50
189.239
 51
206.053
  0
ARC
  5
10F
330
18
100
AcDbEntity
  8
0
100
AcDbCircle
 10
1.344
 20
1.603
 30
0.0
 40
0.033
100
AcDbArc
 50
206.053
 51
230.442
  0
ARC
  5
110
330
18
100
AcDbEntity
  8
0
100
AcDbCircle
 10
1.333
 20
1.591
 30
0.0
 40
0.016
100
AcDbArc
 50
230.442
 51
265.499
  0
ARC
  5
111
330
18
100
AcDbEntity
  8
0
100
AcDbCircle
 10
1.333
 20
1.591
 30
0.0
 40
0.016
100
AcDbArc
 50
265.499
 51
300.555
  0
ARC
  5
112
330
18
100
AcDbEntity
  8
0
100
AcDbCircle
 10
1.325
 20
1.605
 30
0.0
 40
0.033
100
AcDbArc
 50
300.555
 51
324.945
  0
ARC
  5
113
330
18
100
AcDbEntity
  8
0
100
AcDbCircle
 10
1.311
 20
1.615
 30
0.0
 40
0.05
100
AcDbArc
 50
324.945
 51
341.759
  0
ARC
  5
114
330
18
100
AcDbEntity
  8
0
100
AcDbCircle
 10
1.287
 20
1.623
 30
0.0
 40
0.075
100
AcDbArc
 50
341.759
 51
355.499
  0
ARC
  5
115
330
18
100
AcDbEntity
  8
0
100
AcDbCircle
 10
1.287
 20
1.623
 30
0.0
 40
0.075
100
AcDbArc
 50
355.499
 51
9.238999999999999
  0
ARC
  5
116
330
18
100
AcDbEntity
  8
0
100
AcDbCircle
 10
1.312
 20
1.627
 30
0.0
 40
0.05
100
AcDbArc
 50
9.238999999999999
 51
26.053
  0
ARC
  5
117
330
18
100
AcDbEntity
  8
0
100
AcDbCircle
 10
1.327
 20
1.635
 30
0.0
 40
0.033
100
AcDbArc
 50
26.053
 51
50.442
  0
ARC
  5
118
330
18
100
AcDbEntity
  8
0
100
AcDbCircle
 10
1.338
 20
1.647
 30
0.0
 40
0.016
100
AcDbArc
 50
50.442
 51
85.499
  0
ARC
  5
119
330
18
100
AcDbEntity
  8
0
100
AcDbCircle
 10
1.506
 20
1.751
 30
0.0
 40
0.035
100
AcDbArc
 50
296.83
 51
329.716
  0
ARC
  5
11A
330
18
100
AcDbEntity
  8
0
100
AcDbCircle
 10
1.482
 20
1.765
 30
0.0
 40
0.062
100
AcDbArc
 50
329.716
 51
354.186
  0
ARC
  5
11B
330
18
100
AcDbEntity
  8
0
100
AcDbCircle
 10
1.454
 20
1.768
 30
0.0
 40
0.09
100
AcDbArc
 50
354.186
 51
11.969
  0
ARC
  5
11C
330
18
100
AcDbEntity
  8
0
100
AcDbCircle
 10
1.416
 20
1.76
 30
0.0
 40
0.129
100
AcDbArc
 50
11.969
 51
26.83
  0
ARC
  5
11D
330
18
100
AcDbEntity
  8
0
100
AcDbCircle
 10
1.416
 20
1.76
 30
0.0
 40
0.129
100
AcDbArc
 50
26.83
 51
41.691
  0
ARC
  5
11E
330
18
100
AcDbEntity
  8
0
100
AcDbCircle
 10
1.445
 20
1.785
 30
0.0
 40
0.09
100
AcDbArc
 50
41.691
 51
59.47399999999999
  0
ARC
  5
11F
330
18
100
AcDbEntity
  8
0
100
AcDbCircle
 10
1.459
 20
1.81
 30
0.0
 40
0.062
100
AcDbArc
 50
59.47399999999999
 51
83.943
  0
ARC
  5
120
330
18
100
AcDbEntity
  8
0
100
AcDbCircle
 10
1.462
 20
1.837
 30
0.0
 40
0.035
100
AcDbArc
 50
83.943
 51
116.83
  0
ARC
  5
121
330
18
100
AcDbEntity
  8
0
100
AcDbCircle
 10
1.462
 20
1.837
 30
0.0
 40
0.035
100
AcDbArc
 50
116.83
 51
149.716
  0
ARC
  5
122
330
18
100
AcDbEntity
  8
0
100
AcDbCircle
 10
1.486
 20
1.823
 30
0.0
 40
0.062
100
AcDbArc
 50
149.716
 51
174.186
  0
ARC
  5
123
330
18
100
AcDbEntity
  8
0
100
AcDbCircle
 10
1.514
 20
1.82
 30
0.0
 40
0.09
100
AcDbArc
 50
174.186
 51
191.969
  0
ARC
  5
124
330
18
100
AcDbEntity
  8
0
100
AcDbCircle
 10
1.552
 20
1.828
 30
0.0
 40
0.129
100
AcDbArc
 50
191.969
 51
206.83
  0
ARC
  5
125
330
18
100
AcDbEntity
  8
0
100
AcDbCircle
 10
1.552
 20
1.828
 30
0.0
 40
0.129
100
AcDbArc
 50
206.83
 51
221.691
  0
ARC
  5
126
330
18
100
AcDbEntity
  8
0
100
AcDbCircle
 10
1.523
 20
1.802
 30
0.0
 40
0.09
100
AcDbArc
 50
221.691
 51
239.474
  0
ARC
  5
127
330
18
100
AcDbEntity
  8
0
100
AcDbCircle
 10
1.508
 20
1.778
 30
0.0
 40
0.062
100
AcDbArc
 50
239.474
 51
263.943
  0
ARC
  5
128
330
18
100
AcDbEntity
  8
0
100
AcDbCircle
 10
1.506
 20
1.751
 30
0.0
 40
0.035
100
AcDbArc
 50
263.943
 51
296.83
  0
ARC
  5
129
330
18
100
AcDbEntity
  8
0
100
AcDbCircle
 10
1.485
 20
1.746
 30
0.0
 40
0.035
100
AcDbArc
 50
300.971
 51
329.716
  0
ARC
  5
12A
330
18
100
AcDbEntity
  8
0
100
AcDbCircle
 10
1.461
 20
1.76
 30
0.0
 40
0.062
100
AcDbArc
 50
329.716
 51
354.186
  0
ARC
  5
12B
330
18
100
AcDbEntity
  8
0
100
AcDbCircle
 10
1.433
 20
1.763
 30
0.0
 40
0.09
100
AcDbArc
 50
354.186
 51
11.969
  0
ARC
  5
12C
330
18
100
AcDbEntity
  8
0
100
AcDbCircle
 10
1.395
 20
1.755
 30
0.0
 40
0.129
100
AcDbArc
 50
11.969
 51
26.83
  0
ARC
  5
12D
330
18
100
AcDbEntity
  8
0
100
AcDbCircle
 10
1.395
 20
1.755
 30
0.0
 40
0.129
100
AcDbArc
 50
26.83
 51
41.691
  0
ARC
  5
12E
330
18
100
AcDbEntity
  8
0
100
AcDbCircle
 10
1.424
 20
1.781
 30
0.0
 40
0.09
100
AcDbArc
 50
41.691
 51
59.47399999999999
  0
ARC
  5
12F
330
18
100
AcDbEntity
  8
0
100
AcDbCircle
 10
1.439
 20
1.805
 30
0.0
 40
0.062
100
AcDbArc
 50
59.47399999999999
 51
83.943
  0
ARC
  5
130
330
18
100
AcDbEntity
  8
0
100
AcDbCircle
 10
1.441
 20
1.832
 30
0.0
 40
0.035
100
AcDbArc
 50
83.943
 51
85.24600000000001
  0
LINE
  5
131
330
18
100
AcDbEntity
  8
0
100
AcDbLine
 10
2.31
 20
3.113
 30
0.0
 11
2.299
 21
3.085
 31
0.0
  0
LINE
  5
132
330
18
100
AcDbEntity
  8
0
100
AcDbLine
 10
2.299
 20
3.085
 30
0.0
 11
2.278
 21
3.061
 31
0.0
  0
LINE
  5
133
330
18
100
AcDbEntity
  8
0
100
AcDbLine
 10
2.278
 20
3.061
 30
0.0
 11
2.254
 21
3.03
 31
0.0
  0
LINE
  5
134
330
18
100
AcDbEntity
  8
0
100
AcDbLine
 10
2.388
 20
3.084
 30
0.0
 11
2.376
 21
3.06
 31
0.0
  0
LINE
  5
135
330
18
100
AcDbEntity
  8
0
100
AcDbLine
 10
2.376
 20
3.06
 30
0.0
 11
2.35
 21
2.977
 31
0.0
  0
LINE
  5
136
330
18
100
AcDbEntity
  8
0
100
AcDbLine
 10
2.35
 20
2.977
 30
0.0
 11
2.311
 21
2.905
 31
0.0
  0
LINE
  5
137
330
18
100
AcDbEntity
  8
0
100
AcDbLine
 10
2.311
 20
2.905
 30
0.0
 11
2.285
 21
2.88
 31
0.0
  0
LINE
  5
138
330
18
100
AcDbEntity
  8
0
100
AcDbLine
 10
2.285
 20
2.88
 30
0.0
 11
2.278
 21
2.804
 31
0.0
  0
LINE
  5
139
330
18
100
AcDbEntity
  8
0
100
AcDbLine
 10
2.278
 20
2.804
 30
0.0
 11
2.255
 21
2.757
 31
0.0
  0
LINE
  5
13A
330
18
100
AcDbEntity
  8
0
100
AcDbLine
 10
2.496
 20
3.043
 30
0.0
 11
2.466
 21
2.985
 31
0.0
  0
LINE
  5
13B
330
18
100
AcDbEntity
  8
0
100
AcDbLine
 10
2.466
 20
2.985
 30
0.0
 11
2.443
 21
2.968
 31
0.0
  0
LINE
  5
13C
330
18
100
AcDbEntity
  8
0
100
AcDbLine
 10
2.443
 20
2.968
 30
0.0
 11
2.409
 21
2.906
 31
0.0
  0
LINE
  5
13D
330
18
100
AcDbEntity
  8
0
100
AcDbLine
 10
2.409
 20
2.906
 30
0.0
 11
2.382
 21
2.838
 31
0.0
  0
LINE
  5
13E
330
18
100
AcDbEntity
  8
0
100
AcDbLine
 10
2.382
 20
2.838
 30
0.0
 11
2.357
 21
2.772
 31
0.0
  0
LINE
  5
13F
330
18
100
AcDbEntity
  8
0
100
AcDbLine
 10
2.357
 20
2.772
 30
0.0
 11
2.343
 21
2.667
 31
0.0
  0
LINE
  5
140
330
18
100
AcDbEntity
  8
0
100
AcDbLine
 10
2.591
 20
3.008
 30
0.0
 11
2.572
 21
2.972
 31
0.0
  0
LINE
  5
141
330
18
100
AcDbEntity
  8
0
100
AcDbLine
 10
2.572
 20
2.972
 30
0.0
 11
2.538
 21
2.926
 31
0.0
  0
LINE
  5
142
330
18
100
AcDbEntity
  8
0
100
AcDbLine
 10
2.538
 20
2.926
 30
0.0
 11
2.498
 21
2.858
 31
0.0
  0
LINE
  5
143
330
18
100
AcDbEntity
  8
0
100
AcDbLine
 10
2.498
 20
2.858
 30
0.0
 11
2.475
 21
2.798
 31
0.0
  0
LINE
  5
144
330
18
100
AcDbEntity
  8
0
100
AcDbLine
 10
2.475
 20
2.798
 30
0.0
 11
2.472
 21
2.692
 31
0.0
  0
LINE
  5
145
330
18
100
AcDbEntity
  8
0
100
AcDbLine
 10
2.472
 20
2.692
 30
0.0
 11
2.462
 21
2.622
 31
0.0
  0
LINE
  5
146
330
18
100
AcDbEntity
  8
0
100
AcDbLine
 10
2.656
 20
2.984
 30
0.0
 11
2.614
 21
2.89
 31
0.0
  0
LINE
  5
147
330
18
100
AcDbEntity
  8
0
100
AcDbLine
 10
2.614
 20
2.89
 30
0.0
 11
2.586
 21
2.856
 31
0.0
  0
LINE
  5
148
330
18
100
AcDbEntity
  8
0
100
AcDbLine
 10
2.586
 20
2.856
 30
0.0
 11
2.561
 21
2.781
 31
0.0
  0
LINE
  5
149
330
18
100
AcDbEntity
  8
0
100
AcDbLine
 10
2.561
 20
2.781
 30
0.0
 11
2.571
 21
2.692
 31
0.0
  0
LINE
  5
14A
330
18
100
AcDbEntity
  8
0
100
AcDbLine
 10
2.571
 20
2.692
 30
0.0
 11
2.562
 21
2.625
 31
0.0
  0
LINE
  5
14B
330
18
100
AcDbEntity
  8
0
100
AcDbLine
 10
2.562
 20
2.625
 30
0.0
 11
2.544
 21
2.593
 31
0.0
  0
LINE
  5
14C
330
18
100
AcDbEntity
  8
0
100
AcDbLine
 10
2.544
 20
2.593
 30
0.0
 11
2.543
 21
2.592
 31
0.0
  0
LINE
  5
14D
330
18
100
AcDbEntity
  8
0
100
AcDbLine
 10
2.762
 20
2.945
 30
0.0
 11
2.736
 21
2.88
 31
0.0
  0
LINE
  5
14E
330
18
100
AcDbEntity
  8
0
100
AcDbLine
 10
2.736
 20
2.88
 30
0.0
 11
2.71
 21
2.852
 31
0.0
  0
LINE
  5
14F
330
18
100
AcDbEntity
  8
0
100
AcDbLine
 10
2.71
 20
2.852
 30
0.0
 11
2.679
 21
2.784
 31
0.0
  0
LINE
  5
150
330
18
100
AcDbEntity
  8
0
100
AcDbLine
 10
2.679
 20
2.784
 30
0.0
 11
2.68
 21
2.691
 31
0.0
  0
LINE
  5
151
330
18
100
AcDbEntity
  8
0
100
AcDbLine
 10
2.68
 20
2.691
 30
0.0
 11
2.677
 21
2.61
 31
0.0
  0
LINE
  5
152
330
18
100
AcDbEntity
  8
0
100
AcDbLine
 10
2.677
 20
2.61
 30
0.0
 11
2.652
 21
2.552
 31
0.0
  0
LINE
  5
153
330
18
100
AcDbEntity
  8
0
100
AcDbLine
 10
2.853
 20
2.911
 30
0.0
 11
2.8
 21
2.823
 31
0.0
  0
LINE
  5
154
330
18
100
AcDbEntity
  8
0
100
AcDbLine
 10
2.8
 20
2.823
 30
0.0
 11
2.787
 21
2.785
 31
0.0
  0
LINE
  5
155
330
18
100
AcDbEntity
  8
0
100
AcDbLine
 10
2.787
 20
2.785
 30
0.0
 11
2.778
 21
2.692
 31
0.0
  0
LINE
  5
156
330
18
100
AcDbEntity
  8
0
100
AcDbLine
 10
2.778
 20
2.692
 30
0.0
 11
2.749
 21
2.603
 31
0.0
  0
LINE
  5
157
330
18
100
AcDbEntity
  8
0
100
AcDbLine
 10
2.749
 20
2.603
 30
0.0
 11
2.73
 21
2.523
 31
0.0
  0
LINE
  5
158
330
18
100
AcDbEntity
  8
0
100
AcDbLine
 10
2.956
 20
2.873
 30
0.0
 11
2.935
 21
2.81
 31
0.0
  0
LINE
  5
159
330
18
100
AcDbEntity
  8
0
100
AcDbLine
 10
2.935
 20
2.81
 30
0.0
 11
2.928
 21
2.749
 31
0.0
  0
LINE
  5
15A
330
18
100
AcDbEntity
  8
0
100
AcDbLine
 10
2.928
 20
2.749
 30
0.0
 11
2.884
 21
2.677
 31
0.0
  0
LINE
  5
15B
330
18
100
AcDbEntity
  8
0
100
AcDbLine
 10
2.884
 20
2.677
 30
0.0
 11
2.845
 21
2.59
 31
0.0
  0
LINE
  5
15C
330
18
100
AcDbEntity
  8
0
100
AcDbLine
 10
2.845
 20
2.59
 30
0.0
 11
2.83
 21
2.486
 31
0.0
  0
LINE
  5
15D
330
18
100
AcDbEntity
  8
0
100
AcDbLine
 10
2.973
 20
2.673
 30
0.0
 11
2.963
 21
2.647
 31
0.0
  0
LINE
  5
15E
330
18
100
AcDbEntity
  8
0
100
AcDbLine
 10
2.963
 20
2.647
 30
0.0
 11
2.946
 21
2.564
 31
0.0
  0
LINE
  5
15F
330
18
100
AcDbEntity
  8
0
100
AcDbLine
 10
2.946
 20
2.564
 30
0.0
 11
2.918
 21
2.506
 31
0.0
  0
LINE
  5
160
330
18
100
AcDbEntity
  8
0
100
AcDbLine
 10
2.918
 20
2.506
 30
0.0
 11
2.909
 21
2.456
 31
0.0
  0
LINE
  5
161
330
18
100
AcDbEntity
  8
0
100
AcDbLine
 10
2.602
 20
3.44
 30
0.0
 11
2.627
 21
3.496
 31
0.0
  0
LINE
  5
162
330
18
100
AcDbEntity
  8
0
100
AcDbLine
 10
2.627
 20
3.496
 30
0.0
 11
2.628
 21
3.536
 31
0.0
  0
LINE
  5
163
330
18
100
AcDbEntity
  8
0
100
AcDbLine
 10
2.628
 20
3.536
 30
0.0
 11
2.617
 21
3.612
 31
0.0
  0
LINE
  5
164
330
18
100
AcDbEntity
  8
0
100
AcDbLine
 10
2.617
 20
3.612
 30
0.0
 11
2.61
 21
3.698
 31
0.0
  0
LINE
  5
165
330
18
100
AcDbEntity
  8
0
100
AcDbLine
 10
2.61
 20
3.698
 30
0.0
 11
2.633
 21
3.742
 31
0.0
  0
LINE
  5
166
330
18
100
AcDbEntity
  8
0
100
AcDbLine
 10
2.633
 20
3.742
 30
0.0
 11
2.652
 21
3.788
 31
0.0
  0
LINE
  5
167
330
18
100
AcDbEntity
  8
0
100
AcDbLine
 10
2.652
 20
3.788
 30
0.0
 11
2.657
 21
3.799
 31
0.0
  0
LINE
  5
168
330
18
100
AcDbEntity
  8
0
100
AcDbLine
 10
2.666
 20
3.416
 30
0.0
 11
2.695
 21
3.488
 31
0.0
  0
LINE
  5
169
330
18
100
AcDbEntity
  8
0
100
AcDbLine
 10
2.695
 20
3.488
 30
0.0
 11
2.702
 21
3.554
 31
0.0
  0
LINE
  5
16A
330
18
100
AcDbEntity
  8
0
100
AcDbLine
 10
2.702
 20
3.554
 30
0.0
 11
2.694
 21
3.619
 31
0.0
  0
LINE
  5
16B
330
18
100
AcDbEntity
  8
0
100
AcDbLine
 10
2.694
 20
3.619
 30
0.0
 11
2.711
 21
3.702
 31
0.0
  0
LINE
  5
16C
330
18
100
AcDbEntity
  8
0
100
AcDbLine
 10
2.711
 20
3.702
 30
0.0
 11
2.737
 21
3.764
 31
0.0
  0
LINE
  5
16D
330
18
100
AcDbEntity
  8
0
100
AcDbLine
 10
2.737
 20
3.764
 30
0.0
 11
2.738
 21
3.769
 31
0.0
  0
LINE
  5
16E
330
18
100
AcDbEntity
  8
0
100
AcDbLine
 10
2.773
 20
3.376
 30
0.0
 11
2.781
 21
3.451
 31
0.0
  0
LINE
  5
16F
330
18
100
AcDbEntity
  8
0
100
AcDbLine
 10
2.781
 20
3.451
 30
0.0
 11
2.772
 21
3.547
 31
0.0
  0
LINE
  5
170
330
18
100
AcDbEntity
  8
0
100
AcDbLine
 10
2.772
 20
3.547
 30
0.0
 11
2.779
 21
3.586
 31
0.0
  0
LINE
  5
171
330
18
100
AcDbEntity
  8
0
100
AcDbLine
 10
2.779
 20
3.586
 30
0.0
 11
2.804
 21
3.638
 31
0.0
  0
LINE
  5
172
330
18
100
AcDbEntity
  8
0
100
AcDbLine
 10
2.804
 20
3.638
 30
0.0
 11
2.821
 21
3.721
 31
0.0
  0
LINE
  5
173
330
18
100
AcDbEntity
  8
0
100
AcDbLine
 10
2.821
 20
3.721
 30
0.0
 11
2.826
 21
3.736
 31
0.0
  0
LINE
  5
174
330
18
100
AcDbEntity
  8
0
100
AcDbLine
 10
2.864
 20
3.343
 30
0.0
 11
2.887
 21
3.449
 31
0.0
  0
LINE
  5
175
330
18
100
AcDbEntity
  8
0
100
AcDbLine
 10
2.887
 20
3.449
 30
0.0
 11
2.891
 21
3.484
 31
0.0
  0
LINE
  5
176
330
18
100
AcDbEntity
  8
0
100
AcDbLine
 10
2.891
 20
3.484
 30
0.0
 11
2.888
 21
3.547
 31
0.0
  0
LINE
  5
177
330
18
100
AcDbEntity
  8
0
100
AcDbLine
 10
2.888
 20
3.547
 30
0.0
 11
2.897
 21
3.616
 31
0.0
  0
LINE
  5
178
330
18
100
AcDbEntity
  8
0
100
AcDbLine
 10
2.897
 20
3.616
 30
0.0
 11
2.911
 21
3.656
 31
0.0
  0
LINE
  5
179
330
18
100
AcDbEntity
  8
0
100
AcDbLine
 10
2.911
 20
3.656
 30
0.0
 11
2.92
 21
3.701
 31
0.0
  0
LINE
  5
17A
330
18
100
AcDbEntity
  8
0
100
AcDbLine
 10
2.507
 20
3.475
 30
0.0
 11
2.527
 21
3.571
 31
0.0
  0
LINE
  5
17B
330
18
100
AcDbEntity
  8
0
100
AcDbLine
 10
2.527
 20
3.571
 30
0.0
 11
2.533
 21
3.632
 31
0.0
  0
LINE
  5
17C
330
18
100
AcDbEntity
  8
0
100
AcDbLine
 10
2.533
 20
3.632
 30
0.0
 11
2.519
 21
3.702
 31
0.0
  0
LINE
  5
17D
330
18
100
AcDbEntity
  8
0
100
AcDbLine
 10
2.519
 20
3.702
 30
0.0
 11
2.505
 21
3.762
 31
0.0
  0
LINE
  5
17E
330
18
100
AcDbEntity
  8
0
100
AcDbLine
 10
2.505
 20
3.762
 30
0.0
 11
2.526
 21
3.818
 31
0.0
  0
LINE
  5
17F
330
18
100
AcDbEntity
  8
0
100
AcDbLine
 10
2.526
 20
3.818
 30
0.0
 11
2.542
 21
3.842
 31
0.0
  0
LINE
  5
180
330
18
100
AcDbEntity
  8
0
100
AcDbLine
 10
2.398
 20
3.516
 30
0.0
 11
2.429
 21
3.597
 31
0.0
  0
LINE
  5
181
330
18
100
AcDbEntity
  8
0
100
AcDbLine
 10
2.429
 20
3.597
 30
0.0
 11
2.437
 21
3.659
 31
0.0
  0
LINE
  5
182
330
18
100
AcDbEntity
  8
0
100
AcDbLine
 10
2.437
 20
3.659
 30
0.0
 11
2.419
 21
3.731
 31
0.0
  0
LINE
  5
183
330
18
100
AcDbEntity
  8
0
100
AcDbLine
 10
2.419
 20
3.731
 30
0.0
 11
2.432
 21
3.815
 31
0.0
  0
LINE
  5
184
330
18
100
AcDbEntity
  8
0
100
AcDbLine
 10
2.432
 20
3.815
 30
0.0
 11
2.45
 21
3.876
 31
0.0
  0
LINE
  5
185
330
18
100
AcDbEntity
  8
0
100
AcDbLine
 10
2.32
 20
3.545
 30
0.0
 11
2.361
 21
3.677
 31
0.0
  0
LINE
  5
186
330
18
100
AcDbEntity
  8
0
100
AcDbLine
 10
2.361
 20
3.677
 30
0.0
 11
2.34
 21
3.733
 31
0.0
  0
LINE
  5
187
330
18
100
AcDbEntity
  8
0
100
AcDbLine
 10
2.34
 20
3.733
 30
0.0
 11
2.333
 21
3.8
 31
0.0
  0
LINE
  5
188
330
18
100
AcDbEntity
  8
0
100
AcDbLine
 10
2.333
 20
3.8
 30
0.0
 11
2.339
 21
3.868
 31
0.0
  0
LINE
  5
189
330
18
100
AcDbEntity
  8
0
100
AcDbLine
 10
2.339
 20
3.868
 30
0.0
 11
2.353
 21
3.912
 31
0.0
  0
LINE
  5
18A
330
18
100
AcDbEntity
  8
0
100
AcDbLine
 10
0.8370000000000001
 20
0.509
 30
0.0
 11
0.8170000000000001
 21
0.356
 31
0.0
  0
LINE
  5
18B
330
18
100
AcDbEntity
  8
0
100
AcDbLine
 10
0.94
 20
0.484
 30
0.0
 11
0.92
 21
0.33
 31
0.0
  0
LINE
  5
18C
330
18
100
AcDbEntity
  8
0
100
AcDbLine
 10
1.061
 20
0.454
 30
0.0
 11
1.041
 21
0.3
 31
0.0
  0
LINE
  5
18D
330
18
100
AcDbEntity
  8
0
100
AcDbLine
 10
1.17
 20
0.4270000000000001
 30
0.0
 11
1.149
 21
0.273
 31
0.0
  0
LINE
  5
18E
330
18
100
AcDbEntity
  8
0
100
AcDbLine
 10
1.274
 20
0.401
 30
0.0
 11
1.253
 21
0.248
 31
0.0
  0
LINE
  5
18F
330
18
100
AcDbEntity
  8
0
100
AcDbLine
 10
1.378
 20
0.375
 30
0.0
 11
1.357
 21
0.222
 31
0.0
  0
LINE
  5
190
330
18
100
AcDbEntity
  8
0
100
AcDbLine
 10
1.483
 20
0.349
 30
0.0
 11
1.463
 21
0.196
 31
0.0
  0
LINE
  5
191
330
18
100
AcDbEntity
  8
0
100
AcDbLine
 10
0.6459999999999999
 20
0.519
 30
0.0
 11
0.627
 21
0.474
 31
0.0
  0
LINE
  5
192
330
18
100
AcDbEntity
  8
0
100
AcDbLine
 10
0.8370000000000001
 20
0.509
 30
0.0
 11
0.941
 21
0.536
 31
0.0
  0
LINE
  5
193
330
18
100
AcDbEntity
  8
0
100
AcDbLine
 10
0.941
 20
0.536
 30
0.0
 11
0.985
 21
0.535
 31
0.0
  0
LINE
  5
194
330
18
100
AcDbEntity
  8
0
100
AcDbLine
 10
0.985
 20
0.535
 30
0.0
 11
1.018
 21
0.547
 31
0.0
  0
LINE
  5
195
330
18
100
AcDbEntity
  8
0
100
AcDbLine
 10
1.018
 20
0.547
 30
0.0
 11
1.047
 21
0.5550000000000001
 31
0.0
  0
LINE
  5
196
330
18
100
AcDbEntity
  8
0
100
AcDbLine
 10
1.047
 20
0.5550000000000001
 30
0.0
 11
1.091
 21
0.579
 31
0.0
  0
LINE
  5
197
330
18
100
AcDbEntity
  8
0
100
AcDbLine
 10
1.091
 20
0.579
 30
0.0
 11
1.091
 21
0.579
 31
0.0
  0
LINE
  5
198
330
18
100
AcDbEntity
  8
0
100
AcDbLine
 10
0.94
 20
0.484
 30
0.0
 11
1.02
 21
0.489
 31
0.0
  0
LINE
  5
199
330
18
100
AcDbEntity
  8
0
100
AcDbLine
 10
1.02
 20
0.489
 30
0.0
 11
1.052
 21
0.494
 31
0.0
  0
LINE
  5
19A
330
18
100
AcDbEntity
  8
0
100
AcDbLine
 10
1.052
 20
0.494
 30
0.0
 11
1.079
 21
0.507
 31
0.0
  0
LINE
  5
19B
330
18
100
AcDbEntity
  8
0
100
AcDbLine
 10
1.079
 20
0.507
 30
0.0
 11
1.109
 21
0.53
 31
0.0
  0
LINE
  5
19C
330
18
100
AcDbEntity
  8
0
100
AcDbLine
 10
1.109
 20
0.53
 30
0.0
 11
1.148
 21
0.546
 31
0.0
  0
LINE
  5
19D
330
18
100
AcDbEntity
  8
0
100
AcDbLine
 10
1.148
 20
0.546
 30
0.0
 11
1.194
 21
0.5510000000000001
 31
0.0
  0
LINE
  5
19E
330
18
100
AcDbEntity
  8
0
100
AcDbLine
 10
1.194
 20
0.5510000000000001
 30
0.0
 11
1.198
 21
0.5529999999999999
 31
0.0
  0
LINE
  5
19F
330
18
100
AcDbEntity
  8
0
100
AcDbLine
 10
1.17
 20
0.4270000000000001
 30
0.0
 11
1.249
 21
0.441
 31
0.0
  0
LINE
  5
1A0
330
18
100
AcDbEntity
  8
0
100
AcDbLine
 10
1.249
 20
0.441
 30
0.0
 11
1.312
 21
0.467
 31
0.0
  0
LINE
  5
1A1
330
18
100
AcDbEntity
  8
0
100
AcDbLine
 10
1.312
 20
0.467
 30
0.0
 11
1.368
 21
0.477
 31
0.0
  0
LINE
  5
1A2
330
18
100
AcDbEntity
  8
0
100
AcDbLine
 10
1.368
 20
0.477
 30
0.0
 11
1.392
 21
0.491
 31
0.0
  0
LINE
  5
1A3
330
18
100
AcDbEntity
  8
0
100
AcDbLine
 10
1.392
 20
0.491
 30
0.0
 11
1.405
 21
0.501
 31
0.0
  0
LINE
  5
1A4
330
18
100
AcDbEntity
  8
0
100
AcDbLine
 10
1.061
 20
0.454
 30
0.0
 11
1.16
 21
0.476
 31
0.0
  0
LINE
  5
1A5
330
18
100
AcDbEntity
  8
0
100
AcDbLine
 10
1.16
 20
0.476
 30
0.0
 11
1.189
 21
0.481
 31
0.0
  0
LINE
  5
1A6
330
18
100
AcDbEntity
  8
0
100
AcDbLine
 10
1.189
 20
0.481
 30
0.0
 11
1.22
 21
0.505
 31
0.0
  0
LINE
  5
1A7
330
18
100
AcDbEntity
  8
0
100
AcDbLine
 10
1.22
 20
0.505
 30
0.0
 11
1.259
 21
0.521
 31
0.0
  0
LINE
  5
1A8
330
18
100
AcDbEntity
  8
0
100
AcDbLine
 10
1.259
 20
0.521
 30
0.0
 11
1.299
 21
0.528
 31
0.0
  0
LINE
  5
1A9
330
18
100
AcDbEntity
  8
0
100
AcDbLine
 10
1.274
 20
0.401
 30
0.0
 11
1.333
 21
0.417
 31
0.0
  0
LINE
  5
1AA
330
18
100
AcDbEntity
  8
0
100
AcDbLine
 10
1.333
 20
0.417
 30
0.0
 11
1.371
 21
0.419
 31
0.0
  0
LINE
  5
1AB
330
18
100
AcDbEntity
  8
0
100
AcDbLine
 10
1.371
 20
0.419
 30
0.0
 11
1.407
 21
0.428
 31
0.0
  0
LINE
  5
1AC
330
18
100
AcDbEntity
  8
0
100
AcDbLine
 10
1.407
 20
0.428
 30
0.0
 11
1.455
 21
0.45
 31
0.0
  0
LINE
  5
1AD
330
18
100
AcDbEntity
  8
0
100
AcDbLine
 10
1.455
 20
0.45
 30
0.0
 11
1.501
 21
0.473
 31
0.0
  0
LINE
  5
1AE
330
18
100
AcDbEntity
  8
0
100
AcDbLine
 10
1.501
 20
0.473
 30
0.0
 11
1.507
 21
0.476
 31
0.0
  0
LINE
  5
1AF
330
18
100
AcDbEntity
  8
0
100
AcDbLine
 10
1.378
 20
0.375
 30
0.0
 11
1.456
 21
0.393
 31
0.0
  0
LINE
  5
1B0
330
18
100
AcDbEntity
  8
0
100
AcDbLine
 10
1.456
 20
0.393
 30
0.0
 11
1.503
 21
0.411
 31
0.0
  0
LINE
  5
1B1
330
18
100
AcDbEntity
  8
0
100
AcDbLine
 10
1.503
 20
0.411
 30
0.0
 11
1.584
 21
0.424
 31
0.0
  0
LINE
  5
1B2
330
18
100
AcDbEntity
  8
0
100
AcDbLine
 10
1.584
 20
0.424
 30
0.0
 11
1.613
 21
0.428
 31
0.0
  0
LINE
  5
1B3
330
18
100
AcDbEntity
  8
0
100
AcDbLine
 10
1.613
 20
0.428
 30
0.0
 11
1.645
 21
0.4379999999999999
 31
0.0
  0
LINE
  5
1B4
330
18
100
AcDbEntity
  8
0
100
AcDbLine
 10
1.645
 20
0.4379999999999999
 30
0.0
 11
1.649
 21
0.441
 31
0.0
  0
LINE
  5
1B5
330
18
100
AcDbEntity
  8
0
100
AcDbLine
 10
1.483
 20
0.349
 30
0.0
 11
1.559
 21
0.368
 31
0.0
  0
LINE
  5
1B6
330
18
100
AcDbEntity
  8
0
100
AcDbLine
 10
1.559
 20
0.368
 30
0.0
 11
1.646
 21
0.381
 31
0.0
  0
LINE
  5
1B7
330
18
100
AcDbEntity
  8
0
100
AcDbLine
 10
1.646
 20
0.381
 30
0.0
 11
1.695
 21
0.39
 31
0.0
  0
LINE
  5
1B8
330
18
100
AcDbEntity
  8
0
100
AcDbLine
 10
1.695
 20
0.39
 30
0.0
 11
1.719
 21
0.402
 31
0.0
  0
LINE
  5
1B9
330
18
100
AcDbEntity
  8
0
100
AcDbLine
 10
1.719
 20
0.402
 30
0.0
 11
1.755
 21
0.415
 31
0.0
  0
LINE
  5
1BA
330
18
100
AcDbEntity
  8
0
100
AcDbLine
 10
0.9570000000000001
 20
0.238
 30
0.0
 11
1.007
 21
0.268
 31
0.0
  0
LINE
  5
1BB
330
18
100
AcDbEntity
  8
0
100
AcDbLine
 10
1.007
 20
0.268
 30
0.0
 11
1.057
 21
0.281
 31
0.0
  0
LINE
  5
1BC
330
18
100
AcDbEntity
  8
0
100
AcDbLine
 10
1.057
 20
0.281
 30
0.0
 11
1.08
 21
0.291
 31
0.0
  0
LINE
  5
1BD
330
18
100
AcDbEntity
  8
0
100
AcDbLine
 10
0.8590000000000001
 20
0.263
 30
0.0
 11
0.885
 21
0.282
 31
0.0
  0
LINE
  5
1BE
330
18
100
AcDbEntity
  8
0
100
AcDbLine
 10
0.885
 20
0.282
 30
0.0
 11
0.915
 21
0.292
 31
0.0
  0
LINE
  5
1BF
330
18
100
AcDbEntity
  8
0
100
AcDbLine
 10
0.915
 20
0.292
 30
0.0
 11
0.943
 21
0.293
 31
0.0
  0
LINE
  5
1C0
330
18
100
AcDbEntity
  8
0
100
AcDbLine
 10
0.943
 20
0.293
 30
0.0
 11
0.97
 21
0.318
 31
0.0
  0
LINE
  5
1C1
330
18
100
AcDbEntity
  8
0
100
AcDbLine
 10
0.759
 20
0.287
 30
0.0
 11
0.7759999999999999
 21
0.301
 31
0.0
  0
LINE
  5
1C2
330
18
100
AcDbEntity
  8
0
100
AcDbLine
 10
0.7759999999999999
 20
0.301
 30
0.0
 11
0.8079999999999999
 21
0.319
 31
0.0
  0
LINE
  5
1C3
330
18
100
AcDbEntity
  8
0
100
AcDbLine
 10
0.8079999999999999
 20
0.319
 30
0.0
 11
0.84
 21
0.32
 31
0.0
  0
LINE
  5
1C4
330
18
100
AcDbEntity
  8
0
100
AcDbLine
 10
0.84
 20
0.32
 30
0.0
 11
0.863
 21
0.344
 31
0.0
  0
LINE
  5
1C5
330
18
100
AcDbEntity
  8
0
100
AcDbLine
 10
0.667
 20
0.31
 30
0.0
 11
0.6940000000000001
 21
0.324
 31
0.0
  0
LINE
  5
1C6
330
18
100
AcDbEntity
  8
0
100
AcDbLine
 10
0.6940000000000001
 20
0.324
 30
0.0
 11
0.7340000000000001
 21
0.355
 31
0.0
  0
LINE
  5
1C7
330
18
100
AcDbEntity
  8
0
100
AcDbLine
 10
0.7340000000000001
 20
0.355
 30
0.0
 11
0.7609999999999999
 21
0.37
 31
0.0
  0
LINE
  5
1C8
330
18
100
AcDbEntity
  8
0
100
AcDbLine
 10
0.5660000000000001
 20
0.335
 30
0.0
 11
0.586
 21
0.345
 31
0.0
  0
LINE
  5
1C9
330
18
100
AcDbEntity
  8
0
100
AcDbLine
 10
0.586
 20
0.345
 30
0.0
 11
0.628
 21
0.364
 31
0.0
  0
LINE
  5
1CA
330
18
100
AcDbEntity
  8
0
100
AcDbLine
 10
0.628
 20
0.364
 30
0.0
 11
0.6709999999999999
 21
0.38
 31
0.0
  0
LINE
  5
1CB
330
18
100
AcDbEntity
  8
0
100
AcDbLine
 10
0.6709999999999999
 20
0.38
 30
0.0
 11
0.7070000000000001
 21
0.408
 31
0.0
  0
LINE
  5
1CC
330
18
100
AcDbEntity
  8
0
100
AcDbLine
 10
0.7070000000000001
 20
0.408
 30
0.0
 11
0.713
 21
0.411
 31
0.0
  0
LINE
  5
1CD
330
18
100
AcDbEntity
  8
0
100
AcDbLine
 10
0.462
 20
0.361
 30
0.0
 11
0.468
 21
0.364
 31
0.0
  0
LINE
  5
1CE
330
18
100
AcDbEntity
  8
0
100
AcDbLine
 10
0.468
 20
0.364
 30
0.0
 11
0.505
 21
0.379
 31
0.0
  0
LINE
  5
1CF
330
18
100
AcDbEntity
  8
0
100
AcDbLine
 10
0.505
 20
0.379
 30
0.0
 11
0.536
 21
0.388
 31
0.0
  0
LINE
  5
1D0
330
18
100
AcDbEntity
  8
0
100
AcDbLine
 10
0.536
 20
0.388
 30
0.0
 11
0.5720000000000001
 21
0.402
 31
0.0
  0
LINE
  5
1D1
330
18
100
AcDbEntity
  8
0
100
AcDbLine
 10
0.5720000000000001
 20
0.402
 30
0.0
 11
0.607
 21
0.422
 31
0.0
  0
LINE
  5
1D2
330
18
100
AcDbEntity
  8
0
100
AcDbLine
 10
0.607
 20
0.422
 30
0.0
 11
0.6609999999999999
 21
0.45
 31
0.0
  0
LINE
  5
1D3
330
18
100
AcDbEntity
  8
0
100
AcDbLine
 10
0.6609999999999999
 20
0.45
 30
0.0
 11
0.6850000000000001
 21
0.456
 31
0.0
  0
LINE
  5
1D4
330
18
100
AcDbEntity
  8
0
100
AcDbLine
 10
0.627
 20
0.474
 30
0.0
 11
0.578
 21
0.452
 31
0.0
  0
LINE
  5
1D5
330
18
100
AcDbEntity
  8
0
100
AcDbLine
 10
0.578
 20
0.452
 30
0.0
 11
0.545
 21
0.453
 31
0.0
  0
LINE
  5
1D6
330
18
100
AcDbEntity
  8
0
100
AcDbLine
 10
0.545
 20
0.453
 30
0.0
 11
0.502
 21
0.451
 31
0.0
  0
LINE
  5
1D7
330
18
100
AcDbEntity
  8
0
100
AcDbLine
 10
0.502
 20
0.451
 30
0.0
 11
0.455
 21
0.431
 31
0.0
  0
LINE
  5
1D8
330
18
100
AcDbEntity
  8
0
100
AcDbLine
 10
0.455
 20
0.431
 30
0.0
 11
0.419
 21
0.404
 31
0.0
  0
LINE
  5
1D9
330
18
100
AcDbEntity
  8
0
100
AcDbLine
 10
0.419
 20
0.404
 30
0.0
 11
0.379
 21
0.409
 31
0.0
  0
LINE
  5
1DA
330
18
100
AcDbEntity
  8
0
100
AcDbLine
 10
0.379
 20
0.409
 30
0.0
 11
0.346
 21
0.39
 31
0.0
  0
TEXT
  5
1DB
330
18
100
AcDbEntity
  8
0
100
AcDbText
 10
0.371
 20
-0.2
 30
0.0
 40
0.125
  1
EPC
100
AcDbText
  0
TEXT
  5
1DC
330
18
100
AcDbEntity
  8
0
100
AcDbText
 10
0.371
 20
-0.012
 30
0.0
 40
0.125
  1
Simpson Strong-Tie
100
AcDbText
  0
ENDSEC
  0
SECTION
  2
OBJECTS
  0
DICTIONARY
  5
C
330
0
100
AcDbDictionary
281
     1
  3
ACAD_COLOR
350
1E2
  3
ACAD_GROUP
350
D
  3
ACAD_LAYOUT
350
15
  3
ACAD_MATERIAL
350
1E4
  3
ACAD_MLINESTYLE
350
12
  3
ACAD_PLOTSETTINGS
350
14
  3
ACAD_PLOTSTYLENAME
350
E
  3
ACDBHEADERROUNDTRIPXREC
350
1E1
  0
DICTIONARY
  5
1E2
102
{ACAD_REACTORS
330
C
102
}
330
C
100
AcDbDictionary
281
     1
  0
DICTIONARY
  5
D
102
{ACAD_REACTORS
330
C
102
}
330
C
100
AcDbDictionary
281
     1
  0
DICTIONARY
  5
15
102
{ACAD_REACTORS
330
C
102
}
330
C
100
AcDbDictionary
281
     1
  3
Layout1
350
17
  3
Model
350
19
  0
DICTIONARY
  5
1E4
102
{ACAD_REACTORS
330
C
102
}
330
C
100
AcDbDictionary
281
     1
  0
DICTIONARY
  5
12
102
{ACAD_REACTORS
330
C
102
}
330
C
100
AcDbDictionary
281
     1
  3
Standard
350
13
  0
DICTIONARY
  5
14
102
{ACAD_REACTORS
330
C
102
}
330
C
100
AcDbDictionary
281
     1
  0
ACDBDICTIONARYWDFLT
  5
E
102
{ACAD_REACTORS
330
C
102
}
330
C
100
AcDbDictionary
281
     1
  3
Normal
350
F
100
AcDbDictionaryWithDefault
340
F
  0
DICTIONARY
  5
1E1
102
{ACAD_REACTORS
330
C
102
}
330
C
100
AcDbDictionary
281
     1
  3
COLORDICT
350
1E3
  3
MATERIALDICT
350
1E5
  0
LAYOUT
  5
17
102
{ACAD_REACTORS
330
15
102
}
102
{ACAD_XDICTIONARY
360
1E6
102
}
330
15
100
AcDbPlotSettings
  1

  2

  4

  6

 40
0.0
 41
0.0
 42
0.0
 43
0.0
 44
0.0
 45
0.0
 46
0.0
 47
0.0
 48
0.0
 49
0.0
140
0.0
141
0.0
142
1.0
143
1.0
 70
   688
 72
     0
 73
     0
 74
     5
  7

 75
    16
147
1.0
148
0.0
149
0.0
100
AcDbLayout
  1
Layout1
 70
     1
 71
     1
 10
0.0
 20
0.0
 11
12.0
 21
9.0
 12
0.0
 22
0.0
 32
0.0
 14
1.000000000000000E+20
 24
1.000000000000000E+20
 34
1.000000000000000E+20
 15
-1.000000000000000E+20
 25
-1.000000000000000E+20
 35
-1.000000000000000E+20
146
0.0
 13
0.0
 23
0.0
 33
0.0
 16
1.0
 26
0.0
 36
0.0
 17
0.0
 27
1.0
 37
0.0
 76
     0
330
16
  0
LAYOUT
  5
19
102
{ACAD_REACTORS
330
15
102
}
102
{ACAD_XDICTIONARY
360
1E8
102
}
330
15
100
AcDbPlotSettings
  1

  2

  4

  6

 40
0.0
 41
0.0
 42
0.0
 43
0.0
 44
0.0
 45
0.0
 46
0.0
 47
0.0
 48
0.0
 49
0.0
140
0.0
141
0.0
142
1.0
143
1.0
 70
  1712
 72
     0
 73
     0
 74
     0
  7

 75
     0
147
1.0
148
0.0
149
0.0
100
AcDbLayout
  1
Model
 70
     1
 71
     0
 10
0.0
 20
0.0
 11
0.0
 21
0.0
 12
0.0
 22
0.0
 32
0.0
 14
0.0
 24
0.0
 34
0.0
 15
0.0
 25
0.0
 35
0.0
146
0.0
 13
0.0
 23
0.0
 33
0.0
 16
1.0
 26
0.0
 36
0.0
 17
0.0
 27
1.0
 37
0.0
 76
     0
330
18
  0
MLINESTYLE
  5
13
102
{ACAD_REACTORS
330
12
102
}
330
12
100
AcDbMlineStyle
  2
Standard
 70
     0
  3

 62
   256
 51
90.0
 52
90.0
 71
     2
 49
0.5
 62
   256
  6
BYLAYER
 49
-0.5
 62
   256
  6
BYLAYER
  0
ACDBPLACEHOLDER
  5
F
102
{ACAD_REACTORS
330
E
102
}
330
E
  0
XRECORD
  5
1E3
102
{ACAD_REACTORS
330
1E1
102
}
330
1E1
100
AcDbXrecord
340
1E2
  0
XRECORD
  5
1E5
102
{ACAD_REACTORS
330
1E1
102
}
330
1E1
100
AcDbXrecord
340
1E4
  0
DICTIONARY
  5
1E6
330
17
100
AcDbDictionary
280
     1
281
     1
  3
ACAD_XREC_ROUNDTRIP
360
1E7
  0
DICTIONARY
  5
1E8
330
19
100
AcDbDictionary
280
     1
281
     1
  3
ACAD_XREC_ROUNDTRIP
360
1E9
  0
XRECORD
  5
1E7
102
{ACAD_REACTORS
330
1E6
102
}
330
1E6
100
AcDbXrecord
102
SHADEPLOT
 70
     0
102
SHADEPLOTRESLEVEL
 70
     0
102
SHADEPLOTCUSTOMDPI
 70
     0
  0
XRECORD
  5
1E9
102
{ACAD_REACTORS
330
1E8
102
}
330
1E8
100
AcDbXrecord
102
SHADEPLOT
 70
     0
102
SHADEPLOTRESLEVEL
 70
     0
102
SHADEPLOTCUSTOMDPI
 70
     0
  0
ENDSEC
  0
EOF
