  0
SECTION
  2
HEADER
  9
$ACADVER
  1
AC1015
  9
$ACADMAINTVER
 70
     6
  9
$DWGCODEPAGE
  3
ASCII
  9
$INSBASE
 10
0.0
 20
0.0
 30
0.0
  9
$EXTMIN
 10
0.172183
 20
1.581857
 30
0.0
  9
$EXTMAX
 10
7.966259333333329
 20
10.889029
 30
0.0
  9
$LIMMIN
 10
0.0
 20
0.0
  9
$LIMMAX
 10
12.0
 20
9.0
  9
$ORTHOMODE
 70
     1
  9
$REGENMODE
 70
     0
  9
$FILLMODE
 70
     1
  9
$QTEXTMODE
 70
     0
  9
$MIRRTEXT
 70
     1
  9
$LTSCALE
 40
1.0
  9
$ATTMODE
 70
     1
  9
$TEXTSIZE
 40
0.2
  9
$TRACEWID
 40
0.05
  9
$TEXTSTYLE
  7
STANDARD
  9
$CLAYER
  8
0
  9
$CELTYPE
  6
ByLayer
  9
$CECOLOR
 62
   256
  9
$CELTSCALE
 40
1.0
  9
$DISPSILH
 70
     0
  9
$DIMSCALE
 40
1.0
  9
$DIMASZ
 40
0.1
  9
$DIMEXO
 40
0.0625
  9
$DIMDLI
 40
0.38
  9
$DIMRND
 40
0.0
  9
$DIMDLE
 40
0.0
  9
$DIMEXE
 40
0.075
  9
$DIMTP
 40
0.0
  9
$DIMTM
 40
0.0
  9
$DIMTXT
 40
0.1
  9
$DIMCEN
 40
0.09
  9
$DIMTSZ
 40
0.0
  9
$DIMTOL
 70
     0
  9
$DIMLIM
 70
     0
  9
$DIMTIH
 70
     0
  9
$DIMTOH
 70
     0
  9
$DIMSE1
 70
     0
  9
$DIMSE2
 70
     0
  9
$DIMTAD
 70
     1
  9
$DIMZIN
 70
     0
  9
$DIMBLK
  1

  9
$DIMASO
 70
     0
  9
$DIMSHO
 70
     1
  9
$DIMPOST
  1

  9
$DIMAPOST
  1

  9
$DIMALT
 70
     0
  9
$DIMALTD
 70
     2
  9
$DIMALTF
 40
25.4
  9
$DIMLFAC
 40
1.0
  9
$DIMTOFL
 70
     0
  9
$DIMTVP
 40
0.0
  9
$DIMTIX
 70
     0
  9
$DIMSOXD
 70
     0
  9
$DIMSAH
 70
     0
  9
$DIMBLK1
  1

  9
$DIMBLK2
  1

  9
$DIMSTYLE
  2
Standard
  9
$DIMCLRD
 70
     0
  9
$DIMCLRE
 70
     0
  9
$DIMCLRT
 70
     0
  9
$DIMTFAC
 40
1.0
  9
$DIMGAP
 40
0.09
  9
$DIMJUST
 70
     0
  9
$DIMSD1
 70
     0
  9
$DIMSD2
 70
     0
  9
$DIMTOLJ
 70
     1
  9
$DIMTZIN
 70
     0
  9
$DIMALTZ
 70
     0
  9
$DIMALTTZ
 70
     0
  9
$DIMUPT
 70
     0
  9
$DIMDEC
 70
     4
  9
$DIMTDEC
 70
     4
  9
$DIMALTU
 70
     2
  9
$DIMALTTD
 70
     2
  9
$DIMTXSTY
  7
STANDARD
  9
$DIMAUNIT
 70
     0
  9
$DIMADEC
 70
     0
  9
$DIMALTRND
 40
0.0
  9
$DIMAZIN
 70
     0
  9
$DIMDSEP
 70
    46
  9
$DIMATFIT
 70
     3
  9
$DIMFRAC
 70
     0
  9
$DIMLDRBLK
  1

  9
$DIMLUNIT
 70
     2
  9
$DIMLWD
 70
    -2
  9
$DIMLWE
 70
    -2
  9
$DIMTMOVE
 70
     0
  9
$LUNITS
 70
     2
  9
$LUPREC
 70
     4
  9
$SKETCHINC
 40
0.1
  9
$FILLETRAD
 40
0.0
  9
$AUNITS
 70
     0
  9
$AUPREC
 70
     0
  9
$MENU
  1
acad
  9
$ELEVATION
 40
0.0
  9
$PELEVATION
 40
0.0
  9
$THICKNESS
 40
0.0
  9
$LIMCHECK
 70
     0
  9
$CHAMFERA
 40
0.0
  9
$CHAMFERB
 40
0.0
  9
$CHAMFERC
 40
1.0
  9
$CHAMFERD
 40
0.0
  9
$SKPOLY
 70
     0
  9
$TDCREATE
 40
2453955.561919074
  9
$TDUCREATE
 40
2453955.895252408
  9
$TDUPDATE
 40
2453955.603585752
  9
$TDUUPDATE
 40
2453955.895252419
  9
$TDINDWG
 40
0.0000000116
  9
$TDUSRTIMER
 40
0.0000000116
  9
$USRTIMER
 70
     1
  9
$ANGBASE
 50
0.0
  9
$ANGDIR
 70
     0
  9
$PDMODE
 70
     0
  9
$PDSIZE
 40
0.0
  9
$PLINEWID
 40
0.0
  9
$SPLFRAME
 70
     0
  9
$SPLINETYPE
 70
     6
  9
$SPLINESEGS
 70
     8
  9
$HANDSEED
  5
21E
  9
$SURFTAB1
 70
     6
  9
$SURFTAB2
 70
     6
  9
$SURFTYPE
 70
     6
  9
$SURFU
 70
     6
  9
$SURFV
 70
     6
  9
$UCSBASE
  2

  9
$UCSNAME
  2

  9
$UCSORG
 10
0.0
 20
0.0
 30
0.0
  9
$UCSXDIR
 10
1.0
 20
0.0
 30
0.0
  9
$UCSYDIR
 10
0.0
 20
1.0
 30
0.0
  9
$UCSORTHOREF
  2

  9
$UCSORTHOVIEW
 70
     0
  9
$UCSORGTOP
 10
0.0
 20
0.0
 30
0.0
  9
$UCSORGBOTTOM
 10
0.0
 20
0.0
 30
0.0
  9
$UCSORGLEFT
 10
0.0
 20
0.0
 30
0.0
  9
$UCSORGRIGHT
 10
0.0
 20
0.0
 30
0.0
  9
$UCSORGFRONT
 10
0.0
 20
0.0
 30
0.0
  9
$UCSORGBACK
 10
0.0
 20
0.0
 30
0.0
  9
$PUCSBASE
  2

  9
$PUCSNAME
  2

  9
$PUCSORG
 10
0.0
 20
0.0
 30
0.0
  9
$PUCSXDIR
 10
1.0
 20
0.0
 30
0.0
  9
$PUCSYDIR
 10
0.0
 20
1.0
 30
0.0
  9
$PUCSORTHOREF
  2

  9
$PUCSORTHOVIEW
 70
     0
  9
$PUCSORGTOP
 10
0.0
 20
0.0
 30
0.0
  9
$PUCSORGBOTTOM
 10
0.0
 20
0.0
 30
0.0
  9
$PUCSORGLEFT
 10
0.0
 20
0.0
 30
0.0
  9
$PUCSORGRIGHT
 10
0.0
 20
0.0
 30
0.0
  9
$PUCSORGFRONT
 10
0.0
 20
0.0
 30
0.0
  9
$PUCSORGBACK
 10
0.0
 20
0.0
 30
0.0
  9
$USERI1
 70
     0
  9
$USERI2
 70
     0
  9
$USERI3
 70
     0
  9
$USERI4
 70
     0
  9
$USERI5
 70
     0
  9
$USERR1
 40
0.0
  9
$USERR2
 40
0.0
  9
$USERR3
 40
0.0
  9
$USERR4
 40
0.0
  9
$USERR5
 40
0.0
  9
$WORLDVIEW
 70
     1
  9
$SHADEDGE
 70
     3
  9
$SHADEDIF
 70
    70
  9
$TILEMODE
 70
     1
  9
$MAXACTVP
 70
    16
  9
$PINSBASE
 10
0.0
 20
0.0
 30
0.0
  9
$PLIMCHECK
 70
     0
  9
$PEXTMIN
 10
1.000000000000000E+20
 20
1.000000000000000E+20
 30
1.000000000000000E+20
  9
$PEXTMAX
 10
-1.000000000000000E+20
 20
-1.000000000000000E+20
 30
-1.000000000000000E+20
  9
$PLIMMIN
 10
0.0
 20
0.0
  9
$PLIMMAX
 10
12.0
 20
9.0
  9
$UNITMODE
 70
     0
  9
$VISRETAIN
 70
     0
  9
$PLINEGEN
 70
     0
  9
$PSLTSCALE
 70
     1
  9
$TREEDEPTH
 70
  3020
  9
$CMLSTYLE
  2
Standard
  9
$CMLJUST
 70
     0
  9
$CMLSCALE
 40
1.0
  9
$PROXYGRAPHICS
 70
     1
  9
$MEASUREMENT
 70
     0
  9
$CELWEIGHT
370
    -1
  9
$ENDCAPS
280
     0
  9
$JOINSTYLE
280
     0
  9
$LWDISPLAY
290
     0
  9
$INSUNITS
 70
     1
  9
$HYPERLINKBASE
  1

  9
$STYLESHEET
  1

  9
$XEDIT
290
     1
  9
$CEPSNTYPE
380
     0
  9
$PSTYLEMODE
290
     0
  9
$FINGERPRINTGUID
  2
{FAEB1C30-E019-11D5-929B-00C0DF256EC4}
  9
$VERSIONGUID
  2
{FAEB1C32-E019-11D5-929B-00C0DF256EC4}
  9
$EXTNAMES
290
     1
  9
$PSVPSCALE
 40
0.0
  9
$OLESTARTUP
290
     0
  0
ENDSEC
  0
SECTION
  2
CLASSES
  0
CLASS
  1
ACDBDICTIONARYWDFLT
  2
AcDbDictionaryWithDefault
  3
AutoCAD 2000
 90
        0
280
     0
281
     0
  0
CLASS
  1
ACDBPLACEHOLDER
  2
AcDbPlaceHolder
  3
ObjectDBX Classes
 90
        0
280
     0
281
     0
  0
CLASS
  1
LAYOUT
  2
AcDbLayout
  3
ObjectDBX Classes
 90
        0
280
     0
281
     0
  0
ENDSEC
  0
SECTION
  2
TABLES
  0
TABLE
  2
VPORT
  5
8
330
0
100
AcDbSymbolTable
 70
     2
  0
VPORT
  5
1E
330
8
100
AcDbSymbolTableRecord
100
AcDbViewportTableRecord
  2
*ACTIVE
 70
     0
 10
0.0
 20
0.0
 11
1.0
 21
1.0
 12
7.553769512106539
 22
5.4445145
 13
0.0
 23
0.0
 14
1.0
 24
1.0
 15
0.0
 25
0.0
 16
0.0
 26
0.0
 36
1.0
 17
0.0
 27
0.0
 37
0.0
 40
10.889029
 41
0.7207678883071553
 42
50.0
 43
0.0
 44
0.0
 50
0.0
 51
0.0
 71
     0
 72
  2000
 73
     1
 74
     0
 75
     0
 76
     0
 77
     0
 78
     0
281
     0
 65
     1
110
0.0
120
0.0
130
0.0
111
1.0
121
0.0
131
0.0
112
0.0
122
1.0
132
0.0
 79
     0
146
0.0
  0
ENDTAB
  0
TABLE
  2
LTYPE
  5
5
330
0
100
AcDbSymbolTable
 70
     1
  0
LTYPE
  5
10
330
5
100
AcDbSymbolTableRecord
100
AcDbLinetypeTableRecord
  2
ByBlock
 70
     0
  3

 72
    65
 73
     0
 40
0.0
  0
LTYPE
  5
11
330
5
100
AcDbSymbolTableRecord
100
AcDbLinetypeTableRecord
  2
ByLayer
 70
     0
  3

 72
    65
 73
     0
 40
0.0
  0
LTYPE
  5
1B
330
5
100
AcDbSymbolTableRecord
100
AcDbLinetypeTableRecord
  2
CONTINUOUS
 70
     0
  3
Solid line
 72
    65
 73
     0
 40
0.0
  0
ENDTAB
  0
TABLE
  2
LAYER
  5
2
330
0
100
AcDbSymbolTable
 70
     1
  0
LAYER
  5
1C
330
2
100
AcDbSymbolTableRecord
100
AcDbLayerTableRecord
  2
0
 70
     0
 62
     7
  6
CONTINUOUS
370
    -3
390
F
  0
ENDTAB
  0
TABLE
  2
STYLE
  5
3
330
0
100
AcDbSymbolTable
 70
     1
  0
STYLE
  5
21
330
3
100
AcDbSymbolTableRecord
100
AcDbTextStyleTableRecord
  2
STANDARD
 70
     0
 40
0.0
 41
1.0
 50
0.0
 71
     0
 42
0.2
  3
ROMANS.SHX
  4

  0
ENDTAB
  0
TABLE
  2
VIEW
  5
6
330
0
100
AcDbSymbolTable
 70
     1
  0
VIEW
  5
20
330
6
100
AcDbSymbolTableRecord
100
AcDbViewTableRecord
  2
1
 70
     0
 40
8.987167
 10
10.446205
 20
4.507975
 41
12.259876
 11
0.0
 21
0.0
 31
1.0
 12
0.0
 22
0.0
 32
0.0
 42
50.0
 43
0.0
 44
0.0
 50
0.0
 71
     0
281
     0
 72
     0
  0
ENDTAB
  0
TABLE
  2
UCS
  5
7
330
0
100
AcDbSymbolTable
 70
     0
  0
ENDTAB
  0
TABLE
  2
APPID
  5
9
330
0
100
AcDbSymbolTable
 70
     1
  0
APPID
  5
1F
330
9
100
AcDbSymbolTableRecord
100
AcDbRegAppTableRecord
  2
ACAD
 70
     0
  0
ENDTAB
  0
TABLE
  2
DIMSTYLE
  5
A
330
0
100
AcDbSymbolTable
 70
     1
100
AcDbDimStyleTable
  0
DIMSTYLE
105
22
330
A
100
AcDbSymbolTableRecord
100
AcDbDimStyleTableRecord
  2
Standard
 70
     0
  3

  4

340
21
  0
ENDTAB
  0
TABLE
  2
BLOCK_RECORD
  5
1
330
0
100
AcDbSymbolTable
 70
     0
  0
BLOCK_RECORD
  5
18
330
1
100
AcDbSymbolTableRecord
100
AcDbBlockTableRecord
  2
*Model_Space
340
19
  0
BLOCK_RECORD
  5
16
330
1
100
AcDbSymbolTableRecord
100
AcDbBlockTableRecord
  2
*Paper_Space
340
17
  0
ENDTAB
  0
ENDSEC
  0
SECTION
  2
BLOCKS
  0
BLOCK
  5
213
330
18
100
AcDbEntity
  8
0
100
AcDbBlockBegin
  2
*Model_Space
 70
     0
 10
0.0
 20
0.0
 30
0.0
  3
*Model_Space
  1

  4

  0
ENDBLK
  5
214
330
18
100
AcDbEntity
  8
0
100
AcDbBlockEnd
  0
BLOCK
  5
211
330
16
100
AcDbEntity
 67
     1
  8
0
100
AcDbBlockBegin
  2
*Paper_Space
 70
     0
 10
0.0
 20
0.0
 30
0.0
  3
*Paper_Space
  1

  4

  0
ENDBLK
  5
212
330
16
100
AcDbEntity
 67
     1
  8
0
100
AcDbBlockEnd
  0
ENDSEC
  0
SECTION
  2
ENTITIES
  0
LINE
  5
23
330
18
100
AcDbEntity
  8
0
100
AcDbLine
 10
3.59258
 20
1.760927
 30
0.0
 11
3.588461
 21
10.889029
 31
0.0
  0
LINE
  5
24
330
18
100
AcDbEntity
  8
0
100
AcDbLine
 10
3.110038
 20
10.801639
 30
0.0
 11
3.110038
 21
10.183204
 31
0.0
  0
LINE
  5
25
330
18
100
AcDbEntity
  8
0
100
AcDbLine
 10
4.087612
 20
10.809473
 30
0.0
 11
4.087612
 21
1.934278
 31
0.0
  0
LINE
  5
26
330
18
100
AcDbEntity
  8
0
100
AcDbLine
 10
3.110038
 20
10.801639
 30
0.0
 11
3.588461
 21
10.889029
 31
0.0
  0
LINE
  5
27
330
18
100
AcDbEntity
  8
0
100
AcDbLine
 10
3.588461
 20
10.889029
 30
0.0
 11
4.087612
 21
10.809473
 31
0.0
  0
LINE
  5
28
330
18
100
AcDbEntity
  8
0
100
AcDbLine
 10
1.397411
 20
10.457483
 30
0.0
 11
3.422614
 21
10.133144
 31
0.0
  0
LINE
  5
29
330
18
100
AcDbEntity
  8
0
100
AcDbLine
 10
1.297901
 20
9.534628
 30
0.0
 11
3.422614
 21
9.294447999999999
 31
0.0
  0
LINE
  5
2A
330
18
100
AcDbEntity
  8
0
100
AcDbLine
 10
1.076039
 20
9.48446
 30
0.0
 11
3.229725
 21
9.253374000000001
 31
0.0
  0
LINE
  5
2B
330
18
100
AcDbEntity
  8
0
100
AcDbLine
 10
4.430909
 20
9.12449
 30
0.0
 11
4.632794000000001
 21
9.157648
 31
0.0
  0
LINE
  5
2C
330
18
100
AcDbEntity
  8
0
100
AcDbLine
 10
1.076039
 20
9.48446
 30
0.0
 11
1.297901
 21
9.534628
 31
0.0
  0
LINE
  5
2D
330
18
100
AcDbEntity
  8
0
100
AcDbLine
 10
1.297901
 20
9.534628
 30
0.0
 11
1.337568
 21
9.902505
 31
0.0
  0
LINE
  5
2E
330
18
100
AcDbEntity
  8
0
100
AcDbLine
 10
1.337568
 20
9.902505
 30
0.0
 11
1.265553
 21
9.95642
 31
0.0
  0
LINE
  5
2F
330
18
100
AcDbEntity
  8
0
100
AcDbLine
 10
1.265553
 20
9.95642
 30
0.0
 11
1.491319
 21
10.116545
 31
0.0
  0
LINE
  5
30
330
18
100
AcDbEntity
  8
0
100
AcDbLine
 10
1.491319
 20
10.116545
 30
0.0
 11
1.369175
 21
10.195625
 31
0.0
  0
LINE
  5
31
330
18
100
AcDbEntity
  8
0
100
AcDbLine
 10
1.369175
 20
10.195625
 30
0.0
 11
1.397411
 21
10.457483
 31
0.0
  0
LINE
  5
32
330
18
100
AcDbEntity
  8
0
100
AcDbLine
 10
1.397411
 20
10.457483
 30
0.0
 11
1.199174
 21
10.432159
 31
0.0
  0
LINE
  5
33
330
18
100
AcDbEntity
  8
0
100
AcDbLine
 10
1.199174
 20
10.432159
 30
0.0
 11
1.16244
 21
10.149442
 31
0.0
  0
LINE
  5
34
330
18
100
AcDbEntity
  8
0
100
AcDbLine
 10
1.16244
 20
10.149442
 30
0.0
 11
1.258453
 21
10.076362
 31
0.0
  0
LINE
  5
35
330
18
100
AcDbEntity
  8
0
100
AcDbLine
 10
1.258453
 20
10.076362
 30
0.0
 11
1.01669
 21
9.921222
 31
0.0
  0
LINE
  5
36
330
18
100
AcDbEntity
  8
0
100
AcDbLine
 10
1.01669
 20
9.921222
 30
0.0
 11
1.124701
 21
9.858988
 31
0.0
  0
LINE
  5
37
330
18
100
AcDbEntity
  8
0
100
AcDbLine
 10
1.124701
 20
9.858988
 30
0.0
 11
1.076039
 21
9.48446
 31
0.0
  0
LINE
  5
38
330
18
100
AcDbEntity
  8
0
100
AcDbLine
 10
1.337568
 20
9.902505
 30
0.0
 11
1.124701
 21
9.858988
 31
0.0
  0
LINE
  5
39
330
18
100
AcDbEntity
  8
0
100
AcDbLine
 10
1.01669
 20
9.921222
 30
0.0
 11
1.265553
 21
9.95642
 31
0.0
  0
LINE
  5
3A
330
18
100
AcDbEntity
  8
0
100
AcDbLine
 10
1.258453
 20
10.076362
 30
0.0
 11
1.491319
 21
10.116545
 31
0.0
  0
LINE
  5
3B
330
18
100
AcDbEntity
  8
0
100
AcDbLine
 10
1.16244
 20
10.149442
 30
0.0
 11
1.369175
 21
10.195625
 31
0.0
  0
LINE
  5
3C
330
18
100
AcDbEntity
  8
0
100
AcDbLine
 10
4.63722
 20
9.703667999999999
 30
0.0
 11
4.730333
 21
9.647522
 31
0.0
  0
LINE
  5
3D
330
18
100
AcDbEntity
  8
0
100
AcDbLine
 10
4.730333
 20
9.647522
 30
0.0
 11
4.542528
 21
9.513419000000001
 31
0.0
  0
LINE
  5
3E
330
18
100
AcDbEntity
  8
0
100
AcDbLine
 10
4.542528
 20
9.513419000000001
 30
0.0
 11
4.635347
 21
9.472564
 31
0.0
  0
LINE
  5
3F
330
18
100
AcDbEntity
  8
0
100
AcDbLine
 10
4.639123000000001
 20
9.938319
 30
0.0
 11
4.63722
 21
9.703667999999999
 31
0.0
  0
LINE
  5
40
330
18
100
AcDbEntity
  8
0
100
AcDbLine
 10
4.635347
 20
9.472564
 30
0.0
 11
4.632794000000001
 21
9.157648
 31
0.0
  0
LINE
  5
41
330
18
100
AcDbEntity
  8
0
100
AcDbLine
 10
4.087612
 20
9.161325
 30
0.0
 11
4.430909
 21
9.12449
 31
0.0
  0
LINE
  5
42
330
18
100
AcDbEntity
  8
0
100
AcDbLine
 10
4.087612
 20
10.026644
 30
0.0
 11
4.639123000000001
 21
9.938319
 31
0.0
  0
LINE
  5
43
330
18
100
AcDbEntity
  8
0
100
AcDbLine
 10
4.087612
 20
9.219275999999999
 30
0.0
 11
4.632794000000001
 21
9.157648
 31
0.0
  0
LINE
  5
44
330
18
100
AcDbEntity
  8
0
100
AcDbLine
 10
3.110038
 20
9.266216
 30
0.0
 11
3.110038
 21
8.051692999999998
 31
0.0
  0
LINE
  5
45
330
18
100
AcDbEntity
  8
0
100
AcDbLine
 10
3.229725
 20
9.253374000000001
 30
0.0
 11
3.422614
 21
9.294447999999999
 31
0.0
  0
LINE
  5
46
330
18
100
AcDbEntity
  8
0
100
AcDbLine
 10
3.422614
 20
9.294447999999999
 30
0.0
 11
3.422614
 21
9.359877000000001
 31
0.0
  0
LINE
  5
47
330
18
100
AcDbEntity
  8
0
100
AcDbLine
 10
3.479523
 20
10.058367
 30
0.0
 11
3.479523
 21
9.352959
 31
0.0
  0
LINE
  5
48
330
18
100
AcDbEntity
  8
0
100
AcDbLine
 10
3.266633
 20
9.378836999999999
 30
0.0
 11
3.479523
 21
9.352959
 31
0.0
  0
LINE
  5
49
330
18
100
AcDbEntity
  8
0
100
AcDbLine
 10
3.334880000000001
 20
10.080719
 30
0.0
 11
3.479523
 21
10.058367
 31
0.0
  0
LINE
  5
4A
330
18
100
AcDbEntity
  8
0
100
AcDbLine
 10
3.200684
 20
10.001657
 30
0.0
 11
3.200684
 21
9.453289
 31
0.0
  0
LINE
  5
4B
330
18
100
AcDbEntity
  8
0
100
AcDbLine
 10
3.242663
 20
10.001657
 30
0.0
 11
3.242663
 21
9.434900000000001
 31
0.0
  0
ARC
  5
4C
330
18
100
AcDbEntity
  8
0
100
AcDbCircle
 10
3.322663
 20
10.001657
 30
0.0
 40
0.08
100
AcDbArc
 50
81.21567500000001
 51
180.0
  0
ARC
  5
4D
330
18
100
AcDbEntity
  8
0
100
AcDbCircle
 10
3.285339
 20
9.999703
 30
0.0
 40
0.084678
100
AcDbArc
 50
82.837215
 51
178.677841
  0
LINE
  5
4E
330
18
100
AcDbEntity
  8
0
100
AcDbLine
 10
3.295897
 20
10.08372
 30
0.0
 11
3.334880000000001
 21
10.080719
 31
0.0
  0
ARC
  5
4F
330
18
100
AcDbEntity
  8
0
100
AcDbCircle
 10
3.302663
 20
9.434900000000001
 30
0.0
 40
0.06
100
AcDbArc
 50
180.0
 51
263.06935
  0
ARC
  5
50
330
18
100
AcDbEntity
  8
0
100
AcDbCircle
 10
3.275684
 20
9.453289
 30
0.0
 40
0.075
100
AcDbArc
 50
180.0
 51
263.06935
  0
LINE
  5
51
330
18
100
AcDbEntity
  8
0
100
AcDbLine
 10
4.087612
 20
9.279042000000001
 30
0.0
 11
4.190304
 21
9.26656
 31
0.0
  0
LINE
  5
52
330
18
100
AcDbEntity
  8
0
100
AcDbLine
 10
4.087612
 20
9.964400999999999
 30
0.0
 11
4.203973
 21
9.94642
 31
0.0
  0
LINE
  5
53
330
18
100
AcDbEntity
  8
0
100
AcDbLine
 10
4.246337000000001
 20
9.897005999999999
 30
0.0
 11
4.246337000000001
 21
9.316193999999999
 31
0.0
  0
ARC
  5
54
330
18
100
AcDbEntity
  8
0
100
AcDbCircle
 10
4.196337000000001
 20
9.897005999999999
 30
0.0
 40
0.05
100
AcDbArc
 50
0.0
 51
81.21567500000001
  0
ARC
  5
55
330
18
100
AcDbEntity
  8
0
100
AcDbCircle
 10
4.196337000000001
 20
9.316193999999999
 30
0.0
 40
0.05
100
AcDbArc
 50
263.06935
 51
0.0
  0
CIRCLE
  5
56
330
18
100
AcDbEntity
  8
0
100
AcDbCircle
 10
3.341048
 20
9.997966
 30
0.0
 40
0.02635
  0
CIRCLE
  5
57
330
18
100
AcDbEntity
  8
0
100
AcDbCircle
 10
3.341048
 20
9.449204
 30
0.0
 40
0.02635
  0
LINE
  5
58
330
18
100
AcDbEntity
  8
0
100
AcDbLine
 10
3.422614
 20
10.067161
 30
0.0
 11
3.422614
 21
10.133144
 31
0.0
  0
CIRCLE
  5
59
330
18
100
AcDbEntity
  8
0
100
AcDbCircle
 10
4.166087
 20
9.870475000000001
 30
0.0
 40
0.02635
  0
CIRCLE
  5
5A
330
18
100
AcDbEntity
  8
0
100
AcDbCircle
 10
4.166087
 20
9.349703
 30
0.0
 40
0.02635
  0
LINE
  5
5B
330
18
100
AcDbEntity
  8
0
100
AcDbLine
 10
3.200684
 20
7.887101
 30
0.0
 11
3.200684
 21
7.302822999999999
 31
0.0
  0
LINE
  5
5C
330
18
100
AcDbEntity
  8
0
100
AcDbLine
 10
3.242663
 20
7.902844
 30
0.0
 11
3.242663
 21
7.284433
 31
0.0
  0
CIRCLE
  5
5D
330
18
100
AcDbEntity
  8
0
100
AcDbCircle
 10
3.341048
 20
7.298736999999999
 30
0.0
 40
0.02635
  0
ARC
  5
5E
330
18
100
AcDbEntity
  8
0
100
AcDbCircle
 10
3.289621
 20
7.314367
 30
0.0
 40
0.089684
100
AcDbArc
 50
187.395845
 51
273.709076
  0
ARC
  5
5F
330
18
100
AcDbEntity
  8
0
100
AcDbCircle
 10
3.302663
 20
7.284433
 30
0.0
 40
0.06
100
AcDbArc
 50
180.0
 51
263.06935
  0
CIRCLE
  5
60
330
18
100
AcDbEntity
  8
0
100
AcDbCircle
 10
3.341048
 20
7.899761
 30
0.0
 40
0.02635
  0
LINE
  5
61
330
18
100
AcDbEntity
  8
0
100
AcDbLine
 10
4.246337000000001
 20
7.906599000000001
 30
0.0
 11
4.246337000000001
 21
7.285477
 31
0.0
  0
CIRCLE
  5
62
330
18
100
AcDbEntity
  8
0
100
AcDbCircle
 10
4.166087
 20
7.289053
 30
0.0
 40
0.02635
  0
CIRCLE
  5
63
330
18
100
AcDbEntity
  8
0
100
AcDbCircle
 10
4.166087
 20
7.844786999999999
 30
0.0
 40
0.02635
  0
LINE
  5
64
330
18
100
AcDbEntity
  8
0
100
AcDbLine
 10
3.468253
 20
7.978503999999999
 30
0.0
 11
3.468253
 21
7.226905
 31
0.0
  0
LINE
  5
65
330
18
100
AcDbEntity
  8
0
100
AcDbLine
 10
0.9728760000000001
 20
7.106486
 30
0.0
 11
3.422614
 21
7.135314
 31
0.0
  0
LINE
  5
66
330
18
100
AcDbEntity
  8
0
100
AcDbLine
 10
4.628518
 20
7.149505
 30
0.0
 11
4.627481
 21
7.474528
 31
0.0
  0
LINE
  5
67
330
18
100
AcDbEntity
  8
0
100
AcDbLine
 10
4.625784
 20
8.006136
 30
0.0
 11
4.087612
 21
8.022311
 31
0.0
  0
LINE
  5
68
330
18
100
AcDbEntity
  8
0
100
AcDbLine
 10
1.101204
 20
8.112069
 30
0.0
 11
1.063561
 21
7.817097
 31
0.0
  0
LINE
  5
69
330
18
100
AcDbEntity
  8
0
100
AcDbLine
 10
0.9728760000000001
 20
7.106486
 30
0.0
 11
0.7552180000000001
 21
7.102206
 31
0.0
  0
LINE
  5
6A
330
18
100
AcDbEntity
  8
0
100
AcDbLine
 10
0.7552180000000001
 20
7.102206
 30
0.0
 11
0.807555
 21
7.494944
 31
0.0
  0
LINE
  5
6B
330
18
100
AcDbEntity
  8
0
100
AcDbLine
 10
0.8883049999999999
 20
8.100892
 30
0.0
 11
1.101204
 21
8.112069
 31
0.0
  0
LINE
  5
6C
330
18
100
AcDbEntity
  8
0
100
AcDbLine
 10
1.063561
 20
7.817097
 30
0.0
 11
1.161494
 21
7.743278999999999
 31
0.0
  0
LINE
  5
6D
330
18
100
AcDbEntity
  8
0
100
AcDbLine
 10
1.161494
 20
7.743278999999999
 30
0.0
 11
0.9407190000000001
 21
7.591155000000001
 31
0.0
  0
LINE
  5
6E
330
18
100
AcDbEntity
  8
0
100
AcDbLine
 10
0.9407190000000001
 20
7.591155000000001
 30
0.0
 11
1.024105
 21
7.507913
 31
0.0
  0
LINE
  5
6F
330
18
100
AcDbEntity
  8
0
100
AcDbLine
 10
0.8523700000000001
 20
7.831232000000001
 30
0.0
 11
0.933591
 21
7.745083
 31
0.0
  0
LINE
  5
70
330
18
100
AcDbEntity
  8
0
100
AcDbLine
 10
0.933591
 20
7.745083
 30
0.0
 11
0.703819
 21
7.593951
 31
0.0
  0
LINE
  5
71
330
18
100
AcDbEntity
  8
0
100
AcDbLine
 10
0.8523700000000001
 20
7.831232000000001
 30
0.0
 11
0.8883049999999999
 21
8.100892
 31
0.0
  0
LINE
  5
72
330
18
100
AcDbEntity
  8
0
100
AcDbLine
 10
1.024105
 20
7.507913
 30
0.0
 11
0.9728760000000001
 21
7.106486
 31
0.0
  0
LINE
  5
73
330
18
100
AcDbEntity
  8
0
100
AcDbLine
 10
0.8523700000000001
 20
7.831232000000001
 30
0.0
 11
1.063561
 21
7.817097
 31
0.0
  0
LINE
  5
74
330
18
100
AcDbEntity
  8
0
100
AcDbLine
 10
0.933591
 20
7.745083
 30
0.0
 11
1.161494
 21
7.743278999999999
 31
0.0
  0
LINE
  5
75
330
18
100
AcDbEntity
  8
0
100
AcDbLine
 10
0.703819
 20
7.593951
 30
0.0
 11
0.9407190000000001
 21
7.591155000000001
 31
0.0
  0
LINE
  5
76
330
18
100
AcDbEntity
  8
0
100
AcDbLine
 10
0.703819
 20
7.593951
 30
0.0
 11
0.807555
 21
7.494944
 31
0.0
  0
LINE
  5
77
330
18
100
AcDbEntity
  8
0
100
AcDbLine
 10
0.807555
 20
7.494944
 30
0.0
 11
1.024105
 21
7.507913
 31
0.0
  0
LINE
  5
78
330
18
100
AcDbEntity
  8
0
100
AcDbLine
 10
3.422614
 20
8.042297999999999
 30
0.0
 11
3.422614
 21
7.979875999999999
 31
0.0
  0
LINE
  5
79
330
18
100
AcDbEntity
  8
0
100
AcDbLine
 10
3.422614
 20
8.042297999999999
 30
0.0
 11
1.101204
 21
8.112069
 31
0.0
  0
LINE
  5
7A
330
18
100
AcDbEntity
  8
0
100
AcDbLine
 10
4.087612
 20
7.14314
 30
0.0
 11
4.628518
 21
7.149505
 31
0.0
  0
LINE
  5
7B
330
18
100
AcDbEntity
  8
0
100
AcDbLine
 10
3.422614
 20
7.226367999999999
 30
0.0
 11
3.422614
 21
7.135314
 31
0.0
  0
LINE
  5
7C
330
18
100
AcDbEntity
  8
0
100
AcDbLine
 10
3.110038
 20
7.131636
 30
0.0
 11
3.110038
 21
5.952223
 31
0.0
  0
LINE
  5
7D
330
18
100
AcDbEntity
  8
0
100
AcDbLine
 10
4.62673
 20
7.709814
 30
0.0
 11
4.553128
 21
7.642230000000001
 31
0.0
  0
LINE
  5
7E
330
18
100
AcDbEntity
  8
0
100
AcDbLine
 10
4.553128
 20
7.642230000000001
 30
0.0
 11
4.714139
 21
7.548408
 31
0.0
  0
LINE
  5
7F
330
18
100
AcDbEntity
  8
0
100
AcDbLine
 10
4.714139
 20
7.548408
 30
0.0
 11
4.627481
 21
7.474528
 31
0.0
  0
LINE
  5
80
330
18
100
AcDbEntity
  8
0
100
AcDbLine
 10
4.62673
 20
7.709814
 30
0.0
 11
4.625784
 21
8.006136
 31
0.0
  0
LINE
  5
81
330
18
100
AcDbEntity
  8
0
100
AcDbLine
 10
3.285927
 20
7.224760000000001
 30
0.0
 11
3.468253
 21
7.226905
 31
0.0
  0
LINE
  5
82
330
18
100
AcDbEntity
  8
0
100
AcDbLine
 10
4.087612
 20
7.234194000000001
 30
0.0
 11
4.196926
 21
7.23548
 31
0.0
  0
ARC
  5
83
330
18
100
AcDbEntity
  8
0
100
AcDbCircle
 10
4.196337000000001
 20
7.285477
 30
0.0
 40
0.05
100
AcDbArc
 50
270.674223
 51
0.0
  0
LINE
  5
84
330
18
100
AcDbEntity
  8
0
100
AcDbLine
 10
4.19784
 20
7.956575999999999
 30
0.0
 11
4.087612
 21
7.959889
 31
0.0
  0
LINE
  5
85
330
18
100
AcDbEntity
  8
0
100
AcDbLine
 10
3.468253
 20
7.978503999999999
 30
0.0
 11
3.326349
 21
7.982769
 31
0.0
  0
ARC
  5
86
330
18
100
AcDbEntity
  8
0
100
AcDbCircle
 10
4.196337000000001
 20
7.906599000000001
 30
0.0
 40
0.05
100
AcDbArc
 50
0.0
 51
88.27845699999999
  0
LINE
  5
87
330
18
100
AcDbEntity
  8
0
100
AcDbLine
 10
0.6513640000000001
 20
4.650167
 30
0.0
 11
3.422614
 21
5.051267
 31
0.0
  0
LINE
  5
88
330
18
100
AcDbEntity
  8
0
100
AcDbLine
 10
0.785428
 20
5.675843
 30
0.0
 11
3.422614
 21
5.919423999999999
 31
0.0
  0
LINE
  5
89
330
18
100
AcDbEntity
  8
0
100
AcDbLine
 10
0.59847
 20
5.719664
 30
0.0
 11
3.183774
 21
5.959051000000001
 31
0.0
  0
LINE
  5
8A
330
18
100
AcDbEntity
  8
0
100
AcDbLine
 10
4.466506
 20
6.077826
 30
0.0
 11
4.630475
 21
6.030986
 31
0.0
  0
LINE
  5
8B
330
18
100
AcDbEntity
  8
0
100
AcDbLine
 10
0.59847
 20
5.719664
 30
0.0
 11
0.554071
 21
5.423369999999999
 31
0.0
  0
LINE
  5
8C
330
18
100
AcDbEntity
  8
0
100
AcDbLine
 10
0.443424
 20
4.684974
 30
0.0
 11
0.6513640000000001
 21
4.650167
 31
0.0
  0
LINE
  5
8D
330
18
100
AcDbEntity
  8
0
100
AcDbLine
 10
0.6513640000000001
 20
4.650167
 30
0.0
 11
0.703438
 21
5.048565
 31
0.0
  0
LINE
  5
8E
330
18
100
AcDbEntity
  8
0
100
AcDbLine
 10
0.785428
 20
5.675843
 30
0.0
 11
0.59847
 21
5.719664
 31
0.0
  0
LINE
  5
8F
330
18
100
AcDbEntity
  8
0
100
AcDbLine
 10
4.630475
 20
6.030986
 30
0.0
 11
4.631067
 21
5.749262
 31
0.0
  0
LINE
  5
90
330
18
100
AcDbEntity
  8
0
100
AcDbLine
 10
0.703438
 20
5.048565
 30
0.0
 11
0.612955
 21
5.146922
 31
0.0
  0
LINE
  5
91
330
18
100
AcDbEntity
  8
0
100
AcDbLine
 10
0.612955
 20
5.146922
 30
0.0
 11
0.8427120000000001
 21
5.316046
 31
0.0
  0
LINE
  5
92
330
18
100
AcDbEntity
  8
0
100
AcDbLine
 10
0.8427120000000001
 20
5.316046
 30
0.0
 11
0.747728
 21
5.387412
 31
0.0
  0
LINE
  5
93
330
18
100
AcDbEntity
  8
0
100
AcDbLine
 10
0.554071
 20
5.423369999999999
 30
0.0
 11
0.624776
 21
5.349844999999999
 31
0.0
  0
LINE
  5
94
330
18
100
AcDbEntity
  8
0
100
AcDbLine
 10
0.624776
 20
5.349844999999999
 30
0.0
 11
0.394016
 21
5.185717
 31
0.0
  0
LINE
  5
95
330
18
100
AcDbEntity
  8
0
100
AcDbLine
 10
0.394016
 20
5.185717
 30
0.0
 11
0.5024069999999999
 21
5.078594
 31
0.0
  0
LINE
  5
96
330
18
100
AcDbEntity
  8
0
100
AcDbLine
 10
0.5024069999999999
 20
5.078594
 30
0.0
 11
0.443424
 21
4.684974
 31
0.0
  0
LINE
  5
97
330
18
100
AcDbEntity
  8
0
100
AcDbLine
 10
0.747728
 20
5.387412
 30
0.0
 11
0.785428
 21
5.675843
 31
0.0
  0
LINE
  5
98
330
18
100
AcDbEntity
  8
0
100
AcDbLine
 10
0.554071
 20
5.423369999999999
 30
0.0
 11
0.747728
 21
5.387412
 31
0.0
  0
LINE
  5
99
330
18
100
AcDbEntity
  8
0
100
AcDbLine
 10
0.624776
 20
5.349844999999999
 30
0.0
 11
0.8427120000000001
 21
5.316046
 31
0.0
  0
LINE
  5
9A
330
18
100
AcDbEntity
  8
0
100
AcDbLine
 10
0.394016
 20
5.185717
 30
0.0
 11
0.612955
 21
5.146922
 31
0.0
  0
LINE
  5
9B
330
18
100
AcDbEntity
  8
0
100
AcDbLine
 10
0.5024069999999999
 20
5.078594
 30
0.0
 11
0.703438
 21
5.048565
 31
0.0
  0
LINE
  5
9C
330
18
100
AcDbEntity
  8
0
100
AcDbLine
 10
3.468253
 20
5.847329
 30
0.0
 11
3.468253
 21
5.102384
 31
0.0
  0
LINE
  5
9D
330
18
100
AcDbEntity
  8
0
100
AcDbLine
 10
3.200684
 20
5.734354
 30
0.0
 11
3.200684
 21
5.15532
 31
0.0
  0
LINE
  5
9E
330
18
100
AcDbEntity
  8
0
100
AcDbLine
 10
3.242663
 20
5.753542
 30
0.0
 11
3.242663
 21
5.13693
 31
0.0
  0
CIRCLE
  5
9F
330
18
100
AcDbEntity
  8
0
100
AcDbCircle
 10
3.341048
 20
5.151235
 30
0.0
 40
0.02635
  0
ARC
  5
A0
330
18
100
AcDbEntity
  8
0
100
AcDbCircle
 10
3.289621
 20
5.166865000000001
 30
0.0
 40
0.089684
100
AcDbArc
 50
187.395845
 51
273.709076
  0
ARC
  5
A1
330
18
100
AcDbEntity
  8
0
100
AcDbCircle
 10
3.302663
 20
5.13693
 30
0.0
 40
0.06
100
AcDbArc
 50
180.0
 51
263.06935
  0
CIRCLE
  5
A2
330
18
100
AcDbEntity
  8
0
100
AcDbCircle
 10
3.341048
 20
5.752258
 30
0.0
 40
0.02635
  0
LINE
  5
A3
330
18
100
AcDbEntity
  8
0
100
AcDbLine
 10
4.246337000000001
 20
5.864365
 30
0.0
 11
4.246337000000001
 21
5.258285
 31
0.0
  0
CIRCLE
  5
A4
330
18
100
AcDbEntity
  8
0
100
AcDbCircle
 10
4.166087
 20
5.250905
 30
0.0
 40
0.02635
  0
CIRCLE
  5
A5
330
18
100
AcDbEntity
  8
0
100
AcDbCircle
 10
4.166087
 20
5.806639
 30
0.0
 40
0.02635
  0
LINE
  5
A6
330
18
100
AcDbEntity
  8
0
100
AcDbLine
 10
3.295423
 20
5.077369
 30
0.0
 11
3.468253
 21
5.102384
 31
0.0
  0
ARC
  5
A7
330
18
100
AcDbEntity
  8
0
100
AcDbCircle
 10
4.196337000000001
 20
5.258285
 30
0.0
 40
0.05
100
AcDbArc
 50
278.235574
 51
0.0
  0
LINE
  5
A8
330
18
100
AcDbEntity
  8
0
100
AcDbLine
 10
3.311463
 20
5.832848
 30
0.0
 11
3.468253
 21
5.847329
 31
0.0
  0
ARC
  5
A9
330
18
100
AcDbEntity
  8
0
100
AcDbCircle
 10
3.322663
 20
5.753542
 30
0.0
 40
0.08
100
AcDbArc
 50
95.27708800000001
 51
180.0
  0
ARC
  5
AA
330
18
100
AcDbEntity
  8
0
100
AcDbCircle
 10
3.302785
 20
5.731062000000001
 30
0.0
 40
0.102155
100
AcDbArc
 50
94.75363700000001
 51
178.153437
  0
ARC
  5
AB
330
18
100
AcDbEntity
  8
0
100
AcDbCircle
 10
4.196337000000001
 20
5.864365
 30
0.0
 40
0.05
100
AcDbArc
 50
0.0
 51
95.27708800000001
  0
LINE
  5
AC
330
18
100
AcDbEntity
  8
0
100
AcDbLine
 10
4.087612
 20
5.904536
 30
0.0
 11
4.191739
 21
5.914153
 31
0.0
  0
LINE
  5
AD
330
18
100
AcDbEntity
  8
0
100
AcDbLine
 10
4.087612
 20
5.192027
 30
0.0
 11
4.2035
 21
5.2088
 31
0.0
  0
LINE
  5
AE
330
18
100
AcDbEntity
  8
0
100
AcDbLine
 10
3.468253
 20
5.847329
 30
0.0
 11
3.294319
 21
5.832865
 31
0.0
  0
ARC
  5
AF
330
18
100
AcDbEntity
  8
0
100
AcDbCircle
 10
3.322663
 20
7.902844
 30
0.0
 40
0.08
100
AcDbArc
 50
88.27845699999999
 51
180.0
  0
ARC
  5
B0
330
18
100
AcDbEntity
  8
0
100
AcDbCircle
 10
3.303291
 20
7.882689
 30
0.0
 40
0.102702
100
AcDbArc
 50
87.577556
 51
177.537901
  0
LINE
  5
B1
330
18
100
AcDbEntity
  8
0
100
AcDbLine
 10
3.468253
 20
7.978503999999999
 30
0.0
 11
3.307632
 21
7.985299
 31
0.0
  0
LINE
  5
B2
330
18
100
AcDbEntity
  8
0
100
AcDbLine
 10
3.422614
 20
5.919423999999999
 30
0.0
 11
3.422614
 21
5.843534
 31
0.0
  0
LINE
  5
B3
330
18
100
AcDbEntity
  8
0
100
AcDbLine
 10
4.087612
 20
6.042742
 30
0.0
 11
4.466506
 21
6.077826
 31
0.0
  0
LINE
  5
B4
330
18
100
AcDbEntity
  8
0
100
AcDbLine
 10
4.087612
 20
5.147516
 30
0.0
 11
4.632164
 21
5.226333
 31
0.0
  0
LINE
  5
B5
330
18
100
AcDbEntity
  8
0
100
AcDbLine
 10
3.422614
 20
5.095778
 30
0.0
 11
3.422614
 21
5.051267
 31
0.0
  0
LINE
  5
B6
330
18
100
AcDbEntity
  8
0
100
AcDbLine
 10
3.183774
 20
5.959051000000001
 30
0.0
 11
3.422614
 21
5.919423999999999
 31
0.0
  0
LINE
  5
B7
330
18
100
AcDbEntity
  8
0
100
AcDbLine
 10
3.110038
 20
5.006026
 30
0.0
 11
3.110038
 21
3.895299
 31
0.0
  0
LINE
  5
B8
330
18
100
AcDbEntity
  8
0
100
AcDbLine
 10
4.087612
 20
5.980845
 30
0.0
 11
4.630475
 21
6.030986
 31
0.0
  0
LINE
  5
B9
330
18
100
AcDbEntity
  8
0
100
AcDbLine
 10
3.468253
 20
3.803403
 30
0.0
 11
3.468253
 21
3.103198
 31
0.0
  0
LINE
  5
BA
330
18
100
AcDbEntity
  8
0
100
AcDbLine
 10
3.200684
 20
3.700759
 30
0.0
 11
3.200684
 21
3.1352
 31
0.0
  0
LINE
  5
BB
330
18
100
AcDbEntity
  8
0
100
AcDbLine
 10
3.242663
 20
3.690694
 30
0.0
 11
3.242663
 21
3.11681
 31
0.0
  0
CIRCLE
  5
BC
330
18
100
AcDbEntity
  8
0
100
AcDbCircle
 10
3.341048
 20
3.122121
 30
0.0
 40
0.02635
  0
ARC
  5
BD
330
18
100
AcDbEntity
  8
0
100
AcDbCircle
 10
3.289621
 20
3.146744
 30
0.0
 40
0.089684
100
AcDbArc
 50
187.395845
 51
273.709076
  0
ARC
  5
BE
330
18
100
AcDbEntity
  8
0
100
AcDbCircle
 10
3.302663
 20
3.11681
 30
0.0
 40
0.06
100
AcDbArc
 50
180.0
 51
263.06935
  0
LINE
  5
BF
330
18
100
AcDbEntity
  8
0
100
AcDbLine
 10
3.422614
 20
3.857653
 30
0.0
 11
3.422614
 21
3.804536
 31
0.0
  0
CIRCLE
  5
C0
330
18
100
AcDbEntity
  8
0
100
AcDbCircle
 10
3.341048
 20
3.659888
 30
0.0
 40
0.02635
  0
LINE
  5
C1
330
18
100
AcDbEntity
  8
0
100
AcDbLine
 10
4.246337000000001
 20
3.906937
 30
0.0
 11
4.246337000000001
 21
3.348508
 31
0.0
  0
CIRCLE
  5
C2
330
18
100
AcDbEntity
  8
0
100
AcDbCircle
 10
4.166087
 20
3.340733
 30
0.0
 40
0.02635
  0
CIRCLE
  5
C3
330
18
100
AcDbEntity
  8
0
100
AcDbCircle
 10
4.166087
 20
3.8225
 30
0.0
 40
0.02635
  0
LINE
  5
C4
330
18
100
AcDbEntity
  8
0
100
AcDbLine
 10
0.322068
 20
2.1866
 30
0.0
 11
3.422614
 21
3.01093
 31
0.0
  0
LINE
  5
C5
330
18
100
AcDbEntity
  8
0
100
AcDbLine
 10
4.630789
 20
3.332143
 30
0.0
 11
4.627518
 21
3.550779
 31
0.0
  0
LINE
  5
C6
330
18
100
AcDbEntity
  8
0
100
AcDbLine
 10
0.45167
 20
3.226606
 30
0.0
 11
3.422614
 21
3.857653
 31
0.0
  0
LINE
  5
C7
330
18
100
AcDbEntity
  8
0
100
AcDbLine
 10
0.269685
 20
3.300419
 30
0.0
 11
3.208432
 21
3.915906
 31
0.0
  0
LINE
  5
C8
330
18
100
AcDbEntity
  8
0
100
AcDbLine
 10
4.410167
 20
4.167596
 30
0.0
 11
4.619125
 21
4.111799
 31
0.0
  0
LINE
  5
C9
330
18
100
AcDbEntity
  8
0
100
AcDbLine
 10
0.45167
 20
3.226606
 30
0.0
 11
0.411351
 21
2.903062
 31
0.0
  0
LINE
  5
CA
330
18
100
AcDbEntity
  8
0
100
AcDbLine
 10
0.45167
 20
3.226606
 30
0.0
 11
0.269685
 21
3.300419
 31
0.0
  0
LINE
  5
CB
330
18
100
AcDbEntity
  8
0
100
AcDbLine
 10
0.269685
 20
3.300419
 30
0.0
 11
0.229366
 21
2.976874
 31
0.0
  0
LINE
  5
CC
330
18
100
AcDbEntity
  8
0
100
AcDbLine
 10
0.411351
 20
2.903062
 30
0.0
 11
0.493976
 21
2.848805
 31
0.0
  0
LINE
  5
CD
330
18
100
AcDbEntity
  8
0
100
AcDbLine
 10
0.493976
 20
2.848805
 30
0.0
 11
0.264213
 21
2.686677
 31
0.0
  0
LINE
  5
CE
330
18
100
AcDbEntity
  8
0
100
AcDbLine
 10
0.264213
 20
2.686677
 30
0.0
 11
0.375448
 21
2.614952
 31
0.0
  0
LINE
  5
CF
330
18
100
AcDbEntity
  8
0
100
AcDbLine
 10
0.375448
 20
2.614952
 30
0.0
 11
0.322068
 21
2.1866
 31
0.0
  0
LINE
  5
D0
330
18
100
AcDbEntity
  8
0
100
AcDbLine
 10
0.229366
 20
2.976874
 30
0.0
 11
0.311991
 21
2.922617
 31
0.0
  0
LINE
  5
D1
330
18
100
AcDbEntity
  8
0
100
AcDbLine
 10
0.229366
 20
2.976874
 30
0.0
 11
0.411351
 21
2.903062
 31
0.0
  0
LINE
  5
D2
330
18
100
AcDbEntity
  8
0
100
AcDbLine
 10
0.311991
 20
2.922617
 30
0.0
 11
0.493976
 21
2.848805
 31
0.0
  0
LINE
  5
D3
330
18
100
AcDbEntity
  8
0
100
AcDbLine
 10
0.322068
 20
2.1866
 30
0.0
 11
0.172183
 21
2.27334
 31
0.0
  0
LINE
  5
D4
330
18
100
AcDbEntity
  8
0
100
AcDbLine
 10
3.297336
 20
3.767099
 30
0.0
 11
3.468253
 21
3.803403
 31
0.0
  0
ARC
  5
D5
330
18
100
AcDbEntity
  8
0
100
AcDbCircle
 10
3.322663
 20
3.690694
 30
0.0
 40
0.08
100
AcDbArc
 50
101.991749
 51
180.0
  0
ARC
  5
D6
330
18
100
AcDbEntity
  8
0
100
AcDbCircle
 10
3.277063
 20
3.693057
 30
0.0
 40
0.076767
100
AcDbArc
 50
99.429462
 51
174.242142
  0
LINE
  5
D7
330
18
100
AcDbEntity
  8
0
100
AcDbLine
 10
3.468253
 20
3.803403
 30
0.0
 11
3.450884
 21
3.810927
 31
0.0
  0
LINE
  5
D8
330
18
100
AcDbEntity
  8
0
100
AcDbLine
 10
3.450884
 20
3.810927
 30
0.0
 11
3.255841
 21
3.766832
 31
0.0
  0
ARC
  5
D9
330
18
100
AcDbEntity
  8
0
100
AcDbCircle
 10
4.196337000000001
 20
3.906937
 30
0.0
 40
0.05
100
AcDbArc
 50
0.0
 51
101.991749
  0
LINE
  5
DA
330
18
100
AcDbEntity
  8
0
100
AcDbLine
 10
3.295423
 20
3.057248
 30
0.0
 11
3.468253
 21
3.103198
 31
0.0
  0
LINE
  5
DB
330
18
100
AcDbEntity
  8
0
100
AcDbLine
 10
4.087612
 20
3.267865
 30
0.0
 11
4.209184
 21
3.300187
 31
0.0
  0
LINE
  5
DC
330
18
100
AcDbEntity
  8
0
100
AcDbLine
 10
4.087612
 20
3.934959
 30
0.0
 11
4.185949
 21
3.955846
 31
0.0
  0
ARC
  5
DD
330
18
100
AcDbEntity
  8
0
100
AcDbCircle
 10
4.196337000000001
 20
3.348508
 30
0.0
 40
0.05
100
AcDbArc
 50
284.888596
 51
0.0
  0
LINE
  5
DE
330
18
100
AcDbEntity
  8
0
100
AcDbLine
 10
3.422614
 20
3.091064
 30
0.0
 11
3.422614
 21
3.01093
 31
0.0
  0
LINE
  5
DF
330
18
100
AcDbEntity
  8
0
100
AcDbLine
 10
3.422614
 20
3.857653
 30
0.0
 11
3.208432
 21
3.915906
 31
0.0
  0
LINE
  5
E0
330
18
100
AcDbEntity
  8
0
100
AcDbLine
 10
4.087612
 20
3.998903
 30
0.0
 11
4.619125
 21
4.111799
 31
0.0
  0
LINE
  5
E1
330
18
100
AcDbEntity
  8
0
100
AcDbLine
 10
4.087612
 20
4.100041
 30
0.0
 11
4.410167
 21
4.167596
 31
0.0
  0
LINE
  5
E2
330
18
100
AcDbEntity
  8
0
100
AcDbLine
 10
4.087612
 20
3.187731
 30
0.0
 11
4.630789
 21
3.332143
 31
0.0
  0
LINE
  5
E3
330
18
100
AcDbEntity
  8
0
100
AcDbLine
 10
4.623634
 20
3.810395
 30
0.0
 11
4.550461
 21
3.754893
 31
0.0
  0
LINE
  5
E4
330
18
100
AcDbEntity
  8
0
100
AcDbLine
 10
4.550461
 20
3.754893
 30
0.0
 11
4.721498
 21
3.626095
 31
0.0
  0
LINE
  5
E5
330
18
100
AcDbEntity
  8
0
100
AcDbLine
 10
4.721498
 20
3.626095
 30
0.0
 11
4.627518
 21
3.550779
 31
0.0
  0
LINE
  5
E6
330
18
100
AcDbEntity
  8
0
100
AcDbLine
 10
4.623634
 20
3.810395
 30
0.0
 11
4.619125
 21
4.111799
 31
0.0
  0
LINE
  5
E7
330
18
100
AcDbEntity
  8
0
100
AcDbLine
 10
3.110038
 20
2.927827
 30
0.0
 11
3.110038
 21
1.93442
 31
0.0
  0
LINE
  5
E8
330
18
100
AcDbEntity
  8
0
100
AcDbLine
 10
0.264213
 20
2.686677
 30
0.0
 11
0.172183
 21
2.737579
 31
0.0
  0
LINE
  5
E9
330
18
100
AcDbEntity
  8
0
100
AcDbLine
 10
0.375448
 20
2.614952
 30
0.0
 11
0.172183
 21
2.713576
 31
0.0
  0
LINE
  5
EA
330
18
100
AcDbEntity
  8
0
100
AcDbLine
 10
3.006406
 20
2.257212
 30
0.0
 11
3.044463
 21
2.172281
 31
0.0
  0
LINE
  5
EB
330
18
100
AcDbEntity
  8
0
100
AcDbLine
 10
2.979486
 20
2.177223
 30
0.0
 11
3.050481
 21
2.148296
 31
0.0
  0
LINE
  5
EC
330
18
100
AcDbEntity
  8
0
100
AcDbLine
 10
3.014553
 20
2.081294
 30
0.0
 11
3.058548
 21
2.065339
 31
0.0
  0
LINE
  5
ED
330
18
100
AcDbEntity
  8
0
100
AcDbLine
 10
2.782658
 20
2.075098
 30
0.0
 11
2.852692
 21
2.00019
 31
0.0
  0
LINE
  5
EE
330
18
100
AcDbEntity
  8
0
100
AcDbLine
 10
2.852692
 20
2.00019
 30
0.0
 11
2.867732
 21
1.946226
 31
0.0
  0
LINE
  5
EF
330
18
100
AcDbEntity
  8
0
100
AcDbLine
 10
2.870589
 20
2.112157
 30
0.0
 11
2.852692
 21
2.00019
 31
0.0
  0
LINE
  5
F0
330
18
100
AcDbEntity
  8
0
100
AcDbLine
 10
2.867732
 20
1.946226
 30
0.0
 11
2.895653
 21
2.024217
 31
0.0
  0
LINE
  5
F1
330
18
100
AcDbEntity
  8
0
100
AcDbLine
 10
2.867732
 20
1.946226
 30
0.0
 11
2.962672
 21
1.968298
 31
0.0
  0
LINE
  5
F2
330
18
100
AcDbEntity
  8
0
100
AcDbLine
 10
2.962672
 20
1.968298
 30
0.0
 11
3.004628
 21
1.999321
 31
0.0
  0
LINE
  5
F3
330
18
100
AcDbEntity
  8
0
100
AcDbLine
 10
3.004628
 20
1.999321
 30
0.0
 11
3.031636
 21
1.976354
 31
0.0
  0
LINE
  5
F4
330
18
100
AcDbEntity
  8
0
100
AcDbLine
 10
3.147644
 20
1.909482
 30
0.0
 11
3.229493
 21
2.044494
 31
0.0
  0
LINE
  5
F5
330
18
100
AcDbEntity
  8
0
100
AcDbLine
 10
3.206653
 20
1.86855
 30
0.0
 11
3.260656
 21
1.838609
 31
0.0
  0
LINE
  5
F6
330
18
100
AcDbEntity
  8
0
100
AcDbLine
 10
3.260656
 20
1.838609
 30
0.0
 11
3.287602
 21
1.887611
 31
0.0
  0
LINE
  5
F7
330
18
100
AcDbEntity
  8
0
100
AcDbLine
 10
3.435464
 20
1.9757
 30
0.0
 11
3.502535
 21
1.858808
 31
0.0
  0
LINE
  5
F8
330
18
100
AcDbEntity
  8
0
100
AcDbLine
 10
3.502535
 20
1.858808
 30
0.0
 11
3.488609
 21
1.77883
 31
0.0
  0
LINE
  5
F9
330
18
100
AcDbEntity
  8
0
100
AcDbLine
 10
3.502535
 20
1.858808
 30
0.0
 11
3.521464
 21
1.931793
 31
0.0
  0
LINE
  5
FA
330
18
100
AcDbEntity
  8
0
100
AcDbLine
 10
3.521464
 20
1.931793
 30
0.0
 11
3.573411
 21
1.967822
 31
0.0
  0
LINE
  5
FB
330
18
100
AcDbEntity
  8
0
100
AcDbLine
 10
3.272612
 20
1.8836
 30
0.0
 11
3.259655
 21
1.840607
 31
0.0
  0
LINE
  5
FC
330
18
100
AcDbEntity
  8
0
100
AcDbLine
 10
3.259655
 20
1.840607
 30
0.0
 11
3.219644
 21
1.872559
 31
0.0
  0
LINE
  5
FD
330
18
100
AcDbEntity
  8
0
100
AcDbLine
 10
3.292571
 20
1.921601
 30
0.0
 11
3.314556
 21
1.928617
 31
0.0
  0
LINE
  5
FE
330
18
100
AcDbEntity
  8
0
100
AcDbLine
 10
3.246443
 20
2.094487
 30
0.0
 11
3.248423
 21
2.116479
 31
0.0
  0
LINE
  5
FF
330
18
100
AcDbEntity
  8
0
100
AcDbLine
 10
3.664392
 20
1.944909
 30
0.0
 11
3.622498
 21
1.841918
 31
0.0
  0
LINE
  5
100
330
18
100
AcDbEntity
  8
0
100
AcDbLine
 10
3.622498
 20
1.841918
 30
0.0
 11
3.622581
 21
1.744959
 31
0.0
  0
LINE
  5
101
330
18
100
AcDbEntity
  8
0
100
AcDbLine
 10
3.622581
 20
1.744959
 30
0.0
 11
3.672521
 21
1.789983
 31
0.0
  0
LINE
  5
102
330
18
100
AcDbEntity
  8
0
100
AcDbLine
 10
3.672521
 20
1.789983
 30
0.0
 11
3.698554
 21
1.739027
 31
0.0
  0
LINE
  5
103
330
18
100
AcDbEntity
  8
0
100
AcDbLine
 10
3.698554
 20
1.739027
 30
0.0
 11
3.720519
 21
1.768033
 31
0.0
  0
LINE
  5
104
330
18
100
AcDbEntity
  8
0
100
AcDbLine
 10
3.720519
 20
1.768033
 30
0.0
 11
3.75452
 21
1.75007
 31
0.0
  0
LINE
  5
105
330
18
100
AcDbEntity
  8
0
100
AcDbLine
 10
3.75452
 20
1.75007
 30
0.0
 11
3.76342
 21
1.86203
 31
0.0
  0
LINE
  5
106
330
18
100
AcDbEntity
  8
0
100
AcDbLine
 10
3.838416000000001
 20
1.829108
 30
0.0
 11
3.850359
 21
1.890092
 31
0.0
  0
LINE
  5
107
330
18
100
AcDbEntity
  8
0
100
AcDbLine
 10
3.850359
 20
1.890092
 30
0.0
 11
3.860321
 21
1.930084
 31
0.0
  0
LINE
  5
108
330
18
100
AcDbEntity
  8
0
100
AcDbLine
 10
3.860321
 20
1.930084
 30
0.0
 11
3.836264
 21
2.00803
 31
0.0
  0
LINE
  5
109
330
18
100
AcDbEntity
  8
0
100
AcDbLine
 10
3.809337
 20
1.936038
 30
0.0
 11
3.837364
 21
1.891081
 31
0.0
  0
LINE
  5
10A
330
18
100
AcDbEntity
  8
0
100
AcDbLine
 10
3.895402
 20
1.817162
 30
0.0
 11
3.903371
 21
1.849155
 31
0.0
  0
LINE
  5
10B
330
18
100
AcDbEntity
  8
0
100
AcDbLine
 10
3.903371
 20
1.849155
 30
0.0
 11
3.916392
 21
1.81818
 31
0.0
  0
LINE
  5
10C
330
18
100
AcDbEntity
  8
0
100
AcDbLine
 10
3.916392
 20
1.81818
 30
0.0
 11
3.971366
 21
1.821226
 31
0.0
  0
LINE
  5
10D
330
18
100
AcDbEntity
  8
0
100
AcDbLine
 10
3.971366
 20
1.821226
 30
0.0
 11
4.029355000000001
 21
1.805282
 31
0.0
  0
LINE
  5
10E
330
18
100
AcDbEntity
  8
0
100
AcDbLine
 10
4.026248000000001
 20
1.931225
 30
0.0
 11
4.033299
 21
1.869258
 31
0.0
  0
LINE
  5
10F
330
18
100
AcDbEntity
  8
0
100
AcDbLine
 10
4.033299
 20
1.869258
 30
0.0
 11
4.058248000000001
 21
1.91526
 31
0.0
  0
LINE
  5
110
330
18
100
AcDbEntity
  8
0
100
AcDbLine
 10
4.167167
 20
1.955336
 30
0.0
 11
4.188186
 21
1.923368
 31
0.0
  0
LINE
  5
111
330
18
100
AcDbEntity
  8
0
100
AcDbLine
 10
4.220135
 20
1.966377
 30
0.0
 11
4.261182
 21
1.891444
 31
0.0
  0
LINE
  5
112
330
18
100
AcDbEntity
  8
0
100
AcDbLine
 10
4.550814
 20
5.67557
 30
0.0
 11
4.711826
 21
5.581748999999999
 31
0.0
  0
LINE
  5
113
330
18
100
AcDbEntity
  8
0
100
AcDbLine
 10
4.711826
 20
5.581748999999999
 30
0.0
 11
4.631562000000001
 21
5.513321
 31
0.0
  0
LINE
  5
114
330
18
100
AcDbEntity
  8
0
100
AcDbLine
 10
4.631067
 20
5.749262
 30
0.0
 11
4.550814
 21
5.67557
 31
0.0
  0
LINE
  5
115
330
18
100
AcDbEntity
  8
0
100
AcDbLine
 10
4.631562000000001
 20
5.513321
 30
0.0
 11
4.632164
 21
5.226333
 31
0.0
  0
LINE
  5
116
330
18
100
AcDbEntity
  8
0
 62
     0
100
AcDbLine
 10
1.602383
 20
3.647472
 30
0.0
 11
2.037235
 21
3.647472
 31
0.0
  0
LINE
  5
117
330
18
100
AcDbEntity
  8
0
 62
     0
100
AcDbLine
 10
1.569063
 20
3.657472
 30
0.0
 11
2.003915
 21
3.657472
 31
0.0
  0
LINE
  5
118
330
18
100
AcDbEntity
  8
0
 62
     0
100
AcDbLine
 10
1.535744
 20
3.667472
 30
0.0
 11
1.970595
 21
3.667472
 31
0.0
  0
LINE
  5
119
330
18
100
AcDbEntity
  8
0
 62
     0
100
AcDbLine
 10
1.502424
 20
3.677472
 30
0.0
 11
1.937276
 21
3.677472
 31
0.0
  0
LINE
  5
11A
330
18
100
AcDbEntity
  8
0
 62
     0
100
AcDbLine
 10
1.469104
 20
3.687472
 30
0.0
 11
1.903956
 21
3.687472
 31
0.0
  0
LINE
  5
11B
330
18
100
AcDbEntity
  8
0
 62
     0
100
AcDbLine
 10
1.435784
 20
3.697472
 30
0.0
 11
1.870636
 21
3.697472
 31
0.0
  0
LINE
  5
11C
330
18
100
AcDbEntity
  8
0
 62
     0
100
AcDbLine
 10
1.402464
 20
3.707472
 30
0.0
 11
1.837316
 21
3.707472
 31
0.0
  0
LINE
  5
11D
330
18
100
AcDbEntity
  8
0
 62
     0
100
AcDbLine
 10
1.369144
 20
3.717472
 30
0.0
 11
1.803996
 21
3.717472
 31
0.0
  0
LINE
  5
11E
330
18
100
AcDbEntity
  8
0
 62
     0
100
AcDbLine
 10
0.890503
 20
3.727472
 30
0.0
 11
0.8957209999999999
 21
3.727472
 31
0.0
  0
LINE
  5
11F
330
18
100
AcDbEntity
  8
0
 62
     0
100
AcDbLine
 10
1.335824
 20
3.727472
 30
0.0
 11
1.770676
 21
3.727472
 31
0.0
  0
LINE
  5
120
330
18
100
AcDbEntity
  8
0
 62
     0
100
AcDbLine
 10
0.883608
 20
3.737472
 30
0.0
 11
0.8957209999999999
 21
3.737472
 31
0.0
  0
LINE
  5
121
330
18
100
AcDbEntity
  8
0
 62
     0
100
AcDbLine
 10
1.302504
 20
3.737472
 30
0.0
 11
1.737356
 21
3.737472
 31
0.0
  0
LINE
  5
122
330
18
100
AcDbEntity
  8
0
 62
     0
100
AcDbLine
 10
0.8767120000000001
 20
3.747472
 30
0.0
 11
0.8957209999999999
 21
3.747472
 31
0.0
  0
LINE
  5
123
330
18
100
AcDbEntity
  8
0
 62
     0
100
AcDbLine
 10
1.269184
 20
3.747472
 30
0.0
 11
1.704036
 21
3.747472
 31
0.0
  0
LINE
  5
124
330
18
100
AcDbEntity
  8
0
 62
     0
100
AcDbLine
 10
0.869816
 20
3.757472
 30
0.0
 11
0.8957209999999999
 21
3.757472
 31
0.0
  0
LINE
  5
125
330
18
100
AcDbEntity
  8
0
 62
     0
100
AcDbLine
 10
1.235865
 20
3.757472
 30
0.0
 11
1.670716
 21
3.757472
 31
0.0
  0
LINE
  5
126
330
18
100
AcDbEntity
  8
0
 62
     0
100
AcDbLine
 10
0.86292
 20
3.767472
 30
0.0
 11
0.8957209999999999
 21
3.767472
 31
0.0
  0
LINE
  5
127
330
18
100
AcDbEntity
  8
0
 62
     0
100
AcDbLine
 10
1.202545
 20
3.767472
 30
0.0
 11
1.637397
 21
3.767472
 31
0.0
  0
LINE
  5
128
330
18
100
AcDbEntity
  8
0
 62
     0
100
AcDbLine
 10
0.856025
 20
3.777472
 30
0.0
 11
0.8957209999999999
 21
3.777472
 31
0.0
  0
LINE
  5
129
330
18
100
AcDbEntity
  8
0
 62
     0
100
AcDbLine
 10
1.169225
 20
3.777472
 30
0.0
 11
1.604077
 21
3.777472
 31
0.0
  0
LINE
  5
12A
330
18
100
AcDbEntity
  8
0
 62
     0
100
AcDbLine
 10
0.8491290000000001
 20
3.787472
 30
0.0
 11
0.8957209999999999
 21
3.787472
 31
0.0
  0
LINE
  5
12B
330
18
100
AcDbEntity
  8
0
 62
     0
100
AcDbLine
 10
1.135905
 20
3.787472
 30
0.0
 11
1.570757
 21
3.787472
 31
0.0
  0
LINE
  5
12C
330
18
100
AcDbEntity
  8
0
 62
     0
100
AcDbLine
 10
0.842233
 20
3.797472
 30
0.0
 11
0.8957209999999999
 21
3.797472
 31
0.0
  0
LINE
  5
12D
330
18
100
AcDbEntity
  8
0
 62
     0
100
AcDbLine
 10
1.102585
 20
3.797472
 30
0.0
 11
1.537437
 21
3.797472
 31
0.0
  0
LINE
  5
12E
330
18
100
AcDbEntity
  8
0
 62
     0
100
AcDbLine
 10
0.8353370000000001
 20
3.807472
 30
0.0
 11
0.8957209999999999
 21
3.807472
 31
0.0
  0
LINE
  5
12F
330
18
100
AcDbEntity
  8
0
 62
     0
100
AcDbLine
 10
1.069265
 20
3.807472
 30
0.0
 11
1.504117
 21
3.807472
 31
0.0
  0
LINE
  5
130
330
18
100
AcDbEntity
  8
0
 62
     0
100
AcDbLine
 10
0.828442
 20
3.817472
 30
0.0
 11
0.8957209999999999
 21
3.817472
 31
0.0
  0
LINE
  5
131
330
18
100
AcDbEntity
  8
0
 62
     0
100
AcDbLine
 10
1.035945
 20
3.817472
 30
0.0
 11
1.470797
 21
3.817472
 31
0.0
  0
LINE
  5
132
330
18
100
AcDbEntity
  8
0
 62
     0
100
AcDbLine
 10
0.8215459999999999
 20
3.827472
 30
0.0
 11
0.8957209999999999
 21
3.827472
 31
0.0
  0
LINE
  5
133
330
18
100
AcDbEntity
  8
0
 62
     0
100
AcDbLine
 10
1.002625
 20
3.827472
 30
0.0
 11
1.437477
 21
3.827472
 31
0.0
  0
LINE
  5
134
330
18
100
AcDbEntity
  8
0
 62
     0
100
AcDbLine
 10
0.81465
 20
3.837472
 30
0.0
 11
0.8957209999999999
 21
3.837472
 31
0.0
  0
LINE
  5
135
330
18
100
AcDbEntity
  8
0
 62
     0
100
AcDbLine
 10
0.969306
 20
3.837472
 30
0.0
 11
1.404157
 21
3.837472
 31
0.0
  0
LINE
  5
136
330
18
100
AcDbEntity
  8
0
 62
     0
100
AcDbLine
 10
0.807754
 20
3.847472
 30
0.0
 11
0.8957209999999999
 21
3.847472
 31
0.0
  0
LINE
  5
137
330
18
100
AcDbEntity
  8
0
 62
     0
100
AcDbLine
 10
0.9359860000000001
 20
3.847472
 30
0.0
 11
1.370837
 21
3.847472
 31
0.0
  0
LINE
  5
138
330
18
100
AcDbEntity
  8
0
 62
     0
100
AcDbLine
 10
0.800859
 20
3.857472
 30
0.0
 11
0.8957209999999999
 21
3.857472
 31
0.0
  0
LINE
  5
139
330
18
100
AcDbEntity
  8
0
 62
     0
100
AcDbLine
 10
0.902666
 20
3.857472
 30
0.0
 11
1.337518
 21
3.857472
 31
0.0
  0
LINE
  5
13A
330
18
100
AcDbEntity
  8
0
 62
     0
100
AcDbLine
 10
0.793963
 20
3.867472
 30
0.0
 11
1.304198
 21
3.867472
 31
0.0
  0
LINE
  5
13B
330
18
100
AcDbEntity
  8
0
 62
     0
100
AcDbLine
 10
0.787067
 20
3.877472
 30
0.0
 11
1.270878
 21
3.877472
 31
0.0
  0
LINE
  5
13C
330
18
100
AcDbEntity
  8
0
 62
     0
100
AcDbLine
 10
0.7801710000000001
 20
3.887472
 30
0.0
 11
1.237558
 21
3.887472
 31
0.0
  0
LINE
  5
13D
330
18
100
AcDbEntity
  8
0
 62
     0
100
AcDbLine
 10
0.7732760000000001
 20
3.897472
 30
0.0
 11
1.204238
 21
3.897472
 31
0.0
  0
LINE
  5
13E
330
18
100
AcDbEntity
  8
0
 62
     0
100
AcDbLine
 10
0.7663800000000001
 20
3.907472
 30
0.0
 11
1.170918
 21
3.907472
 31
0.0
  0
LINE
  5
13F
330
18
100
AcDbEntity
  8
0
 62
     0
100
AcDbLine
 10
0.7594840000000001
 20
3.917472
 30
0.0
 11
1.137598
 21
3.917472
 31
0.0
  0
LINE
  5
140
330
18
100
AcDbEntity
  8
0
 62
     0
100
AcDbLine
 10
0.752588
 20
3.927472
 30
0.0
 11
1.104278
 21
3.927472
 31
0.0
  0
LINE
  5
141
330
18
100
AcDbEntity
  8
0
 62
     0
100
AcDbLine
 10
0.7456930000000001
 20
3.937472
 30
0.0
 11
1.070958
 21
3.937472
 31
0.0
  0
LINE
  5
142
330
18
100
AcDbEntity
  8
0
 62
     0
100
AcDbLine
 10
0.738797
 20
3.947472
 30
0.0
 11
1.037639
 21
3.947472
 31
0.0
  0
LINE
  5
143
330
18
100
AcDbEntity
  8
0
 62
     0
100
AcDbLine
 10
0.736949
 20
3.957472
 30
0.0
 11
1.004319
 21
3.957472
 31
0.0
  0
LINE
  5
144
330
18
100
AcDbEntity
  8
0
 62
     0
100
AcDbLine
 10
0.7472489999999999
 20
3.967472
 30
0.0
 11
0.970999
 21
3.967472
 31
0.0
  0
LINE
  5
145
330
18
100
AcDbEntity
  8
0
 62
     0
100
AcDbLine
 10
0.75755
 20
3.977472
 30
0.0
 11
0.937679
 21
3.977472
 31
0.0
  0
LINE
  5
146
330
18
100
AcDbEntity
  8
0
 62
     0
100
AcDbLine
 10
0.7678510000000001
 20
3.987472
 30
0.0
 11
0.904359
 21
3.987472
 31
0.0
  0
LINE
  5
147
330
18
100
AcDbEntity
  8
0
 62
     0
100
AcDbLine
 10
0.7781520000000001
 20
3.997472
 30
0.0
 11
0.8957209999999999
 21
3.997472
 31
0.0
  0
LINE
  5
148
330
18
100
AcDbEntity
  8
0
 62
     0
100
AcDbLine
 10
0.788453
 20
4.007472
 30
0.0
 11
0.8957209999999999
 21
4.007472
 31
0.0
  0
LINE
  5
149
330
18
100
AcDbEntity
  8
0
 62
     0
100
AcDbLine
 10
0.7987529999999999
 20
4.017472
 30
0.0
 11
0.8957209999999999
 21
4.017472
 31
0.0
  0
LINE
  5
14A
330
18
100
AcDbEntity
  8
0
 62
     0
100
AcDbLine
 10
0.8090540000000001
 20
4.027472
 30
0.0
 11
0.8957209999999999
 21
4.027472
 31
0.0
  0
LINE
  5
14B
330
18
100
AcDbEntity
  8
0
 62
     0
100
AcDbLine
 10
0.8193549999999999
 20
4.037472
 30
0.0
 11
0.8957209999999999
 21
4.037472
 31
0.0
  0
LINE
  5
14C
330
18
100
AcDbEntity
  8
0
 62
     0
100
AcDbLine
 10
0.829656
 20
4.047472
 30
0.0
 11
0.8957209999999999
 21
4.047472
 31
0.0
  0
LINE
  5
14D
330
18
100
AcDbEntity
  8
0
 62
     0
100
AcDbLine
 10
0.839957
 20
4.057472
 30
0.0
 11
0.8957209999999999
 21
4.057472
 31
0.0
  0
LINE
  5
14E
330
18
100
AcDbEntity
  8
0
 62
     0
100
AcDbLine
 10
0.8502569999999999
 20
4.067472
 30
0.0
 11
0.8957209999999999
 21
4.067472
 31
0.0
  0
LINE
  5
14F
330
18
100
AcDbEntity
  8
0
 62
     0
100
AcDbLine
 10
0.8605580000000001
 20
4.077472
 30
0.0
 11
0.8957209999999999
 21
4.077472
 31
0.0
  0
LINE
  5
150
330
18
100
AcDbEntity
  8
0
 62
     0
100
AcDbLine
 10
0.8708590000000001
 20
4.087472
 30
0.0
 11
0.8957209999999999
 21
4.087472
 31
0.0
  0
LINE
  5
151
330
18
100
AcDbEntity
  8
0
 62
     0
100
AcDbLine
 10
0.8811600000000001
 20
4.097472
 30
0.0
 11
0.8957209999999999
 21
4.097472
 31
0.0
  0
LINE
  5
152
330
18
100
AcDbEntity
  8
0
 62
     0
100
AcDbLine
 10
0.8914610000000001
 20
4.107472000000001
 30
0.0
 11
0.8957209999999999
 21
4.107472000000001
 31
0.0
  0
LINE
  5
153
330
18
100
AcDbEntity
  8
0
 62
     0
100
AcDbLine
 10
1.635703
 20
3.637472
 30
0.0
 11
2.070555
 21
3.637472
 31
0.0
  0
LINE
  5
154
330
18
100
AcDbEntity
  8
0
 62
     0
100
AcDbLine
 10
1.669023
 20
3.627472
 30
0.0
 11
2.103875
 21
3.627472
 31
0.0
  0
LINE
  5
155
330
18
100
AcDbEntity
  8
0
 62
     0
100
AcDbLine
 10
1.702343
 20
3.617472
 30
0.0
 11
2.137195
 21
3.617472
 31
0.0
  0
LINE
  5
156
330
18
100
AcDbEntity
  8
0
 62
     0
100
AcDbLine
 10
1.735663
 20
3.607472
 30
0.0
 11
2.170515
 21
3.607472
 31
0.0
  0
LINE
  5
157
330
18
100
AcDbEntity
  8
0
 62
     0
100
AcDbLine
 10
2.557801
 20
3.607472
 30
0.0
 11
2.559048
 21
3.607472
 31
0.0
  0
LINE
  5
158
330
18
100
AcDbEntity
  8
0
 62
     0
100
AcDbLine
 10
1.768983
 20
3.597472
 30
0.0
 11
2.203835
 21
3.597472
 31
0.0
  0
LINE
  5
159
330
18
100
AcDbEntity
  8
0
 62
     0
100
AcDbLine
 10
2.557801
 20
3.597472
 30
0.0
 11
2.566021
 21
3.597472
 31
0.0
  0
LINE
  5
15A
330
18
100
AcDbEntity
  8
0
 62
     0
100
AcDbLine
 10
1.802303
 20
3.587472
 30
0.0
 11
2.237154
 21
3.587472
 31
0.0
  0
LINE
  5
15B
330
18
100
AcDbEntity
  8
0
 62
     0
100
AcDbLine
 10
2.557801
 20
3.587472
 30
0.0
 11
2.572995
 21
3.587472
 31
0.0
  0
LINE
  5
15C
330
18
100
AcDbEntity
  8
0
 62
     0
100
AcDbLine
 10
1.835623
 20
3.577472
 30
0.0
 11
2.270474
 21
3.577472
 31
0.0
  0
LINE
  5
15D
330
18
100
AcDbEntity
  8
0
 62
     0
100
AcDbLine
 10
2.557801
 20
3.577472
 30
0.0
 11
2.579969
 21
3.577472
 31
0.0
  0
LINE
  5
15E
330
18
100
AcDbEntity
  8
0
 62
     0
100
AcDbLine
 10
1.868942
 20
3.567472
 30
0.0
 11
2.303794
 21
3.567472
 31
0.0
  0
LINE
  5
15F
330
18
100
AcDbEntity
  8
0
 62
     0
100
AcDbLine
 10
2.557801
 20
3.567472
 30
0.0
 11
2.586942
 21
3.567472
 31
0.0
  0
LINE
  5
160
330
18
100
AcDbEntity
  8
0
 62
     0
100
AcDbLine
 10
1.902262
 20
3.557472
 30
0.0
 11
2.337114
 21
3.557472
 31
0.0
  0
LINE
  5
161
330
18
100
AcDbEntity
  8
0
 62
     0
100
AcDbLine
 10
2.557801
 20
3.557472
 30
0.0
 11
2.593916
 21
3.557472
 31
0.0
  0
LINE
  5
162
330
18
100
AcDbEntity
  8
0
 62
     0
100
AcDbLine
 10
1.935582
 20
3.547472
 30
0.0
 11
2.370434
 21
3.547472
 31
0.0
  0
LINE
  5
163
330
18
100
AcDbEntity
  8
0
 62
     0
100
AcDbLine
 10
2.557801
 20
3.547472
 30
0.0
 11
2.60089
 21
3.547472
 31
0.0
  0
LINE
  5
164
330
18
100
AcDbEntity
  8
0
 62
     0
100
AcDbLine
 10
1.968902
 20
3.537472
 30
0.0
 11
2.403754
 21
3.537472
 31
0.0
  0
LINE
  5
165
330
18
100
AcDbEntity
  8
0
 62
     0
100
AcDbLine
 10
2.557801
 20
3.537472
 30
0.0
 11
2.607863
 21
3.537472
 31
0.0
  0
LINE
  5
166
330
18
100
AcDbEntity
  8
0
 62
     0
100
AcDbLine
 10
2.002222
 20
3.527472
 30
0.0
 11
2.437074
 21
3.527472
 31
0.0
  0
LINE
  5
167
330
18
100
AcDbEntity
  8
0
 62
     0
100
AcDbLine
 10
2.557801
 20
3.527472
 30
0.0
 11
2.614837
 21
3.527472
 31
0.0
  0
LINE
  5
168
330
18
100
AcDbEntity
  8
0
 62
     0
100
AcDbLine
 10
2.035542
 20
3.517472
 30
0.0
 11
2.470394
 21
3.517472
 31
0.0
  0
LINE
  5
169
330
18
100
AcDbEntity
  8
0
 62
     0
100
AcDbLine
 10
2.557801
 20
3.517472
 30
0.0
 11
2.62181
 21
3.517472
 31
0.0
  0
LINE
  5
16A
330
18
100
AcDbEntity
  8
0
 62
     0
100
AcDbLine
 10
2.068862
 20
3.507472
 30
0.0
 11
2.503714
 21
3.507472
 31
0.0
  0
LINE
  5
16B
330
18
100
AcDbEntity
  8
0
 62
     0
100
AcDbLine
 10
2.557801
 20
3.507472
 30
0.0
 11
2.628784
 21
3.507472
 31
0.0
  0
LINE
  5
16C
330
18
100
AcDbEntity
  8
0
 62
     0
100
AcDbLine
 10
2.102182
 20
3.497472
 30
0.0
 11
2.537033
 21
3.497472
 31
0.0
  0
LINE
  5
16D
330
18
100
AcDbEntity
  8
0
 62
     0
100
AcDbLine
 10
2.557801
 20
3.497472
 30
0.0
 11
2.635758
 21
3.497472
 31
0.0
  0
LINE
  5
16E
330
18
100
AcDbEntity
  8
0
 62
     0
100
AcDbLine
 10
2.135502
 20
3.487472
 30
0.0
 11
2.642731
 21
3.487472
 31
0.0
  0
LINE
  5
16F
330
18
100
AcDbEntity
  8
0
 62
     0
100
AcDbLine
 10
2.168821
 20
3.477472
 30
0.0
 11
2.649705
 21
3.477472
 31
0.0
  0
LINE
  5
170
330
18
100
AcDbEntity
  8
0
 62
     0
100
AcDbLine
 10
2.202141
 20
3.467472
 30
0.0
 11
2.656679
 21
3.467472
 31
0.0
  0
LINE
  5
171
330
18
100
AcDbEntity
  8
0
 62
     0
100
AcDbLine
 10
2.235461
 20
3.457472
 30
0.0
 11
2.663652
 21
3.457472
 31
0.0
  0
LINE
  5
172
330
18
100
AcDbEntity
  8
0
 62
     0
100
AcDbLine
 10
2.268781
 20
3.447472
 30
0.0
 11
2.670626
 21
3.447472
 31
0.0
  0
LINE
  5
173
330
18
100
AcDbEntity
  8
0
 62
     0
100
AcDbLine
 10
2.302101
 20
3.437472
 30
0.0
 11
2.677599
 21
3.437472
 31
0.0
  0
LINE
  5
174
330
18
100
AcDbEntity
  8
0
 62
     0
100
AcDbLine
 10
2.335421
 20
3.427472
 30
0.0
 11
2.684573
 21
3.427472
 31
0.0
  0
LINE
  5
175
330
18
100
AcDbEntity
  8
0
 62
     0
100
AcDbLine
 10
2.368741
 20
3.417472
 30
0.0
 11
2.691547
 21
3.417472
 31
0.0
  0
LINE
  5
176
330
18
100
AcDbEntity
  8
0
 62
     0
100
AcDbLine
 10
2.402061
 20
3.407472
 30
0.0
 11
2.69852
 21
3.407472
 31
0.0
  0
LINE
  5
177
330
18
100
AcDbEntity
  8
0
 62
     0
100
AcDbLine
 10
2.435381
 20
3.397472
 30
0.0
 11
2.705494
 21
3.397472
 31
0.0
  0
LINE
  5
178
330
18
100
AcDbEntity
  8
0
 62
     0
100
AcDbLine
 10
2.4687
 20
3.387472
 30
0.0
 11
2.712468
 21
3.387472
 31
0.0
  0
LINE
  5
179
330
18
100
AcDbEntity
  8
0
 62
     0
100
AcDbLine
 10
2.50202
 20
3.377472
 30
0.0
 11
2.719441
 21
3.377472
 31
0.0
  0
LINE
  5
17A
330
18
100
AcDbEntity
  8
0
 62
     0
100
AcDbLine
 10
2.53534
 20
3.367472
 30
0.0
 11
2.726415
 21
3.367472
 31
0.0
  0
LINE
  5
17B
330
18
100
AcDbEntity
  8
0
 62
     0
100
AcDbLine
 10
2.557801
 20
3.357472
 30
0.0
 11
2.726577
 21
3.357472
 31
0.0
  0
LINE
  5
17C
330
18
100
AcDbEntity
  8
0
 62
     0
100
AcDbLine
 10
2.557801
 20
3.347472
 30
0.0
 11
2.716652
 21
3.347472
 31
0.0
  0
LINE
  5
17D
330
18
100
AcDbEntity
  8
0
 62
     0
100
AcDbLine
 10
2.557801
 20
3.337472
 30
0.0
 11
2.706726
 21
3.337472
 31
0.0
  0
LINE
  5
17E
330
18
100
AcDbEntity
  8
0
 62
     0
100
AcDbLine
 10
2.557801
 20
3.327472
 30
0.0
 11
2.696801
 21
3.327472
 31
0.0
  0
LINE
  5
17F
330
18
100
AcDbEntity
  8
0
 62
     0
100
AcDbLine
 10
2.557801
 20
3.317472
 30
0.0
 11
2.686875
 21
3.317472
 31
0.0
  0
LINE
  5
180
330
18
100
AcDbEntity
  8
0
 62
     0
100
AcDbLine
 10
2.557801
 20
3.307472
 30
0.0
 11
2.67695
 21
3.307472
 31
0.0
  0
LINE
  5
181
330
18
100
AcDbEntity
  8
0
 62
     0
100
AcDbLine
 10
2.557801
 20
3.297472
 30
0.0
 11
2.667024
 21
3.297472
 31
0.0
  0
LINE
  5
182
330
18
100
AcDbEntity
  8
0
 62
     0
100
AcDbLine
 10
2.557801
 20
3.287472
 30
0.0
 11
2.657099
 21
3.287472
 31
0.0
  0
LINE
  5
183
330
18
100
AcDbEntity
  8
0
 62
     0
100
AcDbLine
 10
2.557801
 20
3.277472
 30
0.0
 11
2.647173
 21
3.277472
 31
0.0
  0
LINE
  5
184
330
18
100
AcDbEntity
  8
0
 62
     0
100
AcDbLine
 10
2.557801
 20
3.267472
 30
0.0
 11
2.637248
 21
3.267472
 31
0.0
  0
LINE
  5
185
330
18
100
AcDbEntity
  8
0
 62
     0
100
AcDbLine
 10
2.557801
 20
3.257472
 30
0.0
 11
2.627322
 21
3.257472
 31
0.0
  0
LINE
  5
186
330
18
100
AcDbEntity
  8
0
 62
     0
100
AcDbLine
 10
2.557801
 20
3.247472
 30
0.0
 11
2.617397
 21
3.247472
 31
0.0
  0
LINE
  5
187
330
18
100
AcDbEntity
  8
0
 62
     0
100
AcDbLine
 10
2.557801
 20
3.237472
 30
0.0
 11
2.607471
 21
3.237472
 31
0.0
  0
LINE
  5
188
330
18
100
AcDbEntity
  8
0
 62
     0
100
AcDbLine
 10
2.557801
 20
3.227472
 30
0.0
 11
2.597546
 21
3.227472
 31
0.0
  0
LINE
  5
189
330
18
100
AcDbEntity
  8
0
 62
     0
100
AcDbLine
 10
2.557801
 20
3.217472
 30
0.0
 11
2.58762
 21
3.217472
 31
0.0
  0
LINE
  5
18A
330
18
100
AcDbEntity
  8
0
 62
     0
100
AcDbLine
 10
2.557801
 20
3.207472
 30
0.0
 11
2.577695
 21
3.207472
 31
0.0
  0
LINE
  5
18B
330
18
100
AcDbEntity
  8
0
 62
     0
100
AcDbLine
 10
2.557801
 20
3.197472
 30
0.0
 11
2.567769
 21
3.197472
 31
0.0
  0
LINE
  5
18C
330
18
100
AcDbEntity
  8
0
 62
     0
100
AcDbLine
 10
2.557801
 20
3.187472
 30
0.0
 11
2.557844
 21
3.187472
 31
0.0
  0
LINE
  5
18D
330
18
100
AcDbEntity
  8
0
100
AcDbLine
 10
0.8957209999999999
 20
3.719905
 30
0.0
 11
0.8957209999999999
 21
3.859556
 31
0.0
  0
LINE
  5
18E
330
18
100
AcDbEntity
  8
0
100
AcDbLine
 10
0.8957209999999999
 20
3.859556
 30
0.0
 11
2.557801
 21
3.360731
 31
0.0
  0
LINE
  5
18F
330
18
100
AcDbEntity
  8
0
100
AcDbLine
 10
2.557801
 20
3.360731
 30
0.0
 11
2.557801
 21
3.187428
 31
0.0
  0
LINE
  5
190
330
18
100
AcDbEntity
  8
0
100
AcDbLine
 10
2.557801
 20
3.187428
 30
0.0
 11
2.730578
 21
3.361502
 31
0.0
  0
LINE
  5
191
330
18
100
AcDbEntity
  8
0
100
AcDbLine
 10
2.730578
 20
3.361502
 30
0.0
 11
2.557801
 21
3.609259
 31
0.0
  0
LINE
  5
192
330
18
100
AcDbEntity
  8
0
100
AcDbLine
 10
2.557801
 20
3.609259
 30
0.0
 11
2.557801
 21
3.491239
 31
0.0
  0
LINE
  5
193
330
18
100
AcDbEntity
  8
0
100
AcDbLine
 10
2.557801
 20
3.491239
 30
0.0
 11
0.8957209999999999
 21
3.990064
 31
0.0
  0
LINE
  5
194
330
18
100
AcDbEntity
  8
0
100
AcDbLine
 10
0.8957209999999999
 20
3.990064
 30
0.0
 11
0.8957209999999999
 21
4.111608
 31
0.0
  0
LINE
  5
195
330
18
100
AcDbEntity
  8
0
100
AcDbLine
 10
0.8957209999999999
 20
4.111608
 30
0.0
 11
0.7339250000000001
 21
3.954536
 31
0.0
  0
LINE
  5
196
330
18
100
AcDbEntity
  8
0
100
AcDbLine
 10
0.7339250000000001
 20
3.954536
 30
0.0
 11
0.8957209999999999
 21
3.719905
 31
0.0
  0
LINE
  5
197
330
18
100
AcDbEntity
  8
0
100
AcDbLine
 10
0.341666
 20
2.343862
 30
0.0
 11
0.32143
 21
2.641162
 31
0.0
  0
LINE
  5
198
330
18
100
AcDbEntity
  8
0
100
AcDbLine
 10
0.259947
 20
2.22255
 30
0.0
 11
0.280412
 21
2.446794
 31
0.0
  0
LINE
  5
199
330
18
100
AcDbEntity
  8
0
100
AcDbLine
 10
0.280412
 20
2.446794
 30
0.0
 11
0.267859
 21
2.667154
 31
0.0
  0
LINE
  5
19A
330
18
100
AcDbEntity
  8
0
100
AcDbLine
 10
0.415763
 20
3.24117
 30
0.0
 11
0.392814
 21
3.087616
 31
0.0
  0
LINE
  5
19B
330
18
100
AcDbEntity
  8
0
100
AcDbLine
 10
0.392814
 20
3.087616
 30
0.0
 11
0.386522
 21
2.913132
 31
0.0
  0
LINE
  5
19C
330
18
100
AcDbEntity
  8
0
100
AcDbLine
 10
0.386522
 20
2.913132
 30
0.0
 11
0.453911
 21
2.865055
 31
0.0
  0
LINE
  5
19D
330
18
100
AcDbEntity
  8
0
100
AcDbLine
 10
0.453911
 20
2.865055
 30
0.0
 11
0.314121
 21
2.769684
 31
0.0
  0
LINE
  5
19E
330
18
100
AcDbEntity
  8
0
100
AcDbLine
 10
0.314121
 20
2.769684
 30
0.0
 11
0.231217
 21
2.698644
 31
0.0
  0
LINE
  5
19F
330
18
100
AcDbEntity
  8
0
100
AcDbLine
 10
0.231217
 20
2.698644
 30
0.0
 11
0.221405
 21
2.484727
 31
0.0
  0
LINE
  5
1A0
330
18
100
AcDbEntity
  8
0
100
AcDbLine
 10
0.221405
 20
2.484727
 30
0.0
 11
0.196552
 21
2.324774
 31
0.0
  0
LINE
  5
1A1
330
18
100
AcDbEntity
  8
0
100
AcDbLine
 10
0.196552
 20
2.324774
 30
0.0
 11
0.201827
 21
2.256185
 31
0.0
  0
LINE
  5
1A2
330
18
100
AcDbEntity
  8
0
100
AcDbLine
 10
0.380847
 20
3.255332
 30
0.0
 11
0.344832
 21
3.091573
 31
0.0
  0
LINE
  5
1A3
330
18
100
AcDbEntity
  8
0
100
AcDbLine
 10
0.344832
 20
3.091573
 30
0.0
 11
0.336236
 21
2.933528
 31
0.0
  0
LINE
  5
1A4
330
18
100
AcDbEntity
  8
0
100
AcDbLine
 10
0.336236
 20
2.933528
 30
0.0
 11
0.402182
 21
2.886036
 31
0.0
  0
LINE
  5
1A5
330
18
100
AcDbEntity
  8
0
100
AcDbLine
 10
0.402182
 20
2.886036
 30
0.0
 11
0.285108
 21
2.798647
 31
0.0
  0
LINE
  5
1A6
330
18
100
AcDbEntity
  8
0
100
AcDbLine
 10
0.285108
 20
2.798647
 30
0.0
 11
0.172183
 21
2.713576
 31
0.0
  0
LINE
  5
1A7
330
18
100
AcDbEntity
  8
0
100
AcDbLine
 10
0.328392
 20
3.276608
 30
0.0
 11
0.294818
 21
3.132512
 31
0.0
  0
LINE
  5
1A8
330
18
100
AcDbEntity
  8
0
100
AcDbLine
 10
0.294818
 20
3.132512
 30
0.0
 11
0.30091
 21
3.022565
 31
0.0
  0
LINE
  5
1A9
330
18
100
AcDbEntity
  8
0
100
AcDbLine
 10
0.30091
 20
3.022565
 30
0.0
 11
0.287647
 21
2.953236
 31
0.0
  0
LINE
  5
1AA
330
18
100
AcDbEntity
  8
0
100
AcDbLine
 10
0.287647
 20
2.953236
 30
0.0
 11
0.358251
 21
2.903854
 31
0.0
  0
LINE
  5
1AB
330
18
100
AcDbEntity
  8
0
100
AcDbLine
 10
0.358251
 20
2.903854
 30
0.0
 11
0.281074
 21
2.840626
 31
0.0
  0
LINE
  5
1AC
330
18
100
AcDbEntity
  8
0
100
AcDbLine
 10
0.281074
 20
2.840626
 30
0.0
 11
0.172183
 21
2.767564
 31
0.0
  0
LINE
  5
1AD
330
18
100
AcDbEntity
  8
0
100
AcDbLine
 10
0.6855060000000001
 20
4.911377
 30
0.0
 11
0.643071
 21
4.997012000000001
 31
0.0
  0
LINE
  5
1AE
330
18
100
AcDbEntity
  8
0
100
AcDbLine
 10
0.643071
 20
4.997012000000001
 30
0.0
 11
0.632744
 21
5.059125
 31
0.0
  0
LINE
  5
1AF
330
18
100
AcDbEntity
  8
0
100
AcDbLine
 10
0.632744
 20
5.059125
 30
0.0
 11
0.569284
 21
5.15466
 31
0.0
  0
LINE
  5
1B0
330
18
100
AcDbEntity
  8
0
100
AcDbLine
 10
0.569284
 20
5.15466
 30
0.0
 11
0.683843
 21
5.241942
 31
0.0
  0
LINE
  5
1B1
330
18
100
AcDbEntity
  8
0
100
AcDbLine
 10
0.683843
 20
5.241942
 30
0.0
 11
0.7754949999999999
 21
5.32647
 31
0.0
  0
LINE
  5
1B2
330
18
100
AcDbEntity
  8
0
100
AcDbLine
 10
0.7754949999999999
 20
5.32647
 30
0.0
 11
0.7215779999999999
 21
5.392267
 31
0.0
  0
LINE
  5
1B3
330
18
100
AcDbEntity
  8
0
100
AcDbLine
 10
0.7577520000000001
 20
5.464103
 30
0.0
 11
0.7295390000000001
 21
5.573839
 31
0.0
  0
LINE
  5
1B4
330
18
100
AcDbEntity
  8
0
100
AcDbLine
 10
0.7295390000000001
 20
5.573839
 30
0.0
 11
0.701488
 21
5.647783
 31
0.0
  0
LINE
  5
1B5
330
18
100
AcDbEntity
  8
0
100
AcDbLine
 10
0.701488
 20
5.647783
 30
0.0
 11
0.703464
 21
5.674773
 31
0.0
  0
LINE
  5
1B6
330
18
100
AcDbEntity
  8
0
100
AcDbLine
 10
0.703464
 20
5.674773
 30
0.0
 11
0.7104779999999999
 21
5.69341
 31
0.0
  0
LINE
  5
1B7
330
18
100
AcDbEntity
  8
0
100
AcDbLine
 10
0.66865
 20
4.782414
 30
0.0
 11
0.640193
 21
4.85607
 31
0.0
  0
LINE
  5
1B8
330
18
100
AcDbEntity
  8
0
100
AcDbLine
 10
0.640193
 20
4.85607
 30
0.0
 11
0.586121
 21
4.966976
 31
0.0
  0
LINE
  5
1B9
330
18
100
AcDbEntity
  8
0
100
AcDbLine
 10
0.586121
 20
4.966976
 30
0.0
 11
0.5829810000000001
 21
5.066558000000001
 31
0.0
  0
LINE
  5
1BA
330
18
100
AcDbEntity
  8
0
100
AcDbLine
 10
0.5829810000000001
 20
5.066558000000001
 30
0.0
 11
0.5303520000000001
 21
5.161559
 31
0.0
  0
LINE
  5
1BB
330
18
100
AcDbEntity
  8
0
100
AcDbLine
 10
0.5303520000000001
 20
5.161559
 30
0.0
 11
0.633864
 21
5.242898
 31
0.0
  0
LINE
  5
1BC
330
18
100
AcDbEntity
  8
0
100
AcDbLine
 10
0.633864
 20
5.242898
 30
0.0
 11
0.7234649999999999
 21
5.334540000000001
 31
0.0
  0
LINE
  5
1BD
330
18
100
AcDbEntity
  8
0
100
AcDbLine
 10
0.7234649999999999
 20
5.334540000000001
 30
0.0
 11
0.682934
 21
5.399443
 31
0.0
  0
LINE
  5
1BE
330
18
100
AcDbEntity
  8
0
100
AcDbLine
 10
0.682934
 20
5.399443
 30
0.0
 11
0.7115819999999999
 21
5.532841
 31
0.0
  0
LINE
  5
1BF
330
18
100
AcDbEntity
  8
0
100
AcDbLine
 10
0.7115819999999999
 20
5.532841
 30
0.0
 11
0.687513
 21
5.625780000000001
 31
0.0
  0
LINE
  5
1C0
330
18
100
AcDbEntity
  8
0
100
AcDbLine
 10
0.687513
 20
5.625780000000001
 30
0.0
 11
0.661483
 21
5.672738
 31
0.0
  0
LINE
  5
1C1
330
18
100
AcDbEntity
  8
0
100
AcDbLine
 10
0.661483
 20
5.672738
 30
0.0
 11
0.671637
 21
5.702514
 31
0.0
  0
LINE
  5
1C2
330
18
100
AcDbEntity
  8
0
100
AcDbLine
 10
0.632908
 20
5.711592
 30
0.0
 11
0.631528
 21
5.635728
 31
0.0
  0
LINE
  5
1C3
330
18
100
AcDbEntity
  8
0
100
AcDbLine
 10
0.631528
 20
5.635728
 30
0.0
 11
0.653582
 21
5.561779000000001
 31
0.0
  0
LINE
  5
1C4
330
18
100
AcDbEntity
  8
0
100
AcDbLine
 10
0.653582
 20
5.561779000000001
 30
0.0
 11
0.629943
 21
5.409282
 31
0.0
  0
LINE
  5
1C5
330
18
100
AcDbEntity
  8
0
100
AcDbLine
 10
0.629943
 20
5.409282
 30
0.0
 11
0.669088
 21
5.342973000000001
 31
0.0
  0
LINE
  5
1C6
330
18
100
AcDbEntity
  8
0
100
AcDbLine
 10
0.669088
 20
5.342973000000001
 30
0.0
 11
0.5568960000000001
 21
5.243832
 31
0.0
  0
LINE
  5
1C7
330
18
100
AcDbEntity
  8
0
100
AcDbLine
 10
0.5568960000000001
 20
5.243832
 30
0.0
 11
0.4536020000000001
 21
5.175159
 31
0.0
  0
LINE
  5
1C8
330
18
100
AcDbEntity
  8
0
100
AcDbLine
 10
0.4536020000000001
 20
5.175159
 30
0.0
 11
0.5502779999999999
 21
5.071443
 31
0.0
  0
LINE
  5
1C9
330
18
100
AcDbEntity
  8
0
100
AcDbLine
 10
0.5502779999999999
 20
5.071443
 30
0.0
 11
0.526116
 21
5.002909
 31
0.0
  0
LINE
  5
1CA
330
18
100
AcDbEntity
  8
0
100
AcDbLine
 10
0.526116
 20
5.002909
 30
0.0
 11
0.557215
 21
4.871992
 31
0.0
  0
LINE
  5
1CB
330
18
100
AcDbEntity
  8
0
100
AcDbLine
 10
0.557215
 20
4.871992
 30
0.0
 11
0.57529
 21
4.775049
 31
0.0
  0
LINE
  5
1CC
330
18
100
AcDbEntity
  8
0
100
AcDbLine
 10
0.57529
 20
4.775049
 30
0.0
 11
0.57129
 21
4.663571
 31
0.0
  0
LINE
  5
1CD
330
18
100
AcDbEntity
  8
0
100
AcDbLine
 10
0.926119
 20
7.105566000000001
 30
0.0
 11
0.954081
 21
7.16235
 31
0.0
  0
LINE
  5
1CE
330
18
100
AcDbEntity
  8
0
100
AcDbLine
 10
0.954081
 20
7.16235
 30
0.0
 11
0.9963639999999999
 21
7.290536
 31
0.0
  0
LINE
  5
1CF
330
18
100
AcDbEntity
  8
0
100
AcDbLine
 10
1.063908
 20
8.110111
 30
0.0
 11
1.066336
 21
7.976098
 31
0.0
  0
LINE
  5
1D0
330
18
100
AcDbEntity
  8
0
100
AcDbLine
 10
1.066336
 20
7.976098
 30
0.0
 11
1.02844
 21
7.819448
 31
0.0
  0
LINE
  5
1D1
330
18
100
AcDbEntity
  8
0
100
AcDbLine
 10
1.02844
 20
7.819448
 30
0.0
 11
1.121532
 21
7.743595
 31
0.0
  0
LINE
  5
1D2
330
18
100
AcDbEntity
  8
0
100
AcDbLine
 10
1.121532
 20
7.743595
 30
0.0
 11
0.980633
 21
7.672155
 31
0.0
  0
LINE
  5
1D3
330
18
100
AcDbEntity
  8
0
100
AcDbLine
 10
0.980633
 20
7.672155
 30
0.0
 11
0.920883
 21
7.591389
 31
0.0
  0
LINE
  5
1D4
330
18
100
AcDbEntity
  8
0
100
AcDbLine
 10
0.920883
 20
7.591389
 30
0.0
 11
0.9688180000000001
 21
7.504602
 31
0.0
  0
LINE
  5
1D5
330
18
100
AcDbEntity
  8
0
100
AcDbLine
 10
0.9688180000000001
 20
7.504602
 30
0.0
 11
0.948981
 21
7.282295
 31
0.0
  0
LINE
  5
1D6
330
18
100
AcDbEntity
  8
0
100
AcDbLine
 10
0.948981
 20
7.282295
 30
0.0
 11
0.8763280000000001
 21
7.104587
 31
0.0
  0
LINE
  5
1D7
330
18
100
AcDbEntity
  8
0
100
AcDbLine
 10
0.828291
 20
7.103642999999999
 30
0.0
 11
0.8610389999999999
 21
7.258228999999999
 31
0.0
  0
LINE
  5
1D8
330
18
100
AcDbEntity
  8
0
100
AcDbLine
 10
0.8610389999999999
 20
7.258228999999999
 30
0.0
 11
0.9008950000000001
 21
7.4062
 31
0.0
  0
LINE
  5
1D9
330
18
100
AcDbEntity
  8
0
100
AcDbLine
 10
0.9008950000000001
 20
7.4062
 30
0.0
 11
0.910165
 21
7.501089
 31
0.0
  0
LINE
  5
1DA
330
18
100
AcDbEntity
  8
0
100
AcDbLine
 10
0.910165
 20
7.501089
 30
0.0
 11
0.8478870000000001
 21
7.592250999999999
 31
0.0
  0
LINE
  5
1DB
330
18
100
AcDbEntity
  8
0
100
AcDbLine
 10
0.8478870000000001
 20
7.592250999999999
 30
0.0
 11
0.903675
 21
7.661092999999999
 31
0.0
  0
LINE
  5
1DC
330
18
100
AcDbEntity
  8
0
100
AcDbLine
 10
0.903675
 20
7.661092999999999
 30
0.0
 11
1.018574
 21
7.74441
 31
0.0
  0
LINE
  5
1DD
330
18
100
AcDbEntity
  8
0
100
AcDbLine
 10
1.018574
 20
7.74441
 30
0.0
 11
0.961046
 21
7.823958
 31
0.0
  0
LINE
  5
1DE
330
18
100
AcDbEntity
  8
0
100
AcDbLine
 10
0.961046
 20
7.823958
 30
0.0
 11
0.9953799999999999
 21
7.960044
 31
0.0
  0
LINE
  5
1DF
330
18
100
AcDbEntity
  8
0
100
AcDbLine
 10
0.9953799999999999
 20
7.960044
 30
0.0
 11
0.9930790000000001
 21
8.106392999999999
 31
0.0
  0
LINE
  5
1E0
330
18
100
AcDbEntity
  8
0
100
AcDbLine
 10
0.933955
 20
8.103288000000001
 30
0.0
 11
0.9413860000000001
 21
7.979989
 31
0.0
  0
LINE
  5
1E1
330
18
100
AcDbEntity
  8
0
100
AcDbLine
 10
0.9413860000000001
 20
7.979989
 30
0.0
 11
0.8972100000000001
 21
7.828231
 31
0.0
  0
LINE
  5
1E2
330
18
100
AcDbEntity
  8
0
100
AcDbLine
 10
0.8972100000000001
 20
7.828231
 30
0.0
 11
0.963549
 21
7.744846000000001
 31
0.0
  0
LINE
  5
1E3
330
18
100
AcDbEntity
  8
0
100
AcDbLine
 10
0.963549
 20
7.744846000000001
 30
0.0
 11
0.8377030000000001
 21
7.662036
 31
0.0
  0
LINE
  5
1E4
330
18
100
AcDbEntity
  8
0
100
AcDbLine
 10
0.8377030000000001
 20
7.662036
 30
0.0
 11
0.77479
 21
7.593113000000001
 31
0.0
  0
LINE
  5
1E5
330
18
100
AcDbEntity
  8
0
100
AcDbLine
 10
0.77479
 20
7.593113000000001
 30
0.0
 11
0.8456600000000001
 21
7.497226
 31
0.0
  0
LINE
  5
1E6
330
18
100
AcDbEntity
  8
0
100
AcDbLine
 10
0.8456600000000001
 20
7.497226
 30
0.0
 11
0.843915
 21
7.411149000000001
 31
0.0
  0
LINE
  5
1E7
330
18
100
AcDbEntity
  8
0
100
AcDbLine
 10
0.843915
 20
7.411149000000001
 30
0.0
 11
0.804042
 21
7.28317
 31
0.0
  0
LINE
  5
1E8
330
18
100
AcDbEntity
  8
0
100
AcDbLine
 10
0.804042
 20
7.28317
 30
0.0
 11
0.7612300000000001
 21
7.147317999999999
 31
0.0
  0
LINE
  5
1E9
330
18
100
AcDbEntity
  8
0
100
AcDbLine
 10
1.348514
 20
10.191009
 30
0.0
 11
1.413125
 21
10.103052
 31
0.0
  0
LINE
  5
1EA
330
18
100
AcDbEntity
  8
0
100
AcDbLine
 10
1.413125
 20
10.103052
 30
0.0
 11
1.343446
 21
10.04245
 31
0.0
  0
LINE
  5
1EB
330
18
100
AcDbEntity
  8
0
100
AcDbLine
 10
1.343446
 20
10.04245
 30
0.0
 11
1.28849
 21
10.018413
 31
0.0
  0
LINE
  5
1EC
330
18
100
AcDbEntity
  8
0
100
AcDbLine
 10
1.28849
 20
10.018413
 30
0.0
 11
1.241358
 21
9.952997999999999
 31
0.0
  0
LINE
  5
1ED
330
18
100
AcDbEntity
  8
0
100
AcDbLine
 10
1.241358
 20
9.952997999999999
 30
0.0
 11
1.30759
 21
9.896376
 31
0.0
  0
LINE
  5
1EE
330
18
100
AcDbEntity
  8
0
100
AcDbLine
 10
1.233452
 20
9.881219999999999
 30
0.0
 11
1.17949
 21
9.944247000000001
 31
0.0
  0
LINE
  5
1EF
330
18
100
AcDbEntity
  8
0
100
AcDbLine
 10
1.17949
 20
9.944247000000001
 30
0.0
 11
1.233548
 21
9.978383000000001
 31
0.0
  0
LINE
  5
1F0
330
18
100
AcDbEntity
  8
0
100
AcDbLine
 10
1.233548
 20
9.978383000000001
 30
0.0
 11
1.25749
 21
10.03338
 31
0.0
  0
LINE
  5
1F1
330
18
100
AcDbEntity
  8
0
100
AcDbLine
 10
1.25749
 20
10.03338
 30
0.0
 11
1.36028
 21
10.093933
 31
0.0
  0
LINE
  5
1F2
330
18
100
AcDbEntity
  8
0
100
AcDbLine
 10
1.36028
 20
10.093933
 30
0.0
 11
1.317085
 21
10.183988
 31
0.0
  0
LINE
  5
1F3
330
18
100
AcDbEntity
  8
0
100
AcDbLine
 10
1.176425
 20
9.869562
 30
0.0
 11
1.102355
 21
9.933338000000001
 31
0.0
  0
LINE
  5
1F4
330
18
100
AcDbEntity
  8
0
100
AcDbLine
 10
1.102355
 20
9.933338000000001
 30
0.0
 11
1.174579
 21
9.971335
 31
0.0
  0
LINE
  5
1F5
330
18
100
AcDbEntity
  8
0
100
AcDbLine
 10
1.174579
 20
9.971335
 30
0.0
 11
1.201521
 21
10.025335
 31
0.0
  0
LINE
  5
1F6
330
18
100
AcDbEntity
  8
0
100
AcDbLine
 10
1.201521
 20
10.025335
 30
0.0
 11
1.314819
 21
10.086089
 31
0.0
  0
LINE
  5
1F7
330
18
100
AcDbEntity
  8
0
100
AcDbLine
 10
1.24281
 20
10.167396
 30
0.0
 11
1.314819
 21
10.086089
 31
0.0
  0
LINE
  5
1F8
330
18
100
AcDbEntity
  8
0
100
AcDbLine
 10
1.366545
 20
10.45354
 30
0.0
 11
1.360157
 21
10.371323
 31
0.0
  0
LINE
  5
1F9
330
18
100
AcDbEntity
  8
0
100
AcDbLine
 10
1.360157
 20
10.371323
 30
0.0
 11
1.35822
 21
10.298353
 31
0.0
  0
LINE
  5
1FA
330
18
100
AcDbEntity
  8
0
100
AcDbLine
 10
1.35822
 20
10.298353
 30
0.0
 11
1.348514
 21
10.191009
 31
0.0
  0
LINE
  5
1FB
330
18
100
AcDbEntity
  8
0
100
AcDbLine
 10
1.317085
 20
10.183988
 30
0.0
 11
1.321256
 21
10.275331
 31
0.0
  0
LINE
  5
1FC
330
18
100
AcDbEntity
  8
0
100
AcDbLine
 10
1.321256
 20
10.275331
 30
0.0
 11
1.298204
 21
10.34728
 31
0.0
  0
LINE
  5
1FD
330
18
100
AcDbEntity
  8
0
100
AcDbLine
 10
1.298204
 20
10.34728
 30
0.0
 11
1.313131
 21
10.42426
 31
0.0
  0
LINE
  5
1FE
330
18
100
AcDbEntity
  8
0
100
AcDbLine
 10
1.313131
 20
10.42426
 30
0.0
 11
1.317363
 21
10.447257
 31
0.0
  0
LINE
  5
1FF
330
18
100
AcDbEntity
  8
0
100
AcDbLine
 10
1.24467
 20
10.437971
 30
0.0
 11
1.229235
 21
10.345222
 31
0.0
  0
LINE
  5
200
330
18
100
AcDbEntity
  8
0
100
AcDbLine
 10
1.229235
 20
10.345222
 30
0.0
 11
1.261288
 21
10.267283
 31
0.0
  0
LINE
  5
201
330
18
100
AcDbEntity
  8
0
100
AcDbLine
 10
1.261288
 20
10.267283
 30
0.0
 11
1.24281
 21
10.167396
 31
0.0
  0
LINE
  5
202
330
18
100
AcDbEntity
  8
0
100
AcDbLine
 10
1.277096
 20
9.529924000000001
 30
0.0
 11
1.308329
 21
9.631344
 31
0.0
  0
LINE
  5
203
330
18
100
AcDbEntity
  8
0
100
AcDbLine
 10
1.308329
 20
9.631344
 30
0.0
 11
1.28971
 21
9.760524
 31
0.0
  0
LINE
  5
204
330
18
100
AcDbEntity
  8
0
100
AcDbLine
 10
1.28971
 20
9.760524
 30
0.0
 11
1.30759
 21
9.896376
 31
0.0
  0
LINE
  5
205
330
18
100
AcDbEntity
  8
0
100
AcDbLine
 10
1.206018
 20
9.513850999999999
 30
0.0
 11
1.247792
 21
9.68652
 31
0.0
  0
LINE
  5
206
330
18
100
AcDbEntity
  8
0
100
AcDbLine
 10
1.247792
 20
9.68652
 30
0.0
 11
1.231732
 21
9.764472999999999
 31
0.0
  0
LINE
  5
207
330
18
100
AcDbEntity
  8
0
100
AcDbLine
 10
1.231732
 20
9.764472999999999
 30
0.0
 11
1.233452
 21
9.881219999999999
 31
0.0
  0
LINE
  5
208
330
18
100
AcDbEntity
  8
0
100
AcDbLine
 10
1.131873
 20
9.497085
 30
0.0
 11
1.164851
 21
9.658461000000001
 31
0.0
  0
LINE
  5
209
330
18
100
AcDbEntity
  8
0
100
AcDbLine
 10
1.164851
 20
9.658461000000001
 30
0.0
 11
1.152791
 21
9.734418
 31
0.0
  0
LINE
  5
20A
330
18
100
AcDbEntity
  8
0
100
AcDbLine
 10
1.152791
 20
9.734418
 30
0.0
 11
1.176425
 21
9.869562
 31
0.0
  0
TEXT
  5
20B
330
18
100
AcDbEntity
  8
0
100
AcDbText
 10
4.832926000000001
 20
2.553285
 30
0.0
 40
0.2
  1
Simpson Strong-Tie
100
AcDbText
  0
TEXT
  5
20C
330
18
100
AcDbEntity
  8
0
100
AcDbText
 10
4.832926000000001
 20
2.229476
 30
0.0
 40
0.2
  1
FB26
100
AcDbText
  0
TEXT
  5
20D
330
18
100
AcDbEntity
  8
0
100
AcDbText
 10
4.832926000000001
 20
1.905666
 30
0.0
 40
0.2
  1
Installation Attaching
100
AcDbText
  0
TEXT
  5
20E
330
18
100
AcDbEntity
  8
0
100
AcDbText
 10
4.832926000000001
 20
1.581857
 30
0.0
 40
0.2
  1
Rails to Post
100
AcDbText
  0
TEXT
  5
20F
330
18
100
AcDbEntity
  8
0
100
AcDbText
 10
1.664284
 20
4.057452
 30
0.0
 40
0.2
  1
F
100
AcDbText
  0
TEXT
  5
210
330
18
100
AcDbEntity
  8
0
100
AcDbText
 10
1.847072
 20
3.962002
 30
0.0
 40
0.2
  1
1
100
AcDbText
  0
ENDSEC
  0
SECTION
  2
OBJECTS
  0
DICTIONARY
  5
C
330
0
100
AcDbDictionary
281
     1
  3
ACAD_COLOR
350
216
  3
ACAD_GROUP
350
D
  3
ACAD_LAYOUT
350
15
  3
ACAD_MATERIAL
350
218
  3
ACAD_MLINESTYLE
350
12
  3
ACAD_PLOTSETTINGS
350
14
  3
ACAD_PLOTSTYLENAME
350
E
  3
ACDBHEADERROUNDTRIPXREC
350
215
  0
DICTIONARY
  5
216
102
{ACAD_REACTORS
330
C
102
}
330
C
100
AcDbDictionary
281
     1
  0
DICTIONARY
  5
D
102
{ACAD_REACTORS
330
C
102
}
330
C
100
AcDbDictionary
281
     1
  0
DICTIONARY
  5
15
102
{ACAD_REACTORS
330
C
102
}
330
C
100
AcDbDictionary
281
     1
  3
Layout1
350
17
  3
Model
350
19
  0
DICTIONARY
  5
218
102
{ACAD_REACTORS
330
C
102
}
330
C
100
AcDbDictionary
281
     1
  0
DICTIONARY
  5
12
102
{ACAD_REACTORS
330
C
102
}
330
C
100
AcDbDictionary
281
     1
  3
Standard
350
13
  0
DICTIONARY
  5
14
102
{ACAD_REACTORS
330
C
102
}
330
C
100
AcDbDictionary
281
     1
  0
ACDBDICTIONARYWDFLT
  5
E
102
{ACAD_REACTORS
330
C
102
}
330
C
100
AcDbDictionary
281
     1
  3
Normal
350
F
100
AcDbDictionaryWithDefault
340
F
  0
DICTIONARY
  5
215
102
{ACAD_REACTORS
330
C
102
}
330
C
100
AcDbDictionary
281
     1
  3
COLORDICT
350
217
  3
MATERIALDICT
350
219
  0
LAYOUT
  5
17
102
{ACAD_REACTORS
330
15
102
}
102
{ACAD_XDICTIONARY
360
21A
102
}
330
15
100
AcDbPlotSettings
  1

  2

  4

  6

 40
0.0
 41
0.0
 42
0.0
 43
0.0
 44
0.0
 45
0.0
 46
0.0
 47
0.0
 48
0.0
 49
0.0
140
0.0
141
0.0
142
1.0
143
1.0
 70
   688
 72
     0
 73
     0
 74
     5
  7

 75
    16
147
1.0
148
0.0
149
0.0
100
AcDbLayout
  1
Layout1
 70
     1
 71
     1
 10
0.0
 20
0.0
 11
12.0
 21
9.0
 12
0.0
 22
0.0
 32
0.0
 14
1.000000000000000E+20
 24
1.000000000000000E+20
 34
1.000000000000000E+20
 15
-1.000000000000000E+20
 25
-1.000000000000000E+20
 35
-1.000000000000000E+20
146
0.0
 13
0.0
 23
0.0
 33
0.0
 16
1.0
 26
0.0
 36
0.0
 17
0.0
 27
1.0
 37
0.0
 76
     0
330
16
  0
LAYOUT
  5
19
102
{ACAD_REACTORS
330
15
102
}
102
{ACAD_XDICTIONARY
360
21C
102
}
330
15
100
AcDbPlotSettings
  1

  2

  4

  6

 40
0.0
 41
0.0
 42
0.0
 43
0.0
 44
0.0
 45
0.0
 46
0.0
 47
0.0
 48
0.0
 49
0.0
140
0.0
141
0.0
142
1.0
143
1.0
 70
  1712
 72
     0
 73
     0
 74
     0
  7

 75
     0
147
1.0
148
0.0
149
0.0
100
AcDbLayout
  1
Model
 70
     1
 71
     0
 10
0.0
 20
0.0
 11
0.0
 21
0.0
 12
0.0
 22
0.0
 32
0.0
 14
0.0
 24
0.0
 34
0.0
 15
0.0
 25
0.0
 35
0.0
146
0.0
 13
0.0
 23
0.0
 33
0.0
 16
1.0
 26
0.0
 36
0.0
 17
0.0
 27
1.0
 37
0.0
 76
     0
330
18
  0
MLINESTYLE
  5
13
102
{ACAD_REACTORS
330
12
102
}
330
12
100
AcDbMlineStyle
  2
Standard
 70
     0
  3

 62
   256
 51
90.0
 52
90.0
 71
     2
 49
0.5
 62
   256
  6
BYLAYER
 49
-0.5
 62
   256
  6
BYLAYER
  0
ACDBPLACEHOLDER
  5
F
102
{ACAD_REACTORS
330
E
102
}
330
E
  0
XRECORD
  5
217
102
{ACAD_REACTORS
330
215
102
}
330
215
100
AcDbXrecord
340
216
  0
XRECORD
  5
219
102
{ACAD_REACTORS
330
215
102
}
330
215
100
AcDbXrecord
340
218
  0
DICTIONARY
  5
21A
330
17
100
AcDbDictionary
280
     1
281
     1
  3
ACAD_XREC_ROUNDTRIP
360
21B
  0
DICTIONARY
  5
21C
330
19
100
AcDbDictionary
280
     1
281
     1
  3
ACAD_XREC_ROUNDTRIP
360
21D
  0
XRECORD
  5
21B
102
{ACAD_REACTORS
330
21A
102
}
330
21A
100
AcDbXrecord
102
SHADEPLOT
 70
     0
102
SHADEPLOTRESLEVEL
 70
     0
102
SHADEPLOTCUSTOMDPI
 70
     0
  0
XRECORD
  5
21D
102
{ACAD_REACTORS
330
21C
102
}
330
21C
100
AcDbXrecord
102
SHADEPLOT
 70
     0
102
SHADEPLOTRESLEVEL
 70
     0
102
SHADEPLOTCUSTOMDPI
 70
     0
  0
ENDSEC
  0
EOF
