  0
SECTION
  2
HEADER
  9
$ACADVER
  1
AC1015
  9
$ACADMAINTVER
 70
     6
  9
$DWGCODEPAGE
  3
ANSI_1252
  9
$INSBASE
 10
0.0
 20
0.0
 30
0.0
  9
$EXTMIN
 10
25.7099603696231
 20
41.85697963966354
 30
-0.0015258207003612
  9
$EXTMAX
 10
142.4251692983518
 20
130.6525598917535
 30
0.0000000349246008
  9
$LIMMIN
 10
25.57966172960069
 20
41.73061387803819
  9
$LIMMAX
 10
142.5554673936632
 20
130.7789252387153
  9
$ORTHOMODE
 70
     0
  9
$REGENMODE
 70
     1
  9
$FILLMODE
 70
     1
  9
$QTEXTMODE
 70
     0
  9
$MIRRTEXT
 70
     1
  9
$LTSCALE
 40
1.0
  9
$ATTMODE
 70
     1
  9
$TEXTSIZE
 40
0.2
  9
$TRACEWID
 40
0.05
  9
$TEXTSTYLE
  7
STANDARD
  9
$CLAYER
  8
0
  9
$CELTYPE
  6
CONTINUOUS
  9
$CECOLOR
 62
   256
  9
$CELTSCALE
 40
1.0
  9
$DISPSILH
 70
     0
  9
$DIMSCALE
 40
1.0
  9
$DIMASZ
 40
0.18
  9
$DIMEXO
 40
0.0625
  9
$DIMDLI
 40
0.38
  9
$DIMRND
 40
0.0
  9
$DIMDLE
 40
0.0
  9
$DIMEXE
 40
0.18
  9
$DIMTP
 40
0.0
  9
$DIMTM
 40
0.0
  9
$DIMTXT
 40
0.18
  9
$DIMCEN
 40
0.09
  9
$DIMTSZ
 40
0.0
  9
$DIMTOL
 70
     0
  9
$DIMLIM
 70
     0
  9
$DIMTIH
 70
     1
  9
$DIMTOH
 70
     1
  9
$DIMSE1
 70
     0
  9
$DIMSE2
 70
     0
  9
$DIMTAD
 70
     0
  9
$DIMZIN
 70
     0
  9
$DIMBLK
  1

  9
$DIMASO
 70
     1
  9
$DIMSHO
 70
     1
  9
$DIMPOST
  1

  9
$DIMAPOST
  1

  9
$DIMALT
 70
     0
  9
$DIMALTD
 70
     2
  9
$DIMALTF
 40
25.4
  9
$DIMLFAC
 40
1.0
  9
$DIMTOFL
 70
     0
  9
$DIMTVP
 40
0.0
  9
$DIMTIX
 70
     0
  9
$DIMSOXD
 70
     0
  9
$DIMSAH
 70
     0
  9
$DIMBLK1
  1

  9
$DIMBLK2
  1

  9
$DIMSTYLE
  2
STANDARD
  9
$DIMCLRD
 70
     0
  9
$DIMCLRE
 70
     0
  9
$DIMCLRT
 70
     0
  9
$DIMTFAC
 40
1.0
  9
$DIMGAP
 40
0.09
  9
$DIMJUST
 70
     0
  9
$DIMSD1
 70
     0
  9
$DIMSD2
 70
     0
  9
$DIMTOLJ
 70
     1
  9
$DIMTZIN
 70
     0
  9
$DIMALTZ
 70
     0
  9
$DIMALTTZ
 70
     0
  9
$DIMUPT
 70
     0
  9
$DIMDEC
 70
     4
  9
$DIMTDEC
 70
     4
  9
$DIMALTU
 70
     2
  9
$DIMALTTD
 70
     2
  9
$DIMTXSTY
  7
STANDARD
  9
$DIMAUNIT
 70
     0
  9
$DIMADEC
 70
     0
  9
$DIMALTRND
 40
0.0
  9
$DIMAZIN
 70
     0
  9
$DIMDSEP
 70
    46
  9
$DIMATFIT
 70
     3
  9
$DIMFRAC
 70
     0
  9
$DIMLDRBLK
  1

  9
$DIMLUNIT
 70
     2
  9
$DIMLWD
 70
    -2
  9
$DIMLWE
 70
    -2
  9
$DIMTMOVE
 70
     0
  9
$LUNITS
 70
     2
  9
$LUPREC
 70
     4
  9
$SKETCHINC
 40
0.1
  9
$FILLETRAD
 40
0.0
  9
$AUNITS
 70
     0
  9
$AUPREC
 70
     0
  9
$MENU
  1
acad
  9
$ELEVATION
 40
0.0
  9
$PELEVATION
 40
0.0
  9
$THICKNESS
 40
0.0
  9
$LIMCHECK
 70
     0
  9
$CHAMFERA
 40
0.0
  9
$CHAMFERB
 40
0.0
  9
$CHAMFERC
 40
0.0
  9
$CHAMFERD
 40
0.0
  9
$SKPOLY
 70
     0
  9
$TDCREATE
 40
2444971.666666667
  9
$TDUCREATE
 40
2444972.0
  9
$TDUPDATE
 40
2452215.470490162
  9
$TDUUPDATE
 40
2452215.803823495
  9
$TDINDWG
 40
0.000602662
  9
$TDUSRTIMER
 40
0.000602662
  9
$USRTIMER
 70
     1
  9
$ANGBASE
 50
0.0
  9
$ANGDIR
 70
     0
  9
$PDMODE
 70
     0
  9
$PDSIZE
 40
0.0
  9
$PLINEWID
 40
0.0
  9
$SPLFRAME
 70
     0
  9
$SPLINETYPE
 70
     6
  9
$SPLINESEGS
 70
     8
  9
$HANDSEED
  5
107
  9
$SURFTAB1
 70
     6
  9
$SURFTAB2
 70
     6
  9
$SURFTYPE
 70
     6
  9
$SURFU
 70
     6
  9
$SURFV
 70
     6
  9
$UCSBASE
  2

  9
$UCSNAME
  2

  9
$UCSORG
 10
0.0
 20
0.0
 30
0.0
  9
$UCSXDIR
 10
1.0
 20
0.0
 30
0.0
  9
$UCSYDIR
 10
0.0
 20
1.0
 30
0.0
  9
$UCSORTHOREF
  2

  9
$UCSORTHOVIEW
 70
     0
  9
$UCSORGTOP
 10
0.0
 20
0.0
 30
0.0
  9
$UCSORGBOTTOM
 10
0.0
 20
0.0
 30
0.0
  9
$UCSORGLEFT
 10
0.0
 20
0.0
 30
0.0
  9
$UCSORGRIGHT
 10
0.0
 20
0.0
 30
0.0
  9
$UCSORGFRONT
 10
0.0
 20
0.0
 30
0.0
  9
$UCSORGBACK
 10
0.0
 20
0.0
 30
0.0
  9
$PUCSBASE
  2

  9
$PUCSNAME
  2

  9
$PUCSORG
 10
0.0
 20
0.0
 30
0.0
  9
$PUCSXDIR
 10
1.0
 20
0.0
 30
0.0
  9
$PUCSYDIR
 10
0.0
 20
1.0
 30
0.0
  9
$PUCSORTHOREF
  2

  9
$PUCSORTHOVIEW
 70
     0
  9
$PUCSORGTOP
 10
0.0
 20
0.0
 30
0.0
  9
$PUCSORGBOTTOM
 10
0.0
 20
0.0
 30
0.0
  9
$PUCSORGLEFT
 10
0.0
 20
0.0
 30
0.0
  9
$PUCSORGRIGHT
 10
0.0
 20
0.0
 30
0.0
  9
$PUCSORGFRONT
 10
0.0
 20
0.0
 30
0.0
  9
$PUCSORGBACK
 10
0.0
 20
0.0
 30
0.0
  9
$USERI1
 70
     0
  9
$USERI2
 70
     0
  9
$USERI3
 70
     0
  9
$USERI4
 70
     0
  9
$USERI5
 70
     0
  9
$USERR1
 40
0.0
  9
$USERR2
 40
0.0
  9
$USERR3
 40
0.0
  9
$USERR4
 40
0.0
  9
$USERR5
 40
0.0
  9
$WORLDVIEW
 70
     1
  9
$SHADEDGE
 70
     3
  9
$SHADEDIF
 70
    70
  9
$TILEMODE
 70
     1
  9
$MAXACTVP
 70
    16
  9
$PINSBASE
 10
0.0
 20
0.0
 30
0.0
  9
$PLIMCHECK
 70
     0
  9
$PEXTMIN
 10
1.000000000000000E+20
 20
1.000000000000000E+20
 30
1.000000000000000E+20
  9
$PEXTMAX
 10
-1.000000000000000E+20
 20
-1.000000000000000E+20
 30
-1.000000000000000E+20
  9
$PLIMMIN
 10
0.0
 20
0.0
  9
$PLIMMAX
 10
12.0
 20
9.0
  9
$UNITMODE
 70
     0
  9
$VISRETAIN
 70
     0
  9
$PLINEGEN
 70
     1
  9
$PSLTSCALE
 70
     0
  9
$TREEDEPTH
 70
  3020
  9
$CMLSTYLE
  2
STANDARD
  9
$CMLJUST
 70
     0
  9
$CMLSCALE
 40
1.0
  9
$PROXYGRAPHICS
 70
     0
  9
$MEASUREMENT
 70
     0
  9
$CELWEIGHT
370
    -1
  9
$ENDCAPS
280
     0
  9
$JOINSTYLE
280
     0
  9
$LWDISPLAY
290
     0
  9
$INSUNITS
 70
     0
  9
$HYPERLINKBASE
  1

  9
$STYLESHEET
  1

  9
$XEDIT
290
     1
  9
$CEPSNTYPE
380
     0
  9
$PSTYLEMODE
290
     1
  9
$FINGERPRINTGUID
  2
{87DE9534-CEA3-11D5-923F-00805F198AD5}
  9
$VERSIONGUID
  2
{87DE9536-CEA3-11D5-923F-00805F198AD5}
  9
$EXTNAMES
290
     1
  9
$PSVPSCALE
 40
0.0
  9
$OLESTARTUP
290
     0
  0
ENDSEC
  0
SECTION
  2
CLASSES
  0
CLASS
  1
LWPOLYLINE
  2
AcDbPolyline
  3
AutoCAD 2000
 90
        0
280
     0
281
     1
  0
CLASS
  1
IMAGE
  2
AcDbRasterImage
  3
ISM
 90
      127
280
     0
281
     1
  0
CLASS
  1
OLE2FRAME
  2
AcDbOle2Frame
  3
AutoCAD 2000
 90
        0
280
     0
281
     1
  0
CLASS
  1
HATCH
  2
AcDbHatch
  3
AutoCAD 2000
 90
        0
280
     0
281
     1
  0
CLASS
  1
DICTIONARYVAR
  2
AcDbDictionaryVar
  3
AutoCAD 2000
 90
        0
280
     0
281
     0
  0
CLASS
  1
RASTERVARIABLES
  2
AcDbRasterVariables
  3
ISM
 90
        0
280
     0
281
     0
  0
CLASS
  1
IMAGEDEF
  2
AcDbRasterImageDef
  3
ISM
 90
        0
280
     0
281
     0
  0
CLASS
  1
IMAGEDEF_REACTOR
  2
AcDbRasterImageDefReactor
  3
ISM
 90
        1
280
     0
281
     0
  0
CLASS
  1
IDBUFFER
  2
AcDbIdBuffer
  3
AutoCAD 2000
 90
        0
280
     0
281
     0
  0
CLASS
  1
SPATIAL_FILTER
  2
AcDbSpatialFilter
  3
AutoCAD 2000
 90
        0
280
     0
281
     0
  0
CLASS
  1
XRECORD
  2
AcDbXrecord
  3
AutoCAD 2000
 90
        0
280
     0
281
     0
  0
CLASS
  1
SORTENTSTABLE
  2
AcDbSortentsTable
  3
AutoCAD 2000
 90
        0
280
     0
281
     0
  0
CLASS
  1
LAYER_INDEX
  2
AcDbLayerIndex
  3
AutoCAD 2000
 90
        0
280
     0
281
     0
  0
CLASS
  1
SPATIAL_INDEX
  2
AcDbSpatialIndex
  3
AutoCAD 2000
 90
        0
280
     0
281
     0
  0
CLASS
  1
OBJECT_PTR
  2
CAseDLPNTableRecord
  3
ASE-LPNTableRecord
 90
        1
280
     1
281
     0
  0
CLASS
  1
LAYOUT
  2
AcDbLayout
  3
ObjectDBX Classes
 90
        0
280
     0
281
     0
  0
CLASS
  1
PLOTSETTINGS
  2
AcDbPlotSettings
  3
AutoCAD 2000
 90
        0
280
     0
281
     0
  0
CLASS
  1
ACDBDICTIONARYWDFLT
  2
AcDbDictionaryWithDefault
  3
AutoCAD 2000
 90
        0
280
     0
281
     0
  0
CLASS
  1
ACDBPLACEHOLDER
  2
AcDbPlaceHolder
  3
ObjectDBX Classes
 90
        0
280
     0
281
     0
  0
CLASS
  1
VBAPROJECT
  2
AcDbVbaProject
  3
ObjectDBX Classes
 90
        0
280
     0
281
     0
  0
CLASS
  1
WIPEOUT
  2
AcDbWipeout
  3
WipeOut|AutoCAD Express Tool|expresstools@autodesk.com
 90
      127
280
     0
281
     1
  0
CLASS
  1
WIPEOUTVARIABLES
  2
AcDbWipeoutVariables
  3
WipeOut|AutoCAD Express Tool|expresstools@autodesk.com
 90
        0
280
     0
281
     0
  0
CLASS
  1
RTEXT
  2
RText
  3
RText|AutoCAD Express Tool|expresstools@autodesk.com
 90
        0
280
     0
281
     1
  0
CLASS
  1
ARCALIGNEDTEXT
  2
AcDbArcAlignedText
  3
ATEXT|AutoCAD Express Tool|expresstools@autodesk.com
 90
        0
280
     0
281
     1
  0
CLASS
  1
LONG_TRANSACTION
  2
AcDbLongTransaction
  3
AutoCAD 2000
 90
        0
280
     1
281
     0
  0
CLASS
  1
LWPOLYLINE
  2
AcDbPolyline
  3
AutoCAD 2000
 90
        0
280
     0
281
     1
  0
CLASS
  1
HATCH
  2
AcDbHatch
  3
AutoCAD 2000
 90
        0
280
     0
281
     1
  0
CLASS
  1
XRECORD
  2
AcDbXrecord
  3
AutoCAD 2000
 90
        0
280
     0
281
     0
  0
ENDSEC
  0
SECTION
  2
TABLES
  0
TABLE
  2
VPORT
  5
7
330
0
100
AcDbSymbolTable
 70
     2
  0
VPORT
  5
D3
330
7
100
AcDbSymbolTableRecord
100
AcDbViewportTableRecord
  2
*Active
 70
     0
 10
0.0
 20
0.0
 11
1.0
 21
1.0
 12
84.06756483398745
 22
86.2547697657085
 13
0.0
 23
0.0
 14
1.0
 24
1.0
 15
0.0
 25
0.0
 16
0.0
 26
0.0
 36
1.0
 17
0.0
 27
0.0
 37
0.0
 40
90.19393584661103
 41
1.836842105263158
 42
50.0
 43
0.0
 44
0.0
 50
0.0
 51
0.0
 71
     0
 72
   100
 73
     1
 74
     1
 75
     0
 76
     0
 77
     0
 78
     0
281
     0
 65
     1
110
0.0
120
0.0
130
0.0
111
1.0
121
0.0
131
0.0
112
0.0
122
1.0
132
0.0
 79
     0
146
0.0
  0
ENDTAB
  0
TABLE
  2
LTYPE
  5
4
330
0
100
AcDbSymbolTable
 70
     1
  0
LTYPE
  5
11
330
4
100
AcDbSymbolTableRecord
100
AcDbLinetypeTableRecord
  2
BYBLOCK
 70
     0
  3

 72
    65
 73
     0
 40
0.0
  0
LTYPE
  5
12
330
4
100
AcDbSymbolTableRecord
100
AcDbLinetypeTableRecord
  2
BYLAYER
 70
     0
  3

 72
    65
 73
     0
 40
0.0
  0
LTYPE
  5
13
330
4
100
AcDbSymbolTableRecord
100
AcDbLinetypeTableRecord
  2
CONTINUOUS
 70
     0
  3
Solid line
 72
    65
 73
     0
 40
0.0
  0
ENDTAB
  0
TABLE
  2
LAYER
  5
2
330
0
100
AcDbSymbolTable
 70
     2
  0
LAYER
  5
14
330
2
100
AcDbSymbolTableRecord
100
AcDbLayerTableRecord
  2
0
 70
     0
 62
     7
  6
CONTINUOUS
370
    -3
390
0
  0
LAYER
  5
21
330
2
100
AcDbSymbolTableRecord
100
AcDbLayerTableRecord
  2
LAYER_1
 70
     0
 62
     5
  6
CONTINUOUS
370
    -3
390
0
  0
ENDTAB
  0
TABLE
  2
STYLE
  5
3
330
0
100
AcDbSymbolTable
 70
     5
  0
STYLE
  5
17
330
3
100
AcDbSymbolTableRecord
100
AcDbTextStyleTableRecord
  2
STANDARD
 70
     0
 40
0.0
 41
1.0
 50
0.0
 71
     0
 42
0.2
  3
txt
  4

  0
STYLE
  5
1D
330
3
100
AcDbSymbolTableRecord
100
AcDbTextStyleTableRecord
  2
STD
 70
     0
 40
0.0
 41
1.0
 50
0.0
 71
     0
 42
0.2
  3
txt
  4

  0
STYLE
  5
1E
330
3
100
AcDbSymbolTableRecord
100
AcDbTextStyleTableRecord
  2
TATESTD
 70
     4
 40
0.0
 41
1.0
 50
0.0
 71
     0
 42
0.2
  3
txt
  4

  0
STYLE
  5
1F
330
3
100
AcDbSymbolTableRecord
100
AcDbTextStyleTableRecord
  2
KANJISTD
 70
     0
 40
0.0
 41
1.0
 50
0.0
 71
     0
 42
0.2
  3
txt
  4
extfont
  0
STYLE
  5
20
330
3
100
AcDbSymbolTableRecord
100
AcDbTextStyleTableRecord
  2
KANJITATE
 70
     4
 40
0.0
 41
1.0
 50
0.0
 71
     0
 42
0.2
  3
txt
  4
extfont
  0
ENDTAB
  0
TABLE
  2
VIEW
  5
5
330
0
100
AcDbSymbolTable
 70
     0
  0
ENDTAB
  0
TABLE
  2
UCS
  5
6
330
0
100
AcDbSymbolTable
 70
     0
  0
ENDTAB
  0
TABLE
  2
APPID
  5
8
330
0
100
AcDbSymbolTable
 70
     1
  0
APPID
  5
16
330
8
100
AcDbSymbolTableRecord
100
AcDbRegAppTableRecord
  2
ACAD
 70
     0
  0
ENDTAB
  0
TABLE
  2
DIMSTYLE
  5
9
330
0
100
AcDbSymbolTable
 70
     1
100
AcDbDimStyleTable
  0
DIMSTYLE
105
18
330
9
100
AcDbSymbolTableRecord
100
AcDbDimStyleTableRecord
  2
STANDARD
 70
     0
  3

  4

289
     0
340
17
  0
ENDTAB
  0
TABLE
  2
BLOCK_RECORD
  5
1
330
0
100
AcDbSymbolTable
 70
     0
  0
BLOCK_RECORD
  5
A
330
1
100
AcDbSymbolTableRecord
100
AcDbBlockTableRecord
  2
*MODEL_SPACE
340
CE
  0
BLOCK_RECORD
  5
B
330
1
100
AcDbSymbolTableRecord
100
AcDbBlockTableRecord
  2
*PAPER_SPACE
340
CF
  0
ENDTAB
  0
ENDSEC
  0
SECTION
  2
BLOCKS
  0
BLOCK
  5
D
330
A
100
AcDbEntity
  8
0
100
AcDbBlockBegin
  2
*MODEL_SPACE
 70
     0
 10
0.0
 20
0.0
 30
0.0
  3
*MODEL_SPACE
  1

  4

  0
ENDBLK
  5
E
330
A
100
AcDbEntity
  8
0
100
AcDbBlockEnd
  0
BLOCK
  5
F
330
B
100
AcDbEntity
 67
     1
  8
0
100
AcDbBlockBegin
  2
*PAPER_SPACE
 70
     0
 10
0.0
 20
0.0
 30
0.0
  3
*PAPER_SPACE
  1

  4

  0
ENDBLK
  5
10
330
B
100
AcDbEntity
 67
     1
  8
0
100
AcDbBlockEnd
  0
ENDSEC
  0
SECTION
  2
ENTITIES
  0
LWPOLYLINE
  5
A9
330
A
100
AcDbEntity
  8
LAYER_1
 62
     7
100
AcDbPolyline
 90
       30
 70
     0
 43
0.0
 10
100.7635308159722
 20
114.0035495334201
 10
114.7359768337674
 20
112.2818630642361
 10
130.0197984483507
 20
106.4801500108507
 10
129.2596381293403
 20
97.43780788845486
 10
132.5007839626736
 20
95.71698269314236
 10
130.8600572374132
 20
94.91703152126735
 10
137.5020290798611
 20
92.07637803819443
 10
137.7020168728299
 20
81.15353054470485
 10
142.4231757269965
 20
77.07212592230903
 10
137.0214382595486
 20
72.1106716579861
 10
137.6617092556423
 20
71.43060980902777
 10
137.6219184027778
 20
55.42641872829861
 10
124.6583685980903
 20
41.86290554470486
 10
80.80678168402777
 20
66.62935248480902
 10
80.80678168402777
 20
61.82809516059027
 10
71.92411973741319
 20
48.66455756293402
 10
64.32251654730902
 20
52.5459743923611
 10
60.04112413194444
 20
49.54460720486111
 10
44.75678575303819
 20
59.70781114366319
 10
45.23737657335069
 20
63.18873562282985
 10
33.31407335069444
 20
71.23062201605902
 10
46.19752468532986
 20
86.39455430772568
 10
31.23358018663194
 20
94.95733913845486
 10
31.35346950954861
 20
105.1996080186632
 10
25.71195339626736
 20
109.4009019639757
 10
32.11362982855903
 20
112.4017523871528
 10
31.23358018663194
 20
113.3619004991319
 10
31.35346950954861
 20
124.7250311957465
 10
45.9975368923611
 20
130.6466335720486
 10
61.35491129557291
 20
124.1674424913194
  0
LWPOLYLINE
  5
A4
330
A
100
AcDbEntity
  8
LAYER_1
 62
     7
100
AcDbPolyline
 90
        3
 70
     0
 43
0.0
 10
80.04696587456597
 20
116.2811021592882
 10
81.0868679470486
 20
115.8423692491319
 10
81.62430284288193
 20
116.3617173936632
  0
SPLINE
  5
A3
330
A
100
AcDbEntity
  8
LAYER_1
 62
     7
100
AcDbSpline
210
0.0
220
0.0
230
1.0
 70
    11
 71
     3
 72
   134
 73
   130
 74
     0
 42
0.0000000001
 43
0.0000000001
 40
0.0
 40
0.0
 40
0.0
 40
0.0
 40
1.0
 40
1.0
 40
1.0
 40
2.0
 40
2.0
 40
2.0
 40
3.0
 40
3.0
 40
3.0
 40
4.0
 40
4.0
 40
4.0
 40
5.0
 40
5.0
 40
5.0
 40
6.0
 40
6.0
 40
6.0
 40
7.0
 40
7.0
 40
7.0
 40
8.0
 40
8.0
 40
8.0
 40
9.0
 40
9.0
 40
9.0
 40
10.0
 40
10.0
 40
10.0
 40
11.0
 40
11.0
 40
11.0
 40
12.0
 40
12.0
 40
12.0
 40
13.0
 40
13.0
 40
13.0
 40
14.0
 40
14.0
 40
14.0
 40
15.0
 40
15.0
 40
15.0
 40
16.0
 40
16.0
 40
16.0
 40
17.0
 40
17.0
 40
17.0
 40
18.0
 40
18.0
 40
18.0
 40
19.0
 40
19.0
 40
19.0
 40
20.0
 40
20.0
 40
20.0
 40
21.0
 40
21.0
 40
21.0
 40
22.0
 40
22.0
 40
22.0
 40
23.0
 40
23.0
 40
23.0
 40
24.0
 40
24.0
 40
24.0
 40
25.0
 40
25.0
 40
25.0
 40
26.0
 40
26.0
 40
26.0
 40
27.0
 40
27.0
 40
27.0
 40
28.0
 40
28.0
 40
28.0
 40
29.0
 40
29.0
 40
29.0
 40
30.0
 40
30.0
 40
30.0
 40
31.0
 40
31.0
 40
31.0
 40
32.0
 40
32.0
 40
32.0
 40
33.0
 40
33.0
 40
33.0
 40
34.0
 40
34.0
 40
34.0
 40
35.0
 40
35.0
 40
35.0
 40
36.0
 40
36.0
 40
36.0
 40
37.0
 40
37.0
 40
37.0
 40
38.0
 40
38.0
 40
38.0
 40
39.0
 40
39.0
 40
39.0
 40
40.0
 40
40.0
 40
40.0
 40
41.0
 40
41.0
 40
41.0
 40
42.0
 40
42.0
 40
42.0
 40
43.0
 40
43.0
 40
43.0
 40
43.0
 10
46.71738959418402
 20
105.2797064887153
 30
0.0
 10
46.71738959418402
 20
105.2797064887153
 30
0.0
 10
46.79748806423611
 20
116.362750922309
 30
0.0
 10
46.79748806423611
 20
116.7229356553819
 30
0.0
 10
46.79748806423611
 20
117.0831203884548
 30
0.0
 10
46.79748806423611
 20
117.602985297309
 30
0.0
 10
47.35766059027777
 20
117.8432807074653
 30
0.0
 10
47.91783311631944
 20
118.0830593532986
 30
0.0
 10
60.80128445095485
 20
123.7648830837673
 30
0.0
 10
61.08137071397569
 20
123.9245632595486
 30
0.0
 10
61.36145697699652
 20
124.0847601996528
 30
0.0
 10
62.04151882595485
 20
124.325055609809
 30
0.0
 10
62.60169135199652
 20
124.1250678168403
 30
0.0
 10
63.16186387803819
 20
123.9245632595486
 30
0.0
 10
78.84617784288194
 20
117.4427883572049
 30
0.0
 10
79.4063503689236
 20
117.2030097113715
 30
0.0
 10
79.96652289496527
 20
116.9627143012153
 30
0.0
 10
80.44659695095486
 20
116.6030463324653
 30
0.0
 10
80.16651068793402
 20
116.362750922309
 30
0.0
 10
79.88642442491319
 20
116.1224555121528
 30
0.0
 10
79.45234239366319
 20
115.8816433376736
 30
0.0
 10
80.00631374782985
 20
115.7627875434028
 30
0.0
 10
81.30649278428818
 20
115.4827012803819
 30
0.0
 10
81.81705593532985
 20
116.2728339301215
 30
0.0
 10
81.90697292751736
 20
116.3829047309028
 30
0.0
 10
82.16690538194443
 20
116.7027818467882
 30
0.0
 10
82.91983100043402
 20
116.7126003689236
 30
0.0
 10
83.72753363715277
 20
116.6226833767361
 30
0.0
 10
84.62773708767361
 20
116.5229478624132
 30
0.0
 10
99.13124457465277
 20
114.682233344184
 30
0.0
 10
99.13124457465277
 20
114.682233344184
 30
0.0
 10
99.13124457465277
 20
114.682233344184
 30
0.0
 10
112.3015001085069
 20
109.3383734809028
 30
0.0
 10
112.7748562282986
 20
109.1611233181423
 30
0.0
 10
113.2554470486111
 20
108.9807725694444
 30
0.0
 10
113.8156195746528
 20
108.4407538519965
 30
0.0
 10
113.7355211046007
 20
107.7002305772569
 30
0.0
 10
113.6554226345486
 20
106.9602240668403
 30
0.0
 10
113.2151394314236
 20
102.9790717230903
 30
0.0
 10
113.2151394314236
 20
102.9790717230903
 30
0.0
 10
113.2151394314236
 20
102.9790717230903
 30
0.0
 10
116.6836615668403
 20
101.622565375434
 30
0.0
 10
117.0360948350694
 20
101.498541937934
 30
0.0
 10
117.776618109809
 20
101.2386094835069
 30
0.0
 10
118.1765936957465
 20
100.7983262803819
 30
0.0
 10
118.0768581814236
 20
100.3781968858507
 30
0.0
 10
117.7363104926215
 20
100.518756781684
 30
0.0
 10
117.5766303168403
 20
100.5787014431424
 30
0.0
 10
117.2965440538194
 20
100.3781968858507
 30
0.0
 10
117.0164577907986
 20
100.1782090928819
 30
0.0
 10
105.1133083767361
 20
91.77613796657985
 30
0.0
 10
104.7128160264757
 20
91.47589789496527
 30
0.0
 10
104.3128404405382
 20
91.1761745876736
 30
0.0
 10
104.0926988389757
 20
90.81598985460069
 30
0.0
 10
104.0730617947049
 20
90.11577419704861
 30
0.0
 10
104.0529079861111
 20
89.41555853949652
 30
0.0
 10
103.9929633246528
 20
77.65245225694444
 30
0.0
 10
103.9929633246528
 20
77.65245225694444
 30
0.0
 10
103.9929633246528
 20
77.65245225694444
 30
0.0
 10
103.2927476671007
 20
77.01218126085068
 30
0.0
 10
103.2927476671007
 20
77.01218126085068
 30
0.0
 10
103.2927476671007
 20
77.01218126085068
 30
0.0
 10
98.65117051866318
 20
75.05157741970486
 30
0.0
 10
98.65117051866318
 20
75.05157741970486
 30
0.0
 10
98.65117051866318
 20
75.05157741970486
 30
0.0
 10
93.30989447699652
 20
77.79249538845485
 30
0.0
 10
93.30989447699652
 20
77.79249538845485
 30
0.0
 10
93.30989447699652
 20
77.79249538845485
 30
0.0
 10
81.80672064887152
 20
98.59794379340276
 30
0.0
 10
81.56694200303819
 20
98.95812852647569
 30
0.0
 10
81.32664659288194
 20
99.3183132595486
 30
0.0
 10
80.92667100694443
 20
100.0986273871528
 30
0.0
 10
81.32664659288194
 20
100.4784491644965
 30
0.0
 10
81.72713894314235
 20
100.8587877061632
 30
0.0
 10
81.68683132595486
 20
100.7983262803819
 30
0.0
 10
81.90697292751736
 20
101.0184678819444
 30
0.0
 10
82.1069607204861
 20
101.2189724392361
 30
0.0
 10
81.66667751736111
 20
102.0788682725694
 30
0.0
 10
80.88688015407985
 20
102.1388129340278
 30
0.0
 10
79.88797471788193
 20
102.2152940538194
 30
0.0
 10
79.3660427517361
 20
101.6587388780382
 30
0.0
 10
79.60633816189235
 20
101.498541937934
 30
0.0
 10
79.8466335720486
 20
101.3388617621528
 30
0.0
 10
80.68637559678818
 20
100.9187323676215
 30
0.0
 10
80.54633246527777
 20
100.078473578559
 30
0.0
 10
80.40680609809027
 20
99.23821478949652
 30
0.0
 10
77.5459988064236
 20
81.29357367621527
 30
0.0
 10
77.5459988064236
 20
81.29357367621527
 30
0.0
 10
77.5459988064236
 20
81.29357367621527
 30
0.0
 10
74.20511745876736
 20
76.73209499782985
 30
0.0
 10
74.20511745876736
 20
76.73209499782985
 30
0.0
 10
74.20511745876736
 20
76.73209499782985
 30
0.0
 10
70.86423611111111
 20
75.6918484157986
 30
0.0
 10
70.86423611111111
 20
75.6918484157986
 30
0.0
 10
70.86423611111111
 20
75.6918484157986
 30
0.0
 10
64.84238145616318
 20
81.07343207465277
 30
0.0
 10
64.84238145616318
 20
81.07343207465277
 30
0.0
 10
64.84238145616318
 20
81.07343207465277
 30
0.0
 10
49.49809841579861
 20
89.69564480251735
 30
0.0
 10
49.33841824001735
 20
89.79589708116319
 30
0.0
 10
49.17822129991319
 20
89.89563259548611
 30
0.0
 10
48.93792588975694
 20
89.73543565538193
 30
0.0
 10
48.79839952256944
 20
89.61554633246527
 30
0.0
 10
48.79839952256944
 20
89.91578640407985
 30
0.0
 10
48.77824571397569
 20
90.13592800564236
 30
0.0
 10
49.17822129991319
 20
90.5560574001736
 30
0.0
 10
49.57819688585069
 20
90.97618679470486
 30
0.0
 10
63.76234402126735
 20
107.7606920030382
 30
0.0
 10
64.12201199001736
 20
108.1606675889757
 30
0.0
 10
64.48219672309027
 20
108.5606431749132
 30
0.0
 10
65.02634955512153
 20
109.150788031684
 30
0.0
 10
65.36276312934027
 20
109.1006618923611
 30
0.0
 10
67.66288113064236
 20
108.7606309678819
 30
0.0
 10
67.1032253689236
 20
109.3611111111111
 30
0.0
 10
66.70273301866318
 20
109.5011542426215
 30
0.0
 10
66.30275743272568
 20
109.6411973741319
 30
0.0
 10
65.54259711371527
 20
109.8809760199653
 30
0.0
 10
64.70233832465277
 20
108.9606187608507
 30
0.0
 10
64.3282009548611
 20
108.5518581814236
 30
0.0
 10
62.34175889756944
 20
106.4202053493924
 30
0.0
 10
62.34175889756944
 20
106.4202053493924
 30
0.0
 10
62.34175889756944
 20
106.4202053493924
 30
0.0
 10
52.53925645616319
 20
99.35810411241319
 30
0.0
 10
52.53925645616319
 20
99.35810411241319
 30
0.0
 10
52.53925645616319
 20
99.35810411241319
 30
0.0
 10
48.73793809678819
 20
101.2789171006944
 30
0.0
 10
48.73793809678819
 20
101.2789171006944
 30
0.0
 10
48.73793809678819
 20
101.2789171006944
 30
0.0
 10
46.71738959418402
 20
105.2797064887153
 30
0.0
 10
46.71738959418402
 20
105.2797064887153
 30
0.0
  0
LINE
  5
A2
330
A
100
AcDbEntity
  8
LAYER_1
 62
     7
100
AcDbLine
 10
78.71233588324652
 20
99.01807318793402
 30
0.0
 11
66.21025661892361
 21
82.82888047960068
 31
0.0
  0
LINE
  5
A1
330
A
100
AcDbEntity
  8
LAYER_1
 62
     7
100
AcDbLine
 10
79.56654730902777
 20
100.1182644314236
 30
0.0
 11
79.08130560980902
 21
99.49194607204861
 31
0.0
  0
LINE
  5
A0
330
A
100
AcDbEntity
  8
LAYER_1
 62
     7
100
AcDbLine
 10
65.77152370876736
 20
82.2588894314236
 30
0.0
 11
65.32245551215277
 21
81.67339545355902
 31
0.0
  0
LINE
  5
9F
330
A
100
AcDbEntity
  8
LAYER_1
 62
     7
100
AcDbLine
 10
80.08641221788194
 20
102.0390774197049
 30
0.0
 11
81.84702826605903
 21
101.2789171006944
 31
0.0
  0
LINE
  5
9E
330
A
100
AcDbEntity
  8
LAYER_1
 62
     7
100
AcDbLine
 10
80.80678168402777
 20
66.62935248480902
 30
0.0
 11
80.68637559678818
 21
101.7987820095486
 31
0.0
  0
SPLINE
  5
9D
330
A
100
AcDbEntity
  8
LAYER_1
 62
     7
100
AcDbSpline
210
0.0
220
0.0
230
1.0
 70
     8
 71
     3
 72
    11
 73
     7
 74
     0
 42
0.0000000001
 43
0.0000000001
 40
0.0
 40
0.0
 40
0.0
 40
0.0
 40
1.0
 40
1.0
 40
1.0
 40
2.0
 40
2.0
 40
2.0
 40
2.0
 10
46.65744493272569
 20
62.26837836371527
 30
0.0
 10
46.49776475694444
 20
61.84824896918402
 30
0.0
 10
46.37735866970485
 20
61.44827338324652
 30
0.0
 10
46.45745713975694
 20
60.82815619574652
 30
0.0
 10
46.53755560980903
 20
60.20752224392361
 30
0.0
 10
46.37735866970485
 20
59.10733100043402
 30
0.0
 10
46.23731553819444
 20
58.76730007595486
 30
0.0
  0
SPLINE
  5
9C
330
A
100
AcDbEntity
  8
LAYER_1
 62
     7
100
AcDbSpline
210
0.0
220
0.0
230
1.0
 70
     8
 71
     3
 72
    11
 73
     7
 74
     0
 42
0.0000000001
 43
0.0000000001
 40
0.0
 40
0.0
 40
0.0
 40
0.0
 40
1.0
 40
1.0
 40
1.0
 40
2.0
 40
2.0
 40
2.0
 40
2.0
 10
48.21807318793402
 20
61.22813178168402
 30
0.0
 10
48.03772243923611
 20
60.86794704861111
 30
0.0
 10
48.13797471788194
 20
60.56770697699653
 30
0.0
 10
48.07803005642361
 20
59.82770046657986
 30
0.0
 10
48.01808539496528
 20
59.08717719184028
 30
0.0
 10
47.91783311631944
 20
58.28722601996527
 30
0.0
 10
47.65790066189236
 20
57.80715196397569
 30
0.0
  0
SPLINE
  5
9B
330
A
100
AcDbEntity
  8
LAYER_1
 62
     7
100
AcDbSpline
210
0.0
220
0.0
230
1.0
 70
     8
 71
     3
 72
    14
 73
    10
 74
     0
 42
0.0000000001
 43
0.0000000001
 40
0.0
 40
0.0
 40
0.0
 40
0.0
 40
1.0
 40
1.0
 40
1.0
 40
2.0
 40
2.0
 40
2.0
 40
3.0
 40
3.0
 40
3.0
 40
3.0
 10
49.87843695746528
 20
60.20752224392361
 30
0.0
 10
49.85828314887152
 20
59.52746039496527
 30
0.0
 10
49.85828314887152
 20
59.30731879340277
 30
0.0
 10
49.77818467881944
 20
58.88718939887152
 30
0.0
 10
49.69860297309027
 20
58.46706000434028
 30
0.0
 10
49.75854763454861
 20
58.00713975694444
 30
0.0
 10
49.73839382595486
 20
57.60716417100694
 30
0.0
 10
49.7182400173611
 20
57.20718858506944
 30
0.0
 10
49.65829535590277
 20
56.72659776475694
 30
0.0
 10
49.49809841579861
 20
56.56691758897569
 30
0.0
  0
SPLINE
  5
9A
330
A
100
AcDbEntity
  8
LAYER_1
 62
     7
100
AcDbSpline
210
0.0
220
0.0
230
1.0
 70
     8
 71
     3
 72
    11
 73
     7
 74
     0
 42
0.0000000001
 43
0.0000000001
 40
0.0
 40
0.0
 40
0.0
 40
0.0
 40
1.0
 40
1.0
 40
1.0
 40
2.0
 40
2.0
 40
2.0
 40
2.0
 10
51.63905300564235
 20
59.30731879340277
 30
0.0
 10
51.37912055121527
 20
58.64741075303819
 30
0.0
 10
51.41891140407986
 20
57.88725043402777
 30
0.0
 10
51.45870225694444
 20
57.34671495225694
 30
0.0
 10
51.49900987413194
 20
56.80669623480902
 30
0.0
 10
51.37912055121527
 20
55.58661566840277
 30
0.0
 10
51.33881293402777
 20
55.34632025824652
 30
0.0
  0
SPLINE
  5
99
330
A
100
AcDbEntity
  8
LAYER_1
 62
     7
100
AcDbSpline
210
0.0
220
0.0
230
1.0
 70
     8
 71
     3
 72
    11
 73
     7
 74
     0
 42
0.0000000001
 43
0.0000000001
 40
0.0
 40
0.0
 40
0.0
 40
0.0
 40
1.0
 40
1.0
 40
1.0
 40
2.0
 40
2.0
 40
2.0
 40
2.0
 10
53.01933051215277
 20
58.54715847439235
 30
0.0
 10
52.65914577907986
 20
58.00713975694444
 30
0.0
 10
52.71909044053819
 20
57.38702256944444
 30
0.0
 10
52.69893663194444
 20
56.74675157335069
 30
0.0
 10
52.6792995876736
 20
56.10648057725694
 30
0.0
 10
52.65914577907986
 20
55.10654161241319
 30
0.0
 10
52.47931179470486
 20
54.5861599392361
 30
0.0
  0
SPLINE
  5
98
330
A
100
AcDbEntity
  8
LAYER_1
 62
     7
100
AcDbSpline
210
0.0
220
0.0
230
1.0
 70
     8
 71
     3
 72
    11
 73
     7
 74
     0
 42
0.0000000001
 43
0.0000000001
 40
0.0
 40
0.0
 40
0.0
 40
0.0
 40
1.0
 40
1.0
 40
1.0
 40
2.0
 40
2.0
 40
2.0
 40
2.0
 10
55.03987901475694
 20
57.5069118923611
 30
0.0
 10
54.86004503038194
 20
57.16688096788194
 30
0.0
 10
54.81973741319444
 20
56.18657904730902
 30
0.0
 10
54.75979275173611
 20
55.38662787543402
 30
0.0
 10
54.69984809027778
 20
54.5861599392361
 30
0.0
 10
54.59959581163194
 20
53.56606716579861
 30
0.0
 10
54.41976182725694
 20
53.30613471137152
 30
0.0
  0
SPLINE
  5
97
330
A
100
AcDbEntity
  8
LAYER_1
 62
     7
100
AcDbSpline
210
0.0
220
0.0
230
1.0
 70
     8
 71
     3
 72
    11
 73
     7
 74
     0
 42
0.0000000001
 43
0.0000000001
 40
0.0
 40
0.0
 40
0.0
 40
0.0
 40
1.0
 40
1.0
 40
1.0
 40
2.0
 40
2.0
 40
2.0
 40
2.0
 10
56.64029812282985
 20
56.64701605902777
 30
0.0
 10
56.4000027126736
 20
56.04653591579861
 30
0.0
 10
56.31990424262153
 20
55.14633246527777
 30
0.0
 10
56.4000027126736
 20
54.44611680772569
 30
0.0
 10
56.48010118272569
 20
53.74590115017361
 30
0.0
 10
56.48010118272569
 20
52.5459743923611
 30
0.0
 10
56.2201687282986
 20
52.12584499782986
 30
0.0
  0
SPLINE
  5
96
330
A
100
AcDbEntity
  8
LAYER_1
 62
     7
100
AcDbSpline
210
0.0
220
0.0
230
1.0
 70
     8
 71
     3
 72
    11
 73
     7
 74
     0
 42
0.0000000001
 43
0.0000000001
 40
0.0
 40
0.0
 40
0.0
 40
0.0
 40
1.0
 40
1.0
 40
1.0
 40
2.0
 40
2.0
 40
2.0
 40
2.0
 10
58.34045274522569
 20
56.50645616319444
 30
0.0
 10
58.14046495225694
 20
55.90649278428819
 30
0.0
 10
58.10067409939236
 20
55.34632025824652
 30
0.0
 10
58.14046495225694
 20
54.66625840928819
 30
0.0
 10
58.18077256944444
 20
53.98619656032986
 30
0.0
 10
57.86037868923611
 20
51.22564154730902
 30
0.0
 10
57.72033555772569
 20
51.12538926866319
 30
0.0
  0
SPLINE
  5
95
330
A
100
AcDbEntity
  8
LAYER_1
 62
     7
100
AcDbSpline
210
0.0
220
0.0
230
1.0
 70
     8
 71
     3
 72
    11
 73
     7
 74
     0
 42
0.0000000001
 43
0.0000000001
 40
0.0
 40
0.0
 40
0.0
 40
0.0
 40
1.0
 40
1.0
 40
1.0
 40
2.0
 40
2.0
 40
2.0
 40
2.0
 10
58.72079128689236
 20
50.42517361111111
 30
0.0
 10
58.68048366970486
 20
51.30522325303819
 30
0.0
 10
58.92077907986111
 20
52.84569769965277
 30
0.0
 10
59.00087754991319
 20
53.66580268012152
 30
0.0
 10
59.08097601996527
 20
54.48642442491319
 30
0.0
 10
59.50110541449652
 20
56.74675157335069
 30
0.0
 10
59.54089626736111
 20
57.40717637803819
 30
0.0
  0
LWPOLYLINE
  5
8F
330
A
100
AcDbEntity
  8
LAYER_1
 62
     7
100
AcDbPolyline
 90
        4
 70
     0
 43
0.0
 10
49.07796902126736
 20
60.66795925564236
 10
57.74048936631944
 20
56.08684353298611
 10
60.79146592881944
 20
58.31719835069444
 10
60.05094265407985
 20
49.57509629991319
  0
LWPOLYLINE
  5
8A
330
A
100
AcDbEntity
  8
LAYER_1
 62
     7
100
AcDbPolyline
 90
        3
 70
     0
 43
0.0
 10
45.23737657335069
 20
63.20837266710069
 10
49.07796902126736
 20
60.66795925564236
 10
64.78243679470485
 20
81.05327826605902
  0
LINE
  5
89
330
A
100
AcDbEntity
  8
LAYER_1
 62
     7
100
AcDbLine
 10
46.17737087673611
 20
86.39455430772568
 30
0.0
 11
48.77824571397569
 21
89.63570014105902
 31
0.0
  0
SPLINE
  5
88
330
A
100
AcDbEntity
  8
LAYER_1
 62
     7
100
AcDbSpline
210
0.0
220
0.0
230
1.0
 70
     8
 71
     3
 72
    20
 73
    16
 74
     0
 42
0.0000000001
 43
0.0000000001
 40
0.0
 40
0.0
 40
0.0
 40
0.0
 40
1.0
 40
1.0
 40
1.0
 40
2.0
 40
2.0
 40
2.0
 40
3.0
 40
3.0
 40
3.0
 40
4.0
 40
4.0
 40
4.0
 40
5.0
 40
5.0
 40
5.0
 40
5.0
 10
132.8408148871528
 20
50.46496446397569
 30
0.0
 10
132.8005072699653
 20
51.66540798611111
 30
0.0
 10
133.0206488715278
 20
54.20633816189235
 30
0.0
 10
133.2004828559028
 20
54.76651068793402
 30
0.0
 10
133.3808336046007
 20
55.32668321397569
 30
0.0
 10
134.3208279079861
 20
57.56685655381944
 30
0.0
 10
134.1006863064236
 20
58.24743516710069
 30
0.0
 10
133.881061469184
 20
58.92749701605902
 30
0.0
 10
134.1006863064236
 20
60.80800238715278
 30
0.0
 10
134.0407416449653
 20
61.60795355902777
 30
0.0
 10
133.9807969835069
 20
62.40842149522569
 30
0.0
 10
133.5808213975694
 20
66.58956163194443
 30
0.0
 10
133.1606920030382
 20
67.30941433376735
 30
0.0
 10
132.9405504014757
 20
67.16988796657985
 30
0.0
 10
132.820661078559
 20
67.79000515407985
 30
0.0
 10
132.4806301540799
 20
67.72954372829861
 30
0.0
  0
SPLINE
  5
87
330
A
100
AcDbEntity
  8
LAYER_1
 62
     7
100
AcDbSpline
210
0.0
220
0.0
230
1.0
 70
     8
 71
     3
 72
    23
 73
    19
 74
     0
 42
0.0000000001
 43
0.0000000001
 40
0.0
 40
0.0
 40
0.0
 40
0.0
 40
1.0
 40
1.0
 40
1.0
 40
2.0
 40
2.0
 40
2.0
 40
3.0
 40
3.0
 40
3.0
 40
4.0
 40
4.0
 40
4.0
 40
5.0
 40
5.0
 40
5.0
 40
6.0
 40
6.0
 40
6.0
 40
6.0
 10
124.6382147894965
 20
51.96564805772569
 30
0.0
 10
124.7782579210069
 20
52.78575303819444
 30
0.0
 10
125.5187811957465
 20
54.72620307074652
 30
0.0
 10
125.5187811957465
 20
55.40678168402777
 30
0.0
 10
125.5187811957465
 20
56.08684353298611
 30
0.0
 10
125.8986029730903
 20
57.86709662543402
 30
0.0
 10
126.0386461046007
 20
58.1673366970486
 30
0.0
 10
126.1786892361111
 20
58.46706000434028
 30
0.0
 10
126.2386338975694
 20
60.14757758246527
 30
0.0
 10
125.9787014431424
 20
60.52791612413194
 30
0.0
 10
125.4386827256944
 20
60.66795925564236
 30
0.0
 10
125.2386949327257
 20
61.10824245876736
 30
0.0
 10
124.5183254665799
 20
61.46791042751735
 30
0.0
 10
123.797956000434
 20
61.82809516059027
 30
0.0
 10
123.3581895616319
 20
62.10818142361111
 30
0.0
 10
122.9380601671007
 20
62.62856309678819
 30
0.0
 10
122.5179307725694
 20
63.14842800564236
 30
0.0
 10
121.2776963975694
 20
63.48845893012152
 30
0.0
 10
120.8575670030382
 20
64.00884060329861
 30
0.0
  0
SPLINE
  5
86
330
A
100
AcDbEntity
  8
LAYER_1
 62
     7
100
AcDbSpline
210
0.0
220
0.0
230
1.0
 70
     8
 71
     3
 72
    29
 73
    25
 74
     0
 42
0.0000000001
 43
0.0000000001
 40
0.0
 40
0.0
 40
0.0
 40
0.0
 40
1.0
 40
1.0
 40
1.0
 40
2.0
 40
2.0
 40
2.0
 40
3.0
 40
3.0
 40
3.0
 40
4.0
 40
4.0
 40
4.0
 40
5.0
 40
5.0
 40
5.0
 40
6.0
 40
6.0
 40
6.0
 40
7.0
 40
7.0
 40
7.0
 40
8.0
 40
8.0
 40
8.0
 40
8.0
 10
123.177838812934
 20
64.38866238064236
 30
0.0
 10
123.8982082790799
 20
63.94889594184027
 30
0.0
 10
124.5384792751736
 20
63.64865587022569
 30
0.0
 10
124.8986640082465
 20
63.34841579861111
 30
0.0
 10
125.2583319769965
 20
63.04869249131944
 30
0.0
 10
126.5988186306424
 20
62.14848904079861
 30
0.0
 10
127.4189236111111
 20
61.90819363064236
 30
0.0
 10
127.8390530056424
 20
61.2679226345486
 30
0.0
 10
127.7393174913194
 20
61.0880886501736
 30
0.0
 10
127.6990098741319
 20
60.4679714626736
 30
0.0
 10
127.6592190212674
 20
59.8478542751736
 30
0.0
 10
127.3992865668403
 20
58.56731228298611
 30
0.0
 10
127.3191880967882
 20
57.60716417100694
 30
0.0
 10
127.2390896267361
 20
56.64701605902777
 30
0.0
 10
126.8990587022569
 20
55.94680040147569
 30
0.0
 10
126.7988064236111
 20
54.92619086371527
 30
0.0
 10
126.6990709092882
 20
53.90609809027777
 30
0.0
 10
126.1585354275174
 20
51.86539577907985
 30
0.0
 10
126.0587999131944
 20
51.28558620876736
 30
0.0
 10
125.9585476345486
 20
50.70525987413194
 30
0.0
 10
125.7187689887153
 20
50.12493353949652
 30
0.0
 10
125.6986151801215
 20
49.66501329210069
 30
0.0
 10
125.6784613715278
 20
49.20457628038194
 30
0.0
 10
124.6986762152778
 20
45.72365180121528
 30
0.0
 10
124.6382147894965
 20
45.38362087673611
 30
0.0
  0
SPLINE
  5
85
330
A
100
AcDbEntity
  8
LAYER_1
 62
     7
100
AcDbSpline
210
0.0
220
0.0
230
1.0
 70
     8
 71
     3
 72
    29
 73
    25
 74
     0
 42
0.0000000001
 43
0.0000000001
 40
0.0
 40
0.0
 40
0.0
 40
0.0
 40
1.0
 40
1.0
 40
1.0
 40
2.0
 40
2.0
 40
2.0
 40
3.0
 40
3.0
 40
3.0
 40
4.0
 40
4.0
 40
4.0
 40
5.0
 40
5.0
 40
5.0
 40
6.0
 40
6.0
 40
6.0
 40
7.0
 40
7.0
 40
7.0
 40
8.0
 40
8.0
 40
8.0
 40
8.0
 10
127.2189358181424
 20
65.00929633246527
 30
0.0
 10
127.8793606228299
 20
64.72921006944443
 30
0.0
 10
127.7992621527778
 20
64.60880398220486
 30
0.0
 10
128.1392930772569
 20
64.26877305772568
 30
0.0
 10
128.4793240017361
 20
63.92874213324652
 30
0.0
 10
128.6591579861111
 20
63.72875434027777
 30
0.0
 10
129.2596381293403
 20
63.64865587022569
 30
0.0
 10
129.5598782009548
 20
63.22852647569444
 30
0.0
 10
129.5598782009548
 20
63.74890814887152
 30
0.0
 10
129.5996690538194
 20
62.38826768663194
 30
0.0
 10
129.639459906684
 20
61.02814398871527
 30
0.0
 10
129.5195705837674
 20
58.6076199001736
 30
0.0
 10
129.4394721137153
 20
57.66710883246527
 30
0.0
 10
129.3598904079861
 20
56.72659776475694
 30
0.0
 10
129.019342719184
 20
55.72665879991319
 30
0.0
 10
128.8792995876736
 20
54.84660915798611
 30
0.0
 10
128.7392564561632
 20
53.9660427517361
 30
0.0
 10
128.3795884874132
 20
52.44572211371527
 30
0.0
 10
128.3795884874132
 20
51.72535264756944
 30
0.0
 10
128.3795884874132
 20
51.00549994574652
 30
0.0
 10
128.5992133246528
 20
50.72541368272569
 30
0.0
 10
128.039557562934
 20
50.04483506944444
 30
0.0
 10
127.4788682725694
 20
49.36477322048611
 30
0.0
 10
125.918756781684
 20
44.62346055772569
 30
0.0
 10
126.1585354275174
 20
43.58321397569444
 30
0.0
  0
SPLINE
  5
84
330
A
100
AcDbEntity
  8
LAYER_1
 62
     7
100
AcDbSpline
210
0.0
220
0.0
230
1.0
 70
     8
 71
     3
 72
    29
 73
    25
 74
     0
 42
0.0000000001
 43
0.0000000001
 40
0.0
 40
0.0
 40
0.0
 40
0.0
 40
1.0
 40
1.0
 40
1.0
 40
2.0
 40
2.0
 40
2.0
 40
3.0
 40
3.0
 40
3.0
 40
4.0
 40
4.0
 40
4.0
 40
5.0
 40
5.0
 40
5.0
 40
6.0
 40
6.0
 40
6.0
 40
7.0
 40
7.0
 40
7.0
 40
8.0
 40
8.0
 40
8.0
 40
8.0
 10
130.7200141059028
 20
66.08933376736111
 30
0.0
 10
130.9200018988715
 20
66.12964138454861
 30
0.0
 10
131.0801988389757
 20
65.54931504991319
 30
0.0
 10
131.3602851019965
 20
65.64905056423611
 30
0.0
 10
131.5602728949653
 20
65.16897650824652
 30
0.0
 10
131.6202175564236
 20
64.80930853949653
 30
0.0
 10
131.7003160264757
 20
63.98868679470485
 30
0.0
 10
131.7804144965278
 20
63.16858181423611
 30
0.0
 10
131.9204576280382
 20
61.68805202907986
 30
0.0
 10
131.9204576280382
 20
61.0880886501736
 30
0.0
 10
131.9204576280382
 20
60.48760850694444
 30
0.0
 10
131.9204576280382
 20
59.86749131944444
 30
0.0
 10
131.6801622178819
 20
59.26752794053819
 30
0.0
 10
131.4403835720486
 20
58.66756456163194
 30
0.0
 10
131.2202419704861
 20
57.48727484809027
 30
0.0
 10
131.4403835720486
 20
56.8867947048611
 30
0.0
 10
131.6605251736111
 20
56.28683132595486
 30
0.0
 10
131.0600450303819
 20
54.92619086371527
 30
0.0
 10
130.9200018988715
 20
53.84615342881944
 30
0.0
 10
130.7799587673611
 20
52.76559922960069
 30
0.0
 10
130.7200141059028
 20
52.28552517361111
 30
0.0
 10
130.4600816514757
 20
51.14554307725694
 30
0.0
 10
130.1996324327257
 20
50.00504421657985
 30
0.0
 10
129.4797797309028
 20
47.76435411241319
 30
0.0
 10
129.6198228624132
 20
47.10444607204861
 30
0.0
  0
SPLINE
  5
83
330
A
100
AcDbEntity
  8
LAYER_1
 62
     7
100
AcDbSpline
210
0.0
220
0.0
230
1.0
 70
     8
 71
     3
 72
    23
 73
    19
 74
     0
 42
0.0000000001
 43
0.0000000001
 40
0.0
 40
0.0
 40
0.0
 40
0.0
 40
1.0
 40
1.0
 40
1.0
 40
2.0
 40
2.0
 40
2.0
 40
3.0
 40
3.0
 40
3.0
 40
4.0
 40
4.0
 40
4.0
 40
5.0
 40
5.0
 40
5.0
 40
6.0
 40
6.0
 40
6.0
 40
6.0
 10
124.5782701280382
 20
73.47131212022569
 30
0.0
 10
124.9586086697048
 20
72.95093044704861
 30
0.0
 10
124.858356391059
 20
73.45115831163194
 30
0.0
 10
125.0986518012153
 20
72.45121934678819
 30
0.0
 10
125.3384304470486
 20
71.45076361762152
 30
0.0
 10
125.5187811957465
 20
70.89059109157985
 30
0.0
 10
125.6386705186632
 20
70.57071397569443
 30
0.0
 10
126.0184922960069
 20
70.35057237413194
 30
0.0
 10
126.1187445746528
 20
70.35057237413194
 30
0.0
 10
126.5590277777778
 20
69.89013536241319
 30
0.0
 10
126.9987942165799
 20
69.43021511501736
 30
0.0
 10
127.2788804796007
 20
69.04987657335069
 30
0.0
 10
127.8194159613715
 20
68.83025173611111
 30
0.0
 10
128.3594346788194
 20
68.61011013454861
 30
0.0
 10
128.9593980577257
 20
68.14967312282985
 30
0.0
 10
129.459625922309
 20
67.7698513454861
 30
0.0
 10
129.9598537868924
 20
67.38951280381944
 30
0.0
 10
130.6399156358507
 20
66.84949408637152
 30
0.0
 10
131.1799343532986
 20
66.54925401475694
 30
0.0
  0
SPLINE
  5
82
330
A
100
AcDbEntity
  8
LAYER_1
 62
     7
100
AcDbSpline
210
0.0
220
0.0
230
1.0
 70
     8
 71
     3
 72
    29
 73
    25
 74
     0
 42
0.0000000001
 43
0.0000000001
 40
0.0
 40
0.0
 40
0.0
 40
0.0
 40
1.0
 40
1.0
 40
1.0
 40
2.0
 40
2.0
 40
2.0
 40
3.0
 40
3.0
 40
3.0
 40
4.0
 40
4.0
 40
4.0
 40
5.0
 40
5.0
 40
5.0
 40
6.0
 40
6.0
 40
6.0
 40
7.0
 40
7.0
 40
7.0
 40
8.0
 40
8.0
 40
8.0
 40
8.0
 10
124.5984239366319
 20
79.13298204210069
 30
0.0
 10
124.858356391059
 20
78.67254503038194
 30
0.0
 10
124.9183010525174
 20
78.79295111762153
 30
0.0
 10
125.2185411241319
 20
77.5925075954861
 30
0.0
 10
125.5187811957465
 20
76.39206407335068
 30
0.0
 10
125.5988796657986
 20
75.33166368272569
 30
0.0
 10
125.8986029730903
 20
74.8515896267361
 30
0.0
 10
126.1988430447048
 20
74.37151557074652
 30
0.0
 10
126.1388983832465
 20
73.99117702907985
 30
0.0
 10
126.2789415147569
 20
73.49146592881944
 30
0.0
 10
126.4189846462674
 20
72.9912380642361
 30
0.0
 10
126.7590155707465
 20
72.41091172960068
 30
0.0
 10
126.7988064236111
 20
71.61044379340277
 30
0.0
 10
127.158991156684
 20
71.55049913194443
 30
0.0
 10
127.5191758897569
 20
71.19083116319443
 30
0.0
 10
127.8194159613715
 20
70.97068956163194
 30
0.0
 10
128.1191392686632
 20
70.75054796006944
 30
0.0
 10
129.0394965277778
 20
70.17022162543402
 30
0.0
 10
129.5195705837674
 20
70.07048611111111
 30
0.0
 10
129.9996446397569
 20
69.97023383246527
 30
0.0
 10
130.4197740342882
 20
69.71030137803818
 30
0.0
 10
130.9597927517361
 20
69.31032579210068
 30
0.0
 10
131.5003282335069
 20
68.90983344184028
 30
0.0
 10
132.5405748155382
 20
68.44991319444443
 30
0.0
 10
132.8408148871528
 20
68.1698269314236
 30
0.0
  0
SPLINE
  5
81
330
A
100
AcDbEntity
  8
LAYER_1
 62
     7
100
AcDbSpline
210
0.0
220
0.0
230
1.0
 70
     8
 71
     3
 72
    17
 73
    13
 74
     0
 42
0.0000000001
 43
0.0000000001
 40
0.0
 40
0.0
 40
0.0
 40
0.0
 40
1.0
 40
1.0
 40
1.0
 40
2.0
 40
2.0
 40
2.0
 40
3.0
 40
3.0
 40
3.0
 40
4.0
 40
4.0
 40
4.0
 40
4.0
 10
135.8411485460069
 20
71.05078803168402
 30
0.0
 10
136.101597764757
 20
70.93038194444443
 30
0.0
 10
136.4617824978299
 20
70.69060329861111
 30
0.0
 10
136.541364203559
 20
70.47046169704861
 30
0.0
 10
136.6214626736111
 20
70.2503200954861
 30
0.0
 10
136.7015611436632
 20
70.07048611111111
 30
0.0
 10
136.8612413194445
 20
69.66999376085069
 30
0.0
 10
137.0214382595486
 20
69.27001817491319
 30
0.0
 10
137.1418443467882
 20
68.61011013454861
 30
0.0
 10
137.3015245225694
 20
68.1698269314236
 30
0.0
 10
137.4617214626736
 20
67.72954372829861
 30
0.0
 10
137.5619737413194
 20
67.20967881944443
 30
0.0
 10
137.6219184027778
 20
66.58956163194443
 30
0.0
  0
SPLINE
  5
80
330
A
100
AcDbEntity
  8
LAYER_1
 62
     7
100
AcDbSpline
210
0.0
220
0.0
230
1.0
 70
     8
 71
     3
 72
    23
 73
    19
 74
     0
 42
0.0000000001
 43
0.0000000001
 40
0.0
 40
0.0
 40
0.0
 40
0.0
 40
1.0
 40
1.0
 40
1.0
 40
2.0
 40
2.0
 40
2.0
 40
3.0
 40
3.0
 40
3.0
 40
4.0
 40
4.0
 40
4.0
 40
5.0
 40
5.0
 40
5.0
 40
6.0
 40
6.0
 40
6.0
 40
6.0
 10
134.3409817165799
 20
69.59041205512152
 30
0.0
 10
134.3208279079861
 20
69.15012885199653
 30
0.0
 10
134.6412217881944
 20
69.21007351345486
 30
0.0
 10
134.860846625434
 20
68.92998725043402
 30
0.0
 10
135.0815049913194
 20
68.64990098741319
 30
0.0
 10
135.2013943142361
 20
68.42975938585069
 30
0.0
 10
135.2411851671007
 20
67.84994981553818
 30
0.0
 10
135.2809760199653
 20
67.26962348090277
 30
0.0
 10
135.3212836371528
 20
66.42936469184028
 30
0.0
 10
135.6013699001736
 20
65.26922878689236
 30
0.0
 10
135.8814561631944
 20
64.10857611762152
 30
0.0
 10
135.9811916775174
 20
62.04823676215277
 30
0.0
 10
136.2814317491319
 20
61.34802110460069
 30
0.0
 10
136.5816718207465
 20
60.6478054470486
 30
0.0
 10
136.7615058051215
 20
59.74760199652777
 30
0.0
 10
136.7615058051215
 20
58.72750922309027
 30
0.0
 10
136.7615058051215
 20
57.70689968532986
 30
0.0
 10
136.8214504665799
 20
55.24658474392361
 30
0.0
 10
136.7615058051215
 20
54.5861599392361
 30
0.0
  0
SPLINE
  5
7F
330
A
100
AcDbEntity
  8
LAYER_1
 62
     7
100
AcDbSpline
210
0.0
220
0.0
230
1.0
 70
     8
 71
     3
 72
    29
 73
    25
 74
     0
 42
0.0000000001
 43
0.0000000001
 40
0.0
 40
0.0
 40
0.0
 40
0.0
 40
1.0
 40
1.0
 40
1.0
 40
2.0
 40
2.0
 40
2.0
 40
3.0
 40
3.0
 40
3.0
 40
4.0
 40
4.0
 40
4.0
 40
5.0
 40
5.0
 40
5.0
 40
6.0
 40
6.0
 40
6.0
 40
7.0
 40
7.0
 40
7.0
 40
8.0
 40
8.0
 40
8.0
 40
8.0
 10
125.7384060329861
 20
82.13383246527778
 30
0.0
 10
126.2189968532986
 20
81.47340766059027
 30
0.0
 10
126.4189846462674
 20
81.25326605902777
 30
0.0
 10
126.5988186306424
 20
80.37321641710069
 30
0.0
 10
126.7786526150174
 20
79.49316677517361
 30
0.0
 10
127.0788926866319
 20
78.63275417751736
 30
0.0
 10
127.3589789496528
 20
77.97232937282985
 30
0.0
 10
127.6390652126736
 20
77.31242133246528
 30
0.0
 10
127.8592068142361
 20
75.91199001736111
 30
0.0
 10
127.9393052842882
 20
75.31202663845485
 30
0.0
 10
128.0194037543403
 20
74.71154649522569
 30
0.0
 10
128.0591946072049
 20
74.31157090928819
 30
0.0
 10
128.3594346788194
 20
73.03102891710068
 30
0.0
 10
128.7997178819445
 20
72.63105333116319
 30
0.0
 10
129.2193305121528
 20
72.47085639105902
 30
0.0
 10
129.8596015082465
 20
72.09103461371527
 30
0.0
 10
130.4998725043403
 20
71.71069607204861
 30
0.0
 10
131.0600450303819
 20
71.37066514756944
 30
0.0
 10
131.319977484809
 20
71.19083116319443
 30
0.0
 10
131.580426703559
 20
71.01048041449653
 30
0.0
 10
132.200543891059
 20
70.63065863715278
 30
0.0
 10
132.7405626085069
 20
70.17022162543402
 30
0.0
 10
133.2805813259548
 20
69.71030137803818
 30
0.0
 10
133.7410183376736
 20
69.51031358506944
 30
0.0
 10
134.0009507921007
 20
69.25038113064235
 30
0.0
  0
SPLINE
  5
7E
330
A
100
AcDbEntity
  8
LAYER_1
 62
     7
100
AcDbSpline
210
0.0
220
0.0
230
1.0
 70
     8
 71
     3
 72
    26
 73
    22
 74
     0
 42
0.0000000001
 43
0.0000000001
 40
0.0
 40
0.0
 40
0.0
 40
0.0
 40
1.0
 40
1.0
 40
1.0
 40
2.0
 40
2.0
 40
2.0
 40
3.0
 40
3.0
 40
3.0
 40
4.0
 40
4.0
 40
4.0
 40
5.0
 40
5.0
 40
5.0
 40
6.0
 40
6.0
 40
6.0
 40
7.0
 40
7.0
 40
7.0
 40
7.0
 10
127.1192003038194
 20
83.27381456163194
 30
0.0
 10
127.2990342881944
 20
82.49350043402777
 30
0.0
 10
127.2189358181424
 20
82.33382025824652
 30
0.0
 10
127.6592190212674
 20
81.47340766059027
 30
0.0
 10
128.0989854600694
 20
80.61351182725694
 30
0.0
 10
128.1392930772569
 20
80.47295193142361
 30
0.0
 10
128.4193793402778
 20
79.39291449652777
 30
0.0
 10
128.6994656032986
 20
78.31236029730903
 30
0.0
 10
129.019342719184
 20
77.51240912543402
 30
0.0
 10
129.0994411892361
 20
76.75224880642361
 30
0.0
 10
129.1795396592882
 20
75.99208848741318
 30
0.0
 10
129.4198350694445
 20
74.81179877387152
 30
0.0
 10
129.4198350694445
 20
73.91159532335068
 30
0.0
 10
129.9598537868924
 20
73.51110297309027
 30
0.0
 10
130.5401801215278
 20
73.23101671006944
 30
0.0
 10
131.1799343532986
 20
72.85119493272569
 30
0.0
 10
131.8202053493924
 20
72.47085639105902
 30
0.0
 10
132.6604641384548
 20
71.9711452907986
 30
0.0
 10
133.1606920030382
 20
71.85073920355902
 30
0.0
 10
133.6609198676215
 20
71.73084988064235
 30
0.0
 10
135.3414374457465
 20
70.77070176866319
 30
0.0
 10
135.4008653428819
 20
70.63065863715278
 30
0.0
  0
SPLINE
  5
7D
330
A
100
AcDbEntity
  8
LAYER_1
 62
     7
100
AcDbSpline
210
0.0
220
0.0
230
1.0
 70
     8
 71
     3
 72
    29
 73
    25
 74
     0
 42
0.0000000001
 43
0.0000000001
 40
0.0
 40
0.0
 40
0.0
 40
0.0
 40
1.0
 40
1.0
 40
1.0
 40
2.0
 40
2.0
 40
2.0
 40
3.0
 40
3.0
 40
3.0
 40
4.0
 40
4.0
 40
4.0
 40
5.0
 40
5.0
 40
5.0
 40
6.0
 40
6.0
 40
6.0
 40
7.0
 40
7.0
 40
7.0
 40
8.0
 40
8.0
 40
8.0
 40
8.0
 10
129.1397488064236
 20
84.99463975694444
 30
0.0
 10
129.4797797309028
 20
83.95387641059027
 30
0.0
 10
129.5598782009548
 20
84.35385199652777
 30
0.0
 10
129.9598537868924
 20
83.21386990017361
 30
0.0
 10
130.3598293728298
 20
82.07388780381943
 30
0.0
 10
130.520026312934
 20
81.55350613064235
 30
0.0
 10
130.7799587673611
 20
81.07343207465277
 30
0.0
 10
131.0398912217882
 20
80.59335801866318
 30
0.0
 10
130.9799465603298
 20
80.21301947699652
 30
0.0
 10
131.140143500434
 20
79.73294542100693
 30
0.0
 10
131.3003404405382
 20
79.25287136501736
 30
0.0
 10
131.4801744249132
 20
79.13298204210069
 30
0.0
 10
131.6005805121528
 20
78.45240342881944
 30
0.0
 10
131.7204698350694
 20
77.77234157986111
 30
0.0
 10
132.0000393337674
 20
76.69230414496528
 30
0.0
 10
131.9804022894965
 20
76.23186713324652
 30
0.0
 10
132.3002794053819
 20
76.21223008897569
 30
0.0
 10
132.9803412543403
 20
75.65205756293402
 30
0.0
 10
133.3808336046007
 20
75.41176215277777
 30
0.0
 10
133.7808091905382
 20
75.17198350694444
 30
0.0
 10
134.8210557725694
 20
74.51155870225693
 30
0.0
 10
135.4210191514757
 20
74.2314724392361
 30
0.0
 10
136.0214992947049
 20
73.95138617621527
 30
0.0
 10
137.421930609809
 20
73.09097357855902
 30
0.0
 10
137.7020168728299
 20
72.81140407986111
 30
0.0
  0
SPLINE
  5
7C
330
A
100
AcDbEntity
  8
LAYER_1
 62
     7
100
AcDbSpline
210
0.0
220
0.0
230
1.0
 70
     8
 71
     3
 72
    32
 73
    28
 74
     0
 42
0.0000000001
 43
0.0000000001
 40
0.0
 40
0.0
 40
0.0
 40
0.0
 40
1.0
 40
1.0
 40
1.0
 40
2.0
 40
2.0
 40
2.0
 40
3.0
 40
3.0
 40
3.0
 40
4.0
 40
4.0
 40
4.0
 40
5.0
 40
5.0
 40
5.0
 40
6.0
 40
6.0
 40
6.0
 40
7.0
 40
7.0
 40
7.0
 40
8.0
 40
8.0
 40
8.0
 40
9.0
 40
9.0
 40
9.0
 40
9.0
 10
139.6424669053819
 20
74.55134955512152
 30
0.0
 10
138.9624050564236
 20
75.13167588975693
 30
0.0
 10
139.2223375108507
 20
75.23192816840277
 30
0.0
 10
138.4218695746528
 20
75.65205756293402
 30
0.0
 10
137.6219184027778
 20
76.07218695746528
 30
0.0
 10
136.981647406684
 20
76.45200873480903
 30
0.0
 10
136.3816840277778
 20
76.79203965928819
 30
0.0
 10
135.7812038845486
 20
77.13207058376736
 30
0.0
 10
134.8810004340278
 20
77.87259385850693
 30
0.0
 10
134.2608832465278
 20
78.23277859157986
 30
0.0
 10
133.8407538519965
 20
78.99293891059027
 30
0.0
 10
134.0009507921007
 20
79.17277289496528
 30
0.0
 10
133.7808091905382
 20
79.57274848090277
 30
0.0
 10
133.5606675889757
 20
79.97324083116318
 30
0.0
 10
133.5808213975694
 20
79.99287787543402
 30
0.0
 10
133.3405259874132
 20
80.47295193142361
 30
0.0
 10
133.1007473415799
 20
80.95302598741318
 30
0.0
 10
133.1606920030382
 20
80.81349962022568
 30
0.0
 10
132.8005072699653
 20
81.41346299913194
 30
0.0
 10
132.4403225368924
 20
82.01342637803819
 30
0.0
 10
132.8408148871528
 20
81.7938015407986
 30
0.0
 10
132.2604885525174
 20
82.71364203559027
 30
0.0
 10
131.6801622178819
 20
83.63399929470485
 30
0.0
 10
131.7003160264757
 20
83.67379014756943
 30
0.0
 10
131.4403835720486
 20
84.31406114366318
 30
0.0
 10
131.1799343532986
 20
84.95433213975694
 30
0.0
 10
130.8202663845486
 20
85.49435085720485
 30
0.0
 10
130.699860297309
 20
86.29481879340277
 30
0.0
  0
SPLINE
  5
7B
330
A
100
AcDbEntity
  8
LAYER_1
 62
     7
100
AcDbSpline
210
0.0
220
0.0
230
1.0
 70
     8
 71
     3
 72
    32
 73
    28
 74
     0
 42
0.0000000001
 43
0.0000000001
 40
0.0
 40
0.0
 40
0.0
 40
0.0
 40
1.0
 40
1.0
 40
1.0
 40
2.0
 40
2.0
 40
2.0
 40
3.0
 40
3.0
 40
3.0
 40
4.0
 40
4.0
 40
4.0
 40
5.0
 40
5.0
 40
5.0
 40
6.0
 40
6.0
 40
6.0
 40
7.0
 40
7.0
 40
7.0
 40
8.0
 40
8.0
 40
8.0
 40
9.0
 40
9.0
 40
9.0
 40
9.0
 10
132.380377875434
 20
87.77483181423611
 30
0.0
 10
132.8604519314236
 20
87.15471462673611
 30
0.0
 10
132.8408148871528
 20
87.13507758246527
 30
0.0
 10
133.0604397243924
 20
86.45501573350694
 30
0.0
 10
133.2805813259548
 20
85.77443712022568
 30
0.0
 10
133.4009874131944
 20
85.25457221137152
 30
0.0
 10
133.7410183376736
 20
84.69439968532986
 30
0.0
 10
134.0810492621528
 20
84.13422715928819
 30
0.0
 10
133.8009629991319
 20
83.91408555772568
 30
0.0
 10
134.3208279079861
 20
83.15392523871527
 30
0.0
 10
134.8412095811632
 20
82.39376491970485
 30
0.0
 10
134.9812527126736
 20
81.77364773220485
 30
0.0
 10
135.2411851671007
 20
80.99333360460069
 30
0.0
 10
135.5011176215278
 20
80.21301947699652
 30
0.0
 10
135.5011176215278
 20
79.8931423611111
 30
0.0
 10
135.8215115017361
 20
79.63320990668402
 30
0.0
 10
136.1413886176215
 20
79.37276068793402
 30
0.0
 10
136.4617824978299
 20
79.17277289496528
 30
0.0
 10
136.8214504665799
 20
78.95263129340277
 30
0.0
 10
137.1816351996528
 20
78.73248969184027
 30
0.0
 10
137.6415554470486
 20
78.47255723741318
 30
0.0
 10
138.0017401801215
 20
78.07258165147569
 30
0.0
 10
138.3619249131944
 20
77.67260606553819
 30
0.0
 10
138.7619004991319
 20
77.39251980251736
 30
0.0
 10
139.2621283637153
 20
77.15222439236111
 30
0.0
 10
139.7623562282986
 20
76.91244574652777
 30
0.0
 10
140.5023627387153
 20
76.47216254340277
 30
0.0
 10
141.1229966905382
 20
75.95178087022569
 30
0.0
  0
SPLINE
  5
7A
330
A
100
AcDbEntity
  8
LAYER_1
 62
     7
100
AcDbSpline
210
0.0
220
0.0
230
1.0
 70
     8
 71
     3
 72
    23
 73
    19
 74
     0
 42
0.0000000001
 43
0.0000000001
 40
0.0
 40
0.0
 40
0.0
 40
0.0
 40
1.0
 40
1.0
 40
1.0
 40
2.0
 40
2.0
 40
2.0
 40
3.0
 40
3.0
 40
3.0
 40
4.0
 40
4.0
 40
4.0
 40
5.0
 40
5.0
 40
5.0
 40
6.0
 40
6.0
 40
6.0
 40
6.0
 10
134.060895453559
 20
89.23572455512152
 30
0.0
 10
134.4810248480903
 20
88.67503526475694
 30
0.0
 10
134.7409573025174
 20
87.93502875434027
 30
0.0
 10
135.0411973741319
 20
87.27512071397568
 30
0.0
 10
135.3414374457465
 20
86.61469590928819
 30
0.0
 10
135.9016099717882
 20
85.43440619574652
 30
0.0
 10
136.1615424262153
 20
84.59414740668402
 30
0.0
 10
136.4214748806423
 20
83.75388861762153
 30
0.0
 10
137.0818996853299
 20
82.03358018663194
 30
0.0
 10
137.1418443467882
 20
80.83313666449652
 30
0.0
 10
137.4818752712673
 20
80.6930935329861
 30
0.0
 10
137.601764594184
 20
80.75355495876735
 30
0.0
 10
138.0218939887153
 20
80.37321641710069
 30
0.0
 10
138.4420233832465
 20
79.99287787543402
 30
0.0
 10
139.5220608181423
 20
79.25287136501736
 30
0.0
 10
139.8822455512153
 20
78.95263129340277
 30
0.0
 10
140.2424302842882
 20
78.6529079861111
 30
0.0
 10
141.1229966905382
 20
78.01263699001736
 30
0.0
 10
141.4025661892361
 20
77.87259385850693
 30
0.0
  0
SPLINE
  5
79
330
A
100
AcDbEntity
  8
LAYER_1
 62
     7
100
AcDbSpline
210
0.0
220
0.0
230
1.0
 70
     8
 71
     3
 72
    17
 73
    13
 74
     0
 42
0.0000000001
 43
0.0000000001
 40
0.0
 40
0.0
 40
0.0
 40
0.0
 40
1.0
 40
1.0
 40
1.0
 40
2.0
 40
2.0
 40
2.0
 40
3.0
 40
3.0
 40
3.0
 40
4.0
 40
4.0
 40
4.0
 40
4.0
 10
135.5011176215278
 20
90.39586046006944
 30
0.0
 10
135.7812038845486
 20
89.39540473090277
 30
0.0
 10
135.7615668402778
 20
89.4553493923611
 30
0.0
 10
136.0814439561632
 20
88.89517686631943
 30
0.0
 10
136.4013210720486
 20
88.33500434027776
 30
0.0
 10
136.3413764105903
 20
88.39546576605902
 30
0.0
 10
136.541364203559
 20
87.73504096137152
 30
0.0
 10
136.7418687608507
 20
87.07461615668402
 30
0.0
 10
136.6814073350694
 20
86.67464057074652
 30
0.0
 10
137.0018012152778
 20
85.9547878689236
 30
0.0
 10
137.3216783311632
 20
85.23441840277776
 30
0.0
 10
137.161481391059
 20
84.55435655381943
 30
0.0
 10
137.6219184027778
 20
84.21432562934027
 30
0.0
  0
SPLINE
  5
78
330
A
100
AcDbEntity
  8
LAYER_1
 62
     7
100
AcDbSpline
210
0.0
220
0.0
230
1.0
 70
     8
 71
     3
 72
    11
 73
     7
 74
     0
 42
0.0000000001
 43
0.0000000001
 40
0.0
 40
0.0
 40
0.0
 40
0.0
 40
1.0
 40
1.0
 40
1.0
 40
2.0
 40
2.0
 40
2.0
 40
2.0
 10
136.6416164822049
 20
91.37616238064236
 30
0.0
 10
136.9217027452257
 20
90.81598985460069
 30
0.0
 10
136.8416042751736
 20
90.65579291449652
 30
0.0
 10
137.0214382595486
 20
90.09562038845485
 30
0.0
 10
137.2017890082465
 20
89.53544786241319
 30
0.0
 10
137.3216783311632
 20
89.07552761501735
 30
0.0
 10
137.5418199327257
 20
88.63524441189236
 30
0.0
  0
LINE
  5
77
330
A
100
AcDbEntity
  8
LAYER_1
 62
     7
100
AcDbLine
 10
124.6180609809028
 20
69.66999376085069
 30
0.0
 11
137.6617092556423
 21
81.23362901475694
 31
0.0
  0
LINE
  5
76
330
A
100
AcDbEntity
  8
LAYER_1
 62
     7
100
AcDbLine
 10
130.0197984483507
 20
65.38911810980902
 30
0.0
 11
136.981647406684
 21
72.1106716579861
 31
0.0
  0
LINE
  5
75
330
A
100
AcDbEntity
  8
LAYER_1
 62
     7
100
AcDbLine
 10
124.6180609809028
 20
59.2277370876736
 30
0.0
 11
137.5816107855903
 21
71.47091742621527
 31
0.0
  0
LWPOLYLINE
  5
6C
330
A
100
AcDbEntity
  8
LAYER_1
 62
     7
100
AcDbPolyline
 90
        7
 70
     0
 43
0.0
 10
137.5020290798611
 20
92.07637803819443
 10
124.5782701280382
 20
81.11322292751736
 10
124.5782701280382
 20
69.71030137803818
 10
130.0197984483507
 20
65.38911810980902
 10
119.5770250108507
 20
63.82900661892361
 10
124.6180609809028
 20
59.18742947048611
 10
124.6180609809028
 20
41.90269639756944
  0
SPLINE
  5
6B
330
A
100
AcDbEntity
  8
LAYER_1
 62
     7
100
AcDbSpline
210
0.0
220
0.0
230
1.0
 70
     8
 71
     3
 72
    17
 73
    13
 74
     0
 42
0.0000000001
 43
0.0000000001
 40
0.0
 40
0.0
 40
0.0
 40
0.0
 40
1.0
 40
1.0
 40
1.0
 40
2.0
 40
2.0
 40
2.0
 40
3.0
 40
3.0
 40
3.0
 40
4.0
 40
4.0
 40
4.0
 40
4.0
 10
117.8365627712674
 20
101.0184678819444
 30
0.0
 10
117.4562242296007
 20
101.2985541449653
 30
0.0
 10
117.0965562608507
 20
101.4789048936632
 30
0.0
 10
116.5761745876736
 20
101.0985663519965
 30
0.0
 10
116.0563096788194
 20
100.7187445746528
 30
0.0
 10
104.3929389105903
 20
92.57660590277777
 30
0.0
 10
103.972809516059
 20
92.25621202256944
 30
0.0
 10
103.5526801215278
 20
91.93633490668402
 30
0.0
 10
103.0328152126736
 20
91.63609483506944
 30
0.0
 10
103.0529690212674
 20
90.7761990017361
 30
0.0
 10
103.0726060655382
 20
89.91578640407985
 30
0.0
 10
102.9129258897569
 20
76.99202745225693
 30
0.0
 10
102.9129258897569
 20
76.99202745225693
 30
0.0
  0
LINE
  5
6A
330
A
100
AcDbEntity
  8
LAYER_1
 62
     7
100
AcDbLine
 10
118.0768581814236
 20
100.3781968858507
 30
0.0
 11
130.8399034288194
 21
94.93718532986111
 31
0.0
  0
LINE
  5
69
330
A
100
AcDbEntity
  8
LAYER_1
 62
     7
100
AcDbLine
 10
113.6952134874132
 20
108.2407660590278
 30
0.0
 11
129.8596015082465
 21
106.5199408637153
 31
0.0
  0
LINE
  5
68
330
A
100
AcDbEntity
  8
LAYER_1
 62
     7
100
AcDbLine
 10
99.2066921657986
 20
110.0086168077257
 30
0.0
 11
110.9723822699653
 21
108.7094712999132
 31
0.0
  0
LINE
  5
67
330
A
100
AcDbEntity
  8
LAYER_1
 62
     7
100
AcDbLine
 10
97.8114284939236
 20
110.1610622829861
 30
0.0
 11
98.56487087673611
 21
110.0799302842882
 31
0.0
  0
LINE
  5
66
330
A
100
AcDbEntity
  8
LAYER_1
 62
     7
100
AcDbLine
 10
111.6912014431424
 20
108.6283393012153
 30
0.0
 11
112.6549669053819
 21
108.5208523220486
 31
0.0
  0
SPLINE
  5
65
330
A
100
AcDbEntity
  8
LAYER_1
 62
     7
100
AcDbSpline
210
0.0
220
0.0
230
1.0
 70
     8
 71
     3
 72
     8
 73
     4
 74
     0
 42
0.0000000001
 43
0.0000000001
 40
0.0
 40
0.0
 40
0.0
 40
0.0
 40
1.0
 40
1.0
 40
1.0
 40
1.0
 10
111.2948432074653
 20
104.4394476996528
 30
0.0
 10
111.9149603949653
 20
104.679743109809
 30
0.0
 10
112.3748806423611
 20
104.0797797309028
 30
0.0
 10
112.2751451280382
 20
103.3992011176215
 30
0.0
  0
SPLINE
  5
64
330
A
100
AcDbEntity
  8
LAYER_1
 62
     7
100
AcDbSpline
210
0.0
220
0.0
230
1.0
 70
     8
 71
     3
 72
     8
 73
     4
 74
     0
 42
0.0000000001
 43
0.0000000001
 40
0.0
 40
0.0
 40
0.0
 40
0.0
 40
1.0
 40
1.0
 40
1.0
 40
1.0
 10
110.9320746527778
 20
105.2848741319444
 30
0.0
 10
111.346002875434
 20
105.5349880642361
 30
0.0
 10
111.7588975694444
 20
105.6476426866319
 30
0.0
 10
112.2146837022569
 20
105.1799709743924
 30
0.0
  0
SPLINE
  5
63
330
A
100
AcDbEntity
  8
LAYER_1
 62
     7
100
AcDbSpline
210
0.0
220
0.0
230
1.0
 70
     8
 71
     3
 72
     8
 73
     4
 74
     0
 42
0.0000000001
 43
0.0000000001
 40
0.0
 40
0.0
 40
0.0
 40
0.0
 40
1.0
 40
1.0
 40
1.0
 40
1.0
 10
110.1744981553819
 20
104.5996446397569
 30
0.0
 10
110.2334092881944
 20
104.6771592881944
 30
0.0
 10
110.3181586371528
 20
104.8761135525174
 30
0.0
 10
110.5196967230903
 20
104.9732652452257
 30
0.0
  0
SPLINE
  5
62
330
A
100
AcDbEntity
  8
LAYER_1
 62
     7
100
AcDbSpline
210
0.0
220
0.0
230
1.0
 70
     8
 71
     3
 72
     8
 73
     4
 74
     0
 42
0.0000000001
 43
0.0000000001
 40
0.0
 40
0.0
 40
0.0
 40
0.0
 40
1.0
 40
1.0
 40
1.0
 40
1.0
 10
109.4344916449653
 20
104.5996446397569
 30
0.0
 10
110.3145412868924
 20
106.0801744249132
 30
0.0
 10
112.735065375434
 20
106.7602362738715
 30
0.0
 10
112.555231391059
 20
103.2390041775174
 30
0.0
  0
LINE
  5
61
330
A
100
AcDbEntity
  8
LAYER_1
 62
     7
100
AcDbLine
 10
96.17070176866318
 20
110.1011176215278
 30
0.0
 11
96.99080674913193
 21
109.8210313585069
 31
0.0
  0
SPLINE
  5
60
330
A
100
AcDbEntity
  8
LAYER_1
 62
     7
100
AcDbSpline
210
0.0
220
0.0
230
1.0
 70
     8
 71
     3
 72
    11
 73
     7
 74
     0
 42
0.0000000001
 43
0.0000000001
 40
0.0
 40
0.0
 40
0.0
 40
0.0
 40
1.0
 40
1.0
 40
1.0
 40
2.0
 40
2.0
 40
2.0
 40
2.0
 10
94.71032579210069
 20
109.7812405056423
 30
0.0
 10
93.28974066840277
 20
110.4411485460069
 30
0.0
 10
96.27095404730902
 20
111.8214260525174
 30
0.0
 10
97.01096055772568
 20
109.8210313585069
 30
0.0
 10
97.03473171657986
 20
109.8060451931424
 30
0.0
 10
113.2151394314236
 20
102.9790717230903
 30
0.0
 10
113.2151394314236
 20
102.9790717230903
 30
0.0
  0
SPLINE
  5
5F
330
A
100
AcDbEntity
  8
LAYER_1
 62
     7
100
AcDbSpline
210
0.0
220
0.0
230
1.0
 70
    11
 71
     3
 72
    11
 73
     7
 74
     0
 42
0.0000000001
 43
0.0000000001
 40
0.0
 40
0.0
 40
0.0
 40
0.0
 40
1.0
 40
1.0
 40
1.0
 40
2.0
 40
2.0
 40
2.0
 40
2.0
 10
95.53043077256943
 20
109.7207790798611
 30
0.0
 10
96.27715521918402
 20
109.7936428493924
 30
0.0
 10
96.61098497178818
 20
110.4209947374132
 30
0.0
 10
95.31028917100694
 20
110.3212592230903
 30
0.0
 10
94.47003038194444
 20
110.2561469184028
 30
0.0
 10
94.1713406032986
 20
109.5921047634549
 30
0.0
 10
95.53043077256943
 20
109.7207790798611
 30
0.0
  0
SPLINE
  5
5E
330
A
100
AcDbEntity
  8
LAYER_1
 62
     7
100
AcDbSpline
210
0.0
220
0.0
230
1.0
 70
     8
 71
     3
 72
     8
 73
     4
 74
     0
 42
0.0000000001
 43
0.0000000001
 40
0.0
 40
0.0
 40
0.0
 40
0.0
 40
1.0
 40
1.0
 40
1.0
 40
1.0
 10
79.68643663194443
 20
117.0428127712674
 30
0.0
 10
79.08647325303819
 20
116.8428249782986
 30
0.0
 10
78.66634385850693
 20
116.1028184678819
 30
0.0
 10
79.90657823350693
 20
115.7824245876736
 30
0.0
  0
LINE
  5
5D
330
A
100
AcDbEntity
  8
LAYER_1
 62
     7
100
AcDbLine
 10
83.48723822699652
 20
115.5224921332465
 30
0.0
 11
93.13006049262152
 21
111.5211859809028
 31
0.0
  0
LINE
  5
5C
330
A
100
AcDbEntity
  8
LAYER_1
 62
     7
100
AcDbLine
 10
83.36734890407985
 20
100.4386583116319
 30
0.0
 11
102.0122056749132
 21
91.67640245225694
 31
0.0
  0
LINE
  5
5B
330
A
100
AcDbEntity
  8
LAYER_1
 62
     7
100
AcDbLine
 10
66.84277615017361
 20
108.1203599717882
 30
0.0
 11
78.44620225694443
 21
102.6793484157986
 31
0.0
  0
SPLINE
  5
5A
330
A
100
AcDbEntity
  8
LAYER_1
 62
     7
100
AcDbSpline
210
0.0
220
0.0
230
1.0
 70
     8
 71
     3
 72
     8
 73
     4
 74
     0
 42
0.0000000001
 43
0.0000000001
 40
0.0
 40
0.0
 40
0.0
 40
0.0
 40
1.0
 40
1.0
 40
1.0
 40
1.0
 10
64.36230740017361
 20
109.1208157009549
 30
0.0
 10
64.5421413845486
 20
111.6214382595486
 30
0.0
 10
69.42349717881943
 20
109.4009019639757
 30
0.0
 10
66.8830837673611
 20
109.0407172309028
 30
0.0
  0
LINE
  5
59
330
A
100
AcDbEntity
  8
LAYER_1
 62
     7
100
AcDbLine
 10
49.11931016710069
 20
116.4490505642361
 30
0.0
 11
62.56293402777777
 21
110.1672634548611
 31
0.0
  0
LINE
  5
58
330
A
100
AcDbEntity
  8
LAYER_1
 62
     7
100
AcDbLine
 10
47.75763617621527
 20
117.0831203884548
 30
0.0
 11
48.59944525824653
 21
116.6903795030382
 31
0.0
  0
LINE
  5
57
330
A
100
AcDbEntity
  8
LAYER_1
 62
     7
100
AcDbLine
 10
62.93707139756944
 20
109.9920803493924
 30
0.0
 11
63.60214708116319
 21
109.6809882269965
 31
0.0
  0
SPLINE
  5
56
330
A
100
AcDbEntity
  8
LAYER_1
 62
     7
100
AcDbSpline
210
0.0
220
0.0
230
1.0
 70
    11
 71
     3
 72
    44
 73
    40
 74
     0
 42
0.0000000001
 43
0.0000000001
 40
0.0
 40
0.0
 40
0.0
 40
0.0
 40
1.0
 40
1.0
 40
1.0
 40
2.0
 40
2.0
 40
2.0
 40
3.0
 40
3.0
 40
3.0
 40
4.0
 40
4.0
 40
4.0
 40
5.0
 40
5.0
 40
5.0
 40
6.0
 40
6.0
 40
6.0
 40
7.0
 40
7.0
 40
7.0
 40
8.0
 40
8.0
 40
8.0
 40
9.0
 40
9.0
 40
9.0
 40
10.0
 40
10.0
 40
10.0
 40
11.0
 40
11.0
 40
11.0
 40
12.0
 40
12.0
 40
12.0
 40
13.0
 40
13.0
 40
13.0
 40
13.0
 10
75.78538275824653
 20
81.73334011501736
 30
0.0
 10
75.6453396267361
 20
81.73334011501736
 30
0.0
 10
75.4251980251736
 20
81.69354926215277
 30
0.0
 10
75.24536404079861
 20
81.91369086371527
 30
0.0
 10
75.06501329210069
 20
82.13383246527778
 30
0.0
 10
74.74513617621527
 20
81.63360460069444
 30
0.0
 10
74.92497016059028
 20
81.47340766059027
 30
0.0
 10
75.10532090928818
 20
81.3132107204861
 30
0.0
 10
75.48514268663193
 20
81.01348741319444
 30
0.0
 10
75.48514268663193
 20
81.01348741319444
 30
0.0
 10
75.48514268663193
 20
81.01348741319444
 30
0.0
 10
75.00506863064236
 20
80.41300726996528
 30
0.0
 10
75.00506863064236
 20
80.41300726996528
 30
0.0
 10
75.00506863064236
 20
80.41300726996528
 30
0.0
 10
75.10532090928818
 20
80.09313015407986
 30
0.0
 10
75.28515489366319
 20
80.27296413845485
 30
0.0
 10
75.46498887803818
 20
80.45331488715277
 30
0.0
 10
75.70528428819443
 20
80.73340115017361
 30
0.0
 10
75.70528428819443
 20
80.73340115017361
 30
0.0
 10
75.70528428819443
 20
80.73340115017361
 30
0.0
 10
75.70528428819443
 20
80.2931179470486
 30
0.0
 10
75.70528428819443
 20
80.2931179470486
 30
0.0
 10
75.70528428819443
 20
80.2931179470486
 30
0.0
 10
76.24530300564236
 20
80.79334581163194
 30
0.0
 10
76.30524766710069
 20
81.33336452907986
 30
0.0
 10
76.36570909288194
 20
81.87338324652777
 30
0.0
 10
76.38534613715277
 20
82.19377712673611
 30
0.0
 10
76.32540147569443
 20
82.27335883246528
 30
0.0
 10
76.20551215277777
 20
82.21341417100693
 30
0.0
 10
76.12541368272569
 20
82.23356797960069
 30
0.0
 10
76.12541368272569
 20
82.23356797960069
 30
0.0
 10
76.12541368272569
 20
82.23356797960069
 30
0.0
 10
76.10525987413193
 20
82.63354356553819
 30
0.0
 10
76.10525987413193
 20
82.63354356553819
 30
0.0
 10
76.10525987413193
 20
82.63354356553819
 30
0.0
 10
76.02567816840278
 20
82.71364203559027
 30
0.0
 10
75.94557969835068
 20
82.57359890407986
 30
0.0
 10
75.86548122829861
 20
82.43355577256943
 30
0.0
 10
75.76522894965277
 20
82.17362331814235
 30
0.0
 10
75.78538275824653
 20
81.73334011501736
 30
0.0
  0
SPLINE
  5
55
330
A
100
AcDbEntity
  8
LAYER_1
 62
     7
100
AcDbSpline
210
0.0
220
0.0
230
1.0
 70
     8
 71
     3
 72
    11
 73
     7
 74
     0
 42
0.0000000001
 43
0.0000000001
 40
0.0
 40
0.0
 40
0.0
 40
0.0
 40
1.0
 40
1.0
 40
1.0
 40
2.0
 40
2.0
 40
2.0
 40
2.0
 10
74.26506212022569
 20
82.91362982855902
 30
0.0
 10
72.90442165798611
 20
80.5132595486111
 30
0.0
 10
74.07592637803819
 20
78.25499945746527
 30
0.0
 10
75.78538275824653
 20
80.31327175564235
 30
0.0
 10
77.23077256944444
 20
82.05218370225694
 30
0.0
 10
75.66549343532985
 20
84.25411648220485
 30
0.0
 10
74.84487169053818
 20
83.45416531032986
 30
0.0
  0
SPLINE
  5
54
330
A
100
AcDbEntity
  8
LAYER_1
 62
     7
100
AcDbSpline
210
0.0
220
0.0
230
1.0
 70
     8
 71
     3
 72
     8
 73
     4
 74
     0
 42
0.0000000001
 43
0.0000000001
 40
0.0
 40
0.0
 40
0.0
 40
0.0
 40
1.0
 40
1.0
 40
1.0
 40
1.0
 10
73.88472357855902
 20
83.49395616319444
 30
0.0
 10
73.38449571397568
 20
82.91362982855902
 30
0.0
 10
72.02437201605902
 20
79.21308051215277
 30
0.0
 10
73.74468044704861
 20
78.81258816189235
 30
0.0
  0
SPLINE
  5
53
330
A
100
AcDbEntity
  8
LAYER_1
 62
     7
100
AcDbSpline
210
0.0
220
0.0
230
1.0
 70
     8
 71
     3
 72
     8
 73
     4
 74
     0
 42
0.0000000001
 43
0.0000000001
 40
0.0
 40
0.0
 40
0.0
 40
0.0
 40
1.0
 40
1.0
 40
1.0
 40
1.0
 10
76.08510606553818
 20
84.37400580512153
 30
0.0
 10
75.86548122829861
 20
84.63445502387152
 30
0.0
 10
74.96527777777777
 20
84.97448594835069
 30
0.0
 10
74.30485297309028
 20
84.03397488064235
 30
0.0
  0
SPLINE
  5
52
330
A
100
AcDbEntity
  8
LAYER_1
 62
     7
100
AcDbSpline
210
0.0
220
0.0
230
1.0
 70
    11
 71
     3
 72
    14
 73
    10
 74
     0
 42
0.0000000001
 43
0.0000000001
 40
0.0
 40
0.0
 40
0.0
 40
0.0
 40
1.0
 40
1.0
 40
1.0
 40
2.0
 40
2.0
 40
2.0
 40
3.0
 40
3.0
 40
3.0
 40
3.0
 10
73.28476019965277
 20
78.95263129340277
 30
0.0
 10
75.34251573350694
 20
77.92375352647569
 30
0.0
 10
76.65406358506944
 20
80.81349962022568
 30
0.0
 10
76.62564154730902
 20
82.85368516710069
 30
0.0
 10
76.60548773871527
 20
84.26393500434027
 30
0.0
 10
75.10532090928818
 20
86.61469590928819
 30
0.0
 10
72.88478461371527
 20
83.11413438585069
 30
0.0
 10
72.32822943793403
 20
82.23718532986111
 30
0.0
 10
72.08431667751735
 20
79.55311143663194
 30
0.0
 10
73.28476019965277
 20
78.95263129340277
 30
0.0
  0
SPLINE
  5
51
330
A
100
AcDbEntity
  8
LAYER_1
 62
     7
100
AcDbSpline
210
0.0
220
0.0
230
1.0
 70
    11
 71
     3
 72
    44
 73
    40
 74
     0
 42
0.0000000001
 43
0.0000000001
 40
0.0
 40
0.0
 40
0.0
 40
0.0
 40
1.0
 40
1.0
 40
1.0
 40
2.0
 40
2.0
 40
2.0
 40
3.0
 40
3.0
 40
3.0
 40
4.0
 40
4.0
 40
4.0
 40
5.0
 40
5.0
 40
5.0
 40
6.0
 40
6.0
 40
6.0
 40
7.0
 40
7.0
 40
7.0
 40
8.0
 40
8.0
 40
8.0
 40
9.0
 40
9.0
 40
9.0
 40
10.0
 40
10.0
 40
10.0
 40
11.0
 40
11.0
 40
11.0
 40
12.0
 40
12.0
 40
12.0
 40
13.0
 40
13.0
 40
13.0
 40
13.0
 10
71.66418728298611
 20
82.01342637803819
 30
0.0
 10
71.52414415147568
 20
82.01342637803819
 30
0.0
 10
71.30400254991319
 20
81.97363552517361
 30
0.0
 10
71.12416856553818
 20
82.19377712673611
 30
0.0
 10
70.94381781684027
 20
82.4139187282986
 30
0.0
 10
70.62394070095486
 20
81.91369086371527
 30
0.0
 10
70.80429144965277
 20
81.7534939236111
 30
0.0
 10
70.98412543402777
 20
81.59329698350693
 30
0.0
 10
71.36394721137152
 20
81.29357367621527
 30
0.0
 10
71.36394721137152
 20
81.29357367621527
 30
0.0
 10
71.36394721137152
 20
81.29357367621527
 30
0.0
 10
70.88387315538193
 20
80.6930935329861
 30
0.0
 10
70.88387315538193
 20
80.6930935329861
 30
0.0
 10
70.88387315538193
 20
80.6930935329861
 30
0.0
 10
70.98412543402777
 20
80.37321641710069
 30
0.0
 10
71.16395941840277
 20
80.55305040147569
 30
0.0
 10
71.34431016710069
 20
80.73340115017361
 30
0.0
 10
71.58408881293403
 20
81.01348741319444
 30
0.0
 10
71.58408881293403
 20
81.01348741319444
 30
0.0
 10
71.58408881293403
 20
81.01348741319444
 30
0.0
 10
71.58408881293403
 20
80.57320421006943
 30
0.0
 10
71.58408881293403
 20
80.57320421006943
 30
0.0
 10
71.58408881293403
 20
80.57320421006943
 30
0.0
 10
72.12462429470486
 20
81.07343207465277
 30
0.0
 10
72.18456895616319
 20
81.61345079210069
 30
0.0
 10
72.24451361762152
 20
82.1534695095486
 30
0.0
 10
72.26415066189236
 20
82.47386338975694
 30
0.0
 10
72.20420600043403
 20
82.55396185980902
 30
0.0
 10
72.08431667751735
 20
82.49350043402777
 30
0.0
 10
72.00421820746527
 20
82.51365424262153
 30
0.0
 10
72.00421820746527
 20
82.51365424262153
 30
0.0
 10
72.00421820746527
 20
82.51365424262153
 30
0.0
 10
71.98406439887152
 20
82.91362982855902
 30
0.0
 10
71.98406439887152
 20
82.91362982855902
 30
0.0
 10
71.98406439887152
 20
82.91362982855902
 30
0.0
 10
71.90448269314236
 20
82.9937282986111
 30
0.0
 10
71.82438422309028
 20
82.85368516710069
 30
0.0
 10
71.74428575303818
 20
82.71364203559027
 30
0.0
 10
71.64403347439236
 20
82.45370958116318
 30
0.0
 10
71.66418728298611
 20
82.01342637803819
 30
0.0
  0
SPLINE
  5
50
330
A
100
AcDbEntity
  8
LAYER_1
 62
     7
100
AcDbSpline
210
0.0
220
0.0
230
1.0
 70
     8
 71
     3
 72
    11
 73
     7
 74
     0
 42
0.0000000001
 43
0.0000000001
 40
0.0
 40
0.0
 40
0.0
 40
0.0
 40
1.0
 40
1.0
 40
1.0
 40
2.0
 40
2.0
 40
2.0
 40
2.0
 10
70.14386664496527
 20
83.19371609157986
 30
0.0
 10
68.78374294704861
 20
80.79334581163194
 30
0.0
 10
69.95524766710069
 20
78.53508572048611
 30
0.0
 10
71.66418728298611
 20
80.59335801866318
 30
0.0
 10
73.10957709418402
 20
82.33226996527777
 30
0.0
 10
71.54429796006944
 20
84.53420274522568
 30
0.0
 10
70.72367621527778
 20
83.73425157335069
 30
0.0
  0
SPLINE
  5
4F
330
A
100
AcDbEntity
  8
LAYER_1
 62
     7
100
AcDbSpline
210
0.0
220
0.0
230
1.0
 70
     8
 71
     3
 72
     8
 73
     4
 74
     0
 42
0.0000000001
 43
0.0000000001
 40
0.0
 40
0.0
 40
0.0
 40
0.0
 40
1.0
 40
1.0
 40
1.0
 40
1.0
 10
69.76352810329861
 20
83.77404242621527
 30
0.0
 10
69.26330023871527
 20
83.19371609157986
 30
0.0
 10
67.90317654079861
 20
79.49316677517361
 30
0.0
 10
69.62348497178819
 20
79.09267442491318
 30
0.0
  0
SPLINE
  5
4E
330
A
100
AcDbEntity
  8
LAYER_1
 62
     7
100
AcDbSpline
210
0.0
220
0.0
230
1.0
 70
     8
 71
     3
 72
     8
 73
     4
 74
     0
 42
0.0000000001
 43
0.0000000001
 40
0.0
 40
0.0
 40
0.0
 40
0.0
 40
1.0
 40
1.0
 40
1.0
 40
1.0
 10
71.96442735460069
 20
84.65409206814235
 30
0.0
 10
71.74428575303818
 20
84.91402452256943
 30
0.0
 10
70.84408230251735
 20
85.25457221137152
 30
0.0
 10
70.18365749782986
 20
84.31406114366318
 30
0.0
  0
SPLINE
  5
4D
330
A
100
AcDbEntity
  8
LAYER_1
 62
     7
100
AcDbSpline
210
0.0
220
0.0
230
1.0
 70
    11
 71
     3
 72
    14
 73
    10
 74
     0
 42
0.0000000001
 43
0.0000000001
 40
0.0
 40
0.0
 40
0.0
 40
0.0
 40
1.0
 40
1.0
 40
1.0
 40
2.0
 40
2.0
 40
2.0
 40
3.0
 40
3.0
 40
3.0
 40
3.0
 10
69.16356472439236
 20
79.23271755642361
 30
0.0
 10
71.22132025824652
 20
78.20383978949653
 30
0.0
 10
72.53338487413194
 20
81.09358588324652
 30
0.0
 10
72.50444607204861
 20
83.13377143012153
 30
0.0
 10
72.48429226345486
 20
84.54453803168403
 30
0.0
 10
70.98412543402777
 20
86.89478217230902
 30
0.0
 10
68.76358913845486
 20
83.3937038845486
 30
0.0
 10
68.20703396267361
 20
82.51727159288194
 30
0.0
 10
67.96312120225694
 20
79.83319769965277
 30
0.0
 10
69.16356472439236
 20
79.23271755642361
 30
0.0
  0
SPLINE
  5
4C
330
A
100
AcDbEntity
  8
LAYER_1
 62
     7
100
AcDbSpline
210
0.0
220
0.0
230
1.0
 70
    11
 71
     3
 72
    44
 73
    40
 74
     0
 42
0.0000000001
 43
0.0000000001
 40
0.0
 40
0.0
 40
0.0
 40
0.0
 40
1.0
 40
1.0
 40
1.0
 40
2.0
 40
2.0
 40
2.0
 40
3.0
 40
3.0
 40
3.0
 40
4.0
 40
4.0
 40
4.0
 40
5.0
 40
5.0
 40
5.0
 40
6.0
 40
6.0
 40
6.0
 40
7.0
 40
7.0
 40
7.0
 40
8.0
 40
8.0
 40
8.0
 40
9.0
 40
9.0
 40
9.0
 40
10.0
 40
10.0
 40
10.0
 40
11.0
 40
11.0
 40
11.0
 40
12.0
 40
12.0
 40
12.0
 40
13.0
 40
13.0
 40
13.0
 40
13.0
 10
98.23104112413193
 20
86.03488633897568
 30
0.0
 10
98.23104112413193
 20
86.63484971788193
 30
0.0
 10
98.67132432725694
 20
86.71494818793401
 30
0.0
 10
98.71111518012152
 20
86.37491726345485
 30
0.0
 10
98.75142279730902
 20
86.03488633897568
 30
0.0
 10
98.73126898871527
 20
85.81474473741319
 30
0.0
 10
98.8315212673611
 20
85.69433865017361
 30
0.0
 10
99.01135525173611
 20
85.7346462673611
 30
0.0
 10
99.35138617621527
 20
85.77443712022568
 30
0.0
 10
99.35138617621527
 20
85.77443712022568
 30
0.0
 10
99.35138617621527
 20
85.77443712022568
 30
0.0
 10
99.57152777777777
 20
85.39461534288193
 30
0.0
 10
99.57152777777777
 20
85.39461534288193
 30
0.0
 10
99.57152777777777
 20
85.39461534288193
 30
0.0
 10
99.35138617621527
 20
85.15431993272568
 30
0.0
 10
99.35138617621527
 20
85.15431993272568
 30
0.0
 10
99.35138617621527
 20
85.15431993272568
 30
0.0
 10
99.09145372178818
 20
85.1145290798611
 30
0.0
 10
99.09145372178818
 20
85.1145290798611
 30
0.0
 10
99.09145372178818
 20
85.1145290798611
 30
0.0
 10
99.11160753038193
 20
84.77449815538193
 30
0.0
 10
99.41184760199651
 20
84.55435655381943
 30
0.0
 10
99.33174913194443
 20
84.43446723090277
 30
0.0
 10
99.25165066189236
 20
84.17401801215277
 30
0.0
 10
99.01135525173611
 20
84.2742702907986
 30
0.0
 10
98.7912136501736
 20
84.45410427517361
 30
0.0
 10
98.45118272569444
 20
84.77449815538193
 30
0.0
 10
98.45118272569444
 20
85.01427680121527
 30
0.0
 10
98.33129340277777
 20
84.99463975694444
 30
0.0
 10
98.07136094835069
 20
84.99463975694444
 30
0.0
 10
98.07136094835069
 20
84.99463975694444
 30
0.0
 10
98.07136094835069
 20
84.99463975694444
 30
0.0
 10
98.05120713975694
 20
85.41476915147568
 30
0.0
 10
98.05120713975694
 20
85.41476915147568
 30
0.0
 10
98.05120713975694
 20
85.41476915147568
 30
0.0
 10
98.29150254991319
 20
85.5145046657986
 30
0.0
 10
98.29150254991319
 20
85.5145046657986
 30
0.0
 10
98.29150254991319
 20
85.5145046657986
 30
0.0
 10
98.23104112413193
 20
85.7346462673611
 30
0.0
 10
98.23104112413193
 20
86.03488633897568
 30
0.0
  0
SPLINE
  5
4B
330
A
100
AcDbEntity
  8
LAYER_1
 62
     7
100
AcDbSpline
210
0.0
220
0.0
230
1.0
 70
     8
 71
     3
 72
    11
 73
     7
 74
     0
 42
0.0000000001
 43
0.0000000001
 40
0.0
 40
0.0
 40
0.0
 40
0.0
 40
1.0
 40
1.0
 40
1.0
 40
2.0
 40
2.0
 40
2.0
 40
2.0
 10
100.4520941840278
 20
86.55475124782986
 30
0.0
 10
99.71157090928818
 20
88.17532416449652
 30
0.0
 10
96.96238471137151
 20
87.60274929470485
 30
0.0
 10
97.71117621527777
 20
85.03443060980902
 30
0.0
 10
98.50027533637152
 20
82.32761908637153
 30
0.0
 10
101.3724514431424
 20
83.89393174913194
 30
0.0
 10
100.7719712999132
 20
85.5145046657986
 30
0.0
  0
SPLINE
  5
4A
330
A
100
AcDbEntity
  8
LAYER_1
 62
     7
100
AcDbSpline
210
0.0
220
0.0
230
1.0
 70
     8
 71
     3
 72
     8
 73
     4
 74
     0
 42
0.0000000001
 43
0.0000000001
 40
0.0
 40
0.0
 40
0.0
 40
0.0
 40
1.0
 40
1.0
 40
1.0
 40
1.0
 10
100.8122789171007
 20
87.39501003689236
 30
0.0
 10
100.611774359809
 20
87.79498562282986
 30
0.0
 10
99.47179226345486
 20
89.0553738064236
 30
0.0
 10
98.05120713975694
 20
87.67509629991319
 30
0.0
  0
SPLINE
  5
49
330
A
100
AcDbEntity
  8
LAYER_1
 62
     7
100
AcDbSpline
210
0.0
220
0.0
230
1.0
 70
     8
 71
     3
 72
     8
 73
     4
 74
     0
 42
0.0000000001
 43
0.0000000001
 40
0.0
 40
0.0
 40
0.0
 40
0.0
 40
1.0
 40
1.0
 40
1.0
 40
1.0
 10
99.53173692491319
 20
82.85368516710069
 30
0.0
 10
101.0319037543403
 20
82.67385118272568
 30
0.0
 10
102.2323472764757
 20
84.21432562934027
 30
0.0
 10
101.2721991644965
 20
86.59454210069444
 30
0.0
  0
SPLINE
  5
48
330
A
100
AcDbEntity
  8
LAYER_1
 62
     7
100
AcDbSpline
210
0.0
220
0.0
230
1.0
 70
    11
 71
     3
 72
    14
 73
    10
 74
     0
 42
0.0000000001
 43
0.0000000001
 40
0.0
 40
0.0
 40
0.0
 40
0.0
 40
1.0
 40
1.0
 40
1.0
 40
2.0
 40
2.0
 40
2.0
 40
3.0
 40
3.0
 40
3.0
 40
3.0
 10
100.1518541124132
 20
82.79374050564235
 30
0.0
 10
102.416315375434
 20
82.9751247829861
 30
0.0
 10
102.7899359809028
 20
85.51192084418402
 30
0.0
 10
101.5920762803819
 20
87.31491156684027
 30
0.0
 10
99.92086046006943
 20
89.83207058376735
 30
0.0
 10
96.93344590928818
 20
87.95259874131943
 30
0.0
 10
97.5912868923611
 20
85.41476915147568
 30
0.0
 10
98.0625759548611
 20
83.60040961371527
 30
0.0
 10
98.85115831163193
 20
82.68987087673611
 30
0.0
 10
100.1518541124132
 20
82.79374050564235
 30
0.0
  0
SPLINE
  5
47
330
A
100
AcDbEntity
  8
LAYER_1
 62
     7
100
AcDbSpline
210
0.0
220
0.0
230
1.0
 70
    11
 71
     3
 72
    44
 73
    40
 74
     0
 42
0.0000000001
 43
0.0000000001
 40
0.0
 40
0.0
 40
0.0
 40
0.0
 40
1.0
 40
1.0
 40
1.0
 40
2.0
 40
2.0
 40
2.0
 40
3.0
 40
3.0
 40
3.0
 40
4.0
 40
4.0
 40
4.0
 40
5.0
 40
5.0
 40
5.0
 40
6.0
 40
6.0
 40
6.0
 40
7.0
 40
7.0
 40
7.0
 40
8.0
 40
8.0
 40
8.0
 40
9.0
 40
9.0
 40
9.0
 40
10.0
 40
10.0
 40
10.0
 40
11.0
 40
11.0
 40
11.0
 40
12.0
 40
12.0
 40
12.0
 40
13.0
 40
13.0
 40
13.0
 40
13.0
 10
94.39044867621527
 20
80.87344428168402
 30
0.0
 10
94.39044867621527
 20
81.47340766059027
 30
0.0
 10
94.83021511501735
 20
81.55350613064235
 30
0.0
 10
94.87052273220485
 20
81.21347520616318
 30
0.0
 10
94.91031358506943
 20
80.87344428168402
 30
0.0
 10
94.89015977647568
 20
80.65330268012153
 30
0.0
 10
94.99041205512152
 20
80.53341335720485
 30
0.0
 10
95.17024603949652
 20
80.57320421006943
 30
0.0
 10
95.51079372829861
 20
80.61351182725694
 30
0.0
 10
95.51079372829861
 20
80.61351182725694
 30
0.0
 10
95.51079372829861
 20
80.61351182725694
 30
0.0
 10
95.73041856553819
 20
80.23317328559027
 30
0.0
 10
95.73041856553819
 20
80.23317328559027
 30
0.0
 10
95.73041856553819
 20
80.23317328559027
 30
0.0
 10
95.51079372829861
 20
79.99287787543402
 30
0.0
 10
95.51079372829861
 20
79.99287787543402
 30
0.0
 10
95.51079372829861
 20
79.99287787543402
 30
0.0
 10
95.2503445095486
 20
79.95308702256943
 30
0.0
 10
95.2503445095486
 20
79.95308702256943
 30
0.0
 10
95.2503445095486
 20
79.95308702256943
 30
0.0
 10
95.27049831814236
 20
79.61305609809027
 30
0.0
 10
95.57073838975694
 20
79.39291449652777
 30
0.0
 10
95.49063991970485
 20
79.2730251736111
 30
0.0
 10
95.41054144965277
 20
79.01257595486111
 30
0.0
 10
95.17024603949652
 20
79.11282823350693
 30
0.0
 10
94.95010443793402
 20
79.29266221788194
 30
0.0
 10
94.61007351345485
 20
79.61305609809027
 30
0.0
 10
94.61007351345485
 20
79.85283474392361
 30
0.0
 10
94.49018419053819
 20
79.83319769965277
 30
0.0
 10
94.2302517361111
 20
79.83319769965277
 30
0.0
 10
94.2302517361111
 20
79.83319769965277
 30
0.0
 10
94.2302517361111
 20
79.83319769965277
 30
0.0
 10
94.21009792751735
 20
80.25332709418402
 30
0.0
 10
94.21009792751735
 20
80.25332709418402
 30
0.0
 10
94.21009792751735
 20
80.25332709418402
 30
0.0
 10
94.4503933376736
 20
80.35306260850693
 30
0.0
 10
94.4503933376736
 20
80.35306260850693
 30
0.0
 10
94.4503933376736
 20
80.35306260850693
 30
0.0
 10
94.39044867621527
 20
80.57320421006943
 30
0.0
 10
94.39044867621527
 20
80.87344428168402
 30
0.0
  0
SPLINE
  5
46
330
A
100
AcDbEntity
  8
LAYER_1
 62
     7
100
AcDbSpline
210
0.0
220
0.0
230
1.0
 70
     8
 71
     3
 72
    11
 73
     7
 74
     0
 42
0.0000000001
 43
0.0000000001
 40
0.0
 40
0.0
 40
0.0
 40
0.0
 40
1.0
 40
1.0
 40
1.0
 40
2.0
 40
2.0
 40
2.0
 40
2.0
 10
96.61098497178818
 20
81.39330919053819
 30
0.0
 10
95.8704616970486
 20
83.01388210720485
 30
0.0
 10
93.12127549913194
 20
82.44130723741318
 30
0.0
 10
93.87006700303819
 20
79.87298855251736
 30
0.0
 10
94.65916612413194
 20
77.16617702907985
 30
0.0
 10
97.53134223090277
 20
78.73248969184027
 30
0.0
 10
96.9308620876736
 20
80.35306260850693
 30
0.0
  0
SPLINE
  5
45
330
A
100
AcDbEntity
  8
LAYER_1
 62
     7
100
AcDbSpline
210
0.0
220
0.0
230
1.0
 70
     8
 71
     3
 72
     8
 73
     4
 74
     0
 42
0.0000000001
 43
0.0000000001
 40
0.0
 40
0.0
 40
0.0
 40
0.0
 40
1.0
 40
1.0
 40
1.0
 40
1.0
 10
96.9711697048611
 20
82.23356797960069
 30
0.0
 10
96.77066514756943
 20
82.63354356553819
 30
0.0
 10
95.63068305121527
 20
83.89393174913194
 30
0.0
 10
94.21009792751735
 20
82.51365424262153
 30
0.0
  0
SPLINE
  5
44
330
A
100
AcDbEntity
  8
LAYER_1
 62
     7
100
AcDbSpline
210
0.0
220
0.0
230
1.0
 70
     8
 71
     3
 72
     8
 73
     4
 74
     0
 42
0.0000000001
 43
0.0000000001
 40
0.0
 40
0.0
 40
0.0
 40
0.0
 40
1.0
 40
1.0
 40
1.0
 40
1.0
 10
95.6906277126736
 20
77.69224310980903
 30
0.0
 10
97.1913113064236
 20
77.51240912543402
 30
0.0
 10
98.39123806423611
 20
79.0528835720486
 30
0.0
 10
97.43108995225694
 20
81.43361680772568
 30
0.0
  0
SPLINE
  5
43
330
A
100
AcDbEntity
  8
LAYER_1
 62
     7
100
AcDbSpline
210
0.0
220
0.0
230
1.0
 70
    11
 71
     3
 72
    14
 73
    10
 74
     0
 42
0.0000000001
 43
0.0000000001
 40
0.0
 40
0.0
 40
0.0
 40
0.0
 40
1.0
 40
1.0
 40
1.0
 40
2.0
 40
2.0
 40
2.0
 40
3.0
 40
3.0
 40
3.0
 40
3.0
 10
96.3107449001736
 20
77.63229844835068
 30
0.0
 10
98.57520616319444
 20
77.81368272569443
 30
0.0
 10
98.94882676866318
 20
80.35099555121528
 30
0.0
 10
97.75148383246527
 20
82.1534695095486
 30
0.0
 10
96.07923448350694
 20
84.67062852647568
 30
0.0
 10
93.09233669704861
 20
82.79115668402777
 30
0.0
 10
93.75017768012152
 20
80.25332709418402
 30
0.0
 10
94.22146674262152
 20
78.43896755642361
 30
0.0
 10
95.01056586371527
 20
77.52842881944444
 30
0.0
 10
96.3107449001736
 20
77.63229844835068
 30
0.0
  0
SPLINE
  5
42
330
A
100
AcDbEntity
  8
LAYER_1
 62
     7
100
AcDbSpline
210
0.0
220
0.0
230
1.0
 70
    11
 71
     3
 72
    41
 73
    37
 74
     0
 42
0.0000000001
 43
0.0000000001
 40
0.0
 40
0.0
 40
0.0
 40
0.0
 40
1.0
 40
1.0
 40
1.0
 40
2.0
 40
2.0
 40
2.0
 40
3.0
 40
3.0
 40
3.0
 40
4.0
 40
4.0
 40
4.0
 40
5.0
 40
5.0
 40
5.0
 40
6.0
 40
6.0
 40
6.0
 40
7.0
 40
7.0
 40
7.0
 40
8.0
 40
8.0
 40
8.0
 40
9.0
 40
9.0
 40
9.0
 40
10.0
 40
10.0
 40
10.0
 40
11.0
 40
11.0
 40
11.0
 40
12.0
 40
12.0
 40
12.0
 40
12.0
 10
48.21807318793402
 20
110.0210191514757
 30
0.0
 10
48.21807318793402
 20
110.0210191514757
 30
0.0
 10
48.21807318793402
 20
110.7413886176215
 30
0.0
 10
48.21807318793402
 20
110.7413886176215
 30
0.0
 10
48.21807318793402
 20
110.7413886176215
 30
0.0
 10
48.53795030381944
 20
110.8214870876736
 30
0.0
 10
48.53795030381944
 20
110.8214870876736
 30
0.0
 10
48.53795030381944
 20
110.8214870876736
 30
0.0
 10
48.61804877387152
 20
110.1409084743924
 30
0.0
 10
48.61804877387152
 20
110.1409084743924
 30
0.0
 10
48.61804877387152
 20
110.1409084743924
 30
0.0
 10
49.19837510850694
 20
110.2013699001736
 30
0.0
 10
49.19837510850694
 20
110.2013699001736
 30
0.0
 10
49.19837510850694
 20
110.2013699001736
 30
0.0
 10
49.25831976996528
 20
109.7812405056423
 30
0.0
 10
49.25831976996528
 20
109.7812405056423
 30
0.0
 10
49.25831976996528
 20
109.7812405056423
 30
0.0
 10
48.81803656684027
 20
109.6210435655382
 30
0.0
 10
48.81803656684027
 20
109.6210435655382
 30
0.0
 10
48.81803656684027
 20
109.6210435655382
 30
0.0
 10
49.07796902126736
 20
109.020563422309
 30
0.0
 10
49.07796902126736
 20
109.020563422309
 30
0.0
 10
49.07796902126736
 20
109.020563422309
 30
0.0
 10
48.87798122829861
 20
108.9006740993924
 30
0.0
 10
48.71830105251735
 20
109.020563422309
 30
0.0
 10
48.55810411241319
 20
109.1409695095486
 30
0.0
 10
48.33796251085069
 20
109.5610989040799
 30
0.0
 10
48.33796251085069
 20
109.5610989040799
 30
0.0
 10
48.33796251085069
 20
109.5610989040799
 30
0.0
 10
48.11782090928819
 20
109.5807359483507
 30
0.0
 10
48.11782090928819
 20
109.5807359483507
 30
0.0
 10
48.11782090928819
 20
109.5807359483507
 30
0.0
 10
47.99793158637152
 20
109.901129828559
 30
0.0
 10
47.99793158637152
 20
109.901129828559
 30
0.0
 10
47.99793158637152
 20
109.901129828559
 30
0.0
 10
48.21807318793402
 20
110.0210191514757
 30
0.0
 10
48.21807318793402
 20
110.0210191514757
 30
0.0
  0
SPLINE
  5
41
330
A
100
AcDbEntity
  8
LAYER_1
 62
     7
100
AcDbSpline
210
0.0
220
0.0
230
1.0
 70
     8
 71
     3
 72
    11
 73
     7
 74
     0
 42
0.0000000001
 43
0.0000000001
 40
0.0
 40
0.0
 40
0.0
 40
0.0
 40
1.0
 40
1.0
 40
1.0
 40
2.0
 40
2.0
 40
2.0
 40
2.0
 10
49.73839382595486
 20
110.8013332790799
 30
0.0
 10
48.51779649522569
 20
112.5619493272569
 30
0.0
 10
47.23415391710069
 20
110.8385403103299
 30
0.0
 10
47.75763617621527
 20
109.4406928168403
 30
0.0
 10
48.33537868923611
 20
107.898151312934
 30
0.0
 10
50.47840033637152
 20
107.8004828559028
 30
0.0
 10
50.03863389756944
 20
110.2411607530382
 30
0.0
  0
SPLINE
  5
40
330
A
100
AcDbEntity
  8
LAYER_1
 62
     7
100
AcDbSpline
210
0.0
220
0.0
230
1.0
 70
     8
 71
     3
 72
     8
 73
     4
 74
     0
 42
0.0000000001
 43
0.0000000001
 40
0.0
 40
0.0
 40
0.0
 40
0.0
 40
1.0
 40
1.0
 40
1.0
 40
1.0
 10
50.49855414496528
 20
110.8013332790799
 30
0.0
 10
50.73884955512153
 20
110.1610622829861
 30
0.0
 10
51.47885606553819
 20
107.3405626085069
 30
0.0
 10
49.11827663845486
 20
107.8004828559028
 30
0.0
  0
SPLINE
  5
3F
330
A
100
AcDbEntity
  8
LAYER_1
 62
     7
100
AcDbSpline
210
0.0
220
0.0
230
1.0
 70
     8
 71
     3
 72
     8
 73
     4
 74
     0
 42
0.0000000001
 43
0.0000000001
 40
0.0
 40
0.0
 40
0.0
 40
0.0
 40
1.0
 40
1.0
 40
1.0
 40
1.0
 10
47.99793158637152
 20
111.941315375434
 30
0.0
 10
48.45785183376736
 20
112.6616848415799
 30
0.0
 10
49.75854763454861
 20
112.2219184027778
 30
0.0
 10
49.99832628038194
 20
111.5413397894965
 30
0.0
  0
SPLINE
  5
3E
330
A
100
AcDbEntity
  8
LAYER_1
 62
     7
100
AcDbSpline
210
0.0
220
0.0
230
1.0
 70
    11
 71
     3
 72
    14
 73
    10
 74
     0
 42
0.0000000001
 43
0.0000000001
 40
0.0
 40
0.0
 40
0.0
 40
0.0
 40
1.0
 40
1.0
 40
1.0
 40
2.0
 40
2.0
 40
2.0
 40
3.0
 40
3.0
 40
3.0
 40
3.0
 10
47.45791286892361
 20
110.2809516059028
 30
0.0
 10
47.43775906032986
 20
112.3418077256944
 30
0.0
 10
49.33841824001735
 20
113.4533677842882
 30
0.0
 10
50.71869574652777
 20
111.4012966579861
 30
0.0
 10
51.44009874131944
 20
110.3300442165799
 30
0.0
 10
51.83904079861111
 20
107.600495062934
 30
0.0
 10
49.59835069444444
 20
107.6805935329861
 30
0.0
 10
48.60564643012152
 20
107.7152167426215
 30
0.0
 10
47.4703152126736
 20
108.9606187608507
 30
0.0
 10
47.45791286892361
 20
110.2809516059028
 30
0.0
  0
SPLINE
  5
3D
330
A
100
AcDbEntity
  8
LAYER_1
 62
     7
100
AcDbSpline
210
0.0
220
0.0
230
1.0
 70
    11
 71
     3
 72
    41
 73
    37
 74
     0
 42
0.0000000001
 43
0.0000000001
 40
0.0
 40
0.0
 40
0.0
 40
0.0
 40
1.0
 40
1.0
 40
1.0
 40
2.0
 40
2.0
 40
2.0
 40
3.0
 40
3.0
 40
3.0
 40
4.0
 40
4.0
 40
4.0
 40
5.0
 40
5.0
 40
5.0
 40
6.0
 40
6.0
 40
6.0
 40
7.0
 40
7.0
 40
7.0
 40
8.0
 40
8.0
 40
8.0
 40
9.0
 40
9.0
 40
9.0
 40
10.0
 40
10.0
 40
10.0
 40
11.0
 40
11.0
 40
11.0
 40
12.0
 40
12.0
 40
12.0
 40
12.0
 10
49.01802435980903
 20
103.8193305121528
 30
0.0
 10
49.01802435980903
 20
103.8193305121528
 30
0.0
 10
49.01802435980903
 20
104.5396999782986
 30
0.0
 10
49.01802435980903
 20
104.5396999782986
 30
0.0
 10
49.01802435980903
 20
104.5396999782986
 30
0.0
 10
49.33841824001735
 20
104.6197984483507
 30
0.0
 10
49.33841824001735
 20
104.6197984483507
 30
0.0
 10
49.33841824001735
 20
104.6197984483507
 30
0.0
 10
49.41851671006944
 20
103.9392198350694
 30
0.0
 10
49.41851671006944
 20
103.9392198350694
 30
0.0
 10
49.41851671006944
 20
103.9392198350694
 30
0.0
 10
49.99832628038194
 20
103.9996812608507
 30
0.0
 10
49.99832628038194
 20
103.9996812608507
 30
0.0
 10
49.99832628038194
 20
103.9996812608507
 30
0.0
 10
50.05827094184027
 20
103.5795518663194
 30
0.0
 10
50.05827094184027
 20
103.5795518663194
 30
0.0
 10
50.05827094184027
 20
103.5795518663194
 30
0.0
 10
49.61850450303819
 20
103.4193549262153
 30
0.0
 10
49.61850450303819
 20
103.4193549262153
 30
0.0
 10
49.61850450303819
 20
103.4193549262153
 30
0.0
 10
49.87843695746528
 20
102.8188747829861
 30
0.0
 10
49.87843695746528
 20
102.8188747829861
 30
0.0
 10
49.87843695746528
 20
102.8188747829861
 30
0.0
 10
49.67844916449652
 20
102.6989854600694
 30
0.0
 10
49.51825222439236
 20
102.8188747829861
 30
0.0
 10
49.35805528428819
 20
102.9392808702257
 30
0.0
 10
49.13843044704861
 20
103.3594102647569
 30
0.0
 10
49.13843044704861
 20
103.3594102647569
 30
0.0
 10
49.13843044704861
 20
103.3594102647569
 30
0.0
 10
48.91828884548611
 20
103.3790473090278
 30
0.0
 10
48.91828884548611
 20
103.3790473090278
 30
0.0
 10
48.91828884548611
 20
103.3790473090278
 30
0.0
 10
48.79839952256944
 20
103.6994411892361
 30
0.0
 10
48.79839952256944
 20
103.6994411892361
 30
0.0
 10
48.79839952256944
 20
103.6994411892361
 30
0.0
 10
49.01802435980903
 20
103.8193305121528
 30
0.0
 10
49.01802435980903
 20
103.8193305121528
 30
0.0
  0
SPLINE
  5
3C
330
A
100
AcDbEntity
  8
LAYER_1
 62
     7
100
AcDbSpline
210
0.0
220
0.0
230
1.0
 70
     8
 71
     3
 72
    11
 73
     7
 74
     0
 42
0.0000000001
 43
0.0000000001
 40
0.0
 40
0.0
 40
0.0
 40
0.0
 40
1.0
 40
1.0
 40
1.0
 40
2.0
 40
2.0
 40
2.0
 40
2.0
 10
50.53886176215277
 20
104.5996446397569
 30
0.0
 10
49.31826443142361
 20
106.3597439236111
 30
0.0
 10
48.03410508897569
 20
104.6373684353299
 30
0.0
 10
48.55810411241319
 20
103.2390041775174
 30
0.0
 10
49.13584662543402
 20
101.6964626736111
 30
0.0
 10
51.27886827256944
 20
101.5987942165799
 30
0.0
 10
50.83858506944444
 20
104.0394721137153
 30
0.0
  0
SPLINE
  5
3B
330
A
100
AcDbEntity
  8
LAYER_1
 62
     7
100
AcDbSpline
210
0.0
220
0.0
230
1.0
 70
     8
 71
     3
 72
     8
 73
     4
 74
     0
 42
0.0000000001
 43
0.0000000001
 40
0.0
 40
0.0
 40
0.0
 40
0.0
 40
1.0
 40
1.0
 40
1.0
 40
1.0
 10
51.29902208116319
 20
104.5996446397569
 30
0.0
 10
51.53880072699652
 20
103.9593736436632
 30
0.0
 10
52.27880723741319
 20
101.138873969184
 30
0.0
 10
49.91822781032986
 20
101.5987942165799
 30
0.0
  0
SPLINE
  5
3A
330
A
100
AcDbEntity
  8
LAYER_1
 62
     7
100
AcDbSpline
210
0.0
220
0.0
230
1.0
 70
     8
 71
     3
 72
     8
 73
     4
 74
     0
 42
0.0000000001
 43
0.0000000001
 40
0.0
 40
0.0
 40
0.0
 40
0.0
 40
1.0
 40
1.0
 40
1.0
 40
1.0
 10
48.79839952256944
 20
105.740143500434
 30
0.0
 10
49.25831976996528
 20
106.4599962022569
 30
0.0
 10
50.55849880642361
 20
106.0197129991319
 30
0.0
 10
50.79879421657986
 20
105.3396511501736
 30
0.0
  0
SPLINE
  5
39
330
A
100
AcDbEntity
  8
LAYER_1
 62
     7
100
AcDbSpline
210
0.0
220
0.0
230
1.0
 70
    11
 71
     3
 72
    14
 73
    10
 74
     0
 42
0.0000000001
 43
0.0000000001
 40
0.0
 40
0.0
 40
0.0
 40
0.0
 40
1.0
 40
1.0
 40
1.0
 40
2.0
 40
2.0
 40
2.0
 40
3.0
 40
3.0
 40
3.0
 40
3.0
 10
48.25786404079861
 20
104.0797797309028
 30
0.0
 10
48.23822699652777
 20
106.1401190863715
 30
0.0
 10
50.13836941189236
 20
107.2516791449653
 30
0.0
 10
51.51864691840277
 20
105.1996080186632
 30
0.0
 10
52.24056667751736
 20
104.1283555772569
 30
0.0
 10
52.6389919704861
 20
101.3988064236111
 30
0.0
 10
50.39830186631944
 20
101.4789048936632
 30
0.0
 10
49.40559760199653
 20
101.5135281032986
 30
0.0
 10
48.27078314887152
 20
102.7589301215278
 30
0.0
 10
48.25786404079861
 20
104.0797797309028
 30
0.0
  0
SPLINE
  5
38
330
A
100
AcDbEntity
  8
LAYER_1
 62
     7
100
AcDbSpline
210
0.0
220
0.0
230
1.0
 70
     8
 71
     3
 72
     8
 73
     4
 74
     0
 42
0.0000000001
 43
0.0000000001
 40
0.0
 40
0.0
 40
0.0
 40
0.0
 40
1.0
 40
1.0
 40
1.0
 40
1.0
 10
30.63310004340277
 20
111.7216905381944
 30
0.0
 10
31.25321723090277
 20
111.5015489366319
 30
0.0
 10
32.41386990017361
 20
111.4012966579861
 30
0.0
 10
32.85363633897569
 20
111.6214382595486
 30
0.0
  0
SPLINE
  5
37
330
A
100
AcDbEntity
  8
LAYER_1
 62
     7
100
AcDbSpline
210
0.0
220
0.0
230
1.0
 70
     8
 71
     3
 72
    11
 73
     7
 74
     0
 42
0.0000000001
 43
0.0000000001
 40
0.0
 40
0.0
 40
0.0
 40
0.0
 40
1.0
 40
1.0
 40
1.0
 40
2.0
 40
2.0
 40
2.0
 40
2.0
 10
28.99289008246528
 20
110.9413764105903
 30
0.0
 10
30.05329047309028
 20
110.7610256618924
 30
0.0
 10
31.37362331814236
 20
110.6411363389757
 30
0.0
 10
31.93379584418403
 20
110.6814439561632
 30
0.0
 10
32.49396837022569
 20
110.7212348090278
 30
0.0
 10
32.75390082465277
 20
110.961530219184
 30
0.0
 10
33.63395046657986
 20
110.8214870876736
 30
0.0
  0
SPLINE
  5
36
330
A
100
AcDbEntity
  8
LAYER_1
 62
     7
100
AcDbSpline
210
0.0
220
0.0
230
1.0
 70
     8
 71
     3
 72
     8
 73
     4
 74
     0
 42
0.0000000001
 43
0.0000000001
 40
0.0
 40
0.0
 40
0.0
 40
0.0
 40
1.0
 40
1.0
 40
1.0
 40
1.0
 10
27.55215115017361
 20
110.2613145616319
 30
0.0
 10
28.11232367621528
 20
110.0411729600694
 30
0.0
 10
29.49311794704861
 20
109.7011420355903
 30
0.0
 10
30.27291531032986
 20
109.6809882269965
 30
0.0
  0
LWPOLYLINE
  5
31
330
A
100
AcDbEntity
  8
LAYER_1
 62
     7
100
AcDbPolyline
 90
        3
 70
     0
 43
0.0
 10
32.09347601996527
 20
112.4017523871528
 10
34.61425238715277
 20
109.8809760199653
 10
25.77189805772569
 20
109.4009019639757
  0
LINE
  5
30
330
A
100
AcDbEntity
  8
LAYER_1
 62
     7
100
AcDbLine
 10
31.43356797960069
 20
124.684723578559
 30
0.0
 11
46.95768500434027
 21
117.3228990342882
 31
0.0
  0
LINE
  5
2F
330
A
100
AcDbEntity
  8
LAYER_1
 62
     7
100
AcDbLine
 10
104.2027696397569
 20
90.59223090277777
 30
0.0
 11
124.3116197374132
 21
81.14681260850693
 31
0.0
  0
SPLINE
  5
2E
330
A
100
AcDbEntity
  8
LAYER_1
 62
     7
100
AcDbSpline
210
0.0
220
0.0
230
1.0
 70
     8
 71
     3
 72
    11
 73
     7
 74
     0
 42
0.0000000001
 43
0.0000000001
 40
0.0
 40
0.0
 40
0.0
 40
0.0
 40
1.0
 40
1.0
 40
1.0
 40
2.0
 40
2.0
 40
2.0
 40
2.0
 10
79.4993679470486
 20
101.6194647894965
 30
0.0
 10
78.92730984157986
 20
102.1274441189236
 30
0.0
 10
79.88022325303818
 20
102.8896714952257
 30
0.0
 10
80.64245062934027
 20
102.8261094835069
 30
0.0
 10
81.40519476996528
 20
102.7625474717882
 30
0.0
 10
82.83404812282986
 20
102.4767768012153
 30
0.0
 10
81.97673611111111
 20
101.1430080837674
 30
0.0
  0
LWPOLYLINE
  5
28
330
A
100
AcDbEntity
  8
LAYER_1
 62
     7
100
AcDbPolyline
 90
        4
 70
     1
 43
0.0
 10
78.69838324652777
 20
109.609674750434
 10
79.27095811631943
 20
108.4696926540799
 10
81.77209743923611
 20
108.9006740993924
 10
80.96181098090277
 20
110.1657131618924
  0
LWPOLYLINE
  5
22
330
A
100
AcDbEntity
  8
LAYER_1
 62
     7
100
AcDbPolyline
 90
        4
 70
     1
 43
0.0
 10
79.10145941840277
 20
109.0810248480903
 10
81.28788926866319
 20
109.5223415798611
 10
81.70336778428819
 20
108.8505479600694
 10
79.32160101996527
 20
108.4727932400174
  0
ENDSEC
  0
SECTION
  2
OBJECTS
  0
DICTIONARY
  5
19
330
0
100
AcDbDictionary
281
     1
  3
ACAD_COLOR
350
FF
  3
ACAD_GROUP
350
1A
  3
ACAD_LAYOUT
350
CC
  3
ACAD_MATERIAL
350
101
  3
ACAD_MLINESTYLE
350
1B
  3
ACAD_PLOTSETTINGS
350
CD
  3
ACAD_PLOTSTYLENAME
350
CA
  3
ACDBHEADERROUNDTRIPXREC
350
FE
  0
DICTIONARY
  5
FF
102
{ACAD_REACTORS
330
19
102
}
330
19
100
AcDbDictionary
281
     1
  0
DICTIONARY
  5
1A
102
{ACAD_REACTORS
330
19
102
}
330
19
100
AcDbDictionary
281
     1
  0
DICTIONARY
  5
CC
102
{ACAD_REACTORS
330
19
102
}
330
19
100
AcDbDictionary
281
     1
  3
Layout1
350
CF
  3
Model
350
CE
  0
DICTIONARY
  5
101
102
{ACAD_REACTORS
330
19
102
}
330
19
100
AcDbDictionary
281
     1
  0
DICTIONARY
  5
1B
102
{ACAD_REACTORS
330
19
102
}
330
19
100
AcDbDictionary
281
     1
  3
STANDARD
350
1C
  0
DICTIONARY
  5
CD
102
{ACAD_REACTORS
330
19
102
}
330
19
100
AcDbDictionary
281
     1
  0
ACDBDICTIONARYWDFLT
  5
CA
102
{ACAD_REACTORS
330
19
102
}
330
19
100
AcDbDictionary
281
     1
  3
Normal
350
CB
100
AcDbDictionaryWithDefault
340
CB
  0
DICTIONARY
  5
FE
102
{ACAD_REACTORS
330
19
102
}
330
19
100
AcDbDictionary
281
     1
  3
COLORDICT
350
100
  3
MATERIALDICT
350
102
  0
LAYOUT
  5
CF
102
{ACAD_REACTORS
330
CC
102
}
102
{ACAD_XDICTIONARY
360
103
102
}
330
CC
100
AcDbPlotSettings
  1

  2
Support Center HP LaserJet 4
  4

  6

 40
0.0
 41
0.0
 42
0.0
 43
0.0
 44
0.0
 45
0.0
 46
0.0
 47
0.0
 48
0.0
 49
0.0
140
0.0
141
0.0
142
1.0
143
1.0
 70
   688
 72
     0
 73
     0
 74
     5
  7

 75
    16
147
1.0
148
0.0
149
0.0
100
AcDbLayout
  1
Layout1
 70
     0
 71
     1
 10
0.0
 20
0.0
 11
12.0
 21
9.0
 12
0.0
 22
0.0
 32
0.0
 14
1.000000000000000E+20
 24
1.000000000000000E+20
 34
1.000000000000000E+20
 15
-1.000000000000000E+20
 25
-1.000000000000000E+20
 35
-1.000000000000000E+20
146
0.0
 13
0.0
 23
0.0
 33
0.0
 16
1.0
 26
0.0
 36
0.0
 17
0.0
 27
1.0
 37
0.0
 76
     0
330
B
  0
LAYOUT
  5
CE
102
{ACAD_REACTORS
330
CC
102
}
102
{ACAD_XDICTIONARY
360
105
102
}
330
CC
100
AcDbPlotSettings
  1

  2
Support Center HP LaserJet 4
  4

  6

 40
0.0
 41
0.0
 42
0.0
 43
0.0
 44
0.0
 45
0.0
 46
0.0
 47
0.0
 48
0.0
 49
0.0
140
0.0
141
0.0
142
1.0
143
1.0
 70
  1712
 72
     0
 73
     0
 74
     0
  7

 75
     0
147
1.0
148
0.0
149
0.0
100
AcDbLayout
  1
Model
 70
     1
 71
     0
 10
0.0
 20
0.0
 11
12.0
 21
9.0
 12
0.0
 22
0.0
 32
0.0
 14
0.0
 24
0.0
 34
0.0
 15
0.0
 25
0.0
 35
0.0
146
0.0
 13
0.0
 23
0.0
 33
0.0
 16
1.0
 26
0.0
 36
0.0
 17
0.0
 27
1.0
 37
0.0
 76
     0
330
A
  0
MLINESTYLE
  5
1C
102
{ACAD_REACTORS
330
1B
102
}
330
1B
100
AcDbMlineStyle
  2
STANDARD
 70
     0
  3

 62
     0
 51
90.0000000000002
 52
90.0000000000002
 71
     2
 49
0.5
 62
   256
  6
BYLAYER
 49
-0.5
 62
   256
  6
BYLAYER
  0
ACDBPLACEHOLDER
  5
CB
102
{ACAD_REACTORS
330
CA
102
}
330
CA
  0
XRECORD
  5
100
102
{ACAD_REACTORS
330
FE
102
}
330
FE
100
AcDbXrecord
340
FF
  0
XRECORD
  5
102
102
{ACAD_REACTORS
330
FE
102
}
330
FE
100
AcDbXrecord
340
101
  0
DICTIONARY
  5
103
330
CF
100
AcDbDictionary
280
     1
281
     1
  3
ACAD_XREC_ROUNDTRIP
360
104
  0
DICTIONARY
  5
105
330
CE
100
AcDbDictionary
280
     1
281
     1
  3
ACAD_XREC_ROUNDTRIP
360
106
  0
XRECORD
  5
104
102
{ACAD_REACTORS
330
103
102
}
330
103
100
AcDbXrecord
102
SHADEPLOT
 70
     0
102
SHADEPLOTRESLEVEL
 70
     0
102
SHADEPLOTCUSTOMDPI
 70
     0
  0
XRECORD
  5
106
102
{ACAD_REACTORS
330
105
102
}
330
105
100
AcDbXrecord
102
SHADEPLOT
 70
     0
102
SHADEPLOTRESLEVEL
 70
     0
102
SHADEPLOTCUSTOMDPI
 70
     0
  0
ENDSEC
  0
EOF
